  0
SECTION
  2
HEADER
  9
$ACADVER
  1
AC1014
  9
$ACADMAINTVER
 70
     9
  9
$DWGCODEPAGE
  3
ANSI_1252
  9
$INSBASE
 10
0.0
 20
0.0
 30
0.0
  9
$EXTMIN
 10
-0.142593000000007
 20
-0.0000000000000109
 30
0.0
  9
$EXTMAX
 10
139.142593
 20
153.0
 30
0.0
  9
$LIMMIN
 10
0.0
 20
0.0
  9
$LIMMAX
 10
12.0
 20
9.0
  9
$ORTHOMODE
 70
     0
  9
$REGENMODE
 70
     1
  9
$FILLMODE
 70
     1
  9
$QTEXTMODE
 70
     0
  9
$MIRRTEXT
 70
     1
  9
$DRAGMODE
 70
     2
  9
$LTSCALE
 40
1.0
  9
$OSMODE
 70
    37
  9
$ATTMODE
 70
     1
  9
$TEXTSIZE
 40
0.2
  9
$TRACEWID
 40
0.05
  9
$TEXTSTYLE
  7
STANDARD
  9
$CLAYER
  8
0
  9
$CELTYPE
  6
CONTINUOUS
  9
$CECOLOR
 62
   256
  9
$CELTSCALE
 40
1.0
  9
$DELOBJ
 70
     1
  9
$DISPSILH
 70
     0
  9
$DIMSCALE
 40
1.0
  9
$DIMASZ
 40
0.18
  9
$DIMEXO
 40
0.0625
  9
$DIMDLI
 40
0.38
  9
$DIMRND
 40
0.0
  9
$DIMDLE
 40
0.0
  9
$DIMEXE
 40
0.18
  9
$DIMTP
 40
0.0
  9
$DIMTM
 40
0.0
  9
$DIMTXT
 40
0.18
  9
$DIMCEN
 40
0.09
  9
$DIMTSZ
 40
0.0
  9
$DIMTOL
 70
     0
  9
$DIMLIM
 70
     0
  9
$DIMTIH
 70
     1
  9
$DIMTOH
 70
     1
  9
$DIMSE1
 70
     0
  9
$DIMSE2
 70
     0
  9
$DIMTAD
 70
     0
  9
$DIMZIN
 70
     0
  9
$DIMBLK
  1

  9
$DIMASO
 70
     1
  9
$DIMSHO
 70
     1
  9
$DIMPOST
  1

  9
$DIMAPOST
  1

  9
$DIMALT
 70
     0
  9
$DIMALTD
 70
     2
  9
$DIMALTF
 40
25.4
  9
$DIMLFAC
 40
1.0
  9
$DIMTOFL
 70
     0
  9
$DIMTVP
 40
0.0
  9
$DIMTIX
 70
     0
  9
$DIMSOXD
 70
     0
  9
$DIMSAH
 70
     0
  9
$DIMBLK1
  1

  9
$DIMBLK2
  1

  9
$DIMSTYLE
  2
STANDARD
  9
$DIMCLRD
 70
     0
  9
$DIMCLRE
 70
     0
  9
$DIMCLRT
 70
     0
  9
$DIMTFAC
 40
1.0
  9
$DIMGAP
 40
0.09
  9
$DIMJUST
 70
     0
  9
$DIMSD1
 70
     0
  9
$DIMSD2
 70
     0
  9
$DIMTOLJ
 70
     1
  9
$DIMTZIN
 70
     0
  9
$DIMALTZ
 70
     0
  9
$DIMALTTZ
 70
     0
  9
$DIMFIT
 70
     3
  9
$DIMUPT
 70
     0
  9
$DIMUNIT
 70
     2
  9
$DIMDEC
 70
     4
  9
$DIMTDEC
 70
     4
  9
$DIMALTU
 70
     2
  9
$DIMALTTD
 70
     2
  9
$DIMTXSTY
  7
STANDARD
  9
$DIMAUNIT
 70
     0
  9
$LUNITS
 70
     2
  9
$LUPREC
 70
     4
  9
$SKETCHINC
 40
0.1
  9
$FILLETRAD
 40
0.0
  9
$AUNITS
 70
     0
  9
$AUPREC
 70
     0
  9
$MENU
  1
.
  9
$ELEVATION
 40
0.0
  9
$PELEVATION
 40
0.0
  9
$THICKNESS
 40
0.0
  9
$LIMCHECK
 70
     0
  9
$BLIPMODE
 70
     0
  9
$CHAMFERA
 40
0.0
  9
$CHAMFERB
 40
0.0
  9
$CHAMFERC
 40
0.0
  9
$CHAMFERD
 40
0.0
  9
$SKPOLY
 70
     0
  9
$TDCREATE
 40
2454698.386671365
  9
$TDUPDATE
 40
2454698.389117106
  9
$TDINDWG
 40
0.0024459259
  9
$TDUSRTIMER
 40
0.0024459259
  9
$USRTIMER
 70
     1
  9
$ANGBASE
 50
0.0
  9
$ANGDIR
 70
     0
  9
$PDMODE
 70
     0
  9
$PDSIZE
 40
0.0
  9
$PLINEWID
 40
0.0
  9
$COORDS
 70
     1
  9
$SPLFRAME
 70
     0
  9
$SPLINETYPE
 70
     6
  9
$SPLINESEGS
 70
     8
  9
$ATTDIA
 70
     0
  9
$ATTREQ
 70
     1
  9
$HANDLING
 70
 22529
  9
$HANDSEED
  5
20A
  9
$SURFTAB1
 70
     6
  9
$SURFTAB2
 70
     6
  9
$SURFTYPE
 70
     6
  9
$SURFU
 70
     6
  9
$SURFV
 70
     6
  9
$UCSNAME
  2

  9
$UCSORG
 10
0.0
 20
0.0
 30
0.0
  9
$UCSXDIR
 10
1.0
 20
0.0
 30
0.0
  9
$UCSYDIR
 10
0.0
 20
1.0
 30
0.0
  9
$PUCSNAME
  2

  9
$PUCSORG
 10
0.0
 20
0.0
 30
0.0
  9
$PUCSXDIR
 10
1.0
 20
0.0
 30
0.0
  9
$PUCSYDIR
 10
0.0
 20
1.0
 30
0.0
  9
$USERI1
 70
     0
  9
$USERI2
 70
     0
  9
$USERI3
 70
     0
  9
$USERI4
 70
     0
  9
$USERI5
 70
     0
  9
$USERR1
 40
0.0
  9
$USERR2
 40
0.0
  9
$USERR3
 40
0.0
  9
$USERR4
 40
0.0
  9
$USERR5
 40
0.0
  9
$WORLDVIEW
 70
     1
  9
$SHADEDGE
 70
     3
  9
$SHADEDIF
 70
    70
  9
$TILEMODE
 70
     1
  9
$MAXACTVP
 70
    64
  9
$PINSBASE
 10
0.0
 20
0.0
 30
0.0
  9
$PLIMCHECK
 70
     0
  9
$PEXTMIN
 10
1.000000000000000E+20
 20
1.000000000000000E+20
 30
1.000000000000000E+20
  9
$PEXTMAX
 10
-1.000000000000000E+20
 20
-1.000000000000000E+20
 30
-1.000000000000000E+20
  9
$PLIMMIN
 10
0.0
 20
0.0
  9
$PLIMMAX
 10
12.0
 20
9.0
  9
$UNITMODE
 70
     0
  9
$VISRETAIN
 70
     1
  9
$PLINEGEN
 70
     0
  9
$PSLTSCALE
 70
     1
  9
$TREEDEPTH
 70
  3020
  9
$PICKSTYLE
 70
     1
  9
$CMLSTYLE
  2
STANDARD
  9
$CMLJUST
 70
     0
  9
$CMLSCALE
 40
1.0
  9
$PROXYGRAPHICS
 70
     1
  9
$MEASUREMENT
 70
     0
  0
ENDSEC
  0
SECTION
  2
CLASSES
  0
CLASS
  1
ACDBDICTIONARYWDFLT
  2
AcDbDictionaryWithDefault
  3
AutoCAD 2000
 90
        0
280
     0
281
     0
  0
CLASS
  1
ACDBPLACEHOLDER
  2
AcDbPlaceHolder
  3
AutoCAD 2000
 90
        0
280
     0
281
     0
  0
CLASS
  1
LAYOUT
  2
AcDbLayout
  3
AutoCAD 2000
 90
        0
280
     0
281
     0
  0
CLASS
  1
DICTIONARYVAR
  2
AcDbDictionaryVar
  3
AutoCAD 2000
 90
        0
280
     0
281
     0
  0
CLASS
  1
LONG_TRANSACTION
  2
AcDbLongTransaction
  3
AutoCAD 2000
 90
        0
280
     0
281
     0
  0
CLASS
  1
LWPOLYLINE
  2
AcDbPolyline
  3
AutoCAD 2000
 90
        0
280
     0
281
     1
  0
CLASS
  1
HATCH
  2
AcDbHatch
  3
AutoCAD 2000
 90
        0
280
     0
281
     1
  0
CLASS
  1
XRECORD
  2
AcDbXrecord
  3
AutoCAD 2000
 90
        0
280
     0
281
     0
  0
ENDSEC
  0
SECTION
  2
TABLES
  0
TABLE
  2
VPORT
  5
8
330
0
100
AcDbSymbolTable
 70
     2
  0
VPORT
  5
1E5
330
8
100
AcDbSymbolTableRecord
100
AcDbViewportTableRecord
  2
*ACTIVE
 70
     0
 10
0.0
 20
0.0
 11
1.0
 21
1.0
 12
69.5
 22
76.49999999999998
 13
0.0
 23
0.0
 14
1.0
 24
1.0
 15
0.0
 25
0.0
 16
0.0
 26
0.0
 36
1.0
 17
0.0
 27
0.0
 37
0.0
 40
154.1739130434782
 41
2.078104993597951
 42
50.0
 43
0.0
 44
0.0
 50
0.0
 51
0.0
 71
     0
 72
   100
 73
     1
 74
     3
 75
     0
 76
     0
 77
     0
 78
     0
  0
ENDTAB
  0
TABLE
  2
LTYPE
  5
5
330
0
100
AcDbSymbolTable
 70
     1
  0
LTYPE
  5
13
330
5
100
AcDbSymbolTableRecord
100
AcDbLinetypeTableRecord
  2
BYBLOCK
 70
     0
  3

 72
    65
 73
     0
 40
0.0
  0
LTYPE
  5
14
330
5
100
AcDbSymbolTableRecord
100
AcDbLinetypeTableRecord
  2
BYLAYER
 70
     0
  3

 72
    65
 73
     0
 40
0.0
  0
LTYPE
  5
15
330
5
100
AcDbSymbolTableRecord
100
AcDbLinetypeTableRecord
  2
CONTINUOUS
 70
     0
  3
Solid line
 72
    65
 73
     0
 40
0.0
  0
ENDTAB
  0
TABLE
  2
LAYER
  5
2
330
0
100
AcDbSymbolTable
 70
     1
  0
LAYER
  5
10
330
2
100
AcDbSymbolTableRecord
100
AcDbLayerTableRecord
  2
0
 70
     0
 62
     7
  6
CONTINUOUS
  0
ENDTAB
  0
TABLE
  2
STYLE
  5
3
330
0
100
AcDbSymbolTable
 70
     1
  0
STYLE
  5
11
330
3
100
AcDbSymbolTableRecord
100
AcDbTextStyleTableRecord
  2
STANDARD
 70
     0
 40
0.0
 41
1.0
 50
0.0
 71
     0
 42
0.2
  3
txt
  4

  0
ENDTAB
  0
TABLE
  2
VIEW
  5
6
330
0
100
AcDbSymbolTable
 70
     0
  0
ENDTAB
  0
TABLE
  2
UCS
  5
7
330
0
100
AcDbSymbolTable
 70
     0
  0
ENDTAB
  0
TABLE
  2
APPID
  5
9
330
0
100
AcDbSymbolTable
 70
     1
  0
APPID
  5
12
330
9
100
AcDbSymbolTableRecord
100
AcDbRegAppTableRecord
  2
ACAD
 70
     0
  0
ENDTAB
  0
TABLE
  2
DIMSTYLE
  5
A
330
0
100
AcDbSymbolTable
 70
     1
  0
DIMSTYLE
105
1DF
330
A
100
AcDbSymbolTableRecord
100
AcDbDimStyleTableRecord
  2
STANDARD
 70
     0
  3

  4

  5

  6

  7

 40
1.0
 41
0.18
 42
0.0625
 43
0.38
 44
0.18
 45
0.0
 46
0.0
 47
0.0
 48
0.0
140
0.18
141
0.09
142
0.0
143
25.4
144
1.0
145
0.0
146
1.0
147
0.09
 71
     0
 72
     0
 73
     1
 74
     1
 75
     0
 76
     0
 77
     0
 78
     0
170
     0
171
     2
172
     0
173
     0
174
     0
175
     0
176
     0
177
     0
178
     0
270
     2
271
     4
272
     4
273
     2
274
     2
340
11
275
     0
280
     0
281
     0
282
     0
283
     1
284
     0
285
     0
286
     0
287
     3
288
     0
  0
ENDTAB
  0
TABLE
  2
BLOCK_RECORD
  5
1
330
0
100
AcDbSymbolTable
 70
     0
  0
BLOCK_RECORD
  5
1E
102
{ACAD_XDICTIONARY
360
208
102
}
330
1
100
AcDbSymbolTableRecord
100
AcDbBlockTableRecord
  2
*MODEL_SPACE
  0
BLOCK_RECORD
  5
1A
102
{ACAD_XDICTIONARY
360
206
102
}
330
1
100
AcDbSymbolTableRecord
100
AcDbBlockTableRecord
  2
*PAPER_SPACE
  0
ENDTAB
  0
ENDSEC
  0
SECTION
  2
BLOCKS
  0
BLOCK
  5
1F
330
1E
100
AcDbEntity
  8
0
100
AcDbBlockBegin
  2
*MODEL_SPACE
 70
     0
 10
0.0
 20
0.0
 30
0.0
  3
*MODEL_SPACE
  1

  0
ENDBLK
  5
20
330
1E
100
AcDbEntity
  8
0
100
AcDbBlockEnd
  0
BLOCK
  5
1B
330
1A
100
AcDbEntity
 67
     1
  8
0
100
AcDbBlockBegin
  2
*PAPER_SPACE
 70
     0
 10
0.0
 20
0.0
 30
0.0
  3
*PAPER_SPACE
  1

  0
ENDBLK
  5
1C
330
1A
100
AcDbEntity
 67
     1
  8
0
100
AcDbBlockEnd
  0
ENDSEC
  0
SECTION
  2
ENTITIES
  0
LINE
  5
22
330
1E
100
AcDbEntity
  8
0
100
AcDbLine
 10
88.742593
 20
-0.0000000000000078
 30
0.0
 11
93.14259300000001
 21
-0.0000000000000081
 31
0.0
  0
LINE
  5
23
330
1E
100
AcDbEntity
  8
0
100
AcDbLine
 10
86.142593
 20
-0.0000000000000076
 30
0.0
 11
88.742593
 21
-0.0000000000000078
 31
0.0
  0
LINE
  5
24
330
1E
100
AcDbEntity
  8
0
100
AcDbLine
 10
85.142593
 20
-0.0000000000000076
 30
0.0
 11
86.142593
 21
-0.0000000000000076
 31
0.0
  0
LINE
  5
25
330
1E
100
AcDbEntity
  8
0
100
AcDbLine
 10
85.142593
 20
-0.0000000000000076
 30
0.0
 11
85.142593
 21
0.499999999999992
 31
0.0
  0
LINE
  5
26
330
1E
100
AcDbEntity
  8
0
100
AcDbLine
 10
0.0992519999999932
 20
96.62959999999999
 30
0.0
 11
0.7942529999999929
 21
95.7538
 31
0.0
  0
LINE
  5
27
330
1E
100
AcDbEntity
  8
0
100
AcDbLine
 10
4.24186299999999
 20
89.9666
 30
0.0
 11
6.54751299999999
 21
88.89140000000001
 31
0.0
  0
LINE
  5
28
330
1E
100
AcDbEntity
  8
0
100
AcDbLine
 10
22.429793
 20
81.15439999999999
 30
0.0
 11
22.817593
 21
81.30459999999999
 31
0.0
  0
LINE
  5
29
330
1E
100
AcDbEntity
  8
0
100
AcDbLine
 10
11.94189299999999
 20
86.376
 30
0.0
 11
14.72599299999999
 21
85.07769999999998
 31
0.0
  0
LINE
  5
2A
330
1E
100
AcDbEntity
  8
0
100
AcDbLine
 10
9.157692999999991
 20
87.6743
 30
0.0
 11
11.94189299999999
 21
86.376
 31
0.0
  0
LINE
  5
2B
330
1E
100
AcDbEntity
  8
0
100
AcDbLine
 10
11.81509299999999
 20
86.10409999999999
 30
0.0
 11
14.555693
 21
84.82609999999999
 31
0.0
  0
LINE
  5
2C
330
1E
100
AcDbEntity
  8
0
100
AcDbLine
 10
14.72599299999999
 20
85.07769999999998
 30
0.0
 11
17.33619299999999
 21
83.8606
 31
0.0
  0
LINE
  5
2D
330
1E
100
AcDbEntity
  8
0
100
AcDbLine
 10
17.33619299999999
 20
83.8606
 30
0.0
 11
19.641893
 21
82.78539999999999
 31
0.0
  0
LINE
  5
2E
330
1E
100
AcDbEntity
  8
0
100
AcDbLine
 10
14.555693
 20
84.82609999999999
 30
0.0
 11
17.078893
 21
83.6495
 31
0.0
  0
LINE
  5
2F
330
1E
100
AcDbEntity
  8
0
100
AcDbLine
 10
17.078893
 20
83.6495
 30
0.0
 11
19.29759299999999
 21
82.61499999999999
 31
0.0
  0
LINE
  5
30
330
1E
100
AcDbEntity
  8
0
100
AcDbLine
 10
21.095093
 20
87.94249999999999
 30
0.0
 11
23.995193
 21
86.5901
 31
0.0
  0
LINE
  5
31
330
1E
100
AcDbEntity
  8
0
100
AcDbLine
 10
20.883793
 20
87.48929999999999
 30
0.0
 11
23.78389299999999
 21
86.13699999999999
 31
0.0
  0
LINE
  5
32
330
1E
100
AcDbEntity
  8
0
100
AcDbLine
 10
19.641893
 20
82.78539999999999
 30
0.0
 11
21.38199299999999
 21
81.974
 31
0.0
  0
LINE
  5
33
330
1E
100
AcDbEntity
  8
0
100
AcDbLine
 10
21.38199299999999
 20
81.974
 30
0.0
 11
22.42599299999999
 21
81.48709999999999
 31
0.0
  0
LINE
  5
34
330
1E
100
AcDbEntity
  8
0
100
AcDbLine
 10
19.29759299999999
 20
82.61499999999999
 30
0.0
 11
20.994193
 21
81.8238
 31
0.0
  0
LINE
  5
35
330
1E
100
AcDbEntity
  8
0
100
AcDbLine
 10
20.994193
 20
81.8238
 30
0.0
 11
22.038193
 21
81.33700000000001
 31
0.0
  0
LINE
  5
36
330
1E
100
AcDbEntity
  8
0
100
AcDbLine
 10
23.995193
 20
86.5901
 30
0.0
 11
26.26099299999999
 21
85.53360000000001
 31
0.0
  0
LINE
  5
37
330
1E
100
AcDbEntity
  8
0
100
AcDbLine
 10
23.78389299999999
 20
86.13699999999999
 30
0.0
 11
26.049693
 21
85.08039999999999
 31
0.0
  0
LINE
  5
38
330
1E
100
AcDbEntity
  8
0
100
AcDbLine
 10
22.42599299999999
 20
81.48709999999999
 30
0.0
 11
22.817593
 21
81.30459999999999
 31
0.0
  0
LINE
  5
39
330
1E
100
AcDbEntity
  8
0
100
AcDbLine
 10
22.038193
 20
81.33700000000001
 30
0.0
 11
22.429793
 21
81.15439999999999
 31
0.0
  0
LINE
  5
3A
330
1E
100
AcDbEntity
  8
0
100
AcDbLine
 10
22.817593
 20
81.30459999999999
 30
0.0
 11
24.4184786553863
 21
84.73768288661508
 31
0.0
  0
LINE
  5
3B
330
1E
100
AcDbEntity
  8
0
100
AcDbLine
 10
9.074392999999989
 20
87.3821
 30
0.0
 11
11.81509299999999
 21
86.10409999999999
 31
0.0
  0
LINE
  5
3C
330
1E
100
AcDbEntity
  8
0
100
AcDbLine
 10
17.74169299999999
 20
89.5062
 30
0.0
 11
21.095093
 21
87.94249999999999
 31
0.0
  0
LINE
  5
3D
330
1E
100
AcDbEntity
  8
0
100
AcDbLine
 10
17.530393
 20
89.053
 30
0.0
 11
20.883793
 21
87.48929999999999
 31
0.0
  0
LINE
  5
3E
330
1E
100
AcDbEntity
  8
0
100
AcDbLine
 10
6.54751299999999
 20
88.89140000000001
 30
0.0
 11
9.157692999999991
 21
87.6743
 31
0.0
  0
LINE
  5
3F
330
1E
100
AcDbEntity
  8
0
100
AcDbLine
 10
6.55123299999999
 20
88.55870000000001
 30
0.0
 11
9.074392999999989
 21
87.3821
 31
0.0
  0
LINE
  5
40
330
1E
100
AcDbEntity
  8
0
100
AcDbLine
 10
4.33259299999999
 20
89.59319999999999
 30
0.0
 11
6.55123299999999
 21
88.55870000000001
 31
0.0
  0
LINE
  5
41
330
1E
100
AcDbEntity
  8
0
100
AcDbLine
 10
13.905193
 20
90.7435
 30
0.0
 11
17.530393
 21
89.053
 31
0.0
  0
LINE
  5
42
330
1E
100
AcDbEntity
  8
0
100
AcDbLine
 10
2.50175299999999
 20
90.77799999999999
 30
0.0
 11
4.24186299999999
 21
89.9666
 31
0.0
  0
LINE
  5
43
330
1E
100
AcDbEntity
  8
0
100
AcDbLine
 10
2.63598299999999
 20
90.38439999999999
 30
0.0
 11
4.33259299999999
 21
89.59319999999999
 31
0.0
  0
LINE
  5
44
330
1E
100
AcDbEntity
  8
0
100
AcDbLine
 10
1.591912999999989
 20
90.8712
 30
0.0
 11
2.63598299999999
 21
90.38439999999999
 31
0.0
  0
LINE
  5
45
330
1E
100
AcDbEntity
  8
0
100
AcDbLine
 10
14.116493
 20
91.19670000000001
 30
0.0
 11
17.74169299999999
 21
89.5062
 31
0.0
  0
LINE
  5
47
330
1E
100
AcDbEntity
  8
0
100
AcDbLine
 10
1.760652999999989
 20
96.4066
 30
0.0
 11
4.02642299999999
 21
95.35
 31
0.0
  0
LINE
  5
48
330
1E
100
AcDbEntity
  8
0
100
AcDbLine
 10
1.760652999999989
 20
96.4066
 30
0.0
 11
4.02642299999999
 21
95.35
 31
0.0
  0
LINE
  5
49
330
1E
100
AcDbEntity
  8
0
100
AcDbLine
 10
4.23773299999999
 20
95.8032
 30
0.0
 11
7.13791299999999
 21
94.4508
 31
0.0
  0
LINE
  5
4A
330
1E
100
AcDbEntity
  8
0
100
AcDbLine
 10
4.02642299999999
 20
95.35
 30
0.0
 11
6.92661299999999
 21
93.9977
 31
0.0
  0
LINE
  5
4B
330
1E
100
AcDbEntity
  8
0
100
AcDbLine
 10
7.13791299999999
 20
94.4508
 30
0.0
 11
10.49129299999999
 21
92.8871
 31
0.0
  0
LINE
  5
4C
330
1E
100
AcDbEntity
  8
0
100
AcDbLine
 10
10.49129299999999
 20
92.8871
 30
0.0
 11
14.116493
 21
91.19670000000001
 31
0.0
  0
LINE
  5
4D
330
1E
100
AcDbEntity
  8
0
100
AcDbLine
 10
6.92661299999999
 20
93.9977
 30
0.0
 11
10.279993
 21
92.43399999999999
 31
0.0
  0
LINE
  5
4E
330
1E
100
AcDbEntity
  8
0
100
AcDbLine
 10
10.279993
 20
92.43399999999999
 30
0.0
 11
13.905193
 21
90.7435
 31
0.0
  0
LINE
  5
51
330
1E
100
AcDbEntity
  8
0
100
AcDbLine
 10
1.457682999999989
 20
91.26479999999999
 30
0.0
 11
2.50175299999999
 21
90.77799999999999
 31
0.0
  0
LINE
  5
52
330
1E
100
AcDbEntity
  8
0
100
AcDbLine
 10
1.20039299999999
 20
91.0538
 30
0.0
 11
1.591912999999989
 21
90.8712
 31
0.0
  0
LINE
  5
53
330
1E
100
AcDbEntity
  8
0
100
AcDbLine
 10
1.066162999999989
 20
91.4474
 30
0.0
 11
2.66705137894322
 21
94.88056932376
 31
0.0
  0
LINE
  5
54
330
1E
100
AcDbEntity
  8
0
100
AcDbLine
 10
1.066162999999989
 20
91.4474
 30
0.0
 11
1.20039299999999
 21
91.0538
 31
0.0
  0
LINE
  5
55
330
1E
100
AcDbEntity
  8
0
100
AcDbLine
 10
1.066162999999989
 20
91.4474
 30
0.0
 11
1.457682999999989
 21
91.26479999999999
 31
0.0
  0
LINE
  5
56
330
1E
100
AcDbEntity
  8
0
100
AcDbLine
 10
-0.142593000000007
 20
97.29410000000001
 30
0.0
 11
0.401192999999993
 21
97.0405
 31
0.0
  0
LINE
  5
57
330
1E
100
AcDbEntity
  8
0
100
AcDbLine
 10
1.971962999999989
 20
96.85970000000001
 30
0.0
 11
4.23773299999999
 21
95.8032
 31
0.0
  0
LINE
  5
58
330
1E
100
AcDbEntity
  8
0
100
AcDbLine
 10
0.401192999999993
 20
97.0405
 30
0.0
 11
1.760652999999989
 21
96.4066
 31
0.0
  0
LINE
  5
59
330
1E
100
AcDbEntity
  8
0
100
AcDbLine
 10
0.0687159999999932
 20
97.74720000000002
 30
0.0
 11
0.612502999999993
 21
97.4937
 31
0.0
  0
LINE
  5
5A
330
1E
100
AcDbEntity
  8
0
100
AcDbLine
 10
0.0687159999999932
 20
97.74720000000002
 30
0.0
 11
0.7331829999999929
 21
97.98909999999999
 31
0.0
  0
LINE
  5
5B
330
1E
100
AcDbEntity
  8
0
100
AcDbLine
 10
0.612502999999993
 20
97.4937
 30
0.0
 11
1.971962999999989
 21
96.85970000000001
 31
0.0
  0
LINE
  5
5C
330
1E
100
AcDbEntity
  8
0
100
AcDbLine
 10
0.7331829999999929
 20
97.98909999999999
 30
0.0
 11
1.850792999999989
 21
98.01960000000001
 31
0.0
  0
LINE
  5
5D
330
1E
100
AcDbEntity
  8
0
100
AcDbLine
 10
0.612502999999993
 20
97.4937
 30
0.0
 11
1.971962999999989
 21
96.85970000000001
 31
0.0
  0
LINE
  5
5E
330
1E
100
AcDbEntity
  8
0
100
AcDbLine
 10
0.401192999999993
 20
97.0405
 30
0.0
 11
1.760652999999989
 21
96.4066
 31
0.0
  0
LINE
  5
5F
330
1E
100
AcDbEntity
  8
0
100
AcDbLine
 10
3.60234299999999
 20
99.4096
 30
0.0
 11
10.465693
 21
114.0
 31
0.0
  0
LINE
  5
60
330
1E
100
AcDbEntity
  8
0
100
AcDbLine
 10
10.465693
 20
114.0
 30
0.0
 11
13.08189299999999
 21
117.915
 31
0.0
  0
LINE
  5
61
330
1E
100
AcDbEntity
  8
0
100
AcDbLine
 10
13.08189299999999
 20
117.915
 30
0.0
 11
16.18679299999999
 21
121.456
 31
0.0
  0
LINE
  5
62
330
1E
100
AcDbEntity
  8
0
100
AcDbLine
 10
23.642593
 20
127.177
 30
0.0
 11
27.865993
 21
129.2599999999999
 31
0.0
  0
LINE
  5
63
330
1E
100
AcDbEntity
  8
0
100
AcDbLine
 10
19.72719299999999
 20
124.561
 30
0.0
 11
23.642593
 21
127.177
 31
0.0
  0
LINE
  5
64
330
1E
100
AcDbEntity
  8
0
100
AcDbLine
 10
16.18679299999999
 20
121.456
 30
0.0
 11
19.72719299999999
 21
124.561
 31
0.0
  0
LINE
  5
65
330
1E
100
AcDbEntity
  8
0
100
AcDbLine
 10
3.60234299999999
 20
99.4096
 30
0.0
 11
10.465693
 21
114.0
 31
0.0
  0
LINE
  5
66
330
1E
100
AcDbEntity
  8
0
100
AcDbLine
 10
2.51526299999999
 20
98.2615
 30
0.0
 11
3.60234299999999
 21
99.4096
 31
0.0
  0
LINE
  5
67
330
1E
100
AcDbEntity
  8
0
100
AcDbLine
 10
1.850792999999989
 20
98.01960000000001
 30
0.0
 11
2.51526299999999
 21
98.2615
 31
0.0
  0
LINE
  5
68
330
1E
100
AcDbEntity
  8
0
100
AcDbLine
 10
0.7331829999999929
 20
97.98909999999999
 30
0.0
 11
1.850792999999989
 21
98.01960000000001
 31
0.0
  0
LINE
  5
69
330
1E
100
AcDbEntity
  8
0
100
AcDbLine
 10
0.0687159999999932
 20
97.74720000000002
 30
0.0
 11
0.7331829999999929
 21
97.98909999999999
 31
0.0
  0
LINE
  5
6A
330
1E
100
AcDbEntity
  8
0
100
AcDbLine
 10
0.0687159999999932
 20
97.74720000000002
 30
0.0
 11
0.612502999999993
 21
97.4937
 31
0.0
  0
LINE
  5
6B
330
1E
100
AcDbEntity
  8
0
100
AcDbLine
 10
1.971962999999989
 20
96.85970000000001
 30
0.0
 11
4.23773299999999
 21
95.8032
 31
0.0
  0
LINE
  5
6C
330
1E
100
AcDbEntity
  8
0
100
AcDbLine
 10
-0.142593000000007
 20
97.29410000000001
 30
0.0
 11
0.0992519999999933
 21
96.62959999999999
 31
0.0
  0
LINE
  5
6D
330
1E
100
AcDbEntity
  8
0
100
AcDbLine
 10
-0.142593000000007
 20
97.29410000000001
 30
0.0
 11
0.0687159999999932
 21
97.74720000000002
 31
0.0
  0
LINE
  5
6E
330
1E
100
AcDbEntity
  8
0
100
AcDbLine
 10
-0.142593000000007
 20
97.29410000000001
 30
0.0
 11
0.401192999999993
 21
97.0405
 31
0.0
  0
LINE
  5
6F
330
1E
100
AcDbEntity
  8
0
100
AcDbLine
 10
-0.142593000000007
 20
97.29410000000001
 30
0.0
 11
0.0992519999999933
 21
96.62959999999999
 31
0.0
  0
LINE
  5
70
330
1E
100
AcDbEntity
  8
0
100
AcDbLine
 10
0.0992519999999933
 20
96.62959999999999
 30
0.0
 11
0.7942529999999929
 21
95.7538
 31
0.0
  0
LINE
  5
71
330
1E
100
AcDbEntity
  8
0
100
AcDbLine
 10
26.26099299999999
 20
85.53360000000001
 30
0.0
 11
27.620493
 21
84.89960000000001
 31
0.0
  0
LINE
  5
72
330
1E
100
AcDbEntity
  8
0
100
AcDbLine
 10
26.049693
 20
85.08039999999999
 30
0.0
 11
27.40919299999999
 21
84.44650000000001
 31
0.0
  0
LINE
  5
73
330
1E
100
AcDbEntity
  8
0
100
AcDbLine
 10
27.166393
 20
88.4215
 30
0.0
 11
32.982293
 21
101.0
 31
0.0
  0
LINE
  5
74
330
1E
100
AcDbEntity
  8
0
100
AcDbLine
 10
26.98559299999999
 20
86.85080000000001
 30
0.0
 11
27.227393
 21
86.18630000000001
 31
0.0
  0
LINE
  5
75
330
1E
100
AcDbEntity
  8
0
100
AcDbLine
 10
26.98559299999999
 20
86.85080000000001
 30
0.0
 11
27.166393
 21
88.4215
 31
0.0
  0
LINE
  5
76
330
1E
100
AcDbEntity
  8
0
100
AcDbLine
 10
27.227393
 20
86.18630000000001
 30
0.0
 11
27.922393
 21
85.3105
 31
0.0
  0
LINE
  5
77
330
1E
100
AcDbEntity
  8
0
100
AcDbLine
 10
27.620493
 20
84.89960000000001
 30
0.0
 11
28.164293
 21
84.6461
 31
0.0
  0
LINE
  5
78
330
1E
100
AcDbEntity
  8
0
100
AcDbLine
 10
27.40919299999999
 20
84.44650000000001
 30
0.0
 11
27.95299299999999
 21
84.1929
 31
0.0
  0
LINE
  5
79
330
1E
100
AcDbEntity
  8
0
100
AcDbLine
 10
27.865993
 20
129.2599999999999
 30
0.0
 11
32.325093
 21
130.773
 31
0.0
  0
LINE
  5
7A
330
1E
100
AcDbEntity
  8
0
100
AcDbLine
 10
32.982293
 20
101.0
 30
0.0
 11
33.70909299999999
 21
102.088
 31
0.0
  0
LINE
  5
7B
330
1E
100
AcDbEntity
  8
0
100
AcDbLine
 10
33.70909299999999
 20
102.088
 30
0.0
 11
34.57149299999999
 21
103.071
 31
0.0
  0
LINE
  5
7C
330
1E
100
AcDbEntity
  8
0
100
AcDbLine
 10
32.325093
 20
130.773
 30
0.0
 11
36.94369299999999
 21
131.692
 31
0.0
  0
LINE
  5
7D
330
1E
100
AcDbEntity
  8
0
100
AcDbLine
 10
37.815793
 20
105.2389999999999
 30
0.0
 11
39.05439299999999
 21
105.6589999999999
 31
0.0
  0
LINE
  5
7E
330
1E
100
AcDbEntity
  8
0
100
AcDbLine
 10
36.64259299999999
 20
104.6599999999999
 30
0.0
 11
37.815793
 21
105.2389999999999
 31
0.0
  0
LINE
  5
7F
330
1E
100
AcDbEntity
  8
0
100
AcDbLine
 10
39.05439299999999
 20
105.6589999999999
 30
0.0
 11
40.337293
 21
105.9139999999999
 31
0.0
  0
LINE
  5
80
330
1E
100
AcDbEntity
  8
0
100
AcDbLine
 10
40.337293
 20
105.9139999999999
 30
0.0
 11
41.642593
 21
106.0
 31
0.0
  0
LINE
  5
81
330
1E
100
AcDbEntity
  8
0
100
AcDbLine
 10
36.94369299999999
 20
131.692
 30
0.0
 11
41.642593
 21
132.0
 31
0.0
  0
LINE
  5
82
330
1E
100
AcDbEntity
  8
0
100
AcDbLine
 10
35.55499299999999
 20
103.9339999999999
 30
0.0
 11
36.64259299999999
 21
104.6599999999999
 31
0.0
  0
LINE
  5
83
330
1E
100
AcDbEntity
  8
0
100
AcDbLine
 10
41.642593
 20
132.0
 30
0.0
 11
95.142593
 21
132.0
 31
0.0
  0
LINE
  5
84
330
1E
100
AcDbEntity
  8
0
100
AcDbLine
 10
41.642593
 20
106.0
 30
0.0
 11
95.142593
 21
106.0
 31
0.0
  0
LINE
  5
85
330
1E
100
AcDbEntity
  8
0
100
AcDbLine
 10
34.57149299999999
 20
103.071
 30
0.0
 11
35.55499299999999
 21
103.9339999999999
 31
0.0
  0
LINE
  5
86
330
1E
100
AcDbEntity
  8
0
100
AcDbLine
 10
27.922393
 20
85.3105
 30
0.0
 11
28.164293
 21
84.6461
 31
0.0
  0
LINE
  5
87
330
1E
100
AcDbEntity
  8
0
100
AcDbLine
 10
27.95299299999999
 20
84.1929
 30
0.0
 11
28.164293
 21
84.6461
 31
0.0
  0
LINE
  5
88
330
1E
100
AcDbEntity
  8
0
100
AcDbLine
 10
27.288493
 20
83.9511
 30
0.0
 11
27.95299299999999
 21
84.1929
 31
0.0
  0
LINE
  5
89
330
1E
100
AcDbEntity
  8
0
100
AcDbLine
 10
26.17089299999999
 20
83.92050000000001
 30
0.0
 11
27.288493
 21
83.9511
 31
0.0
  0
LINE
  5
8A
330
1E
100
AcDbEntity
  8
0
100
AcDbLine
 10
0.7942529999999941
 20
95.7538
 30
0.0
 11
26.17089299999999
 21
83.92050000000001
 31
0.0
  0
LINE
  5
8B
330
1E
100
AcDbEntity
  8
0
100
AcDbLine
 10
85.142593
 20
0.499999999999992
 30
0.0
 11
88.642593
 21
2.99999999999999
 31
0.0
  0
LINE
  5
8C
330
1E
100
AcDbEntity
  8
0
100
AcDbLine
 10
88.742593
 20
0.499999999999992
 30
0.0
 11
93.14259300000001
 21
0.499999999999992
 31
0.0
  0
LINE
  5
8D
330
1E
100
AcDbEntity
  8
0
100
AcDbLine
 10
92.642593
 20
7.49999999999999
 30
0.0
 11
96.142593
 21
13.5
 31
0.0
  0
LINE
  5
8E
330
1E
100
AcDbEntity
  8
0
100
AcDbLine
 10
92.642593
 20
7.49999999999999
 30
0.0
 11
93.51759300000001
 21
8.99999999999998
 31
0.0
  0
LINE
  5
8F
330
1E
100
AcDbEntity
  8
0
100
AcDbLine
 10
88.642593
 20
2.99999999999999
 30
0.0
 11
92.642593
 21
7.49999999999999
 31
0.0
  0
LINE
  5
90
330
1E
100
AcDbEntity
  8
0
100
AcDbLine
 10
86.142593
 20
0.499999999999992
 30
0.0
 11
88.742593
 21
0.499999999999992
 31
0.0
  0
LINE
  5
91
330
1E
100
AcDbEntity
  8
0
100
AcDbLine
 10
85.142593
 20
0.499999999999992
 30
0.0
 11
85.142593
 21
-0.0000000000000076
 31
0.0
  0
LINE
  5
92
330
1E
100
AcDbEntity
  8
0
100
AcDbLine
 10
85.142593
 20
0.499999999999992
 30
0.0
 11
86.142593
 21
0.499999999999992
 31
0.0
  0
LINE
  5
93
330
1E
100
AcDbEntity
  8
0
100
AcDbLine
 10
85.142593
 20
0.499999999999992
 30
0.0
 11
88.642593
 21
2.99999999999999
 31
0.0
  0
LINE
  5
94
330
1E
100
AcDbEntity
  8
0
100
AcDbLine
 10
93.14259300000001
 20
0.499999999999992
 30
0.0
 11
98.742593
 21
0.499999999999992
 31
0.0
  0
LINE
  5
95
330
1E
100
AcDbEntity
  8
0
100
AcDbLine
 10
94.642593
 20
12.0
 30
0.0
 11
95.64259300000001
 21
15.5
 31
0.0
  0
LINE
  5
96
330
1E
100
AcDbEntity
  8
0
100
AcDbLine
 10
93.51759300000001
 20
8.99999999999998
 30
0.0
 11
94.642593
 21
12.0
 31
0.0
  0
LINE
  5
97
330
1E
100
AcDbEntity
  8
0
100
AcDbLine
 10
96.142593
 20
19.0
 30
0.0
 11
96.142593
 21
105.75
 31
0.0
  0
LINE
  5
98
330
1E
100
AcDbEntity
  8
0
100
AcDbLine
 10
96.142593
 20
19.0
 30
0.0
 11
96.142593
 21
105.75
 31
0.0
  0
LINE
  5
99
330
1E
100
AcDbEntity
  8
0
100
AcDbLine
 10
95.64259300000001
 20
15.5
 30
0.0
 11
96.142593
 21
19.0
 31
0.0
  0
LINE
  5
9A
330
1E
100
AcDbEntity
  8
0
100
AcDbLine
 10
96.64259300000001
 20
137.0
 30
0.0
 11
97.24259299999999
 21
137.0
 31
0.0
  0
LINE
  5
9B
330
1E
100
AcDbEntity
  8
0
100
AcDbLine
 10
97.24259299999999
 20
137.0
 30
0.0
 11
98.742593
 21
137.0
 31
0.0
  0
LINE
  5
9C
330
1E
100
AcDbEntity
  8
0
100
AcDbLine
 10
96.74259300000001
 20
136.4999999999999
 30
0.0
 11
98.24259300000001
 21
136.4999999999999
 31
0.0
  0
LINE
  5
9D
330
1E
100
AcDbEntity
  8
0
100
AcDbLine
 10
97.14259300000001
 20
137.5
 30
0.0
 11
97.14259300000001
 21
137.0
 31
0.0
  0
LINE
  5
9E
330
1E
100
AcDbEntity
  8
0
100
AcDbLine
 10
97.14259300000001
 20
137.5
 30
0.0
 11
97.642593
 21
137.5
 31
0.0
  0
LINE
  5
9F
330
1E
100
AcDbEntity
  8
0
100
AcDbLine
 10
97.14259300000001
 20
151.5
 30
0.0
 11
97.642593
 21
152.0
 31
0.0
  0
LINE
  5
A0
330
1E
100
AcDbEntity
  8
0
100
AcDbLine
 10
97.14259300000001
 20
151.5
 30
0.0
 11
97.14259300000001
 21
142.0
 31
0.0
  0
LINE
  5
A1
330
1E
100
AcDbEntity
  8
0
100
AcDbLine
 10
97.14259300000001
 20
151.5
 30
0.0
 11
97.642593
 21
151.5
 31
0.0
  0
LINE
  5
A2
330
1E
100
AcDbEntity
  8
0
100
AcDbLine
 10
97.642593
 20
137.5
 30
0.0
 11
99.14259300000001
 21
137.5
 31
0.0
  0
LINE
  5
A3
330
1E
100
AcDbEntity
  8
0
100
AcDbLine
 10
97.642593
 20
152.0
 30
0.0
 11
98.14259300000001
 21
152.0
 31
0.0
  0
LINE
  5
A4
330
1E
100
AcDbEntity
  8
0
100
AcDbLine
 10
98.14259300000001
 20
152.0
 30
0.0
 11
99.54259300000002
 21
152.0
 31
0.0
  0
LINE
  5
A5
330
1E
100
AcDbEntity
  8
0
100
AcDbLine
 10
97.642593
 20
151.5
 30
0.0
 11
99.14259300000001
 21
151.5
 31
0.0
  0
LINE
  5
A6
330
1E
100
AcDbEntity
  8
0
100
AcDbLine
 10
97.642593
 20
142.0
 30
0.0
 11
99.14259300000001
 21
142.0
 31
0.0
  0
LINE
  5
A7
330
1E
100
AcDbEntity
  8
0
100
AcDbLine
 10
97.14259300000001
 20
142.0
 30
0.0
 11
97.642593
 21
142.0
 31
0.0
  0
LINE
  5
A8
330
1E
100
AcDbEntity
  8
0
100
AcDbLine
 10
97.14259300000001
 20
142.0
 30
0.0
 11
97.14259300000001
 21
151.5
 31
0.0
  0
LINE
  5
A9
330
1E
100
AcDbEntity
  8
0
100
AcDbLine
 10
97.14259300000001
 20
137.0
 30
0.0
 11
97.14259300000001
 21
137.5
 31
0.0
  0
LINE
  5
AA
330
1E
100
AcDbEntity
  8
0
100
AcDbLine
 10
96.142593
 20
136.4999999999999
 30
0.0
 11
96.64259300000001
 21
137.0
 31
0.0
  0
LINE
  5
AB
330
1E
100
AcDbEntity
  8
0
100
AcDbLine
 10
96.142593
 20
136.4999999999999
 30
0.0
 11
96.74259300000001
 21
136.4999999999999
 31
0.0
  0
LINE
  5
AC
330
1E
100
AcDbEntity
  8
0
100
AcDbLine
 10
96.142593
 20
132.25
 30
0.0
 11
96.142593
 21
136.4999999999999
 31
0.0
  0
LINE
  5
AD
330
1E
100
AcDbEntity
  8
0
100
AcDbLine
 10
95.142593
 20
132.0
 30
0.0
 11
96.142593
 21
132.25
 31
0.0
  0
LINE
  5
AE
330
1E
100
AcDbEntity
  8
0
100
AcDbLine
 10
95.142593
 20
106.0
 30
0.0
 11
96.142593
 21
105.75
 31
0.0
  0
LINE
  5
AF
330
1E
100
AcDbEntity
  8
0
100
AcDbLine
 10
98.24259300000001
 20
136.4999999999999
 30
0.0
 11
100.842593
 21
136.4999999999999
 31
0.0
  0
LINE
  5
B0
330
1E
100
AcDbEntity
  8
0
100
AcDbLine
 10
98.642593
 20
152.5
 30
0.0
 11
99.14259300000001
 21
153.0
 31
0.0
  0
LINE
  5
B1
330
1E
100
AcDbEntity
  8
0
100
AcDbLine
 10
98.642593
 20
152.5
 30
0.0
 11
98.642593
 21
152.0
 31
0.0
  0
LINE
  5
B2
330
1E
100
AcDbEntity
  8
0
100
AcDbLine
 10
98.642593
 20
152.5
 30
0.0
 11
99.14259300000001
 21
152.5
 31
0.0
  0
LINE
  5
B3
330
1E
100
AcDbEntity
  8
0
100
AcDbLine
 10
98.642593
 20
152.0
 30
0.0
 11
98.642593
 21
152.5
 31
0.0
  0
LINE
  5
B4
330
1E
100
AcDbEntity
  8
0
100
AcDbLine
 10
98.14259300000001
 20
20.0
 30
0.0
 11
99.14259300000001
 21
28.0
 31
0.0
  0
LINE
  5
B5
330
1E
100
AcDbEntity
  8
0
100
AcDbLine
 10
96.142593
 20
13.5
 30
0.0
 11
98.14259300000001
 21
20.0
 31
0.0
  0
LINE
  5
B6
330
1E
100
AcDbEntity
  8
0
100
AcDbLine
 10
99.14259300000001
 20
28.0
 30
0.0
 11
99.14259300000001
 21
39.0
 31
0.0
  0
LINE
  5
B7
330
1E
100
AcDbEntity
  8
0
100
AcDbLine
 10
100.842593
 20
39.0
 30
0.0
 11
102.9425929999999
 21
39.0
 31
0.0
  0
LINE
  5
B8
330
1E
100
AcDbEntity
  8
0
100
AcDbLine
 10
99.64259300000001
 20
39.0
 30
0.0
 11
100.842593
 21
39.0
 31
0.0
  0
LINE
  5
B9
330
1E
100
AcDbEntity
  8
0
100
AcDbLine
 10
99.64259300000001
 20
39.0
 30
0.0
 11
99.64259300000001
 21
40.0
 31
0.0
  0
LINE
  5
BA
330
1E
100
AcDbEntity
  8
0
100
AcDbLine
 10
99.14259300000001
 20
39.0
 30
0.0
 11
99.14259300000001
 21
28.0
 31
0.0
  0
LINE
  5
BB
330
1E
100
AcDbEntity
  8
0
100
AcDbLine
 10
99.14259300000001
 20
39.0
 30
0.0
 11
99.64259300000001
 21
39.0
 31
0.0
  0
LINE
  5
BC
330
1E
100
AcDbEntity
  8
0
100
AcDbLine
 10
100.142593
 20
40.0
 30
0.0
 11
101.342593
 21
40.0
 31
0.0
  0
LINE
  5
BD
330
1E
100
AcDbEntity
  8
0
100
AcDbLine
 10
99.64259300000001
 20
40.0
 30
0.0
 11
99.64259300000001
 21
39.0
 31
0.0
  0
LINE
  5
BE
330
1E
100
AcDbEntity
  8
0
100
AcDbLine
 10
99.64259300000001
 20
40.0
 30
0.0
 11
100.142593
 21
40.0
 31
0.0
  0
LINE
  5
BF
330
1E
100
AcDbEntity
  8
0
100
AcDbLine
 10
101.342593
 20
40.0
 30
0.0
 11
103.342593
 21
40.0
 31
0.0
  0
LINE
  5
C0
330
1E
100
AcDbEntity
  8
0
100
AcDbLine
 10
100.875593
 20
40.0
 30
0.0
 11
102.9705929999999
 21
40.0
 31
0.0
  0
LINE
  5
C1
330
1E
100
AcDbEntity
  8
0
100
AcDbLine
 10
99.648593
 20
40.0
 30
0.0
 11
100.875593
 21
40.0
 31
0.0
  0
LINE
  5
C2
330
1E
100
AcDbEntity
  8
0
100
AcDbLine
 10
99.14259300000001
 20
40.0
 30
0.0
 11
99.14259300000001
 21
71.3871
 31
0.0
  0
LINE
  5
C3
330
1E
100
AcDbEntity
  8
0
100
AcDbLine
 10
99.14259300000001
 20
40.0
 30
0.0
 11
99.648593
 21
40.0
 31
0.0
  0
LINE
  5
C4
330
1E
100
AcDbEntity
  8
0
100
AcDbLine
 10
99.14259300000001
 20
40.0
 30
0.0
 11
99.64259300000001
 21
40.0
 31
0.0
  0
LINE
  5
C5
330
1E
100
AcDbEntity
  8
0
100
AcDbLine
 10
99.14259300000001
 20
137.5
 30
0.0
 11
101.542593
 21
137.5
 31
0.0
  0
LINE
  5
C6
330
1E
100
AcDbEntity
  8
0
100
AcDbLine
 10
98.742593
 20
137.0
 30
0.0
 11
101.242593
 21
137.0
 31
0.0
  0
LINE
  5
C7
330
1E
100
AcDbEntity
  8
0
100
AcDbLine
 10
99.14259300000001
 20
153.0
 30
0.0
 11
99.64259300000001
 21
153.0
 31
0.0
  0
LINE
  5
C8
330
1E
100
AcDbEntity
  8
0
100
AcDbLine
 10
99.14259300000001
 20
152.5
 30
0.0
 11
100.442593
 21
152.5
 31
0.0
  0
LINE
  5
C9
330
1E
100
AcDbEntity
  8
0
100
AcDbLine
 10
99.14259300000001
 20
151.5
 30
0.0
 11
101.542593
 21
151.5
 31
0.0
  0
LINE
  5
CA
330
1E
100
AcDbEntity
  8
0
100
AcDbLine
 10
99.14259300000001
 20
142.0
 30
0.0
 11
101.542593
 21
142.0
 31
0.0
  0
LINE
  5
CB
330
1E
100
AcDbEntity
  8
0
100
AcDbLine
 10
100.875593
 20
71.3871
 30
0.0
 11
102.9705929999999
 21
71.3871
 31
0.0
  0
LINE
  5
CC
330
1E
100
AcDbEntity
  8
0
100
AcDbLine
 10
99.86459299999999
 20
71.7097
 30
0.0
 11
100.225593
 21
72.03230000000001
 31
0.0
  0
LINE
  5
CD
330
1E
100
AcDbEntity
  8
0
100
AcDbLine
 10
101.164593
 20
71.7097
 30
0.0
 11
103.1865929999999
 21
71.7097
 31
0.0
  0
LINE
  5
CE
330
1E
100
AcDbEntity
  8
0
100
AcDbLine
 10
99.64259300000001
 20
153.0
 30
0.0
 11
100.842593
 21
153.0
 31
0.0
  0
LINE
  5
CF
330
1E
100
AcDbEntity
  8
0
100
AcDbLine
 10
99.54259300000002
 20
152.0
 30
0.0
 11
101.942593
 21
152.0
 31
0.0
  0
LINE
  5
D0
330
1E
100
AcDbEntity
  8
0
100
AcDbLine
 10
102.464593
 20
73.0
 30
0.0
 11
104.270593
 21
73.0
 31
0.0
  0
LINE
  5
D1
330
1E
100
AcDbEntity
  8
0
100
AcDbLine
 10
101.381593
 20
73.0
 30
0.0
 11
102.464593
 21
73.0
 31
0.0
  0
LINE
  5
D2
330
1E
100
AcDbEntity
  8
0
100
AcDbLine
 10
100.586593
 20
72.6774
 30
0.0
 11
100.948593
 21
73.0
 31
0.0
  0
LINE
  5
D3
330
1E
100
AcDbEntity
  8
0
100
AcDbLine
 10
100.842593
 20
153.0
 30
0.0
 11
102.9425929999999
 21
153.0
 31
0.0
  0
LINE
  5
D4
330
1E
100
AcDbEntity
  8
0
100
AcDbLine
 10
100.442593
 20
152.5
 30
0.0
 11
102.642593
 21
152.5
 31
0.0
  0
LINE
  5
D5
330
1E
100
AcDbEntity
  8
0
100
AcDbLine
 10
101.542593
 20
151.5
 30
0.0
 11
104.642593
 21
151.5
 31
0.0
  0
LINE
  5
D6
330
1E
100
AcDbEntity
  8
0
100
AcDbLine
 10
101.542593
 20
137.5
 30
0.0
 11
104.642593
 21
137.5
 31
0.0
  0
LINE
  5
D7
330
1E
100
AcDbEntity
  8
0
100
AcDbLine
 10
101.242593
 20
137.0
 30
0.0
 11
104.442593
 21
137.0
 31
0.0
  0
LINE
  5
D8
330
1E
100
AcDbEntity
  8
0
100
AcDbLine
 10
100.842593
 20
136.4999999999999
 30
0.0
 11
104.142593
 21
136.4999999999999
 31
0.0
  0
LINE
  5
D9
330
1E
100
AcDbEntity
  8
0
100
AcDbLine
 10
102.9425929999999
 20
153.0
 30
0.0
 11
105.6425929999999
 21
153.0
 31
0.0
  0
LINE
  5
DA
330
1E
100
AcDbEntity
  8
0
100
AcDbLine
 10
102.642593
 20
152.5
 30
0.0
 11
105.4425929999999
 21
152.5
 31
0.0
  0
LINE
  5
DB
330
1E
100
AcDbEntity
  8
0
100
AcDbLine
 10
101.942593
 20
152.0
 30
0.0
 11
104.9425929999999
 21
152.0
 31
0.0
  0
LINE
  5
DC
330
1E
100
AcDbEntity
  8
0
100
AcDbLine
 10
101.542593
 20
142.0
 30
0.0
 11
104.142593
 21
142.0
 31
0.0
  0
LINE
  5
DD
330
1E
100
AcDbEntity
  8
0
100
AcDbLine
 10
101.542593
 20
142.0
 30
0.0
 11
104.642593
 21
142.0
 31
0.0
  0
LINE
  5
DE
330
1E
100
AcDbEntity
  8
0
100
AcDbLine
 10
100.948593
 20
73.0
 30
0.0
 11
101.381593
 21
73.0
 31
0.0
  0
LINE
  5
DF
330
1E
100
AcDbEntity
  8
0
100
AcDbLine
 10
100.225593
 20
72.03230000000001
 30
0.0
 11
100.586593
 21
72.6774
 31
0.0
  0
LINE
  5
E0
330
1E
100
AcDbEntity
  8
0
100
AcDbLine
 10
99.936593
 20
71.7097
 30
0.0
 11
101.164593
 21
71.7097
 31
0.0
  0
LINE
  5
E1
330
1E
100
AcDbEntity
  8
0
100
AcDbLine
 10
99.50359300000002
 20
71.7097
 30
0.0
 11
99.936593
 21
71.7097
 31
0.0
  0
LINE
  5
E2
330
1E
100
AcDbEntity
  8
0
100
AcDbLine
 10
99.648593
 20
71.3871
 30
0.0
 11
100.875593
 21
71.3871
 31
0.0
  0
LINE
  5
E3
330
1E
100
AcDbEntity
  8
0
100
AcDbLine
 10
99.14259300000001
 20
71.3871
 30
0.0
 11
99.648593
 21
71.3871
 31
0.0
  0
LINE
  5
E4
330
1E
100
AcDbEntity
  8
0
100
AcDbLine
 10
99.14259300000001
 20
71.3871
 30
0.0
 11
99.50359300000002
 21
71.7097
 31
0.0
  0
LINE
  5
E5
330
1E
100
AcDbEntity
  8
0
100
AcDbLine
 10
102.9705929999999
 20
40.0
 30
0.0
 11
105.7145929999999
 21
40.0
 31
0.0
  0
LINE
  5
E6
330
1E
100
AcDbEntity
  8
0
100
AcDbLine
 10
103.342593
 20
40.0
 30
0.0
 11
105.9425929999999
 21
40.0
 31
0.0
  0
LINE
  5
E7
330
1E
100
AcDbEntity
  8
0
100
AcDbLine
 10
104.142593
 20
136.4999999999999
 30
0.0
 11
108.042593
 21
136.4999999999999
 31
0.0
  0
LINE
  5
E8
330
1E
100
AcDbEntity
  8
0
100
AcDbLine
 10
104.142593
 20
142.0
 30
0.0
 11
104.142593
 21
137.5
 31
0.0
  0
LINE
  5
E9
330
1E
100
AcDbEntity
  8
0
100
AcDbLine
 10
104.142593
 20
142.0
 30
0.0
 11
104.442593
 21
142.0
 31
0.0
  0
LINE
  5
EA
330
1E
100
AcDbEntity
  8
0
100
AcDbLine
 10
104.142593
 20
137.5
 30
0.0
 11
104.142593
 21
142.0
 31
0.0
  0
LINE
  5
EB
330
1E
100
AcDbEntity
  8
0
100
AcDbLine
 10
104.442593
 20
142.0
 30
0.0
 11
105.242593
 21
142.0
 31
0.0
  0
LINE
  5
EC
330
1E
100
AcDbEntity
  8
0
100
AcDbLine
 10
104.642593
 20
151.5
 30
0.0
 11
108.242593
 21
151.5
 31
0.0
  0
LINE
  5
ED
330
1E
100
AcDbEntity
  8
0
100
AcDbLine
 10
104.642593
 20
142.0
 30
0.0
 11
108.242593
 21
142.0
 31
0.0
  0
LINE
  5
EE
330
1E
100
AcDbEntity
  8
0
100
AcDbLine
 10
105.242593
 20
142.0
 30
0.0
 11
106.5425929999999
 21
142.0
 31
0.0
  0
LINE
  5
EF
330
1E
100
AcDbEntity
  8
0
100
AcDbLine
 10
104.9425929999999
 20
152.0
 30
0.0
 11
108.4425929999999
 21
152.0
 31
0.0
  0
LINE
  5
F0
330
1E
100
AcDbEntity
  8
0
100
AcDbLine
 10
104.642593
 20
137.5
 30
0.0
 11
108.242593
 21
137.5
 31
0.0
  0
LINE
  5
F1
330
1E
100
AcDbEntity
  8
0
100
AcDbLine
 10
104.442593
 20
137.0
 30
0.0
 11
108.1425929999999
 21
137.0
 31
0.0
  0
LINE
  5
F2
330
1E
100
AcDbEntity
  8
0
100
AcDbLine
 10
104.270593
 20
73.0
 30
0.0
 11
106.581593
 21
73.0
 31
0.0
  0
LINE
  5
F3
330
1E
100
AcDbEntity
  8
0
100
AcDbLine
 10
103.1865929999999
 20
71.7097
 30
0.0
 11
105.8595929999999
 21
71.7097
 31
0.0
  0
LINE
  5
F4
330
1E
100
AcDbEntity
  8
0
100
AcDbLine
 10
102.9705929999999
 20
71.3871
 30
0.0
 11
105.7145929999999
 21
71.3871
 31
0.0
  0
LINE
  5
F5
330
1E
100
AcDbEntity
  8
0
100
AcDbLine
 10
102.9425929999999
 20
39.0
 30
0.0
 11
105.6425929999999
 21
39.0
 31
0.0
  0
LINE
  5
F6
330
1E
100
AcDbEntity
  8
0
100
AcDbLine
 10
98.742593
 20
0.499999999999992
 30
0.0
 11
105.242593
 21
0.4999999999999911
 31
0.0
  0
LINE
  5
F7
330
1E
100
AcDbEntity
  8
0
100
AcDbLine
 10
105.242593
 20
0.4999999999999911
 30
0.0
 11
112.142593
 21
0.4999999999999911
 31
0.0
  0
LINE
  5
F8
330
1E
100
AcDbEntity
  8
0
100
AcDbLine
 10
93.14259300000001
 20
-0.0000000000000081
 30
0.0
 11
98.742593
 21
-0.0000000000000084
 31
0.0
  0
LINE
  5
F9
330
1E
100
AcDbEntity
  8
0
100
AcDbLine
 10
98.742593
 20
-0.0000000000000084
 30
0.0
 11
105.242593
 21
-0.0000000000000088
 31
0.0
  0
LINE
  5
FA
330
1E
100
AcDbEntity
  8
0
100
AcDbLine
 10
119.0425929999999
 20
-0.0000000000000097
 30
0.0
 11
125.5425929999999
 21
-0.0000000000000101
 31
0.0
  0
LINE
  5
FB
330
1E
100
AcDbEntity
  8
0
100
AcDbLine
 10
139.142593
 20
-0.0000000000000109
 30
0.0
 11
139.142593
 21
0.4999999999999891
 31
0.0
  0
LINE
  5
FC
330
1E
100
AcDbEntity
  8
0
100
AcDbLine
 10
138.142593
 20
-0.0000000000000108
 30
0.0
 11
139.142593
 21
-0.0000000000000109
 31
0.0
  0
LINE
  5
FD
330
1E
100
AcDbEntity
  8
0
100
AcDbLine
 10
131.142593
 20
-0.0000000000000104
 30
0.0
 11
135.5425929999999
 21
-0.0000000000000107
 31
0.0
  0
LINE
  5
FE
330
1E
100
AcDbEntity
  8
0
100
AcDbLine
 10
135.5425929999999
 20
-0.0000000000000107
 30
0.0
 11
138.142593
 21
-0.0000000000000108
 31
0.0
  0
LINE
  5
FF
330
1E
100
AcDbEntity
  8
0
100
AcDbLine
 10
125.5425929999999
 20
-0.0000000000000101
 30
0.0
 11
131.142593
 21
-0.0000000000000104
 31
0.0
  0
LINE
  5
100
330
1E
100
AcDbEntity
  8
0
100
AcDbLine
 10
125.5425929999999
 20
0.4999999999999901
 30
0.0
 11
131.142593
 21
0.4999999999999901
 31
0.0
  0
LINE
  5
101
330
1E
100
AcDbEntity
  8
0
100
AcDbLine
 10
119.0425929999999
 20
0.4999999999999901
 30
0.0
 11
125.5425929999999
 21
0.4999999999999901
 31
0.0
  0
LINE
  5
102
330
1E
100
AcDbEntity
  8
0
100
AcDbLine
 10
112.142593
 20
0.4999999999999911
 30
0.0
 11
119.0425929999999
 21
0.4999999999999901
 31
0.0
  0
LINE
  5
103
330
1E
100
AcDbEntity
  8
0
100
AcDbLine
 10
131.142593
 20
0.4999999999999901
 30
0.0
 11
135.5425929999999
 21
0.4999999999999891
 31
0.0
  0
LINE
  5
104
330
1E
100
AcDbEntity
  8
0
100
AcDbLine
 10
135.5425929999999
 20
0.4999999999999891
 30
0.0
 11
138.142593
 21
0.4999999999999891
 31
0.0
  0
LINE
  5
105
330
1E
100
AcDbEntity
  8
0
100
AcDbLine
 10
138.142593
 20
0.4999999999999891
 30
0.0
 11
139.142593
 21
0.4999999999999891
 31
0.0
  0
LINE
  5
106
330
1E
100
AcDbEntity
  8
0
100
AcDbLine
 10
129.642593
 20
12.0
 30
0.0
 11
130.767593
 21
8.999999999999969
 31
0.0
  0
LINE
  5
107
330
1E
100
AcDbEntity
  8
0
100
AcDbLine
 10
118.6425929999999
 20
39.0
 30
0.0
 11
121.3425929999999
 21
39.0
 31
0.0
  0
LINE
  5
108
330
1E
100
AcDbEntity
  8
0
100
AcDbLine
 10
115.4425929999999
 20
39.0
 30
0.0
 11
118.6425929999999
 21
39.0
 31
0.0
  0
LINE
  5
109
330
1E
100
AcDbEntity
  8
0
100
AcDbLine
 10
112.142593
 20
39.0
 30
0.0
 11
115.4425929999999
 21
39.0
 31
0.0
  0
LINE
  5
10A
330
1E
100
AcDbEntity
  8
0
100
AcDbLine
 10
121.3425929999999
 20
39.0
 30
0.0
 11
123.442593
 21
39.0
 31
0.0
  0
LINE
  5
10B
330
1E
100
AcDbEntity
  8
0
100
AcDbLine
 10
123.442593
 20
39.0
 30
0.0
 11
124.642593
 21
39.0
 31
0.0
  0
LINE
  5
10C
330
1E
100
AcDbEntity
  8
0
100
AcDbLine
 10
124.642593
 20
39.0
 30
0.0
 11
125.1425929999999
 21
39.0
 31
0.0
  0
LINE
  5
10D
330
1E
100
AcDbEntity
  8
0
100
AcDbLine
 10
124.642593
 20
39.0
 30
0.0
 11
124.642593
 21
40.0
 31
0.0
  0
LINE
  5
10E
330
1E
100
AcDbEntity
  8
0
100
AcDbLine
 10
125.1425929999999
 20
39.0
 30
0.0
 11
125.1425929999999
 21
28.0
 31
0.0
  0
LINE
  5
10F
330
1E
100
AcDbEntity
  8
0
100
AcDbLine
 10
125.1425929999999
 20
28.0
 30
0.0
 11
126.1425929999999
 21
20.0
 31
0.0
  0
LINE
  5
110
330
1E
100
AcDbEntity
  8
0
100
AcDbLine
 10
125.1425929999999
 20
28.0
 30
0.0
 11
125.1425929999999
 21
39.0
 31
0.0
  0
LINE
  5
111
330
1E
100
AcDbEntity
  8
0
100
AcDbLine
 10
128.142593
 20
19.0
 30
0.0
 11
128.142593
 21
136.4999999999999
 31
0.0
  0
LINE
  5
112
330
1E
100
AcDbEntity
  8
0
100
AcDbLine
 10
128.142593
 20
19.0
 30
0.0
 11
128.642593
 21
15.5
 31
0.0
  0
LINE
  5
113
330
1E
100
AcDbEntity
  8
0
100
AcDbLine
 10
128.142593
 20
19.0
 30
0.0
 11
128.142593
 21
136.4999999999999
 31
0.0
  0
LINE
  5
114
330
1E
100
AcDbEntity
  8
0
100
AcDbLine
 10
128.642593
 20
15.5
 30
0.0
 11
129.642593
 21
12.0
 31
0.0
  0
LINE
  5
115
330
1E
100
AcDbEntity
  8
0
100
AcDbLine
 10
126.1425929999999
 20
20.0
 30
0.0
 11
128.142593
 21
13.5
 31
0.0
  0
LINE
  5
116
330
1E
100
AcDbEntity
  8
0
100
AcDbLine
 10
128.142593
 20
13.5
 30
0.0
 11
131.642593
 21
7.49999999999999
 31
0.0
  0
LINE
  5
117
330
1E
100
AcDbEntity
  8
0
100
AcDbLine
 10
131.642593
 20
7.49999999999999
 30
0.0
 11
135.642593
 21
2.99999999999999
 31
0.0
  0
LINE
  5
118
330
1E
100
AcDbEntity
  8
0
100
AcDbLine
 10
135.642593
 20
2.99999999999999
 30
0.0
 11
139.142593
 21
0.4999999999999891
 31
0.0
  0
LINE
  5
119
330
1E
100
AcDbEntity
  8
0
100
AcDbLine
 10
135.642593
 20
2.99999999999999
 30
0.0
 11
139.142593
 21
0.4999999999999891
 31
0.0
  0
LINE
  5
11A
330
1E
100
AcDbEntity
  8
0
100
AcDbLine
 10
139.142593
 20
0.4999999999999891
 30
0.0
 11
139.142593
 21
-0.0000000000000109
 31
0.0
  0
LINE
  5
11B
330
1E
100
AcDbEntity
  8
0
100
AcDbLine
 10
112.142593
 20
-0.0000000000000092
 30
0.0
 11
119.0425929999999
 21
-0.0000000000000097
 31
0.0
  0
LINE
  5
11C
330
1E
100
AcDbEntity
  8
0
100
AcDbLine
 10
105.6425929999999
 20
39.0
 30
0.0
 11
108.8425929999999
 21
39.0
 31
0.0
  0
LINE
  5
11D
330
1E
100
AcDbEntity
  8
0
100
AcDbLine
 10
105.9425929999999
 20
40.0
 30
0.0
 11
108.9425929999999
 21
40.0
 31
0.0
  0
LINE
  5
11E
330
1E
100
AcDbEntity
  8
0
100
AcDbLine
 10
108.9425929999999
 20
40.0
 30
0.0
 11
112.142593
 21
40.0
 31
0.0
  0
LINE
  5
11F
330
1E
100
AcDbEntity
  8
0
100
AcDbLine
 10
105.7145929999999
 20
40.0
 30
0.0
 11
108.8205929999999
 21
40.0
 31
0.0
  0
LINE
  5
120
330
1E
100
AcDbEntity
  8
0
100
AcDbLine
 10
108.8205929999999
 20
40.0
 30
0.0
 11
112.142593
 21
40.0
 31
0.0
  0
LINE
  5
121
330
1E
100
AcDbEntity
  8
0
100
AcDbLine
 10
118.342593
 20
40.0
 30
0.0
 11
120.9425929999999
 21
40.0
 31
0.0
  0
LINE
  5
122
330
1E
100
AcDbEntity
  8
0
100
AcDbLine
 10
115.342593
 20
40.0
 30
0.0
 11
118.342593
 21
40.0
 31
0.0
  0
LINE
  5
123
330
1E
100
AcDbEntity
  8
0
100
AcDbLine
 10
120.9425929999999
 20
40.0
 30
0.0
 11
122.9425929999999
 21
40.0
 31
0.0
  0
LINE
  5
124
330
1E
100
AcDbEntity
  8
0
100
AcDbLine
 10
122.9425929999999
 20
40.0
 30
0.0
 11
124.1425929999999
 21
40.0
 31
0.0
  0
LINE
  5
125
330
1E
100
AcDbEntity
  8
0
100
AcDbLine
 10
118.562593
 20
40.0
 30
0.0
 11
121.2695929999999
 21
40.0
 31
0.0
  0
LINE
  5
126
330
1E
100
AcDbEntity
  8
0
100
AcDbLine
 10
115.444593
 20
40.0
 30
0.0
 11
118.562593
 21
40.0
 31
0.0
  0
LINE
  5
127
330
1E
100
AcDbEntity
  8
0
100
AcDbLine
 10
112.142593
 20
40.0
 30
0.0
 11
115.444593
 21
40.0
 31
0.0
  0
LINE
  5
128
330
1E
100
AcDbEntity
  8
0
100
AcDbLine
 10
112.142593
 20
40.0
 30
0.0
 11
115.342593
 21
40.0
 31
0.0
  0
LINE
  5
129
330
1E
100
AcDbEntity
  8
0
100
AcDbLine
 10
110.8925929999999
 20
58.1667
 30
0.0
 11
112.142593
 21
58.0
 31
0.0
  0
LINE
  5
12A
330
1E
100
AcDbEntity
  8
0
100
AcDbLine
 10
112.142593
 20
58.0
 30
0.0
 11
113.3925929999999
 21
58.1667
 31
0.0
  0
LINE
  5
12B
330
1E
100
AcDbEntity
  8
0
100
AcDbLine
 10
110.8925929999999
 20
58.4167
 30
0.0
 11
112.142593
 21
58.25
 31
0.0
  0
LINE
  5
12C
330
1E
100
AcDbEntity
  8
0
100
AcDbLine
 10
108.8095929999999
 20
59.6667
 30
0.0
 11
109.8095929999999
 21
58.9167
 31
0.0
  0
LINE
  5
12D
330
1E
100
AcDbEntity
  8
0
100
AcDbLine
 10
109.8095929999999
 20
58.9167
 30
0.0
 11
110.8925929999999
 21
58.4167
 31
0.0
  0
LINE
  5
12E
330
1E
100
AcDbEntity
  8
0
100
AcDbLine
 10
108.6425929999999
 20
59.5
 30
0.0
 11
109.6425929999999
 21
58.6667
 31
0.0
  0
LINE
  5
12F
330
1E
100
AcDbEntity
  8
0
100
AcDbLine
 10
109.6425929999999
 20
58.6667
 30
0.0
 11
110.8925929999999
 21
58.1667
 31
0.0
  0
LINE
  5
130
330
1E
100
AcDbEntity
  8
0
100
AcDbLine
 10
113.3925929999999
 20
58.4167
 30
0.0
 11
114.4755929999999
 21
58.9167
 31
0.0
  0
LINE
  5
131
330
1E
100
AcDbEntity
  8
0
100
AcDbLine
 10
112.142593
 20
58.25
 30
0.0
 11
113.3925929999999
 21
58.4167
 31
0.0
  0
LINE
  5
133
330
1E
100
AcDbEntity
  8
0
100
AcDbLine
 10
108.0595929999999
 20
60.6667
 30
0.0
 11
108.8095929999999
 21
59.6667
 31
0.0
  0
LINE
  5
134
330
1E
100
AcDbEntity
  8
0
100
AcDbLine
 10
107.5595929999999
 20
61.75
 30
0.0
 11
108.0595929999999
 21
60.6667
 31
0.0
  0
LINE
  5
138
330
1E
100
AcDbEntity
  8
0
100
AcDbLine
 10
107.3925929999999
 20
63.0
 30
0.0
 11
107.5595929999999
 21
64.25
 31
0.0
  0
LINE
  5
139
330
1E
100
AcDbEntity
  8
0
100
AcDbLine
 10
107.3925929999999
 20
63.0
 30
0.0
 11
107.5595929999999
 21
61.75
 31
0.0
  0
LINE
  5
13A
330
1E
100
AcDbEntity
  8
0
100
AcDbLine
 10
107.8095929999999
 20
60.5
 30
0.0
 11
108.6425929999999
 21
59.5
 31
0.0
  0
LINE
  5
13B
330
1E
100
AcDbEntity
  8
0
100
AcDbLine
 10
107.309593
 20
61.75
 30
0.0
 11
107.8095929999999
 21
60.5
 31
0.0
  0
LINE
  5
13C
330
1E
100
AcDbEntity
  8
0
100
AcDbLine
 10
107.309593
 20
64.25
 30
0.0
 11
107.8095929999999
 21
65.5
 31
0.0
  0
LINE
  5
13D
330
1E
100
AcDbEntity
  8
0
100
AcDbLine
 10
107.5595929999999
 20
64.25
 30
0.0
 11
108.0595929999999
 21
65.33329999999999
 31
0.0
  0
LINE
  5
13E
330
1E
100
AcDbEntity
  8
0
100
AcDbLine
 10
108.0595929999999
 20
65.33329999999999
 30
0.0
 11
108.8095929999999
 21
66.33329999999999
 31
0.0
  0
LINE
  5
143
330
1E
100
AcDbEntity
  8
0
100
AcDbLine
 10
107.8095929999999
 20
65.5
 30
0.0
 11
108.6425929999999
 21
66.5
 31
0.0
  0
LINE
  5
144
330
1E
100
AcDbEntity
  8
0
100
AcDbLine
 10
107.1425929999999
 20
63.0
 30
0.0
 11
107.309593
 21
61.75
 31
0.0
  0
LINE
  5
145
330
1E
100
AcDbEntity
  8
0
100
AcDbLine
 10
107.1425929999999
 20
63.0
 30
0.0
 11
107.309593
 21
64.25
 31
0.0
  0
LINE
  5
149
330
1E
100
AcDbEntity
  8
0
100
AcDbLine
 10
114.4755929999999
 20
58.9167
 30
0.0
 11
115.4755929999999
 21
59.6667
 31
0.0
  0
LINE
  5
14B
330
1E
100
AcDbEntity
  8
0
100
AcDbLine
 10
109.6425929999999
 20
67.33329999999999
 30
0.0
 11
110.8925929999999
 21
67.83329999999999
 31
0.0
  0
LINE
  5
14C
330
1E
100
AcDbEntity
  8
0
100
AcDbLine
 10
108.8095929999999
 20
66.33329999999999
 30
0.0
 11
109.8095929999999
 21
67.0833
 31
0.0
  0
LINE
  5
14D
330
1E
100
AcDbEntity
  8
0
100
AcDbLine
 10
109.8095929999999
 20
67.0833
 30
0.0
 11
110.8925929999999
 21
67.58329999999999
 31
0.0
  0
LINE
  5
14E
330
1E
100
AcDbEntity
  8
0
100
AcDbLine
 10
110.8925929999999
 20
67.58329999999999
 30
0.0
 11
112.142593
 21
67.75
 31
0.0
  0
LINE
  5
14F
330
1E
100
AcDbEntity
  8
0
100
AcDbLine
 10
108.6425929999999
 20
66.5
 30
0.0
 11
109.6425929999999
 21
67.33329999999999
 31
0.0
  0
LINE
  5
150
330
1E
100
AcDbEntity
  8
0
100
AcDbLine
 10
110.8925929999999
 20
67.83329999999999
 30
0.0
 11
112.142593
 21
68.0
 31
0.0
  0
LINE
  5
151
330
1E
100
AcDbEntity
  8
0
100
AcDbLine
 10
114.4755929999999
 20
67.0833
 30
0.0
 11
115.4755929999999
 21
66.33329999999999
 31
0.0
  0
LINE
  5
152
330
1E
100
AcDbEntity
  8
0
100
AcDbLine
 10
113.3925929999999
 20
67.83329999999999
 30
0.0
 11
114.6425929999999
 21
67.33329999999999
 31
0.0
  0
LINE
  5
153
330
1E
100
AcDbEntity
  8
0
100
AcDbLine
 10
113.3925929999999
 20
67.58329999999999
 30
0.0
 11
114.4755929999999
 21
67.0833
 31
0.0
  0
LINE
  5
154
330
1E
100
AcDbEntity
  8
0
100
AcDbLine
 10
112.142593
 20
67.75
 30
0.0
 11
113.3925929999999
 21
67.58329999999999
 31
0.0
  0
LINE
  5
156
330
1E
100
AcDbEntity
  8
0
100
AcDbLine
 10
114.6425929999999
 20
67.33329999999999
 30
0.0
 11
115.6425929999999
 21
66.5
 31
0.0
  0
LINE
  5
158
330
1E
100
AcDbEntity
  8
0
100
AcDbLine
 10
112.142593
 20
68.0
 30
0.0
 11
113.3925929999999
 21
67.83329999999999
 31
0.0
  0
LINE
  5
15B
330
1E
100
AcDbEntity
  8
0
100
AcDbLine
 10
114.6425929999999
 20
58.6667
 30
0.0
 11
115.6425929999999
 21
59.5
 31
0.0
  0
LINE
  5
15C
330
1E
100
AcDbEntity
  8
0
100
AcDbLine
 10
113.3925929999999
 20
58.1667
 30
0.0
 11
114.6425929999999
 21
58.6667
 31
0.0
  0
LINE
  5
15D
330
1E
100
AcDbEntity
  8
0
100
AcDbLine
 10
105.7145929999999
 20
71.3871
 30
0.0
 11
108.8205929999999
 21
71.3871
 31
0.0
  0
LINE
  5
15E
330
1E
100
AcDbEntity
  8
0
100
AcDbLine
 10
108.8205929999999
 20
71.3871
 30
0.0
 11
112.142593
 21
71.3871
 31
0.0
  0
LINE
  5
15F
330
1E
100
AcDbEntity
  8
0
100
AcDbLine
 10
115.6425929999999
 20
59.5
 30
0.0
 11
116.4755929999999
 21
60.5
 31
0.0
  0
LINE
  5
160
330
1E
100
AcDbEntity
  8
0
100
AcDbLine
 10
115.4755929999999
 20
59.6667
 30
0.0
 11
116.2255929999999
 21
60.6667
 31
0.0
  0
LINE
  5
161
330
1E
100
AcDbEntity
  8
0
100
AcDbLine
 10
116.2255929999999
 20
60.6667
 30
0.0
 11
116.7255929999999
 21
61.75
 31
0.0
  0
LINE
  5
162
330
1E
100
AcDbEntity
  8
0
100
AcDbLine
 10
116.7255929999999
 20
61.75
 30
0.0
 11
116.8925929999999
 21
63.0
 31
0.0
  0
LINE
  5
163
330
1E
100
AcDbEntity
  8
0
100
AcDbLine
 10
115.6425929999999
 20
66.5
 30
0.0
 11
116.4755929999999
 21
65.5
 31
0.0
  0
LINE
  5
164
330
1E
100
AcDbEntity
  8
0
100
AcDbLine
 10
115.4755929999999
 20
66.33329999999999
 30
0.0
 11
116.2255929999999
 21
65.33329999999999
 31
0.0
  0
LINE
  5
165
330
1E
100
AcDbEntity
  8
0
100
AcDbLine
 10
116.4755929999999
 20
65.5
 30
0.0
 11
116.9755929999999
 21
64.25
 31
0.0
  0
LINE
  5
166
330
1E
100
AcDbEntity
  8
0
100
AcDbLine
 10
116.2255929999999
 20
65.33329999999999
 30
0.0
 11
116.7255929999999
 21
64.25
 31
0.0
  0
LINE
  5
167
330
1E
100
AcDbEntity
  8
0
100
AcDbLine
 10
116.7255929999999
 20
64.25
 30
0.0
 11
116.8925929999999
 21
63.0
 31
0.0
  0
LINE
  5
168
330
1E
100
AcDbEntity
  8
0
100
AcDbLine
 10
116.9755929999999
 20
64.25
 30
0.0
 11
117.1425929999999
 21
63.0
 31
0.0
  0
LINE
  5
169
330
1E
100
AcDbEntity
  8
0
100
AcDbLine
 10
116.4755929999999
 20
60.5
 30
0.0
 11
116.9755929999999
 21
61.75
 31
0.0
  0
LINE
  5
16A
330
1E
100
AcDbEntity
  8
0
100
AcDbLine
 10
116.9755929999999
 20
61.75
 30
0.0
 11
117.1425929999999
 21
63.0
 31
0.0
  0
LINE
  5
16B
330
1E
100
AcDbEntity
  8
0
100
AcDbLine
 10
118.5705929999999
 20
71.3871
 30
0.0
 11
121.3145929999999
 21
71.3871
 31
0.0
  0
LINE
  5
16C
330
1E
100
AcDbEntity
  8
0
100
AcDbLine
 10
115.464593
 20
71.3871
 30
0.0
 11
118.5705929999999
 21
71.3871
 31
0.0
  0
LINE
  5
16D
330
1E
100
AcDbEntity
  8
0
100
AcDbLine
 10
112.142593
 20
71.3871
 30
0.0
 11
115.464593
 21
71.3871
 31
0.0
  0
LINE
  5
16E
330
1E
100
AcDbEntity
  8
0
100
AcDbLine
 10
121.3145929999999
 20
71.3871
 30
0.0
 11
123.4095929999999
 21
71.3871
 31
0.0
  0
LINE
  5
16F
330
1E
100
AcDbEntity
  8
0
100
AcDbLine
 10
121.2695929999999
 20
40.0
 30
0.0
 11
123.446593
 21
40.0
 31
0.0
  0
LINE
  5
170
330
1E
100
AcDbEntity
  8
0
100
AcDbLine
 10
124.1425929999999
 20
40.0
 30
0.0
 11
124.642593
 21
40.0
 31
0.0
  0
LINE
  5
171
330
1E
100
AcDbEntity
  8
0
100
AcDbLine
 10
123.446593
 20
40.0
 30
0.0
 11
124.5945929999999
 21
40.0
 31
0.0
  0
LINE
  5
172
330
1E
100
AcDbEntity
  8
0
100
AcDbLine
 10
105.8595929999999
 20
71.7097
 30
0.0
 11
108.892593
 21
71.7097
 31
0.0
  0
LINE
  5
173
330
1E
100
AcDbEntity
  8
0
100
AcDbLine
 10
108.892593
 20
71.7097
 30
0.0
 11
112.142593
 21
71.7097
 31
0.0
  0
LINE
  5
174
330
1E
100
AcDbEntity
  8
0
100
AcDbLine
 10
118.4255929999999
 20
71.7097
 30
0.0
 11
121.0985929999999
 21
71.7097
 31
0.0
  0
LINE
  5
175
330
1E
100
AcDbEntity
  8
0
100
AcDbLine
 10
115.3925929999999
 20
71.7097
 30
0.0
 11
118.4255929999999
 21
71.7097
 31
0.0
  0
LINE
  5
176
330
1E
100
AcDbEntity
  8
0
100
AcDbLine
 10
112.142593
 20
71.7097
 30
0.0
 11
115.3925929999999
 21
71.7097
 31
0.0
  0
LINE
  5
177
330
1E
100
AcDbEntity
  8
0
100
AcDbLine
 10
121.0985929999999
 20
71.7097
 30
0.0
 11
123.120593
 21
71.7097
 31
0.0
  0
LINE
  5
178
330
1E
100
AcDbEntity
  8
0
100
AcDbLine
 10
106.581593
 20
73.0
 30
0.0
 11
109.2535929999999
 21
73.0
 31
0.0
  0
LINE
  5
179
330
1E
100
AcDbEntity
  8
0
100
AcDbLine
 10
109.2535929999999
 20
73.0
 30
0.0
 11
112.142593
 21
73.0
 31
0.0
  0
LINE
  5
17A
330
1E
100
AcDbEntity
  8
0
100
AcDbLine
 10
117.7035929999999
 20
73.0
 30
0.0
 11
120.0145929999999
 21
73.0
 31
0.0
  0
LINE
  5
17B
330
1E
100
AcDbEntity
  8
0
100
AcDbLine
 10
115.0315929999999
 20
73.0
 30
0.0
 11
117.7035929999999
 21
73.0
 31
0.0
  0
LINE
  5
17C
330
1E
100
AcDbEntity
  8
0
100
AcDbLine
 10
112.142593
 20
73.0
 30
0.0
 11
115.0315929999999
 21
73.0
 31
0.0
  0
LINE
  5
17D
330
1E
100
AcDbEntity
  8
0
100
AcDbLine
 10
120.0145929999999
 20
73.0
 30
0.0
 11
121.8205929999999
 21
73.0
 31
0.0
  0
LINE
  5
17E
330
1E
100
AcDbEntity
  8
0
100
AcDbLine
 10
121.8205929999999
 20
73.0
 30
0.0
 11
122.9035929999999
 21
73.0
 31
0.0
  0
LINE
  5
17F
330
1E
100
AcDbEntity
  8
0
100
AcDbLine
 10
106.5425929999999
 20
142.0
 30
0.0
 11
108.1425929999999
 21
142.0
 31
0.0
  0
LINE
  5
180
330
1E
100
AcDbEntity
  8
0
100
AcDbLine
 10
105.6425929999999
 20
153.0
 30
0.0
 11
108.8425929999999
 21
153.0
 31
0.0
  0
LINE
  5
181
330
1E
100
AcDbEntity
  8
0
100
AcDbLine
 10
105.4425929999999
 20
152.5
 30
0.0
 11
108.6425929999999
 21
152.5
 31
0.0
  0
LINE
  5
182
330
1E
100
AcDbEntity
  8
0
100
AcDbLine
 10
112.142593
 20
137.0
 30
0.0
 11
116.1425929999999
 21
137.0
 31
0.0
  0
LINE
  5
183
330
1E
100
AcDbEntity
  8
0
100
AcDbLine
 10
120.1425929999999
 20
136.4999999999999
 30
0.0
 11
123.442593
 21
136.4999999999999
 31
0.0
  0
LINE
  5
184
330
1E
100
AcDbEntity
  8
0
100
AcDbLine
 10
123.042593
 20
137.0
 30
0.0
 11
125.5425929999999
 21
137.0
 31
0.0
  0
LINE
  5
185
330
1E
100
AcDbEntity
  8
0
100
AcDbLine
 10
119.8425929999999
 20
137.0
 30
0.0
 11
123.042593
 21
137.0
 31
0.0
  0
LINE
  5
186
330
1E
100
AcDbEntity
  8
0
100
AcDbLine
 10
116.1425929999999
 20
137.0
 30
0.0
 11
119.8425929999999
 21
137.0
 31
0.0
  0
LINE
  5
187
330
1E
100
AcDbEntity
  8
0
100
AcDbLine
 10
116.2425929999999
 20
136.4999999999999
 30
0.0
 11
120.1425929999999
 21
136.4999999999999
 31
0.0
  0
LINE
  5
188
330
1E
100
AcDbEntity
  8
0
100
AcDbLine
 10
112.142593
 20
136.4999999999999
 30
0.0
 11
116.2425929999999
 21
136.4999999999999
 31
0.0
  0
LINE
  5
189
330
1E
100
AcDbEntity
  8
0
100
AcDbLine
 10
108.1425929999999
 20
142.0
 30
0.0
 11
110.0425929999999
 21
142.0
 31
0.0
  0
LINE
  5
18A
330
1E
100
AcDbEntity
  8
0
100
AcDbLine
 10
108.242593
 20
151.5
 30
0.0
 11
112.142593
 21
151.5
 31
0.0
  0
LINE
  5
18B
330
1E
100
AcDbEntity
  8
0
100
AcDbLine
 10
108.242593
 20
142.0
 30
0.0
 11
112.142593
 21
142.0
 31
0.0
  0
LINE
  5
18C
330
1E
100
AcDbEntity
  8
0
100
AcDbLine
 10
120.1425929999999
 20
137.5
 30
0.0
 11
120.1425929999999
 21
142.0
 31
0.0
  0
LINE
  5
18D
330
1E
100
AcDbEntity
  8
0
100
AcDbLine
 10
122.742593
 20
137.5
 30
0.0
 11
125.1425929999999
 21
137.5
 31
0.0
  0
LINE
  5
18E
330
1E
100
AcDbEntity
  8
0
100
AcDbLine
 10
119.6425929999999
 20
137.5
 30
0.0
 11
122.742593
 21
137.5
 31
0.0
  0
LINE
  5
18F
330
1E
100
AcDbEntity
  8
0
100
AcDbLine
 10
116.0425929999999
 20
137.5
 30
0.0
 11
119.6425929999999
 21
137.5
 31
0.0
  0
LINE
  5
190
330
1E
100
AcDbEntity
  8
0
100
AcDbLine
 10
112.142593
 20
152.0
 30
0.0
 11
115.8425929999999
 21
152.0
 31
0.0
  0
LINE
  5
191
330
1E
100
AcDbEntity
  8
0
100
AcDbLine
 10
112.142593
 20
151.5
 30
0.0
 11
116.0425929999999
 21
151.5
 31
0.0
  0
LINE
  5
192
330
1E
100
AcDbEntity
  8
0
100
AcDbLine
 10
117.742593
 20
142.0
 30
0.0
 11
119.0425929999999
 21
142.0
 31
0.0
  0
LINE
  5
193
330
1E
100
AcDbEntity
  8
0
100
AcDbLine
 10
119.0425929999999
 20
142.0
 30
0.0
 11
119.8425929999999
 21
142.0
 31
0.0
  0
LINE
  5
194
330
1E
100
AcDbEntity
  8
0
100
AcDbLine
 10
116.1425929999999
 20
142.0
 30
0.0
 11
117.742593
 21
142.0
 31
0.0
  0
LINE
  5
195
330
1E
100
AcDbEntity
  8
0
100
AcDbLine
 10
114.2425929999999
 20
142.0
 30
0.0
 11
116.1425929999999
 21
142.0
 31
0.0
  0
LINE
  5
196
330
1E
100
AcDbEntity
  8
0
100
AcDbLine
 10
119.8425929999999
 20
142.0
 30
0.0
 11
120.1425929999999
 21
142.0
 31
0.0
  0
LINE
  5
197
330
1E
100
AcDbEntity
  8
0
100
AcDbLine
 10
120.1425929999999
 20
142.0
 30
0.0
 11
122.742593
 21
142.0
 31
0.0
  0
LINE
  5
198
330
1E
100
AcDbEntity
  8
0
100
AcDbLine
 10
120.1425929999999
 20
142.0
 30
0.0
 11
120.1425929999999
 21
137.5
 31
0.0
  0
LINE
  5
199
330
1E
100
AcDbEntity
  8
0
100
AcDbLine
 10
122.742593
 20
142.0
 30
0.0
 11
125.1425929999999
 21
142.0
 31
0.0
  0
LINE
  5
19A
330
1E
100
AcDbEntity
  8
0
100
AcDbLine
 10
119.6425929999999
 20
142.0
 30
0.0
 11
122.742593
 21
142.0
 31
0.0
  0
LINE
  5
19B
330
1E
100
AcDbEntity
  8
0
100
AcDbLine
 10
115.8425929999999
 20
152.0
 30
0.0
 11
119.3425929999999
 21
152.0
 31
0.0
  0
LINE
  5
19C
330
1E
100
AcDbEntity
  8
0
100
AcDbLine
 10
122.742593
 20
151.5
 30
0.0
 11
125.1425929999999
 21
151.5
 31
0.0
  0
LINE
  5
19D
330
1E
100
AcDbEntity
  8
0
100
AcDbLine
 10
118.8425929999999
 20
152.0
 30
0.0
 11
119.3425929999999
 21
152.0
 31
0.0
  0
LINE
  5
19E
330
1E
100
AcDbEntity
  8
0
100
AcDbLine
 10
122.3425929999999
 20
152.0
 30
0.0
 11
124.742593
 21
152.0
 31
0.0
  0
LINE
  5
19F
330
1E
100
AcDbEntity
  8
0
100
AcDbLine
 10
119.3425929999999
 20
152.0
 30
0.0
 11
122.3425929999999
 21
152.0
 31
0.0
  0
LINE
  5
1A0
330
1E
100
AcDbEntity
  8
0
100
AcDbLine
 10
119.6425929999999
 20
151.5
 30
0.0
 11
122.742593
 21
151.5
 31
0.0
  0
LINE
  5
1A1
330
1E
100
AcDbEntity
  8
0
100
AcDbLine
 10
116.0425929999999
 20
151.5
 30
0.0
 11
119.6425929999999
 21
151.5
 31
0.0
  0
LINE
  5
1A2
330
1E
100
AcDbEntity
  8
0
100
AcDbLine
 10
116.0425929999999
 20
142.0
 30
0.0
 11
119.6425929999999
 21
142.0
 31
0.0
  0
LINE
  5
1A3
330
1E
100
AcDbEntity
  8
0
100
AcDbLine
 10
112.142593
 20
142.0
 30
0.0
 11
116.0425929999999
 21
142.0
 31
0.0
  0
LINE
  5
1A4
330
1E
100
AcDbEntity
  8
0
100
AcDbLine
 10
112.142593
 20
142.0
 30
0.0
 11
114.2425929999999
 21
142.0
 31
0.0
  0
LINE
  5
1A5
330
1E
100
AcDbEntity
  8
0
100
AcDbLine
 10
112.142593
 20
137.5
 30
0.0
 11
116.0425929999999
 21
137.5
 31
0.0
  0
LINE
  5
1A6
330
1E
100
AcDbEntity
  8
0
100
AcDbLine
 10
110.0425929999999
 20
142.0
 30
0.0
 11
112.142593
 21
142.0
 31
0.0
  0
LINE
  5
1A7
330
1E
100
AcDbEntity
  8
0
100
AcDbLine
 10
112.142593
 20
153.0
 30
0.0
 11
115.4425929999999
 21
153.0
 31
0.0
  0
LINE
  5
1A8
330
1E
100
AcDbEntity
  8
0
100
AcDbLine
 10
121.6425929999999
 20
152.5
 30
0.0
 11
123.842593
 21
152.5
 31
0.0
  0
LINE
  5
1A9
330
1E
100
AcDbEntity
  8
0
100
AcDbLine
 10
118.8425929999999
 20
152.5
 30
0.0
 11
121.6425929999999
 21
152.5
 31
0.0
  0
LINE
  5
1AA
330
1E
100
AcDbEntity
  8
0
100
AcDbLine
 10
121.3425929999999
 20
153.0
 30
0.0
 11
123.442593
 21
153.0
 31
0.0
  0
LINE
  5
1AB
330
1E
100
AcDbEntity
  8
0
100
AcDbLine
 10
118.6425929999999
 20
153.0
 30
0.0
 11
121.3425929999999
 21
153.0
 31
0.0
  0
LINE
  5
1AC
330
1E
100
AcDbEntity
  8
0
100
AcDbLine
 10
115.4425929999999
 20
153.0
 30
0.0
 11
118.6425929999999
 21
153.0
 31
0.0
  0
LINE
  5
1AD
330
1E
100
AcDbEntity
  8
0
100
AcDbLine
 10
115.6425929999999
 20
152.5
 30
0.0
 11
118.8425929999999
 21
152.5
 31
0.0
  0
LINE
  5
1AE
330
1E
100
AcDbEntity
  8
0
100
AcDbLine
 10
112.142593
 20
152.5
 30
0.0
 11
115.6425929999999
 21
152.5
 31
0.0
  0
LINE
  5
1AF
330
1E
100
AcDbEntity
  8
0
100
AcDbLine
 10
108.8425929999999
 20
153.0
 30
0.0
 11
112.142593
 21
153.0
 31
0.0
  0
LINE
  5
1B0
330
1E
100
AcDbEntity
  8
0
100
AcDbLine
 10
108.6425929999999
 20
152.5
 30
0.0
 11
112.142593
 21
152.5
 31
0.0
  0
LINE
  5
1B1
330
1E
100
AcDbEntity
  8
0
100
AcDbLine
 10
108.4425929999999
 20
152.0
 30
0.0
 11
112.142593
 21
152.0
 31
0.0
  0
LINE
  5
1B2
330
1E
100
AcDbEntity
  8
0
100
AcDbLine
 10
108.242593
 20
137.5
 30
0.0
 11
112.142593
 21
137.5
 31
0.0
  0
LINE
  5
1B3
330
1E
100
AcDbEntity
  8
0
100
AcDbLine
 10
108.1425929999999
 20
137.0
 30
0.0
 11
112.142593
 21
137.0
 31
0.0
  0
LINE
  5
1B4
330
1E
100
AcDbEntity
  8
0
100
AcDbLine
 10
108.042593
 20
136.4999999999999
 30
0.0
 11
112.142593
 21
136.4999999999999
 31
0.0
  0
LINE
  5
1B5
330
1E
100
AcDbEntity
  8
0
100
AcDbLine
 10
122.9035929999999
 20
73.0
 30
0.0
 11
123.3365929999999
 21
73.0
 31
0.0
  0
LINE
  5
1B6
330
1E
100
AcDbEntity
  8
0
100
AcDbLine
 10
123.442593
 20
153.0
 30
0.0
 11
124.642593
 21
153.0
 31
0.0
  0
LINE
  5
1B7
330
1E
100
AcDbEntity
  8
0
100
AcDbLine
 10
123.842593
 20
152.5
 30
0.0
 11
125.1425929999999
 21
152.5
 31
0.0
  0
LINE
  5
1B8
330
1E
100
AcDbEntity
  8
0
100
AcDbLine
 10
123.442593
 20
136.4999999999999
 30
0.0
 11
126.042593
 21
136.4999999999999
 31
0.0
  0
LINE
  5
1B9
330
1E
100
AcDbEntity
  8
0
100
AcDbLine
 10
123.3365929999999
 20
73.0
 30
0.0
 11
123.6985929999999
 21
72.6774
 31
0.0
  0
LINE
  5
1BA
330
1E
100
AcDbEntity
  8
0
100
AcDbLine
 10
123.6985929999999
 20
72.6774
 30
0.0
 11
124.059593
 21
72.03230000000001
 31
0.0
  0
LINE
  5
1BB
330
1E
100
AcDbEntity
  8
0
100
AcDbLine
 10
124.059593
 20
72.03230000000001
 30
0.0
 11
124.4205929999999
 21
71.7097
 31
0.0
  0
LINE
  5
1BC
330
1E
100
AcDbEntity
  8
0
100
AcDbLine
 10
123.120593
 20
71.7097
 30
0.0
 11
124.348593
 21
71.7097
 31
0.0
  0
LINE
  5
1BD
330
1E
100
AcDbEntity
  8
0
100
AcDbLine
 10
124.348593
 20
71.7097
 30
0.0
 11
124.7815929999999
 21
71.7097
 31
0.0
  0
LINE
  5
1BE
330
1E
100
AcDbEntity
  8
0
100
AcDbLine
 10
123.4095929999999
 20
71.3871
 30
0.0
 11
124.6365929999999
 21
71.3871
 31
0.0
  0
LINE
  5
1BF
330
1E
100
AcDbEntity
  8
0
100
AcDbLine
 10
124.642593
 20
40.0
 30
0.0
 11
125.1425929999999
 21
40.0
 31
0.0
  0
LINE
  5
1C0
330
1E
100
AcDbEntity
  8
0
100
AcDbLine
 10
124.642593
 20
40.0
 30
0.0
 11
124.642593
 21
39.0
 31
0.0
  0
LINE
  5
1C1
330
1E
100
AcDbEntity
  8
0
100
AcDbLine
 10
125.1425929999999
 20
40.0
 30
0.0
 11
125.1425929999999
 21
71.3871
 31
0.0
  0
LINE
  5
1C2
330
1E
100
AcDbEntity
  8
0
100
AcDbLine
 10
124.6365929999999
 20
71.3871
 30
0.0
 11
125.1425929999999
 21
71.3871
 31
0.0
  0
LINE
  5
1C3
330
1E
100
AcDbEntity
  8
0
100
AcDbLine
 10
124.642593
 20
153.0
 30
0.0
 11
125.1425929999999
 21
153.0
 31
0.0
  0
LINE
  5
1C4
330
1E
100
AcDbEntity
  8
0
100
AcDbLine
 10
124.742593
 20
152.0
 30
0.0
 11
126.1425929999999
 21
152.0
 31
0.0
  0
LINE
  5
1C5
330
1E
100
AcDbEntity
  8
0
100
AcDbLine
 10
126.042593
 20
136.4999999999999
 30
0.0
 11
127.5425929999999
 21
136.4999999999999
 31
0.0
  0
LINE
  5
1C6
330
1E
100
AcDbEntity
  8
0
100
AcDbLine
 10
125.1425929999999
 20
153.0
 30
0.0
 11
125.642593
 21
152.5
 31
0.0
  0
LINE
  5
1C7
330
1E
100
AcDbEntity
  8
0
100
AcDbLine
 10
125.642593
 20
152.5
 30
0.0
 11
125.642593
 21
152.0
 31
0.0
  0
LINE
  5
1C8
330
1E
100
AcDbEntity
  8
0
100
AcDbLine
 10
125.1425929999999
 20
152.5
 30
0.0
 11
125.642593
 21
152.5
 31
0.0
  0
LINE
  5
1C9
330
1E
100
AcDbEntity
  8
0
100
AcDbLine
 10
125.642593
 20
152.0
 30
0.0
 11
125.642593
 21
152.5
 31
0.0
  0
LINE
  5
1CA
330
1E
100
AcDbEntity
  8
0
100
AcDbLine
 10
126.642593
 20
152.0
 30
0.0
 11
127.1425929999999
 21
151.5
 31
0.0
  0
LINE
  5
1CB
330
1E
100
AcDbEntity
  8
0
100
AcDbLine
 10
126.1425929999999
 20
152.0
 30
0.0
 11
126.642593
 21
152.0
 31
0.0
  0
LINE
  5
1CC
330
1E
100
AcDbEntity
  8
0
100
AcDbLine
 10
125.1425929999999
 20
151.5
 30
0.0
 11
126.642593
 21
151.5
 31
0.0
  0
LINE
  5
1CD
330
1E
100
AcDbEntity
  8
0
100
AcDbLine
 10
126.642593
 20
151.5
 30
0.0
 11
127.1425929999999
 21
151.5
 31
0.0
  0
LINE
  5
1CE
330
1E
100
AcDbEntity
  8
0
100
AcDbLine
 10
125.1425929999999
 20
142.0
 30
0.0
 11
126.642593
 21
142.0
 31
0.0
  0
LINE
  5
1CF
330
1E
100
AcDbEntity
  8
0
100
AcDbLine
 10
126.642593
 20
142.0
 30
0.0
 11
127.1425929999999
 21
142.0
 31
0.0
  0
LINE
  5
1D0
330
1E
100
AcDbEntity
  8
0
100
AcDbLine
 10
125.1425929999999
 20
137.5
 30
0.0
 11
126.642593
 21
137.5
 31
0.0
  0
LINE
  5
1D1
330
1E
100
AcDbEntity
  8
0
100
AcDbLine
 10
126.642593
 20
137.5
 30
0.0
 11
127.1425929999999
 21
137.5
 31
0.0
  0
LINE
  5
1D2
330
1E
100
AcDbEntity
  8
0
100
AcDbLine
 10
125.5425929999999
 20
137.0
 30
0.0
 11
127.042593
 21
137.0
 31
0.0
  0
LINE
  5
1D3
330
1E
100
AcDbEntity
  8
0
100
AcDbLine
 10
127.1425929999999
 20
137.0
 30
0.0
 11
127.1425929999999
 21
137.5
 31
0.0
  0
LINE
  5
1D4
330
1E
100
AcDbEntity
  8
0
100
AcDbLine
 10
127.1425929999999
 20
151.5
 30
0.0
 11
127.1425929999999
 21
142.0
 31
0.0
  0
LINE
  5
1D5
330
1E
100
AcDbEntity
  8
0
100
AcDbLine
 10
127.1425929999999
 20
142.0
 30
0.0
 11
127.1425929999999
 21
151.5
 31
0.0
  0
LINE
  5
1D6
330
1E
100
AcDbEntity
  8
0
100
AcDbLine
 10
127.1425929999999
 20
137.5
 30
0.0
 11
127.1425929999999
 21
137.0
 31
0.0
  0
LINE
  5
1D7
330
1E
100
AcDbEntity
  8
0
100
AcDbLine
 10
127.642593
 20
137.0
 30
0.0
 11
128.142593
 21
136.4999999999999
 31
0.0
  0
LINE
  5
1D8
330
1E
100
AcDbEntity
  8
0
100
AcDbLine
 10
127.042593
 20
137.0
 30
0.0
 11
127.642593
 21
137.0
 31
0.0
  0
LINE
  5
1D9
330
1E
100
AcDbEntity
  8
0
100
AcDbLine
 10
127.5425929999999
 20
136.4999999999999
 30
0.0
 11
128.142593
 21
136.4999999999999
 31
0.0
  0
LINE
  5
1DA
330
1E
100
AcDbEntity
  8
0
100
AcDbLine
 10
124.7815929999999
 20
71.7097
 30
0.0
 11
125.1425929999999
 21
71.3871
 31
0.0
  0
LINE
  5
1DB
330
1E
100
AcDbEntity
  8
0
100
AcDbLine
 10
125.1425929999999
 20
71.3871
 30
0.0
 11
125.1425929999999
 21
40.0
 31
0.0
  0
LINE
  5
1DC
330
1E
100
AcDbEntity
  8
0
100
AcDbLine
 10
124.5945929999999
 20
40.0
 30
0.0
 11
125.1425929999999
 21
40.0
 31
0.0
  0
LINE
  5
1DD
330
1E
100
AcDbEntity
  8
0
100
AcDbLine
 10
108.8425929999999
 20
39.0
 30
0.0
 11
112.142593
 21
39.0
 31
0.0
  0
LINE
  5
1DE
330
1E
100
AcDbEntity
  8
0
100
AcDbLine
 10
105.242593
 20
-0.0000000000000088
 30
0.0
 11
112.142593
 21
-0.0000000000000092
 31
0.0
  0
ENDSEC
  0
SECTION
  2
OBJECTS
  0
DICTIONARY
  5
C
330
0
100
AcDbDictionary
  3
ACAD_GROUP
350
D
  3
ACAD_LAYOUT
350
19
  3
ACAD_MLINESTYLE
350
16
  3
ACAD_PLOTSETTINGS
350
18
  3
ACAD_PLOTSTYLENAME
350
E
  3
ACDBHEADERROUNDTRIPXREC
350
1E6
  3
ACDBVARIABLEDICTIONARY
350
1E3
  0
DICTIONARY
  5
208
330
1E
100
AcDbDictionary
280
     1
  3
ACAD_LAYOUTSELFREF
360
209
  0
DICTIONARY
  5
206
330
1A
100
AcDbDictionary
280
     1
  3
ACAD_LAYOUTSELFREF
360
207
  0
DICTIONARY
  5
D
102
{ACAD_REACTORS
330
C
102
}
330
C
100
AcDbDictionary
  0
DICTIONARY
  5
19
102
{ACAD_REACTORS
330
C
102
}
330
C
100
AcDbDictionary
  0
DICTIONARY
  5
16
102
{ACAD_REACTORS
330
C
102
}
330
C
100
AcDbDictionary
  3
STANDARD
350
17
  0
DICTIONARY
  5
18
102
{ACAD_REACTORS
330
C
102
}
330
C
100
AcDbDictionary
  0
ACDBDICTIONARYWDFLT
  5
E
102
{ACAD_REACTORS
330
C
102
}
330
C
100
AcDbDictionary
281
     1
  3
Normal
350
F
100
AcDbDictionaryWithDefault
340
F
  0
DICTIONARY
  5
1E6
102
{ACAD_REACTORS
330
C
102
}
330
C
100
AcDbDictionary
  3
CEPSNTYPE
350
1F0
  3
FINGERPRINTGUID
350
1F1
  3
HYPERLINKBASE
350
1E9
  3
INSUNITS
350
1EF
  3
LAYOUTDICT
350
1EB
  3
LWETCUNION
350
1EE
  3
PLOTSETDICT
350
1EC
  3
PLOTSTYLNAMDICT
350
1ED
  3
PSVPSCALE
350
1F3
  3
PUCSBASE
350
1F6
  3
PUCSORGBACK
350
1FC
  3
PUCSORGBOTTOM
350
1F8
  3
PUCSORGFRONT
350
1FB
  3
PUCSORGLEFT
350
1F9
  3
PUCSORGRIGHT
350
1FA
  3
PUCSORGTOP
350
1F7
  3
PUCSORTHOREF
350
1F4
  3
PUCSORTHOVIEW
350
1F5
  3
STYLESHEET
350
1EA
  3
TSTACKALIGN
350
1E7
  3
TSTACKSIZE
350
1E8
  3
UCSBASE
350
1FF
  3
UCSORGBACK
350
205
  3
UCSORGBOTTOM
350
201
  3
UCSORGFRONT
350
204
  3
UCSORGLEFT
350
202
  3
UCSORGRIGHT
350
203
  3
UCSORGTOP
350
200
  3
UCSORTHOREF
350
1FD
  3
UCSORTHOVIEW
350
1FE
  3
VERSIONGUID
350
1F2
  0
DICTIONARY
  5
1E3
102
{ACAD_REACTORS
330
C
102
}
330
C
100
AcDbDictionary
  3
DIMASSOC
350
1E4
  0
XRECORD
  5
209
102
{ACAD_REACTORS
330
208
102
}
330
208
100
AcDbXrecord
340
1E
  0
XRECORD
  5
207
102
{ACAD_REACTORS
330
206
102
}
330
206
100
AcDbXrecord
340
1A
  0
MLINESTYLE
  5
17
102
{ACAD_REACTORS
330
16
102
}
330
16
100
AcDbMlineStyle
  2
STANDARD
 70
     0
  3

 62
   256
 51
90.0
 52
90.0
 71
     2
 49
0.5
 62
   256
  6
BYLAYER
 49
-0.5
 62
   256
  6
BYLAYER
  0
ACDBPLACEHOLDER
  5
F
102
{ACAD_REACTORS
330
E
102
}
330
E
100
AcDbPlaceHolder
280
     0
  0
XRECORD
  5
1F0
102
{ACAD_REACTORS
330
1E6
102
}
330
1E6
100
AcDbXrecord
 90
        0
  0
XRECORD
  5
1F1
102
{ACAD_REACTORS
330
1E6
102
}
330
1E6
100
AcDbXrecord
  1
{5EAB5900-D78F-455A-89CF-3858F7A904A5}
  0
XRECORD
  5
1E9
102
{ACAD_REACTORS
330
1E6
102
}
330
1E6
100
AcDbXrecord
  1

  0
XRECORD
  5
1EF
102
{ACAD_REACTORS
330
1E6
102
}
330
1E6
100
AcDbXrecord
 90
        0
  0
XRECORD
  5
1EB
102
{ACAD_REACTORS
330
1E6
102
}
330
1E6
100
AcDbXrecord
340
19
  0
XRECORD
  5
1EE
102
{ACAD_REACTORS
330
1E6
102
}
330
1E6
100
AcDbXrecord
 90
    10781
  0
XRECORD
  5
1EC
102
{ACAD_REACTORS
330
1E6
102
}
330
1E6
100
AcDbXrecord
340
18
  0
XRECORD
  5
1ED
102
{ACAD_REACTORS
330
1E6
102
}
330
1E6
100
AcDbXrecord
340
E
  0
XRECORD
  5
1F3
102
{ACAD_REACTORS
330
1E6
102
}
330
1E6
100
AcDbXrecord
 40
0.0
  0
XRECORD
  5
1F6
102
{ACAD_REACTORS
330
1E6
102
}
330
1E6
100
AcDbXrecord
340
0
  0
XRECORD
  5
1FC
102
{ACAD_REACTORS
330
1E6
102
}
330
1E6
100
AcDbXrecord
 10
0.0
 20
0.0
 30
0.0
  0
XRECORD
  5
1F8
102
{ACAD_REACTORS
330
1E6
102
}
330
1E6
100
AcDbXrecord
 10
0.0
 20
0.0
 30
0.0
  0
XRECORD
  5
1FB
102
{ACAD_REACTORS
330
1E6
102
}
330
1E6
100
AcDbXrecord
 10
0.0
 20
0.0
 30
0.0
  0
XRECORD
  5
1F9
102
{ACAD_REACTORS
330
1E6
102
}
330
1E6
100
AcDbXrecord
 10
0.0
 20
0.0
 30
0.0
  0
XRECORD
  5
1FA
102
{ACAD_REACTORS
330
1E6
102
}
330
1E6
100
AcDbXrecord
 10
0.0
 20
0.0
 30
0.0
  0
XRECORD
  5
1F7
102
{ACAD_REACTORS
330
1E6
102
}
330
1E6
100
AcDbXrecord
 10
0.0
 20
0.0
 30
0.0
  0
XRECORD
  5
1F4
102
{ACAD_REACTORS
330
1E6
102
}
330
1E6
100
AcDbXrecord
340
0
  0
XRECORD
  5
1F5
102
{ACAD_REACTORS
330
1E6
102
}
330
1E6
100
AcDbXrecord
 70
     0
  0
XRECORD
  5
1EA
102
{ACAD_REACTORS
330
1E6
102
}
330
1E6
100
AcDbXrecord
  1

  0
XRECORD
  5
1E7
102
{ACAD_REACTORS
330
1E6
102
}
330
1E6
100
AcDbXrecord
 90
        1
  0
XRECORD
  5
1E8
102
{ACAD_REACTORS
330
1E6
102
}
330
1E6
100
AcDbXrecord
 90
       70
  0
XRECORD
  5
1FF
102
{ACAD_REACTORS
330
1E6
102
}
330
1E6
100
AcDbXrecord
340
0
  0
XRECORD
  5
205
102
{ACAD_REACTORS
330
1E6
102
}
330
1E6
100
AcDbXrecord
 10
0.0
 20
0.0
 30
0.0
  0
XRECORD
  5
201
102
{ACAD_REACTORS
330
1E6
102
}
330
1E6
100
AcDbXrecord
 10
0.0
 20
0.0
 30
0.0
  0
XRECORD
  5
204
102
{ACAD_REACTORS
330
1E6
102
}
330
1E6
100
AcDbXrecord
 10
0.0
 20
0.0
 30
0.0
  0
XRECORD
  5
202
102
{ACAD_REACTORS
330
1E6
102
}
330
1E6
100
AcDbXrecord
 10
0.0
 20
0.0
 30
0.0
  0
XRECORD
  5
203
102
{ACAD_REACTORS
330
1E6
102
}
330
1E6
100
AcDbXrecord
 10
0.0
 20
0.0
 30
0.0
  0
XRECORD
  5
200
102
{ACAD_REACTORS
330
1E6
102
}
330
1E6
100
AcDbXrecord
 10
0.0
 20
0.0
 30
0.0
  0
XRECORD
  5
1FD
102
{ACAD_REACTORS
330
1E6
102
}
330
1E6
100
AcDbXrecord
340
0
  0
XRECORD
  5
1FE
102
{ACAD_REACTORS
330
1E6
102
}
330
1E6
100
AcDbXrecord
 70
     1
  0
XRECORD
  5
1F2
102
{ACAD_REACTORS
330
1E6
102
}
330
1E6
100
AcDbXrecord
  1
{BFC6AD2F-336D-4FA6-872B-24B27E66E1FB}
  0
DICTIONARYVAR
  5
1E4
102
{ACAD_REACTORS
330
1E3
102
}
330
1E3
100
DictionaryVariables
280
     0
  1
1
  0
ENDSEC
  0
EOF
