  0
SECTION
  2
HEADER
  9
$ACADVER
  1
AC1015
  9
$ACADMAINTVER
 70
    13
  9
$DWGCODEPAGE
  3
ANSI_1252
  9
$INSBASE
 10
0.0
 20
0.0
 30
0.0
  9
$EXTMIN
 10
-0.0000000000000072
 20
0.0000000000000054
 30
0.0
  9
$EXTMAX
 10
260.0
 20
187.0
 30
0.0
  9
$LIMMIN
 10
0.0
 20
0.0
  9
$LIMMAX
 10
12.0
 20
9.0
  9
$ORTHOMODE
 70
     0
  9
$REGENMODE
 70
     1
  9
$FILLMODE
 70
     1
  9
$QTEXTMODE
 70
     0
  9
$MIRRTEXT
 70
     1
  9
$LTSCALE
 40
1.0
  9
$ATTMODE
 70
     1
  9
$TEXTSIZE
 40
0.2
  9
$TRACEWID
 40
0.05
  9
$TEXTSTYLE
  7
Standard
  9
$CLAYER
  8
0
  9
$CELTYPE
  6
Continuous
  9
$CECOLOR
 62
   256
  9
$CELTSCALE
 40
1.0
  9
$DISPSILH
 70
     0
  9
$DIMSCALE
 40
1.0
  9
$DIMASZ
 40
0.18
  9
$DIMEXO
 40
0.0625
  9
$DIMDLI
 40
0.38
  9
$DIMRND
 40
0.0
  9
$DIMDLE
 40
0.0
  9
$DIMEXE
 40
0.18
  9
$DIMTP
 40
0.0
  9
$DIMTM
 40
0.0
  9
$DIMTXT
 40
0.18
  9
$DIMCEN
 40
0.09
  9
$DIMTSZ
 40
0.0
  9
$DIMTOL
 70
     0
  9
$DIMLIM
 70
     0
  9
$DIMTIH
 70
     1
  9
$DIMTOH
 70
     1
  9
$DIMSE1
 70
     0
  9
$DIMSE2
 70
     0
  9
$DIMTAD
 70
     0
  9
$DIMZIN
 70
     0
  9
$DIMBLK
  1

  9
$DIMASO
 70
     1
  9
$DIMSHO
 70
     1
  9
$DIMPOST
  1

  9
$DIMAPOST
  1

  9
$DIMALT
 70
     0
  9
$DIMALTD
 70
     2
  9
$DIMALTF
 40
25.4
  9
$DIMLFAC
 40
1.0
  9
$DIMTOFL
 70
     0
  9
$DIMTVP
 40
0.0
  9
$DIMTIX
 70
     0
  9
$DIMSOXD
 70
     0
  9
$DIMSAH
 70
     0
  9
$DIMBLK1
  1

  9
$DIMBLK2
  1

  9
$DIMSTYLE
  2
Standard
  9
$DIMCLRD
 70
     0
  9
$DIMCLRE
 70
     0
  9
$DIMCLRT
 70
     0
  9
$DIMTFAC
 40
1.0
  9
$DIMGAP
 40
0.09
  9
$DIMJUST
 70
     0
  9
$DIMSD1
 70
     0
  9
$DIMSD2
 70
     0
  9
$DIMTOLJ
 70
     1
  9
$DIMTZIN
 70
     0
  9
$DIMALTZ
 70
     0
  9
$DIMALTTZ
 70
     0
  9
$DIMUPT
 70
     0
  9
$DIMDEC
 70
     4
  9
$DIMTDEC
 70
     4
  9
$DIMALTU
 70
     2
  9
$DIMALTTD
 70
     2
  9
$DIMTXSTY
  7
Standard
  9
$DIMAUNIT
 70
     0
  9
$DIMADEC
 70
     0
  9
$DIMALTRND
 40
0.0
  9
$DIMAZIN
 70
     0
  9
$DIMDSEP
 70
    46
  9
$DIMATFIT
 70
     3
  9
$DIMFRAC
 70
     0
  9
$DIMLDRBLK
  1

  9
$DIMLUNIT
 70
     2
  9
$DIMLWD
 70
    -2
  9
$DIMLWE
 70
    -2
  9
$DIMTMOVE
 70
     0
  9
$LUNITS
 70
     2
  9
$LUPREC
 70
     4
  9
$SKETCHINC
 40
0.1
  9
$FILLETRAD
 40
0.0
  9
$AUNITS
 70
     0
  9
$AUPREC
 70
     0
  9
$MENU
  1
.
  9
$ELEVATION
 40
0.0
  9
$PELEVATION
 40
0.0
  9
$THICKNESS
 40
0.0
  9
$LIMCHECK
 70
     0
  9
$CHAMFERA
 40
0.0
  9
$CHAMFERB
 40
0.0
  9
$CHAMFERC
 40
0.0
  9
$CHAMFERD
 40
0.0
  9
$SKPOLY
 70
     0
  9
$TDCREATE
 40
2454738.473850358
  9
$TDUCREATE
 40
2454738.390517025
  9
$TDUPDATE
 40
2454738.478520868
  9
$TDUUPDATE
 40
2454738.395187535
  9
$TDINDWG
 40
0.0046708565
  9
$TDUSRTIMER
 40
0.0046708565
  9
$USRTIMER
 70
     1
  9
$ANGBASE
 50
0.0
  9
$ANGDIR
 70
     0
  9
$PDMODE
 70
     0
  9
$PDSIZE
 40
0.0
  9
$PLINEWID
 40
0.0
  9
$SPLFRAME
 70
     0
  9
$SPLINETYPE
 70
     6
  9
$SPLINESEGS
 70
     8
  9
$HANDSEED
  5
177
  9
$SURFTAB1
 70
     6
  9
$SURFTAB2
 70
     6
  9
$SURFTYPE
 70
     6
  9
$SURFU
 70
     6
  9
$SURFV
 70
     6
  9
$UCSBASE
  2

  9
$UCSNAME
  2

  9
$UCSORG
 10
0.0
 20
0.0
 30
0.0
  9
$UCSXDIR
 10
1.0
 20
0.0
 30
0.0
  9
$UCSYDIR
 10
0.0
 20
1.0
 30
0.0
  9
$UCSORTHOREF
  2

  9
$UCSORTHOVIEW
 70
     1
  9
$UCSORGTOP
 10
0.0
 20
0.0
 30
0.0
  9
$UCSORGBOTTOM
 10
0.0
 20
0.0
 30
0.0
  9
$UCSORGLEFT
 10
0.0
 20
0.0
 30
0.0
  9
$UCSORGRIGHT
 10
0.0
 20
0.0
 30
0.0
  9
$UCSORGFRONT
 10
0.0
 20
0.0
 30
0.0
  9
$UCSORGBACK
 10
0.0
 20
0.0
 30
0.0
  9
$PUCSBASE
  2

  9
$PUCSNAME
  2

  9
$PUCSORG
 10
0.0
 20
0.0
 30
0.0
  9
$PUCSXDIR
 10
1.0
 20
0.0
 30
0.0
  9
$PUCSYDIR
 10
0.0
 20
1.0
 30
0.0
  9
$PUCSORTHOREF
  2

  9
$PUCSORTHOVIEW
 70
     0
  9
$PUCSORGTOP
 10
0.0
 20
0.0
 30
0.0
  9
$PUCSORGBOTTOM
 10
0.0
 20
0.0
 30
0.0
  9
$PUCSORGLEFT
 10
0.0
 20
0.0
 30
0.0
  9
$PUCSORGRIGHT
 10
0.0
 20
0.0
 30
0.0
  9
$PUCSORGFRONT
 10
0.0
 20
0.0
 30
0.0
  9
$PUCSORGBACK
 10
0.0
 20
0.0
 30
0.0
  9
$USERI1
 70
     0
  9
$USERI2
 70
     0
  9
$USERI3
 70
     0
  9
$USERI4
 70
     0
  9
$USERI5
 70
     0
  9
$USERR1
 40
0.0
  9
$USERR2
 40
0.0
  9
$USERR3
 40
0.0
  9
$USERR4
 40
0.0
  9
$USERR5
 40
0.0
  9
$WORLDVIEW
 70
     1
  9
$SHADEDGE
 70
     3
  9
$SHADEDIF
 70
    70
  9
$TILEMODE
 70
     1
  9
$MAXACTVP
 70
    64
  9
$PINSBASE
 10
0.0
 20
0.0
 30
0.0
  9
$PLIMCHECK
 70
     0
  9
$PEXTMIN
 10
1.000000000000000E+20
 20
1.000000000000000E+20
 30
1.000000000000000E+20
  9
$PEXTMAX
 10
-1.000000000000000E+20
 20
-1.000000000000000E+20
 30
-1.000000000000000E+20
  9
$PLIMMIN
 10
0.0
 20
0.0
  9
$PLIMMAX
 10
12.0
 20
9.0
  9
$UNITMODE
 70
     0
  9
$VISRETAIN
 70
     1
  9
$PLINEGEN
 70
     0
  9
$PSLTSCALE
 70
     1
  9
$TREEDEPTH
 70
  3020
  9
$CMLSTYLE
  2
Standard
  9
$CMLJUST
 70
     0
  9
$CMLSCALE
 40
1.0
  9
$PROXYGRAPHICS
 70
     1
  9
$MEASUREMENT
 70
     0
  9
$CELWEIGHT
370
    -1
  9
$ENDCAPS
280
     0
  9
$JOINSTYLE
280
     0
  9
$LWDISPLAY
290
     0
  9
$INSUNITS
 70
     0
  9
$HYPERLINKBASE
  1

  9
$STYLESHEET
  1

  9
$XEDIT
290
     1
  9
$CEPSNTYPE
380
     0
  9
$PSTYLEMODE
290
     1
  9
$FINGERPRINTGUID
  2
{7F045B21-A154-46F9-A18A-947D56585D82}
  9
$VERSIONGUID
  2
{5A06E04E-A417-434C-A782-D6B9E1FBC8F1}
  9
$EXTNAMES
290
     1
  9
$PSVPSCALE
 40
0.0
  9
$OLESTARTUP
290
     0
  0
ENDSEC
  0
SECTION
  2
CLASSES
  0
CLASS
  1
ACDBDICTIONARYWDFLT
  2
AcDbDictionaryWithDefault
  3
AutoCAD 2000
 90
        0
280
     0
281
     0
  0
CLASS
  1
ACDBPLACEHOLDER
  2
AcDbPlaceHolder
  3
AutoCAD 2000
 90
        0
280
     0
281
     0
  0
CLASS
  1
LAYOUT
  2
AcDbLayout
  3
AutoCAD 2000
 90
        0
280
     0
281
     0
  0
CLASS
  1
DICTIONARYVAR
  2
AcDbDictionaryVar
  3
AutoCAD 2000
 90
        0
280
     0
281
     0
  0
ENDSEC
  0
SECTION
  2
TABLES
  0
TABLE
  2
VPORT
  5
8
330
0
100
AcDbSymbolTable
 70
     2
  0
VPORT
  5
176
330
8
100
AcDbSymbolTableRecord
100
AcDbViewportTableRecord
  2
*Active
 70
     0
 10
0.0
 20
0.0
 11
1.0
 21
1.0
 12
130.0
 22
93.49999999999999
 13
0.0
 23
0.0
 14
1.0
 24
1.0
 15
0.0
 25
0.0
 16
0.0
 26
0.0
 36
1.0
 17
0.0
 27
0.0
 37
0.0
 40
188.4347826086956
 41
2.078104993597951
 42
50.0
 43
0.0
 44
0.0
 50
0.0
 51
0.0
 71
     0
 72
   100
 73
     1
 74
     3
 75
     0
 76
     0
 77
     0
 78
     0
281
     0
 65
     1
110
0.0
120
0.0
130
0.0
111
1.0
121
0.0
131
0.0
112
0.0
122
1.0
132
0.0
 79
     1
146
0.0
  0
ENDTAB
  0
TABLE
  2
LTYPE
  5
5
330
0
100
AcDbSymbolTable
 70
     1
  0
LTYPE
  5
13
330
5
100
AcDbSymbolTableRecord
100
AcDbLinetypeTableRecord
  2
ByBlock
 70
     0
  3

 72
    65
 73
     0
 40
0.0
  0
LTYPE
  5
14
330
5
100
AcDbSymbolTableRecord
100
AcDbLinetypeTableRecord
  2
ByLayer
 70
     0
  3

 72
    65
 73
     0
 40
0.0
  0
LTYPE
  5
15
330
5
100
AcDbSymbolTableRecord
100
AcDbLinetypeTableRecord
  2
Continuous
 70
     0
  3
Solid line
 72
    65
 73
     0
 40
0.0
  0
ENDTAB
  0
TABLE
  2
LAYER
  5
2
330
0
100
AcDbSymbolTable
 70
     1
  0
LAYER
  5
10
330
2
100
AcDbSymbolTableRecord
100
AcDbLayerTableRecord
  2
0
 70
     0
 62
     7
  6
Continuous
370
    -3
390
F
  0
ENDTAB
  0
TABLE
  2
STYLE
  5
3
330
0
100
AcDbSymbolTable
 70
     1
  0
STYLE
  5
11
330
3
100
AcDbSymbolTableRecord
100
AcDbTextStyleTableRecord
  2
Standard
 70
     0
 40
0.0
 41
1.0
 50
0.0
 71
     0
 42
0.2
  3
txt
  4

  0
ENDTAB
  0
TABLE
  2
VIEW
  5
6
330
0
100
AcDbSymbolTable
 70
     0
  0
ENDTAB
  0
TABLE
  2
UCS
  5
7
330
0
100
AcDbSymbolTable
 70
     0
  0
ENDTAB
  0
TABLE
  2
APPID
  5
9
330
0
100
AcDbSymbolTable
 70
     1
  0
APPID
  5
12
330
9
100
AcDbSymbolTableRecord
100
AcDbRegAppTableRecord
  2
ACAD
 70
     0
  0
ENDTAB
  0
TABLE
  2
DIMSTYLE
  5
A
330
0
100
AcDbSymbolTable
 70
     1
100
AcDbDimStyleTable
 71
     0
  0
DIMSTYLE
105
170
330
A
100
AcDbSymbolTableRecord
100
AcDbDimStyleTableRecord
  2
Standard
 70
     0
340
11
  0
ENDTAB
  0
TABLE
  2
BLOCK_RECORD
  5
1
330
0
100
AcDbSymbolTable
 70
     0
  0
BLOCK_RECORD
  5
1E
330
1
100
AcDbSymbolTableRecord
100
AcDbBlockTableRecord
  2
*Model_Space
340
21
  0
BLOCK_RECORD
  5
1A
330
1
100
AcDbSymbolTableRecord
100
AcDbBlockTableRecord
  2
*Paper_Space
340
1D
  0
ENDTAB
  0
ENDSEC
  0
SECTION
  2
BLOCKS
  0
BLOCK
  5
1F
330
1E
100
AcDbEntity
  8
0
100
AcDbBlockBegin
  2
*Model_Space
 70
     0
 10
0.0
 20
0.0
 30
0.0
  3
*Model_Space
  1

  0
ENDBLK
  5
20
330
1E
100
AcDbEntity
  8
0
100
AcDbBlockEnd
  0
BLOCK
  5
1B
330
1A
100
AcDbEntity
 67
     1
  8
0
100
AcDbBlockBegin
  2
*Paper_Space
 70
     0
 10
0.0
 20
0.0
 30
0.0
  3
*Paper_Space
  1

  0
ENDBLK
  5
1C
330
1A
100
AcDbEntity
 67
     1
  8
0
100
AcDbBlockEnd
  0
ENDSEC
  0
SECTION
  2
ENTITIES
  0
LINE
  5
22
330
1E
100
AcDbEntity
  8
0
100
AcDbLine
 10
0.7999999999999928
 20
127.5
 30
0.0
 11
2.69999999999999
 21
121.1
 31
0.0
  0
LINE
  5
23
330
1E
100
AcDbEntity
  8
0
100
AcDbLine
 10
29.39999999999999
 20
94.40000000000001
 30
0.0
 11
37.6
 21
90.7
 31
0.0
  0
LINE
  5
24
330
1E
100
AcDbEntity
  8
0
100
AcDbLine
 10
46.39999999999999
 20
87.9
 30
0.0
 11
55.6
 21
85.8
 31
0.0
  0
LINE
  5
25
330
1E
100
AcDbEntity
  8
0
100
AcDbLine
 10
160.0
 20
75.0
 30
0.0
 11
160.4999999999999
 21
84.8
 31
0.0
  0
LINE
  5
26
330
1E
100
AcDbEntity
  8
0
100
AcDbLine
 10
160.0
 20
75.0
 30
0.0
 11
160.4999999999999
 21
65.2
 31
0.0
  0
LINE
  5
27
330
1E
100
AcDbEntity
  8
0
100
AcDbLine
 10
160.4999999999999
 20
65.2
 30
0.0
 11
161.8
 21
55.6
 31
0.0
  0
LINE
  5
28
330
1E
100
AcDbEntity
  8
0
100
AcDbLine
 10
161.8
 20
55.6
 30
0.0
 11
163.9
 21
46.39999999999999
 31
0.0
  0
LINE
  5
29
330
1E
100
AcDbEntity
  8
0
100
AcDbLine
 10
161.8
 20
55.6
 30
0.0
 11
163.9
 21
46.39999999999999
 31
0.0
  0
LINE
  5
2A
330
1E
100
AcDbEntity
  8
0
100
AcDbLine
 10
210.0
 20
0.0000000000000055
 30
0.0
 11
216.5
 21
0.8000000000000049
 31
0.0
  0
LINE
  5
2B
330
1E
100
AcDbEntity
  8
0
100
AcDbLine
 10
210.0
 20
0.0000000000000091
 30
0.0
 11
216.5
 21
0.800000000000009
 31
0.0
  0
LINE
  5
2C
330
1E
100
AcDbEntity
  8
0
100
AcDbLine
 10
216.5
 20
0.8000000000000049
 30
0.0
 11
222.9
 21
2.700000000000009
 31
0.0
  0
LINE
  5
2D
330
1E
100
AcDbEntity
  8
0
100
AcDbLine
 10
210.0
 20
0.0000000000000054
 30
0.0
 11
216.5
 21
0.8000000000000049
 31
0.0
  0
LINE
  5
2E
330
1E
100
AcDbEntity
  8
0
100
AcDbLine
 10
197.1
 20
2.700000000000009
 30
0.0
 11
203.5
 21
0.800000000000009
 31
0.0
  0
LINE
  5
2F
330
1E
100
AcDbEntity
  8
0
100
AcDbLine
 10
185.0999999999999
 20
10.0
 30
0.0
 11
190.8999999999999
 21
5.900000000000009
 31
0.0
  0
LINE
  5
30
330
1E
100
AcDbEntity
  8
0
100
AcDbLine
 10
174.6999999999999
 20
22.1
 30
0.0
 11
179.6
 21
15.6
 31
0.0
  0
LINE
  5
31
330
1E
100
AcDbEntity
  8
0
100
AcDbLine
 10
163.7
 20
56.2
 30
0.0
 11
165.5999999999999
 21
47.09999999999999
 31
0.0
  0
LINE
  5
32
330
1E
100
AcDbEntity
  8
0
100
AcDbLine
 10
162.5
 20
65.5
 30
0.0
 11
163.7
 21
56.2
 31
0.0
  0
LINE
  5
33
330
1E
100
AcDbEntity
  8
0
100
AcDbLine
 10
162.5
 20
65.5
 30
0.0
 11
163.7
 21
56.2
 31
0.0
  0
LINE
  5
34
330
1E
100
AcDbEntity
  8
0
100
AcDbLine
 10
163.7
 20
56.2
 30
0.0
 11
165.5999999999999
 21
47.09999999999999
 31
0.0
  0
LINE
  5
35
330
1E
100
AcDbEntity
  8
0
100
AcDbLine
 10
165.5999999999999
 20
47.09999999999999
 30
0.0
 11
168.4
 21
38.6
 31
0.0
  0
LINE
  5
36
330
1E
100
AcDbEntity
  8
0
100
AcDbLine
 10
165.5999999999999
 20
47.09999999999999
 30
0.0
 11
168.4
 21
38.6
 31
0.0
  0
LINE
  5
37
330
1E
100
AcDbEntity
  8
0
100
AcDbLine
 10
163.9
 20
46.39999999999999
 30
0.0
 11
166.6999999999999
 21
37.6
 31
0.0
  0
LINE
  5
38
330
1E
100
AcDbEntity
  8
0
100
AcDbLine
 10
163.9
 20
46.39999999999999
 30
0.0
 11
166.6999999999999
 21
37.6
 31
0.0
  0
LINE
  5
39
330
1E
100
AcDbEntity
  8
0
100
AcDbLine
 10
172.0
 20
30.6
 30
0.0
 11
176.0
 21
23.7
 31
0.0
  0
LINE
  5
3A
330
1E
100
AcDbEntity
  8
0
100
AcDbLine
 10
168.4
 20
38.6
 30
0.0
 11
172.0
 21
30.6
 31
0.0
  0
LINE
  5
3B
330
1E
100
AcDbEntity
  8
0
100
AcDbLine
 10
168.4
 20
38.6
 30
0.0
 11
172.0
 21
30.6
 31
0.0
  0
LINE
  5
3C
330
1E
100
AcDbEntity
  8
0
100
AcDbLine
 10
172.0
 20
30.6
 30
0.0
 11
176.0
 21
23.7
 31
0.0
  0
LINE
  5
3D
330
1E
100
AcDbEntity
  8
0
100
AcDbLine
 10
170.4
 20
29.39999999999999
 30
0.0
 11
174.6999999999999
 21
22.1
 31
0.0
  0
LINE
  5
3E
330
1E
100
AcDbEntity
  8
0
100
AcDbLine
 10
166.6999999999999
 20
37.6
 30
0.0
 11
170.4
 21
29.39999999999999
 31
0.0
  0
LINE
  5
3F
330
1E
100
AcDbEntity
  8
0
100
AcDbLine
 10
166.6999999999999
 20
37.6
 30
0.0
 11
170.4
 21
29.39999999999999
 31
0.0
  0
LINE
  5
40
330
1E
100
AcDbEntity
  8
0
100
AcDbLine
 10
170.4
 20
29.39999999999999
 30
0.0
 11
174.6999999999999
 21
22.1
 31
0.0
  0
LINE
  5
41
330
1E
100
AcDbEntity
  8
0
100
AcDbLine
 10
180.6
 20
17.4
 30
0.0
 11
185.8
 21
12.0
 31
0.0
  0
LINE
  5
42
330
1E
100
AcDbEntity
  8
0
100
AcDbLine
 10
176.0
 20
23.7
 30
0.0
 11
180.6
 21
17.4
 31
0.0
  0
LINE
  5
43
330
1E
100
AcDbEntity
  8
0
100
AcDbLine
 10
176.0
 20
23.7
 30
0.0
 11
180.6
 21
17.4
 31
0.0
  0
LINE
  5
44
330
1E
100
AcDbEntity
  8
0
100
AcDbLine
 10
180.6
 20
17.4
 30
0.0
 11
185.8
 21
12.0
 31
0.0
  0
LINE
  5
45
330
1E
100
AcDbEntity
  8
0
100
AcDbLine
 10
179.6
 20
15.6
 30
0.0
 11
185.0999999999999
 21
10.0
 31
0.0
  0
LINE
  5
46
330
1E
100
AcDbEntity
  8
0
100
AcDbLine
 10
174.6999999999999
 20
22.1
 30
0.0
 11
179.6
 21
15.6
 31
0.0
  0
LINE
  5
47
330
1E
100
AcDbEntity
  8
0
100
AcDbLine
 10
179.6
 20
15.6
 30
0.0
 11
185.0999999999999
 21
10.0
 31
0.0
  0
LINE
  5
48
330
1E
100
AcDbEntity
  8
0
100
AcDbLine
 10
191.4
 20
7.800000000000009
 30
0.0
 11
197.4
 21
4.800000000000009
 31
0.0
  0
LINE
  5
49
330
1E
100
AcDbEntity
  8
0
100
AcDbLine
 10
185.8
 20
12.0
 30
0.0
 11
191.4
 21
7.800000000000009
 31
0.0
  0
LINE
  5
4A
330
1E
100
AcDbEntity
  8
0
100
AcDbLine
 10
185.8
 20
12.0
 30
0.0
 11
191.4
 21
7.800000000000009
 31
0.0
  0
LINE
  5
4B
330
1E
100
AcDbEntity
  8
0
100
AcDbLine
 10
191.4
 20
7.800000000000009
 30
0.0
 11
197.4
 21
4.800000000000009
 31
0.0
  0
LINE
  5
4C
330
1E
100
AcDbEntity
  8
0
100
AcDbLine
 10
190.8999999999999
 20
5.900000000000009
 30
0.0
 11
197.1
 21
2.700000000000009
 31
0.0
  0
LINE
  5
4D
330
1E
100
AcDbEntity
  8
0
100
AcDbLine
 10
185.0999999999999
 20
10.0
 30
0.0
 11
190.8999999999999
 21
5.900000000000009
 31
0.0
  0
LINE
  5
4E
330
1E
100
AcDbEntity
  8
0
100
AcDbLine
 10
190.8999999999999
 20
5.900000000000009
 30
0.0
 11
197.1
 21
2.700000000000009
 31
0.0
  0
LINE
  5
4F
330
1E
100
AcDbEntity
  8
0
100
AcDbLine
 10
216.5
 20
0.800000000000009
 30
0.0
 11
222.9
 21
2.700000000000009
 31
0.0
  0
LINE
  5
50
330
1E
100
AcDbEntity
  8
0
100
AcDbLine
 10
203.6999999999999
 20
2.600000000000009
 30
0.0
 11
210.0
 21
2.00000000000001
 31
0.0
  0
LINE
  5
51
330
1E
100
AcDbEntity
  8
0
100
AcDbLine
 10
197.4
 20
4.800000000000009
 30
0.0
 11
203.6999999999999
 21
2.600000000000009
 31
0.0
  0
LINE
  5
52
330
1E
100
AcDbEntity
  8
0
100
AcDbLine
 10
197.4
 20
4.800000000000009
 30
0.0
 11
203.6999999999999
 21
2.600000000000009
 31
0.0
  0
LINE
  5
53
330
1E
100
AcDbEntity
  8
0
100
AcDbLine
 10
216.3
 20
2.600000000000009
 30
0.0
 11
222.5999999999999
 21
4.800000000000009
 31
0.0
  0
LINE
  5
54
330
1E
100
AcDbEntity
  8
0
100
AcDbLine
 10
210.0
 20
2.00000000000001
 30
0.0
 11
216.3
 21
2.600000000000009
 31
0.0
  0
LINE
  5
55
330
1E
100
AcDbEntity
  8
0
100
AcDbLine
 10
222.9
 20
2.700000000000009
 30
0.0
 11
229.0999999999999
 21
5.900000000000009
 31
0.0
  0
LINE
  5
56
330
1E
100
AcDbEntity
  8
0
100
AcDbLine
 10
222.9
 20
2.700000000000009
 30
0.0
 11
229.0999999999999
 21
5.900000000000009
 31
0.0
  0
LINE
  5
57
330
1E
100
AcDbEntity
  8
0
100
AcDbLine
 10
228.6
 20
7.800000000000009
 30
0.0
 11
234.2
 21
12.0
 31
0.0
  0
LINE
  5
58
330
1E
100
AcDbEntity
  8
0
100
AcDbLine
 10
222.5999999999999
 20
4.800000000000009
 30
0.0
 11
228.6
 21
7.800000000000009
 31
0.0
  0
LINE
  5
59
330
1E
100
AcDbEntity
  8
0
100
AcDbLine
 10
229.0999999999999
 20
5.900000000000009
 30
0.0
 11
234.9
 21
10.0
 31
0.0
  0
LINE
  5
5A
330
1E
100
AcDbEntity
  8
0
100
AcDbLine
 10
234.9
 20
10.0
 30
0.0
 11
240.3999999999999
 21
15.6
 31
0.0
  0
LINE
  5
5B
330
1E
100
AcDbEntity
  8
0
100
AcDbLine
 10
234.9
 20
10.0
 30
0.0
 11
240.3999999999999
 21
15.6
 31
0.0
  0
LINE
  5
5C
330
1E
100
AcDbEntity
  8
0
100
AcDbLine
 10
229.0999999999999
 20
5.900000000000009
 30
0.0
 11
234.9
 21
10.0
 31
0.0
  0
LINE
  5
5D
330
1E
100
AcDbEntity
  8
0
100
AcDbLine
 10
239.4
 20
17.4
 30
0.0
 11
244.0
 21
23.7
 31
0.0
  0
LINE
  5
5E
330
1E
100
AcDbEntity
  8
0
100
AcDbLine
 10
234.2
 20
12.0
 30
0.0
 11
239.4
 21
17.4
 31
0.0
  0
LINE
  5
5F
330
1E
100
AcDbEntity
  8
0
100
AcDbLine
 10
240.3999999999999
 20
15.6
 30
0.0
 11
245.3
 21
22.1
 31
0.0
  0
LINE
  5
60
330
1E
100
AcDbEntity
  8
0
100
AcDbLine
 10
245.3
 20
22.1
 30
0.0
 11
249.5999999999999
 21
29.39999999999999
 31
0.0
  0
LINE
  5
61
330
1E
100
AcDbEntity
  8
0
100
AcDbLine
 10
245.3
 20
22.1
 30
0.0
 11
249.5999999999999
 21
29.39999999999999
 31
0.0
  0
LINE
  5
62
330
1E
100
AcDbEntity
  8
0
100
AcDbLine
 10
240.3999999999999
 20
15.6
 30
0.0
 11
245.3
 21
22.1
 31
0.0
  0
LINE
  5
63
330
1E
100
AcDbEntity
  8
0
100
AcDbLine
 10
248.0
 20
30.6
 30
0.0
 11
251.6
 21
38.6
 31
0.0
  0
LINE
  5
64
330
1E
100
AcDbEntity
  8
0
100
AcDbLine
 10
244.0
 20
23.7
 30
0.0
 11
248.0
 21
30.6
 31
0.0
  0
LINE
  5
65
330
1E
100
AcDbEntity
  8
0
100
AcDbLine
 10
249.5999999999999
 20
29.39999999999999
 30
0.0
 11
253.3
 21
37.6
 31
0.0
  0
LINE
  5
66
330
1E
100
AcDbEntity
  8
0
100
AcDbLine
 10
253.3
 20
37.6
 30
0.0
 11
256.1
 21
46.39999999999999
 31
0.0
  0
LINE
  5
67
330
1E
100
AcDbEntity
  8
0
100
AcDbLine
 10
253.3
 20
37.6
 30
0.0
 11
256.1
 21
46.39999999999999
 31
0.0
  0
LINE
  5
68
330
1E
100
AcDbEntity
  8
0
100
AcDbLine
 10
249.5999999999999
 20
29.39999999999999
 30
0.0
 11
253.3
 21
37.6
 31
0.0
  0
LINE
  5
69
330
1E
100
AcDbEntity
  8
0
100
AcDbLine
 10
251.6
 20
38.6
 30
0.0
 11
254.4
 21
47.09999999999999
 31
0.0
  0
LINE
  5
6A
330
1E
100
AcDbEntity
  8
0
100
AcDbLine
 10
256.1
 20
46.39999999999999
 30
0.0
 11
258.1999999999999
 21
55.6
 31
0.0
  0
LINE
  5
6B
330
1E
100
AcDbEntity
  8
0
100
AcDbLine
 10
256.1
 20
46.39999999999999
 30
0.0
 11
258.1999999999999
 21
55.6
 31
0.0
  0
LINE
  5
6C
330
1E
100
AcDbEntity
  8
0
100
AcDbLine
 10
256.3
 20
56.2
 30
0.0
 11
257.5
 21
65.5
 31
0.0
  0
LINE
  5
6D
330
1E
100
AcDbEntity
  8
0
100
AcDbLine
 10
257.5
 20
65.5
 30
0.0
 11
258.0
 21
75.0
 31
0.0
  0
LINE
  5
6E
330
1E
100
AcDbEntity
  8
0
100
AcDbLine
 10
257.5
 20
65.5
 30
0.0
 11
258.0
 21
75.0
 31
0.0
  0
LINE
  5
6F
330
1E
100
AcDbEntity
  8
0
100
AcDbLine
 10
256.3
 20
56.2
 30
0.0
 11
257.5
 21
65.5
 31
0.0
  0
LINE
  5
70
330
1E
100
AcDbEntity
  8
0
100
AcDbLine
 10
254.4
 20
47.09999999999999
 30
0.0
 11
256.3
 21
56.2
 31
0.0
  0
LINE
  5
71
330
1E
100
AcDbEntity
  8
0
100
AcDbLine
 10
254.4
 20
47.09999999999999
 30
0.0
 11
256.3
 21
56.2
 31
0.0
  0
LINE
  5
72
330
1E
100
AcDbEntity
  8
0
100
AcDbLine
 10
251.6
 20
38.6
 30
0.0
 11
254.4
 21
47.09999999999999
 31
0.0
  0
LINE
  5
73
330
1E
100
AcDbEntity
  8
0
100
AcDbLine
 10
248.0
 20
30.6
 30
0.0
 11
251.6
 21
38.6
 31
0.0
  0
LINE
  5
74
330
1E
100
AcDbEntity
  8
0
100
AcDbLine
 10
244.0
 20
23.7
 30
0.0
 11
248.0
 21
30.6
 31
0.0
  0
LINE
  5
75
330
1E
100
AcDbEntity
  8
0
100
AcDbLine
 10
239.4
 20
17.4
 30
0.0
 11
244.0
 21
23.7
 31
0.0
  0
LINE
  5
76
330
1E
100
AcDbEntity
  8
0
100
AcDbLine
 10
234.2
 20
12.0
 30
0.0
 11
239.4
 21
17.4
 31
0.0
  0
LINE
  5
77
330
1E
100
AcDbEntity
  8
0
100
AcDbLine
 10
228.6
 20
7.800000000000009
 30
0.0
 11
234.2
 21
12.0
 31
0.0
  0
LINE
  5
78
330
1E
100
AcDbEntity
  8
0
100
AcDbLine
 10
222.5999999999999
 20
4.800000000000009
 30
0.0
 11
228.6
 21
7.800000000000009
 31
0.0
  0
LINE
  5
79
330
1E
100
AcDbEntity
  8
0
100
AcDbLine
 10
216.3
 20
2.600000000000009
 30
0.0
 11
222.5999999999999
 21
4.800000000000009
 31
0.0
  0
LINE
  5
7A
330
1E
100
AcDbEntity
  8
0
100
AcDbLine
 10
210.0
 20
2.00000000000001
 30
0.0
 11
216.3
 21
2.600000000000009
 31
0.0
  0
LINE
  5
7B
330
1E
100
AcDbEntity
  8
0
100
AcDbLine
 10
203.6999999999999
 20
2.600000000000009
 30
0.0
 11
210.0
 21
2.00000000000001
 31
0.0
  0
LINE
  5
7C
330
1E
100
AcDbEntity
  8
0
100
AcDbLine
 10
203.5
 20
0.800000000000009
 30
0.0
 11
210.0
 21
0.0000000000000091
 31
0.0
  0
LINE
  5
7D
330
1E
100
AcDbEntity
  8
0
100
AcDbLine
 10
197.1
 20
2.700000000000009
 30
0.0
 11
203.5
 21
0.8000000000000049
 31
0.0
  0
LINE
  5
7E
330
1E
100
AcDbEntity
  8
0
100
AcDbLine
 10
203.5
 20
0.8000000000000049
 30
0.0
 11
210.0
 21
0.0000000000000055
 31
0.0
  0
LINE
  5
7F
330
1E
100
AcDbEntity
  8
0
100
AcDbLine
 10
203.5
 20
0.8000000000000049
 30
0.0
 11
210.0
 21
0.0000000000000054
 31
0.0
  0
LINE
  5
80
330
1E
100
AcDbEntity
  8
0
100
AcDbLine
 10
259.5
 20
65.2
 30
0.0
 11
260.0
 21
75.0
 31
0.0
  0
LINE
  5
81
330
1E
100
AcDbEntity
  8
0
100
AcDbLine
 10
259.5
 20
65.2
 30
0.0
 11
260.0
 21
75.0
 31
0.0
  0
LINE
  5
82
330
1E
100
AcDbEntity
  8
0
100
AcDbLine
 10
258.1999999999999
 20
55.6
 30
0.0
 11
259.5
 21
65.2
 31
0.0
  0
LINE
  5
84
330
1E
100
AcDbEntity
  8
0
100
AcDbLine
 10
162.0
 20
75.0
 30
0.0
 11
162.5
 21
84.50000000000001
 31
0.0
  0
LINE
  5
85
330
1E
100
AcDbEntity
  8
0
100
AcDbLine
 10
162.0
 20
75.0
 30
0.0
 11
162.5
 21
65.5
 31
0.0
  0
LINE
  5
86
330
1E
100
AcDbEntity
  8
0
100
AcDbLine
 10
257.5
 20
84.50000000000001
 30
0.0
 11
258.0
 21
75.0
 31
0.0
  0
LINE
  5
87
330
1E
100
AcDbEntity
  8
0
100
AcDbLine
 10
257.5
 20
84.50000000000001
 30
0.0
 11
258.0
 21
75.0
 31
0.0
  0
LINE
  5
88
330
1E
100
AcDbEntity
  8
0
100
AcDbLine
 10
162.0
 20
75.0
 30
0.0
 11
162.5
 21
84.50000000000001
 31
0.0
  0
LINE
  5
89
330
1E
100
AcDbEntity
  8
0
100
AcDbLine
 10
162.0
 20
75.0
 30
0.0
 11
162.5
 21
65.5
 31
0.0
  0
LINE
  5
8A
330
1E
100
AcDbEntity
  8
0
100
AcDbLine
 10
160.0
 20
75.0
 30
0.0
 11
160.4999999999999
 21
84.8
 31
0.0
  0
LINE
  5
8C
330
1E
100
AcDbEntity
  8
0
100
AcDbLine
 10
160.0
 20
75.0
 30
0.0
 11
160.4999999999999
 21
65.2
 31
0.0
  0
LINE
  5
8D
330
1E
100
AcDbEntity
  8
0
100
AcDbLine
 10
162.5
 20
84.50000000000001
 30
0.0
 11
163.7
 21
93.8
 31
0.0
  0
LINE
  5
8E
330
1E
100
AcDbEntity
  8
0
100
AcDbLine
 10
75.0
 20
84.0
 30
0.0
 11
84.8
 21
84.50000000000001
 31
0.0
  0
LINE
  5
8F
330
1E
100
AcDbEntity
  8
0
100
AcDbLine
 10
259.5
 20
84.8
 30
0.0
 11
260.0
 21
75.0
 31
0.0
  0
LINE
  5
90
330
1E
100
AcDbEntity
  8
0
100
AcDbLine
 10
160.4999999999999
 20
84.8
 30
0.0
 11
161.8
 21
94.40000000000001
 31
0.0
  0
LINE
  5
91
330
1E
100
AcDbEntity
  8
0
100
AcDbLine
 10
160.4999999999999
 20
84.8
 30
0.0
 11
161.8
 21
94.40000000000001
 31
0.0
  0
LINE
  5
92
330
1E
100
AcDbEntity
  8
0
100
AcDbLine
 10
94.40000000000001
 20
85.8
 30
0.0
 11
103.6
 21
87.9
 31
0.0
  0
LINE
  5
93
330
1E
100
AcDbEntity
  8
0
100
AcDbLine
 10
84.8
 20
84.50000000000001
 30
0.0
 11
94.40000000000001
 21
85.8
 31
0.0
  0
LINE
  5
94
330
1E
100
AcDbEntity
  8
0
100
AcDbLine
 10
65.2
 20
84.50000000000001
 30
0.0
 11
75.0
 21
84.0
 31
0.0
  0
LINE
  5
95
330
1E
100
AcDbEntity
  8
0
100
AcDbLine
 10
47.09999999999999
 20
89.59999999999999
 30
0.0
 11
56.2
 21
87.70000000000001
 31
0.0
  0
LINE
  5
96
330
1E
100
AcDbEntity
  8
0
100
AcDbLine
 10
75.0
 20
86.0
 30
0.0
 11
84.50000000000001
 21
86.5
 31
0.0
  0
LINE
  5
97
330
1E
100
AcDbEntity
  8
0
100
AcDbLine
 10
84.50000000000001
 20
86.5
 30
0.0
 11
93.8
 21
87.70000000000001
 31
0.0
  0
LINE
  5
98
330
1E
100
AcDbEntity
  8
0
100
AcDbLine
 10
94.40000000000001
 20
85.8
 30
0.0
 11
103.6
 21
87.9
 31
0.0
  0
LINE
  5
99
330
1E
100
AcDbEntity
  8
0
100
AcDbLine
 10
93.8
 20
87.70000000000001
 30
0.0
 11
102.9
 21
89.59999999999999
 31
0.0
  0
LINE
  5
9A
330
1E
100
AcDbEntity
  8
0
100
AcDbLine
 10
65.5
 20
86.5
 30
0.0
 11
75.0
 21
86.0
 31
0.0
  0
LINE
  5
9B
330
1E
100
AcDbEntity
  8
0
100
AcDbLine
 10
103.6
 20
87.9
 30
0.0
 11
112.4
 21
90.7
 31
0.0
  0
LINE
  5
9C
330
1E
100
AcDbEntity
  8
0
100
AcDbLine
 10
112.4
 20
90.7
 30
0.0
 11
120.5999999999999
 21
94.40000000000001
 31
0.0
  0
LINE
  5
9D
330
1E
100
AcDbEntity
  8
0
100
AcDbLine
 10
103.6
 20
87.9
 30
0.0
 11
112.4
 21
90.7
 31
0.0
  0
LINE
  5
9E
330
1E
100
AcDbEntity
  8
0
100
AcDbLine
 10
102.9
 20
89.59999999999999
 30
0.0
 11
111.4
 21
92.4
 31
0.0
  0
LINE
  5
9F
330
1E
100
AcDbEntity
  8
0
100
AcDbLine
 10
56.2
 20
87.70000000000001
 30
0.0
 11
65.5
 21
86.5
 31
0.0
  0
LINE
  5
A0
330
1E
100
AcDbEntity
  8
0
100
AcDbLine
 10
55.6
 20
85.8
 30
0.0
 11
65.2
 21
84.50000000000001
 31
0.0
  0
LINE
  5
A1
330
1E
100
AcDbEntity
  8
0
100
AcDbLine
 10
55.6
 20
85.8
 30
0.0
 11
65.2
 21
84.50000000000001
 31
0.0
  0
LINE
  5
A2
330
1E
100
AcDbEntity
  8
0
100
AcDbLine
 10
46.39999999999999
 20
87.9
 30
0.0
 11
55.6
 21
85.8
 31
0.0
  0
LINE
  5
A3
330
1E
100
AcDbEntity
  8
0
100
AcDbLine
 10
30.6
 20
96.0
 30
0.0
 11
38.6
 21
92.4
 31
0.0
  0
LINE
  5
A4
330
1E
100
AcDbEntity
  8
0
100
AcDbLine
 10
112.4
 20
90.7
 30
0.0
 11
120.5999999999999
 21
94.40000000000001
 31
0.0
  0
LINE
  5
A5
330
1E
100
AcDbEntity
  8
0
100
AcDbLine
 10
111.4
 20
92.4
 30
0.0
 11
119.4
 21
96.0
 31
0.0
  0
LINE
  5
A6
330
1E
100
AcDbEntity
  8
0
100
AcDbLine
 10
120.5999999999999
 20
94.40000000000001
 30
0.0
 11
127.9
 21
98.7
 31
0.0
  0
LINE
  5
A7
330
1E
100
AcDbEntity
  8
0
100
AcDbLine
 10
120.5999999999999
 20
94.40000000000001
 30
0.0
 11
127.9
 21
98.7
 31
0.0
  0
LINE
  5
A8
330
1E
100
AcDbEntity
  8
0
100
AcDbLine
 10
119.4
 20
96.0
 30
0.0
 11
123.1999999999999
 21
98.2
 31
0.0
  0
LINE
  5
A9
330
1E
100
AcDbEntity
  8
0
100
AcDbLine
 10
123.1999999999999
 20
98.2
 30
0.0
 11
126.2999999999999
 21
100.6
 31
0.0
  0
LINE
  5
AA
330
1E
100
AcDbEntity
  8
0
100
AcDbLine
 10
161.8
 20
94.40000000000001
 30
0.0
 11
163.9
 21
103.6
 31
0.0
  0
LINE
  5
AB
330
1E
100
AcDbEntity
  8
0
100
AcDbLine
 10
258.1999999999999
 20
94.40000000000001
 30
0.0
 11
259.5
 21
84.8
 31
0.0
  0
LINE
  5
AC
330
1E
100
AcDbEntity
  8
0
100
AcDbLine
 10
258.1999999999999
 20
94.40000000000001
 30
0.0
 11
259.5
 21
84.8
 31
0.0
  0
LINE
  5
AD
330
1E
100
AcDbEntity
  8
0
100
AcDbLine
 10
256.3
 20
93.8
 30
0.0
 11
257.5
 21
84.50000000000001
 31
0.0
  0
LINE
  5
AE
330
1E
100
AcDbEntity
  8
0
100
AcDbLine
 10
163.7
 20
93.8
 30
0.0
 11
165.5999999999999
 21
102.9
 31
0.0
  0
LINE
  5
AF
330
1E
100
AcDbEntity
  8
0
100
AcDbLine
 10
161.8
 20
94.40000000000001
 30
0.0
 11
163.9
 21
103.6
 31
0.0
  0
LINE
  5
B0
330
1E
100
AcDbEntity
  8
0
100
AcDbLine
 10
127.9
 20
98.7
 30
0.0
 11
134.4
 21
103.6
 31
0.0
  0
LINE
  5
B1
330
1E
100
AcDbEntity
  8
0
100
AcDbLine
 10
38.6
 20
92.4
 30
0.0
 11
47.09999999999999
 21
89.59999999999999
 31
0.0
  0
LINE
  5
B2
330
1E
100
AcDbEntity
  8
0
100
AcDbLine
 10
37.6
 20
90.7
 30
0.0
 11
46.39999999999999
 21
87.9
 31
0.0
  0
LINE
  5
B3
330
1E
100
AcDbEntity
  8
0
100
AcDbLine
 10
37.6
 20
90.7
 30
0.0
 11
46.39999999999999
 21
87.9
 31
0.0
  0
LINE
  5
B4
330
1E
100
AcDbEntity
  8
0
100
AcDbLine
 10
29.39999999999999
 20
94.40000000000001
 30
0.0
 11
37.6
 21
90.7
 31
0.0
  0
LINE
  5
B5
330
1E
100
AcDbEntity
  8
0
100
AcDbLine
 10
4.79999999999999
 20
121.4
 30
0.0
 11
7.79999999999999
 21
115.4
 31
0.0
  0
LINE
  5
B6
330
1E
100
AcDbEntity
  8
0
100
AcDbLine
 10
256.1
 20
103.6
 30
0.0
 11
258.1999999999999
 21
94.40000000000001
 31
0.0
  0
LINE
  5
B7
330
1E
100
AcDbEntity
  8
0
100
AcDbLine
 10
254.4
 20
102.9
 30
0.0
 11
256.3
 21
93.8
 31
0.0
  0
LINE
  5
B8
330
1E
100
AcDbEntity
  8
0
100
AcDbLine
 10
165.5999999999999
 20
102.9
 30
0.0
 11
168.4
 21
111.4
 31
0.0
  0
LINE
  5
B9
330
1E
100
AcDbEntity
  8
0
100
AcDbLine
 10
163.9
 20
103.6
 30
0.0
 11
166.6999999999999
 21
112.4
 31
0.0
  0
LINE
  5
BA
330
1E
100
AcDbEntity
  8
0
100
AcDbLine
 10
126.2999999999999
 20
100.6
 30
0.0
 11
128.6999999999999
 21
103.7
 31
0.0
  0
LINE
  5
BB
330
1E
100
AcDbEntity
  8
0
100
AcDbLine
 10
128.6999999999999
 20
103.7
 30
0.0
 11
130.1999999999999
 21
107.2999999999999
 31
0.0
  0
LINE
  5
BC
330
1E
100
AcDbEntity
  8
0
100
AcDbLine
 10
134.4
 20
103.6
 30
0.0
 11
140.0
 21
109.0999999999999
 31
0.0
  0
LINE
  5
BD
330
1E
100
AcDbEntity
  8
0
100
AcDbLine
 10
23.7
 20
100.0
 30
0.0
 11
30.6
 21
96.0
 31
0.0
  0
LINE
  5
BE
330
1E
100
AcDbEntity
  8
0
100
AcDbLine
 10
130.1999999999999
 20
107.2999999999999
 30
0.0
 11
130.6999999999999
 21
111.0999999999999
 31
0.0
  0
LINE
  5
BF
330
1E
100
AcDbEntity
  8
0
100
AcDbLine
 10
140.0
 20
109.0999999999999
 30
0.0
 11
144.1
 21
114.9
 31
0.0
  0
LINE
  5
C0
330
1E
100
AcDbEntity
  8
0
100
AcDbLine
 10
17.4
 20
104.6
 30
0.0
 11
23.7
 21
100.0
 31
0.0
  0
LINE
  5
C1
330
1E
100
AcDbEntity
  8
0
100
AcDbLine
 10
15.6
 20
103.6
 30
0.0
 11
22.1
 21
98.7
 31
0.0
  0
LINE
  5
C2
330
1E
100
AcDbEntity
  8
0
100
AcDbLine
 10
130.1999999999999
 20
115.1
 30
0.0
 11
130.6999999999999
 21
111.0999999999999
 31
0.0
  0
LINE
  5
C3
330
1E
100
AcDbEntity
  8
0
100
AcDbLine
 10
126.2999999999999
 20
121.7999999999999
 30
0.0
 11
128.6999999999999
 21
118.7
 31
0.0
  0
LINE
  5
C4
330
1E
100
AcDbEntity
  8
0
100
AcDbLine
 10
128.6999999999999
 20
118.7
 30
0.0
 11
130.1999999999999
 21
115.1
 31
0.0
  0
LINE
  5
C5
330
1E
100
AcDbEntity
  8
0
100
AcDbLine
 10
144.1
 20
114.9
 30
0.0
 11
147.3
 21
121.1
 31
0.0
  0
LINE
  5
C6
330
1E
100
AcDbEntity
  8
0
100
AcDbLine
 10
126.2999999999999
 20
121.7999999999999
 30
0.0
 11
128.6999999999999
 21
118.7
 31
0.0
  0
LINE
  5
C7
330
1E
100
AcDbEntity
  8
0
100
AcDbLine
 10
124.3999999999999
 20
123.3999999999999
 30
0.0
 11
126.2999999999999
 21
121.7999999999999
 31
0.0
  0
LINE
  5
C8
330
1E
100
AcDbEntity
  8
0
100
AcDbLine
 10
124.3999999999999
 20
123.3999999999999
 30
0.0
 11
126.2999999999999
 21
121.7999999999999
 31
0.0
  0
LINE
  5
C9
330
1E
100
AcDbEntity
  8
0
100
AcDbLine
 10
122.0
 20
126.5
 30
0.0
 11
124.3999999999999
 21
123.3999999999999
 31
0.0
  0
LINE
  5
CA
330
1E
100
AcDbEntity
  8
0
100
AcDbLine
 10
168.4
 20
111.4
 30
0.0
 11
172.0
 21
119.4
 31
0.0
  0
LINE
  5
CB
330
1E
100
AcDbEntity
  8
0
100
AcDbLine
 10
166.6999999999999
 20
112.4
 30
0.0
 11
170.4
 21
120.5999999999999
 31
0.0
  0
LINE
  5
CC
330
1E
100
AcDbEntity
  8
0
100
AcDbLine
 10
202.4999999999999
 20
122.0
 30
0.0
 11
206.0999999999999
 21
120.5
 31
0.0
  0
LINE
  5
CD
330
1E
100
AcDbEntity
  8
0
100
AcDbLine
 10
172.0
 20
119.4
 30
0.0
 11
174.1999999999999
 21
123.1999999999999
 31
0.0
  0
LINE
  5
CE
330
1E
100
AcDbEntity
  8
0
100
AcDbLine
 10
170.4
 20
120.5999999999999
 30
0.0
 11
174.6999999999999
 21
127.9
 31
0.0
  0
LINE
  5
CF
330
1E
100
AcDbEntity
  8
0
100
AcDbLine
 10
174.1999999999999
 20
123.1999999999999
 30
0.0
 11
176.6
 21
126.2999999999999
 31
0.0
  0
LINE
  5
D0
330
1E
100
AcDbEntity
  8
0
100
AcDbLine
 10
176.6
 20
126.2999999999999
 30
0.0
 11
179.6999999999999
 21
128.6999999999999
 31
0.0
  0
LINE
  5
D1
330
1E
100
AcDbEntity
  8
0
100
AcDbLine
 10
176.6
 20
126.2999999999999
 30
0.0
 11
179.6999999999999
 21
128.6999999999999
 31
0.0
  0
LINE
  5
D2
330
1E
100
AcDbEntity
  8
0
100
AcDbLine
 10
197.8
 20
126.2999999999999
 30
0.0
 11
199.3999999999999
 21
124.3999999999999
 31
0.0
  0
LINE
  5
D3
330
1E
100
AcDbEntity
  8
0
100
AcDbLine
 10
199.3999999999999
 20
124.3999999999999
 30
0.0
 11
202.4999999999999
 21
122.0
 31
0.0
  0
LINE
  5
D4
330
1E
100
AcDbEntity
  8
0
100
AcDbLine
 10
199.3999999999999
 20
124.3999999999999
 30
0.0
 11
202.4999999999999
 21
122.0
 31
0.0
  0
LINE
  5
D5
330
1E
100
AcDbEntity
  8
0
100
AcDbLine
 10
202.4999999999999
 20
122.0
 30
0.0
 11
206.0999999999999
 21
120.5
 31
0.0
  0
LINE
  5
D6
330
1E
100
AcDbEntity
  8
0
100
AcDbLine
 10
253.3
 20
112.4
 30
0.0
 11
256.1
 21
103.6
 31
0.0
  0
LINE
  5
D7
330
1E
100
AcDbEntity
  8
0
100
AcDbLine
 10
251.6
 20
111.4
 30
0.0
 11
254.4
 21
102.9
 31
0.0
  0
LINE
  5
D8
330
1E
100
AcDbEntity
  8
0
100
AcDbLine
 10
248.0
 20
119.4
 30
0.0
 11
251.6
 21
111.4
 31
0.0
  0
LINE
  5
D9
330
1E
100
AcDbEntity
  8
0
100
AcDbLine
 10
249.5999999999999
 20
120.5999999999999
 30
0.0
 11
253.3
 21
112.4
 31
0.0
  0
LINE
  5
DA
330
1E
100
AcDbEntity
  8
0
100
AcDbLine
 10
217.5
 20
122.0
 30
0.0
 11
220.5999999999999
 21
124.3999999999999
 31
0.0
  0
LINE
  5
DB
330
1E
100
AcDbEntity
  8
0
100
AcDbLine
 10
245.8
 20
123.1999999999999
 30
0.0
 11
248.0
 21
119.4
 31
0.0
  0
LINE
  5
DC
330
1E
100
AcDbEntity
  8
0
100
AcDbLine
 10
243.4
 20
126.2999999999999
 30
0.0
 11
245.8
 21
123.1999999999999
 31
0.0
  0
LINE
  5
DD
330
1E
100
AcDbEntity
  8
0
100
AcDbLine
 10
222.1999999999999
 20
126.2999999999999
 30
0.0
 11
225.3
 21
128.6999999999999
 31
0.0
  0
LINE
  5
DE
330
1E
100
AcDbEntity
  8
0
100
AcDbLine
 10
222.1999999999999
 20
126.2999999999999
 30
0.0
 11
225.3
 21
128.6999999999999
 31
0.0
  0
LINE
  5
DF
330
1E
100
AcDbEntity
  8
0
100
AcDbLine
 10
220.5999999999999
 20
124.3999999999999
 30
0.0
 11
222.1999999999999
 21
126.2999999999999
 31
0.0
  0
LINE
  5
E0
330
1E
100
AcDbEntity
  8
0
100
AcDbLine
 10
217.5
 20
122.0
 30
0.0
 11
220.5999999999999
 21
124.3999999999999
 31
0.0
  0
LINE
  5
E1
330
1E
100
AcDbEntity
  8
0
100
AcDbLine
 10
213.9
 20
120.5
 30
0.0
 11
217.5
 21
122.0
 31
0.0
  0
LINE
  5
E2
330
1E
100
AcDbEntity
  8
0
100
AcDbLine
 10
213.9
 20
120.5
 30
0.0
 11
217.5
 21
122.0
 31
0.0
  0
LINE
  5
E3
330
1E
100
AcDbEntity
  8
0
100
AcDbLine
 10
210.0
 20
120.0
 30
0.0
 11
213.9
 21
120.5
 31
0.0
  0
LINE
  5
E4
330
1E
100
AcDbEntity
  8
0
100
AcDbLine
 10
206.0999999999999
 20
120.5
 30
0.0
 11
210.0
 21
120.0
 31
0.0
  0
LINE
  5
E5
330
1E
100
AcDbEntity
  8
0
100
AcDbLine
 10
147.3
 20
121.1
 30
0.0
 11
149.1999999999999
 21
127.5
 31
0.0
  0
LINE
  5
E6
330
1E
100
AcDbEntity
  8
0
100
AcDbLine
 10
147.3
 20
121.1
 30
0.0
 11
149.1999999999999
 21
127.5
 31
0.0
  0
LINE
  5
E7
330
1E
100
AcDbEntity
  8
0
100
AcDbLine
 10
12.0
 20
109.8
 30
0.0
 11
17.4
 21
104.6
 31
0.0
  0
LINE
  5
E8
330
1E
100
AcDbEntity
  8
0
100
AcDbLine
 10
7.79999999999999
 20
115.4
 30
0.0
 11
12.0
 21
109.8
 31
0.0
  0
LINE
  5
E9
330
1E
100
AcDbEntity
  8
0
100
AcDbLine
 10
9.999999999999991
 20
109.0999999999999
 30
0.0
 11
15.6
 21
103.6
 31
0.0
  0
LINE
  5
EA
330
1E
100
AcDbEntity
  8
0
100
AcDbLine
 10
5.89999999999999
 20
114.9
 30
0.0
 11
9.999999999999991
 21
109.0999999999999
 31
0.0
  0
LINE
  5
EB
330
1E
100
AcDbEntity
  8
0
100
AcDbLine
 10
22.1
 20
98.7
 30
0.0
 11
29.39999999999999
 21
94.40000000000001
 31
0.0
  0
LINE
  5
EC
330
1E
100
AcDbEntity
  8
0
100
AcDbLine
 10
22.1
 20
98.7
 30
0.0
 11
29.39999999999999
 21
94.40000000000001
 31
0.0
  0
LINE
  5
ED
330
1E
100
AcDbEntity
  8
0
100
AcDbLine
 10
2.69999999999999
 20
121.1
 30
0.0
 11
5.89999999999999
 21
114.9
 31
0.0
  0
LINE
  5
EE
330
1E
100
AcDbEntity
  8
0
100
AcDbLine
 10
0.7999999999999928
 20
140.5
 30
0.0
 11
2.69999999999999
 21
146.9
 31
0.0
  0
LINE
  5
EF
330
1E
100
AcDbEntity
  8
0
100
AcDbLine
 10
0.7999999999999928
 20
140.5
 30
0.0
 11
2.69999999999999
 21
146.9
 31
0.0
  0
LINE
  5
F0
330
1E
100
AcDbEntity
  8
0
100
AcDbLine
 10
0.7999999999999928
 20
127.5
 30
0.0
 11
2.69999999999999
 21
121.1
 31
0.0
  0
LINE
  5
F1
330
1E
100
AcDbEntity
  8
0
100
AcDbLine
 10
120.5
 20
130.0999999999999
 30
0.0
 11
122.0
 21
126.5
 31
0.0
  0
LINE
  5
F2
330
1E
100
AcDbEntity
  8
0
100
AcDbLine
 10
179.6999999999999
 20
128.6999999999999
 30
0.0
 11
183.3
 21
130.1999999999999
 31
0.0
  0
LINE
  5
F3
330
1E
100
AcDbEntity
  8
0
100
AcDbLine
 10
174.6999999999999
 20
127.9
 30
0.0
 11
179.6
 21
134.4
 31
0.0
  0
LINE
  5
F4
330
1E
100
AcDbEntity
  8
0
100
AcDbLine
 10
245.3
 20
127.9
 30
0.0
 11
249.5999999999999
 21
120.5999999999999
 31
0.0
  0
LINE
  5
F5
330
1E
100
AcDbEntity
  8
0
100
AcDbLine
 10
240.3
 20
128.6999999999999
 30
0.0
 11
243.4
 21
126.2999999999999
 31
0.0
  0
LINE
  5
F6
330
1E
100
AcDbEntity
  8
0
100
AcDbLine
 10
225.3
 20
128.6999999999999
 30
0.0
 11
228.9
 21
130.1999999999999
 31
0.0
  0
LINE
  5
F7
330
1E
100
AcDbEntity
  8
0
100
AcDbLine
 10
240.3
 20
128.6999999999999
 30
0.0
 11
243.4
 21
126.2999999999999
 31
0.0
  0
LINE
  5
F8
330
1E
100
AcDbEntity
  8
0
100
AcDbLine
 10
225.3
 20
128.6999999999999
 30
0.0
 11
228.9
 21
130.1999999999999
 31
0.0
  0
LINE
  5
F9
330
1E
100
AcDbEntity
  8
0
100
AcDbLine
 10
194.6999999999999
 20
128.6999999999999
 30
0.0
 11
197.8
 21
126.2999999999999
 31
0.0
  0
LINE
  5
FA
330
1E
100
AcDbEntity
  8
0
100
AcDbLine
 10
179.6999999999999
 20
128.6999999999999
 30
0.0
 11
183.3
 21
130.1999999999999
 31
0.0
  0
LINE
  5
FB
330
1E
100
AcDbEntity
  8
0
100
AcDbLine
 10
183.3
 20
130.1999999999999
 30
0.0
 11
187.1
 21
130.6999999999999
 31
0.0
  0
LINE
  5
FC
330
1E
100
AcDbEntity
  8
0
100
AcDbLine
 10
187.1
 20
130.6999999999999
 30
0.0
 11
191.0999999999999
 21
130.1999999999999
 31
0.0
  0
LINE
  5
FD
330
1E
100
AcDbEntity
  8
0
100
AcDbLine
 10
228.9
 20
130.1999999999999
 30
0.0
 11
232.9
 21
130.6999999999999
 31
0.0
  0
LINE
  5
FE
330
1E
100
AcDbEntity
  8
0
100
AcDbLine
 10
232.9
 20
130.6999999999999
 30
0.0
 11
236.6999999999999
 21
130.1999999999999
 31
0.0
  0
LINE
  5
FF
330
1E
100
AcDbEntity
  8
0
100
AcDbLine
 10
236.6999999999999
 20
130.1999999999999
 30
0.0
 11
240.3
 21
128.6999999999999
 31
0.0
  0
LINE
  5
100
330
1E
100
AcDbEntity
  8
0
100
AcDbLine
 10
236.6999999999999
 20
130.1999999999999
 30
0.0
 11
240.3
 21
128.6999999999999
 31
0.0
  0
LINE
  5
101
330
1E
100
AcDbEntity
  8
0
100
AcDbLine
 10
191.0999999999999
 20
130.1999999999999
 30
0.0
 11
194.6999999999999
 21
128.6999999999999
 31
0.0
  0
LINE
  5
102
330
1E
100
AcDbEntity
  8
0
100
AcDbLine
 10
191.0999999999999
 20
130.1999999999999
 30
0.0
 11
194.6999999999999
 21
128.6999999999999
 31
0.0
  0
LINE
  5
103
330
1E
100
AcDbEntity
  8
0
100
AcDbLine
 10
194.6999999999999
 20
128.6999999999999
 30
0.0
 11
197.8
 21
126.2999999999999
 31
0.0
  0
LINE
  5
104
330
1E
100
AcDbEntity
  8
0
100
AcDbLine
 10
149.1999999999999
 20
127.5
 30
0.0
 11
150.0
 21
134.0
 31
0.0
  0
LINE
  5
105
330
1E
100
AcDbEntity
  8
0
100
AcDbLine
 10
120.0
 20
134.0
 30
0.0
 11
120.5
 21
130.0999999999999
 31
0.0
  0
LINE
  5
106
330
1E
100
AcDbEntity
  8
0
100
AcDbLine
 10
120.0
 20
134.0
 30
0.0
 11
120.5
 21
137.9
 31
0.0
  0
LINE
  5
107
330
1E
100
AcDbEntity
  8
0
100
AcDbLine
 10
2.59999999999999
 20
127.7
 30
0.0
 11
4.79999999999999
 21
121.4
 31
0.0
  0
LINE
  5
108
330
1E
100
AcDbEntity
  8
0
100
AcDbLine
 10
5.89999999999999
 20
153.0999999999999
 30
0.0
 11
9.999999999999991
 21
158.9
 31
0.0
  0
LINE
  5
109
330
1E
100
AcDbEntity
  8
0
100
AcDbLine
 10
5.89999999999999
 20
153.0999999999999
 30
0.0
 11
9.999999999999991
 21
158.9
 31
0.0
  0
LINE
  5
10A
330
1E
100
AcDbEntity
  8
0
100
AcDbLine
 10
2.69999999999999
 20
146.9
 30
0.0
 11
5.89999999999999
 21
153.0999999999999
 31
0.0
  0
LINE
  5
10B
330
1E
100
AcDbEntity
  8
0
100
AcDbLine
 10
9.999999999999991
 20
158.9
 30
0.0
 11
15.6
 21
164.4
 31
0.0
  0
LINE
  5
10C
330
1E
100
AcDbEntity
  8
0
100
AcDbLine
 10
15.6
 20
164.4
 30
0.0
 11
22.1
 21
169.3
 31
0.0
  0
LINE
  5
10D
330
1E
100
AcDbEntity
  8
0
100
AcDbLine
 10
9.999999999999991
 20
158.9
 30
0.0
 11
15.6
 21
164.4
 31
0.0
  0
LINE
  5
10E
330
1E
100
AcDbEntity
  8
0
100
AcDbLine
 10
22.1
 20
169.3
 30
0.0
 11
29.39999999999999
 21
173.5999999999999
 31
0.0
  0
LINE
  5
10F
330
1E
100
AcDbEntity
  8
0
100
AcDbLine
 10
30.6
 20
172.0
 30
0.0
 11
38.6
 21
175.6
 31
0.0
  0
LINE
  5
110
330
1E
100
AcDbEntity
  8
0
100
AcDbLine
 10
30.6
 20
172.0
 30
0.0
 11
38.6
 21
175.6
 31
0.0
  0
LINE
  5
111
330
1E
100
AcDbEntity
  8
0
100
AcDbLine
 10
23.7
 20
168.0
 30
0.0
 11
30.6
 21
172.0
 31
0.0
  0
LINE
  5
112
330
1E
100
AcDbEntity
  8
0
100
AcDbLine
 10
17.4
 20
163.4
 30
0.0
 11
23.7
 21
168.0
 31
0.0
  0
LINE
  5
113
330
1E
100
AcDbEntity
  8
0
100
AcDbLine
 10
12.0
 20
158.1999999999999
 30
0.0
 11
17.4
 21
163.4
 31
0.0
  0
LINE
  5
114
330
1E
100
AcDbEntity
  8
0
100
AcDbLine
 10
7.79999999999999
 20
152.5999999999999
 30
0.0
 11
12.0
 21
158.1999999999999
 31
0.0
  0
LINE
  5
115
330
1E
100
AcDbEntity
  8
0
100
AcDbLine
 10
4.79999999999999
 20
146.6
 30
0.0
 11
7.79999999999999
 21
152.5999999999999
 31
0.0
  0
LINE
  5
116
330
1E
100
AcDbEntity
  8
0
100
AcDbLine
 10
2.59999999999999
 20
140.3
 30
0.0
 11
4.79999999999999
 21
146.6
 31
0.0
  0
LINE
  5
117
330
1E
100
AcDbEntity
  8
0
100
AcDbLine
 10
29.39999999999999
 20
173.5999999999999
 30
0.0
 11
37.6
 21
177.3
 31
0.0
  0
LINE
  5
118
330
1E
100
AcDbEntity
  8
0
100
AcDbLine
 10
37.6
 20
177.3
 30
0.0
 11
46.39999999999999
 21
180.0999999999999
 31
0.0
  0
LINE
  5
119
330
1E
100
AcDbEntity
  8
0
100
AcDbLine
 10
38.6
 20
175.6
 30
0.0
 11
47.09999999999999
 21
178.3999999999999
 31
0.0
  0
LINE
  5
11A
330
1E
100
AcDbEntity
  8
0
100
AcDbLine
 10
47.09999999999999
 20
178.3999999999999
 30
0.0
 11
56.2
 21
180.3
 31
0.0
  0
LINE
  5
11B
330
1E
100
AcDbEntity
  8
0
100
AcDbLine
 10
38.6
 20
175.6
 30
0.0
 11
47.09999999999999
 21
178.3999999999999
 31
0.0
  0
LINE
  5
11C
330
1E
100
AcDbEntity
  8
0
100
AcDbLine
 10
111.4
 20
175.6
 30
0.0
 11
119.4
 21
172.0
 31
0.0
  0
LINE
  5
11D
330
1E
100
AcDbEntity
  8
0
100
AcDbLine
 10
46.39999999999999
 20
180.0999999999999
 30
0.0
 11
55.6
 21
182.1999999999999
 31
0.0
  0
LINE
  5
11E
330
1E
100
AcDbEntity
  8
0
100
AcDbLine
 10
46.39999999999999
 20
180.0999999999999
 30
0.0
 11
55.6
 21
182.1999999999999
 31
0.0
  0
LINE
  5
11F
330
1E
100
AcDbEntity
  8
0
100
AcDbLine
 10
65.5
 20
181.4999999999999
 30
0.0
 11
75.0
 21
182.0
 31
0.0
  0
LINE
  5
120
330
1E
100
AcDbEntity
  8
0
100
AcDbLine
 10
56.2
 20
180.3
 30
0.0
 11
65.5
 21
181.4999999999999
 31
0.0
  0
LINE
  5
121
330
1E
100
AcDbEntity
  8
0
100
AcDbLine
 10
55.6
 20
182.1999999999999
 30
0.0
 11
65.2
 21
183.4999999999999
 31
0.0
  0
LINE
  5
122
330
1E
100
AcDbEntity
  8
0
100
AcDbLine
 10
65.2
 20
183.4999999999999
 30
0.0
 11
75.0
 21
184.0
 31
0.0
  0
LINE
  5
123
330
1E
100
AcDbEntity
  8
0
100
AcDbLine
 10
55.6
 20
182.1999999999999
 30
0.0
 11
65.2
 21
183.4999999999999
 31
0.0
  0
LINE
  5
124
330
1E
100
AcDbEntity
  8
0
100
AcDbLine
 10
75.0
 20
184.0
 30
0.0
 11
84.8
 21
183.4999999999999
 31
0.0
  0
LINE
  5
126
330
1E
100
AcDbEntity
  8
0
100
AcDbLine
 10
84.8
 20
183.4999999999999
 30
0.0
 11
94.40000000000001
 21
182.1999999999999
 31
0.0
  0
LINE
  5
127
330
1E
100
AcDbEntity
  8
0
100
AcDbLine
 10
75.0
 20
182.0
 30
0.0
 11
84.50000000000001
 21
181.4999999999999
 31
0.0
  0
LINE
  5
128
330
1E
100
AcDbEntity
  8
0
100
AcDbLine
 10
84.50000000000001
 20
181.4999999999999
 30
0.0
 11
93.8
 21
180.3
 31
0.0
  0
LINE
  5
129
330
1E
100
AcDbEntity
  8
0
100
AcDbLine
 10
94.40000000000001
 20
182.1999999999999
 30
0.0
 11
103.6
 21
180.0999999999999
 31
0.0
  0
LINE
  5
12A
330
1E
100
AcDbEntity
  8
0
100
AcDbLine
 10
103.6
 20
180.0999999999999
 30
0.0
 11
112.4
 21
177.3
 31
0.0
  0
LINE
  5
12B
330
1E
100
AcDbEntity
  8
0
100
AcDbLine
 10
93.8
 20
180.3
 30
0.0
 11
102.9
 21
178.3999999999999
 31
0.0
  0
LINE
  5
12C
330
1E
100
AcDbEntity
  8
0
100
AcDbLine
 10
102.9
 20
178.3999999999999
 30
0.0
 11
111.4
 21
175.6
 31
0.0
  0
LINE
  5
12D
330
1E
100
AcDbEntity
  8
0
100
AcDbLine
 10
102.9
 20
178.3999999999999
 30
0.0
 11
111.4
 21
175.6
 31
0.0
  0
LINE
  5
12E
330
1E
100
AcDbEntity
  8
0
100
AcDbLine
 10
112.4
 20
177.3
 30
0.0
 11
120.5999999999999
 21
173.5999999999999
 31
0.0
  0
LINE
  5
12F
330
1E
100
AcDbEntity
  8
0
100
AcDbLine
 10
111.4
 20
175.6
 30
0.0
 11
119.4
 21
172.0
 31
0.0
  0
LINE
  5
130
330
1E
100
AcDbEntity
  8
0
100
AcDbLine
 10
119.4
 20
172.0
 30
0.0
 11
123.1999999999999
 21
169.8
 31
0.0
  0
LINE
  5
131
330
1E
100
AcDbEntity
  8
0
100
AcDbLine
 10
149.197217960968
 20
140.5093710788429
 30
0.0
 11
164.0
 21
165.0
 31
0.0
  0
LINE
  5
132
330
1E
100
AcDbEntity
  8
0
100
AcDbLine
 10
240.3999999999999
 20
134.4
 30
0.0
 11
245.3
 21
127.9
 31
0.0
  0
LINE
  5
133
330
1E
100
AcDbEntity
  8
0
100
AcDbLine
 10
234.9
 20
140.0
 30
0.0
 11
240.3999999999999
 21
134.4
 31
0.0
  0
LINE
  5
134
330
1E
100
AcDbEntity
  8
0
100
AcDbLine
 10
179.6
 20
134.4
 30
0.0
 11
185.0999999999999
 21
140.0
 31
0.0
  0
LINE
  5
135
330
1E
100
AcDbEntity
  8
0
100
AcDbLine
 10
185.0999999999999
 20
140.0
 30
0.0
 11
190.8999999999999
 21
144.1
 31
0.0
  0
LINE
  5
136
330
1E
100
AcDbEntity
  8
0
100
AcDbLine
 10
185.0999999999999
 20
140.0
 30
0.0
 11
190.8999999999999
 21
144.1
 31
0.0
  0
LINE
  5
137
330
1E
100
AcDbEntity
  8
0
100
AcDbLine
 10
149.1999999999999
 20
140.5
 30
0.0
 11
150.0
 21
134.0
 31
0.0
  0
LINE
  5
138
330
1E
100
AcDbEntity
  8
0
100
AcDbLine
 10
120.5999999999999
 20
173.5999999999999
 30
0.0
 11
127.9
 21
169.3
 31
0.0
  0
LINE
  5
139
330
1E
100
AcDbEntity
  8
0
100
AcDbLine
 10
123.1999999999999
 20
169.8
 30
0.0
 11
126.2999999999999
 21
167.4
 31
0.0
  0
LINE
  5
13A
330
1E
100
AcDbEntity
  8
0
100
AcDbLine
 10
229.0999999999999
 20
144.1
 30
0.0
 11
234.9
 21
140.0
 31
0.0
  0
LINE
  5
13B
330
1E
100
AcDbEntity
  8
0
100
AcDbLine
 10
190.8999999999999
 20
144.1
 30
0.0
 11
197.1
 21
147.3
 31
0.0
  0
LINE
  5
13C
330
1E
100
AcDbEntity
  8
0
100
AcDbLine
 10
130.1999999999999
 20
152.9
 30
0.0
 11
130.6999999999999
 21
156.9
 31
0.0
  0
LINE
  5
13D
330
1E
100
AcDbEntity
  8
0
100
AcDbLine
 10
128.6999999999999
 20
149.3
 30
0.0
 11
130.1999999999999
 21
152.9
 31
0.0
  0
LINE
  5
13E
330
1E
100
AcDbEntity
  8
0
100
AcDbLine
 10
127.9
 20
169.3
 30
0.0
 11
134.4
 21
164.4
 31
0.0
  0
LINE
  5
13F
330
1E
100
AcDbEntity
  8
0
100
AcDbLine
 10
128.6999999999999
 20
164.3
 30
0.0
 11
130.1999999999999
 21
160.7
 31
0.0
  0
LINE
  5
140
330
1E
100
AcDbEntity
  8
0
100
AcDbLine
 10
130.1999999999999
 20
160.7
 30
0.0
 11
130.6999999999999
 21
156.9
 31
0.0
  0
LINE
  5
141
330
1E
100
AcDbEntity
  8
0
100
AcDbLine
 10
126.2999999999999
 20
167.4
 30
0.0
 11
128.6999999999999
 21
164.3
 31
0.0
  0
LINE
  5
142
330
1E
100
AcDbEntity
  8
0
100
AcDbLine
 10
130.1999999999999
 20
160.7
 30
0.0
 11
130.6999999999999
 21
156.9
 31
0.0
  0
LINE
  5
143
330
1E
100
AcDbEntity
  8
0
100
AcDbLine
 10
144.038103549708
 20
153.1875608321199
 30
0.0
 11
146.3839999999999
 21
156.5739999999999
 31
0.0
  0
LINE
  5
144
330
1E
100
AcDbEntity
  8
0
100
AcDbLine
 10
146.3839999999999
 20
156.5739999999999
 30
0.0
 11
148.359
 21
161.798
 31
0.0
  0
LINE
  5
145
330
1E
100
AcDbEntity
  8
0
100
AcDbLine
 10
144.038103549708
 20
153.1875608321199
 30
0.0
 11
146.3839999999999
 21
156.5739999999999
 31
0.0
  0
LINE
  5
146
330
1E
100
AcDbEntity
  8
0
100
AcDbLine
 10
144.1
 20
153.0999999999999
 30
0.0
 11
147.3
 21
146.9
 31
0.0
  0
LINE
  5
147
330
1E
100
AcDbEntity
  8
0
100
AcDbLine
 10
222.9
 20
147.3
 30
0.0
 11
229.0999999999999
 21
144.1
 31
0.0
  0
LINE
  5
148
330
1E
100
AcDbEntity
  8
0
100
AcDbLine
 10
216.5
 20
149.1999999999999
 30
0.0
 11
222.9
 21
147.3
 31
0.0
  0
LINE
  5
149
330
1E
100
AcDbEntity
  8
0
100
AcDbLine
 10
197.1
 20
147.3
 30
0.0
 11
203.5
 21
149.1999999999999
 31
0.0
  0
LINE
  5
14A
330
1E
100
AcDbEntity
  8
0
100
AcDbLine
 10
200.7519999999999
 20
152.0469999999999
 30
0.0
 11
203.493356915048
 21
149.198027834155
 31
0.0
  0
LINE
  5
14B
330
1E
100
AcDbEntity
  8
0
100
AcDbLine
 10
197.6159999999999
 20
156.5739999999999
 30
0.0
 11
200.7519999999999
 21
152.0469999999999
 31
0.0
  0
LINE
  5
14C
330
1E
100
AcDbEntity
  8
0
100
AcDbLine
 10
210.0
 20
150.0
 30
0.0
 11
216.5
 21
149.1999999999999
 31
0.0
  0
LINE
  5
14D
330
1E
100
AcDbEntity
  8
0
100
AcDbLine
 10
203.5
 20
149.1999999999999
 30
0.0
 11
210.0
 21
150.0
 31
0.0
  0
LINE
  5
14E
330
1E
100
AcDbEntity
  8
0
100
AcDbLine
 10
147.3
 20
146.9
 30
0.0
 11
149.1999999999999
 21
140.5
 31
0.0
  0
LINE
  5
14F
330
1E
100
AcDbEntity
  8
0
100
AcDbLine
 10
134.4
 20
164.4
 30
0.0
 11
140.0
 21
158.9
 31
0.0
  0
LINE
  5
150
330
1E
100
AcDbEntity
  8
0
100
AcDbLine
 10
154.311
 20
172.492
 30
0.0
 11
156.097
 21
173.384
 31
0.0
  0
LINE
  5
151
330
1E
100
AcDbEntity
  8
0
100
AcDbLine
 10
150.025
 20
172.492
 30
0.0
 11
154.311
 21
172.492
 31
0.0
  0
LINE
  5
152
330
1E
100
AcDbEntity
  8
0
100
AcDbLine
 10
172.0
 20
165.0
 30
0.0
 11
180.0
 21
165.0
 31
0.0
  0
LINE
  5
153
330
1E
100
AcDbEntity
  8
0
100
AcDbLine
 10
180.0
 20
165.0
 30
0.0
 11
192.220549848208
 21
144.781574115204
 31
0.0
  0
LINE
  5
154
330
1E
100
AcDbEntity
  8
0
100
AcDbLine
 10
195.6409999999999
 20
161.798
 30
0.0
 11
197.6159999999999
 21
156.5739999999999
 31
0.0
  0
LINE
  5
155
330
1E
100
AcDbEntity
  8
0
100
AcDbLine
 10
193.975
 20
172.492
 30
0.0
 11
195.6409999999999
 21
161.798
 31
0.0
  0
LINE
  5
156
330
1E
100
AcDbEntity
  8
0
100
AcDbLine
 10
189.689
 20
172.492
 30
0.0
 11
193.975
 21
172.492
 31
0.0
  0
LINE
  5
157
330
1E
100
AcDbEntity
  8
0
100
AcDbLine
 10
187.903
 20
173.384
 30
0.0
 11
189.689
 21
172.492
 31
0.0
  0
LINE
  5
158
330
1E
100
AcDbEntity
  8
0
100
AcDbLine
 10
164.0
 20
165.0
 30
0.0
 11
172.0
 21
165.0
 31
0.0
  0
LINE
  5
159
330
1E
100
AcDbEntity
  8
0
100
AcDbLine
 10
157.0
 20
187.0
 30
0.0
 11
157.0
 21
176.0
 31
0.0
  0
LINE
  5
15A
330
1E
100
AcDbEntity
  8
0
100
AcDbLine
 10
157.0
 20
187.0
 30
0.0
 11
172.0
 21
187.0
 31
0.0
  0
LINE
  5
15B
330
1E
100
AcDbEntity
  8
0
100
AcDbLine
 10
187.0
 20
176.0
 30
0.0
 11
187.903
 21
173.384
 31
0.0
  0
LINE
  5
15C
330
1E
100
AcDbEntity
  8
0
100
AcDbLine
 10
187.0
 20
176.0
 30
0.0
 11
187.0
 21
187.0
 31
0.0
  0
LINE
  5
15D
330
1E
100
AcDbEntity
  8
0
100
AcDbLine
 10
187.0
 20
187.0
 30
0.0
 11
187.0
 21
176.0
 31
0.0
  0
LINE
  5
15E
330
1E
100
AcDbEntity
  8
0
100
AcDbLine
 10
172.0
 20
187.0
 30
0.0
 11
187.0
 21
187.0
 31
0.0
  0
LINE
  5
15F
330
1E
100
AcDbEntity
  8
0
100
AcDbLine
 10
157.0
 20
176.0
 30
0.0
 11
157.0
 21
187.0
 31
0.0
  0
LINE
  5
160
330
1E
100
AcDbEntity
  8
0
100
AcDbLine
 10
156.097
 20
173.384
 30
0.0
 11
157.0
 21
176.0
 31
0.0
  0
LINE
  5
161
330
1E
100
AcDbEntity
  8
0
100
AcDbLine
 10
148.359
 20
161.798
 30
0.0
 11
150.025
 21
172.492
 31
0.0
  0
LINE
  5
162
330
1E
100
AcDbEntity
  8
0
100
AcDbLine
 10
140.0
 20
158.9
 30
0.0
 11
144.1
 21
153.0999999999999
 31
0.0
  0
LINE
  5
163
330
1E
100
AcDbEntity
  8
0
100
AcDbLine
 10
130.1999999999999
 20
152.9
 30
0.0
 11
130.6999999999999
 21
156.9
 31
0.0
  0
LINE
  5
164
330
1E
100
AcDbEntity
  8
0
100
AcDbLine
 10
126.2999999999999
 20
146.1999999999999
 30
0.0
 11
128.6999999999999
 21
149.3
 31
0.0
  0
LINE
  5
165
330
1E
100
AcDbEntity
  8
0
100
AcDbLine
 10
124.3999999999999
 20
144.5999999999999
 30
0.0
 11
126.2999999999999
 21
146.1999999999999
 31
0.0
  0
LINE
  5
166
330
1E
100
AcDbEntity
  8
0
100
AcDbLine
 10
122.0
 20
141.5
 30
0.0
 11
124.3999999999999
 21
144.5999999999999
 31
0.0
  0
LINE
  5
167
330
1E
100
AcDbEntity
  8
0
100
AcDbLine
 10
120.5
 20
137.9
 30
0.0
 11
122.0
 21
141.5
 31
0.0
  0
LINE
  5
168
330
1E
100
AcDbEntity
  8
0
100
AcDbLine
 10
1.999999999999989
 20
134.0
 30
0.0
 11
2.59999999999999
 21
127.7
 31
0.0
  0
LINE
  5
169
330
1E
100
AcDbEntity
  8
0
100
AcDbLine
 10
1.999999999999989
 20
134.0
 30
0.0
 11
2.59999999999999
 21
140.3
 31
0.0
  0
LINE
  5
16A
330
1E
100
AcDbEntity
  8
0
100
AcDbLine
 10
0.7999999999999928
 20
127.5
 30
0.0
 11
2.69999999999999
 21
121.1
 31
0.0
  0
LINE
  5
16B
330
1E
100
AcDbEntity
  8
0
100
AcDbLine
 10
0.7999999999999928
 20
127.5
 30
0.0
 11
2.69999999999999
 21
121.1
 31
0.0
  0
LINE
  5
16C
330
1E
100
AcDbEntity
  8
0
100
AcDbLine
 10
-0.0000000000000072
 20
134.0
 30
0.0
 11
0.7999999999999928
 21
127.5
 31
0.0
  0
LINE
  5
16D
330
1E
100
AcDbEntity
  8
0
100
AcDbLine
 10
-0.0000000000000072
 20
134.0
 30
0.0
 11
0.7999999999999928
 21
127.5
 31
0.0
  0
LINE
  5
16F
330
1E
100
AcDbEntity
  8
0
100
AcDbLine
 10
-0.0000000000000072
 20
134.0
 30
0.0
 11
0.7999999999999928
 21
140.5
 31
0.0
  0
ENDSEC
  0
SECTION
  2
OBJECTS
  0
DICTIONARY
  5
C
330
0
100
AcDbDictionary
281
     1
  3
ACAD_GROUP
350
D
  3
ACAD_LAYOUT
350
19
  3
ACAD_MLINESTYLE
350
16
  3
ACAD_PLOTSETTINGS
350
18
  3
ACAD_PLOTSTYLENAME
350
E
  3
AcDbVariableDictionary
350
174
  0
DICTIONARY
  5
D
102
{ACAD_REACTORS
330
C
102
}
330
C
100
AcDbDictionary
281
     1
  0
DICTIONARY
  5
19
102
{ACAD_REACTORS
330
C
102
}
330
C
100
AcDbDictionary
281
     1
  3
Layout1
350
1D
  3
Model
350
21
  0
DICTIONARY
  5
16
102
{ACAD_REACTORS
330
C
102
}
330
C
100
AcDbDictionary
281
     1
  3
Standard
350
17
  0
DICTIONARY
  5
18
102
{ACAD_REACTORS
330
C
102
}
330
C
100
AcDbDictionary
281
     1
  0
ACDBDICTIONARYWDFLT
  5
E
102
{ACAD_REACTORS
330
C
102
}
330
C
100
AcDbDictionary
281
     1
  3
Normal
350
F
100
AcDbDictionaryWithDefault
340
F
  0
DICTIONARY
  5
174
102
{ACAD_REACTORS
330
C
102
}
330
C
100
AcDbDictionary
281
     1
  3
DIMASSOC
350
175
  0
LAYOUT
  5
1D
102
{ACAD_REACTORS
330
19
102
}
330
19
100
AcDbPlotSettings
  1

  2
hp deskjet 980c series
  4

  6

 40
0.0
 41
0.0
 42
0.0
 43
0.0
 44
0.0
 45
0.0
 46
0.0
 47
0.0
 48
0.0
 49
0.0
140
0.0
141
0.0
142
1.0
143
1.0
 70
   688
 72
     0
 73
     0
 74
     5
  7

 75
    16
147
1.0
148
0.0
149
0.0
100
AcDbLayout
  1
Layout1
 70
     1
 71
     1
 10
0.0
 20
0.0
 11
12.0
 21
9.0
 12
0.0
 22
0.0
 32
0.0
 14
1.000000000000000E+20
 24
1.000000000000000E+20
 34
1.000000000000000E+20
 15
-1.000000000000000E+20
 25
-1.000000000000000E+20
 35
-1.000000000000000E+20
146
0.0
 13
0.0
 23
0.0
 33
0.0
 16
1.0
 26
0.0
 36
0.0
 17
0.0
 27
1.0
 37
0.0
 76
     0
330
1A
  0
LAYOUT
  5
21
102
{ACAD_REACTORS
330
19
102
}
330
19
100
AcDbPlotSettings
  1

  2
hp deskjet 980c series
  4

  6

 40
0.0
 41
0.0
 42
0.0
 43
0.0
 44
0.0
 45
0.0
 46
0.0
 47
0.0
 48
0.0
 49
0.0
140
0.0
141
0.0
142
1.0
143
1.0
 70
  1712
 72
     0
 73
     0
 74
     0
  7

 75
     0
147
1.0
148
0.0
149
0.0
100
AcDbLayout
  1
Model
 70
     1
 71
     0
 10
0.0
 20
0.0
 11
12.0
 21
9.0
 12
0.0
 22
0.0
 32
0.0
 14
0.0
 24
0.0
 34
0.0
 15
0.0
 25
0.0
 35
0.0
146
0.0
 13
0.0
 23
0.0
 33
0.0
 16
1.0
 26
0.0
 36
0.0
 17
0.0
 27
1.0
 37
0.0
 76
     0
330
1E
  0
MLINESTYLE
  5
17
102
{ACAD_REACTORS
330
16
102
}
330
16
100
AcDbMlineStyle
  2
STANDARD
 70
     0
  3

 62
   256
 51
90.0
 52
90.0
 71
     2
 49
0.5
 62
   256
  6
BYLAYER
 49
-0.5
 62
   256
  6
BYLAYER
  0
ACDBPLACEHOLDER
  5
F
102
{ACAD_REACTORS
330
E
102
}
330
E
  0
DICTIONARYVAR
  5
175
102
{ACAD_REACTORS
330
174
102
}
330
174
100
DictionaryVariables
280
     0
  1
1
  0
ENDSEC
  0
EOF
