  0
SECTION
  2
HEADER
  9
$ACADVER
  1
AC1015
  9
$ACADMAINTVER
 70
    13
  9
$DWGCODEPAGE
  3
ANSI_1252
  9
$INSBASE
 10
0.0
 20
0.0
 30
0.0
  9
$EXTMIN
 10
-0.0124499999999986
 20
0.107000000000076
 30
0.0
  9
$EXTMAX
 10
101.01245
 20
957.8929999999999
 30
0.0
  9
$LIMMIN
 10
0.0
 20
0.0
  9
$LIMMAX
 10
12.0
 20
9.0
  9
$ORTHOMODE
 70
     0
  9
$REGENMODE
 70
     1
  9
$FILLMODE
 70
     1
  9
$QTEXTMODE
 70
     0
  9
$MIRRTEXT
 70
     1
  9
$LTSCALE
 40
1.0
  9
$ATTMODE
 70
     1
  9
$TEXTSIZE
 40
0.2
  9
$TRACEWID
 40
0.05
  9
$TEXTSTYLE
  7
Standard
  9
$CLAYER
  8
0
  9
$CELTYPE
  6
Continuous
  9
$CECOLOR
 62
   256
  9
$CELTSCALE
 40
1.0
  9
$DISPSILH
 70
     0
  9
$DIMSCALE
 40
1.0
  9
$DIMASZ
 40
0.18
  9
$DIMEXO
 40
0.0625
  9
$DIMDLI
 40
0.38
  9
$DIMRND
 40
0.0
  9
$DIMDLE
 40
0.0
  9
$DIMEXE
 40
0.18
  9
$DIMTP
 40
0.0
  9
$DIMTM
 40
0.0
  9
$DIMTXT
 40
0.18
  9
$DIMCEN
 40
0.09
  9
$DIMTSZ
 40
0.0
  9
$DIMTOL
 70
     0
  9
$DIMLIM
 70
     0
  9
$DIMTIH
 70
     1
  9
$DIMTOH
 70
     1
  9
$DIMSE1
 70
     0
  9
$DIMSE2
 70
     0
  9
$DIMTAD
 70
     0
  9
$DIMZIN
 70
     0
  9
$DIMBLK
  1

  9
$DIMASO
 70
     1
  9
$DIMSHO
 70
     1
  9
$DIMPOST
  1

  9
$DIMAPOST
  1

  9
$DIMALT
 70
     0
  9
$DIMALTD
 70
     2
  9
$DIMALTF
 40
25.4
  9
$DIMLFAC
 40
1.0
  9
$DIMTOFL
 70
     0
  9
$DIMTVP
 40
0.0
  9
$DIMTIX
 70
     0
  9
$DIMSOXD
 70
     0
  9
$DIMSAH
 70
     0
  9
$DIMBLK1
  1

  9
$DIMBLK2
  1

  9
$DIMSTYLE
  2
Standard
  9
$DIMCLRD
 70
     0
  9
$DIMCLRE
 70
     0
  9
$DIMCLRT
 70
     0
  9
$DIMTFAC
 40
1.0
  9
$DIMGAP
 40
0.09
  9
$DIMJUST
 70
     0
  9
$DIMSD1
 70
     0
  9
$DIMSD2
 70
     0
  9
$DIMTOLJ
 70
     1
  9
$DIMTZIN
 70
     0
  9
$DIMALTZ
 70
     0
  9
$DIMALTTZ
 70
     0
  9
$DIMUPT
 70
     0
  9
$DIMDEC
 70
     4
  9
$DIMTDEC
 70
     4
  9
$DIMALTU
 70
     2
  9
$DIMALTTD
 70
     2
  9
$DIMTXSTY
  7
Standard
  9
$DIMAUNIT
 70
     0
  9
$DIMADEC
 70
     0
  9
$DIMALTRND
 40
0.0
  9
$DIMAZIN
 70
     0
  9
$DIMDSEP
 70
    46
  9
$DIMATFIT
 70
     3
  9
$DIMFRAC
 70
     0
  9
$DIMLDRBLK
  1

  9
$DIMLUNIT
 70
     2
  9
$DIMLWD
 70
    -2
  9
$DIMLWE
 70
    -2
  9
$DIMTMOVE
 70
     0
  9
$LUNITS
 70
     2
  9
$LUPREC
 70
     4
  9
$SKETCHINC
 40
0.1
  9
$FILLETRAD
 40
0.0
  9
$AUNITS
 70
     0
  9
$AUPREC
 70
     0
  9
$MENU
  1
.
  9
$ELEVATION
 40
0.0
  9
$PELEVATION
 40
0.0
  9
$THICKNESS
 40
0.0
  9
$LIMCHECK
 70
     0
  9
$CHAMFERA
 40
0.0
  9
$CHAMFERB
 40
0.0
  9
$CHAMFERC
 40
0.0
  9
$CHAMFERD
 40
0.0
  9
$SKPOLY
 70
     0
  9
$TDCREATE
 40
2454738.456130278
  9
$TDUCREATE
 40
2454738.372796944
  9
$TDUPDATE
 40
2454738.457834919
  9
$TDUUPDATE
 40
2454738.374501585
  9
$TDINDWG
 40
0.0017046412
  9
$TDUSRTIMER
 40
0.0017046412
  9
$USRTIMER
 70
     1
  9
$ANGBASE
 50
0.0
  9
$ANGDIR
 70
     0
  9
$PDMODE
 70
     0
  9
$PDSIZE
 40
0.0
  9
$PLINEWID
 40
0.0
  9
$SPLFRAME
 70
     0
  9
$SPLINETYPE
 70
     6
  9
$SPLINESEGS
 70
     8
  9
$HANDSEED
  5
194
  9
$SURFTAB1
 70
     6
  9
$SURFTAB2
 70
     6
  9
$SURFTYPE
 70
     6
  9
$SURFU
 70
     6
  9
$SURFV
 70
     6
  9
$UCSBASE
  2

  9
$UCSNAME
  2

  9
$UCSORG
 10
0.0
 20
0.0
 30
0.0
  9
$UCSXDIR
 10
1.0
 20
0.0
 30
0.0
  9
$UCSYDIR
 10
0.0
 20
1.0
 30
0.0
  9
$UCSORTHOREF
  2

  9
$UCSORTHOVIEW
 70
     1
  9
$UCSORGTOP
 10
0.0
 20
0.0
 30
0.0
  9
$UCSORGBOTTOM
 10
0.0
 20
0.0
 30
0.0
  9
$UCSORGLEFT
 10
0.0
 20
0.0
 30
0.0
  9
$UCSORGRIGHT
 10
0.0
 20
0.0
 30
0.0
  9
$UCSORGFRONT
 10
0.0
 20
0.0
 30
0.0
  9
$UCSORGBACK
 10
0.0
 20
0.0
 30
0.0
  9
$PUCSBASE
  2

  9
$PUCSNAME
  2

  9
$PUCSORG
 10
0.0
 20
0.0
 30
0.0
  9
$PUCSXDIR
 10
1.0
 20
0.0
 30
0.0
  9
$PUCSYDIR
 10
0.0
 20
1.0
 30
0.0
  9
$PUCSORTHOREF
  2

  9
$PUCSORTHOVIEW
 70
     0
  9
$PUCSORGTOP
 10
0.0
 20
0.0
 30
0.0
  9
$PUCSORGBOTTOM
 10
0.0
 20
0.0
 30
0.0
  9
$PUCSORGLEFT
 10
0.0
 20
0.0
 30
0.0
  9
$PUCSORGRIGHT
 10
0.0
 20
0.0
 30
0.0
  9
$PUCSORGFRONT
 10
0.0
 20
0.0
 30
0.0
  9
$PUCSORGBACK
 10
0.0
 20
0.0
 30
0.0
  9
$USERI1
 70
     0
  9
$USERI2
 70
     0
  9
$USERI3
 70
     0
  9
$USERI4
 70
     0
  9
$USERI5
 70
     0
  9
$USERR1
 40
0.0
  9
$USERR2
 40
0.0
  9
$USERR3
 40
0.0
  9
$USERR4
 40
0.0
  9
$USERR5
 40
0.0
  9
$WORLDVIEW
 70
     1
  9
$SHADEDGE
 70
     3
  9
$SHADEDIF
 70
    70
  9
$TILEMODE
 70
     1
  9
$MAXACTVP
 70
    64
  9
$PINSBASE
 10
0.0
 20
0.0
 30
0.0
  9
$PLIMCHECK
 70
     0
  9
$PEXTMIN
 10
1.000000000000000E+20
 20
1.000000000000000E+20
 30
1.000000000000000E+20
  9
$PEXTMAX
 10
-1.000000000000000E+20
 20
-1.000000000000000E+20
 30
-1.000000000000000E+20
  9
$PLIMMIN
 10
0.0
 20
0.0
  9
$PLIMMAX
 10
12.0
 20
9.0
  9
$UNITMODE
 70
     0
  9
$VISRETAIN
 70
     1
  9
$PLINEGEN
 70
     0
  9
$PSLTSCALE
 70
     1
  9
$TREEDEPTH
 70
  3020
  9
$CMLSTYLE
  2
Standard
  9
$CMLJUST
 70
     0
  9
$CMLSCALE
 40
1.0
  9
$PROXYGRAPHICS
 70
     1
  9
$MEASUREMENT
 70
     0
  9
$CELWEIGHT
370
    -1
  9
$ENDCAPS
280
     0
  9
$JOINSTYLE
280
     0
  9
$LWDISPLAY
290
     0
  9
$INSUNITS
 70
     0
  9
$HYPERLINKBASE
  1

  9
$STYLESHEET
  1

  9
$XEDIT
290
     1
  9
$CEPSNTYPE
380
     0
  9
$PSTYLEMODE
290
     1
  9
$FINGERPRINTGUID
  2
{B03E175E-E648-4FE4-9F36-64E8E099C568}
  9
$VERSIONGUID
  2
{61A6F11E-88C9-466C-9730-D0E8B64CA817}
  9
$EXTNAMES
290
     1
  9
$PSVPSCALE
 40
0.0
  9
$OLESTARTUP
290
     0
  0
ENDSEC
  0
SECTION
  2
CLASSES
  0
CLASS
  1
ACDBDICTIONARYWDFLT
  2
AcDbDictionaryWithDefault
  3
AutoCAD 2000
 90
        0
280
     0
281
     0
  0
CLASS
  1
ACDBPLACEHOLDER
  2
AcDbPlaceHolder
  3
AutoCAD 2000
 90
        0
280
     0
281
     0
  0
CLASS
  1
LAYOUT
  2
AcDbLayout
  3
AutoCAD 2000
 90
        0
280
     0
281
     0
  0
CLASS
  1
DICTIONARYVAR
  2
AcDbDictionaryVar
  3
AutoCAD 2000
 90
        0
280
     0
281
     0
  0
ENDSEC
  0
SECTION
  2
TABLES
  0
TABLE
  2
VPORT
  5
8
330
0
100
AcDbSymbolTable
 70
     2
  0
VPORT
  5
193
330
8
100
AcDbSymbolTableRecord
100
AcDbViewportTableRecord
  2
*Active
 70
     0
 10
0.0
 20
0.0
 11
1.0
 21
1.0
 12
50.5
 22
479.0
 13
0.0
 23
0.0
 14
1.0
 24
1.0
 15
0.0
 25
0.0
 16
0.0
 26
0.0
 36
1.0
 17
0.0
 27
0.0
 37
0.0
 40
965.1347416879795
 41
2.078104993597951
 42
50.0
 43
0.0
 44
0.0
 50
0.0
 51
0.0
 71
     0
 72
   100
 73
     1
 74
     3
 75
     0
 76
     0
 77
     0
 78
     0
281
     0
 65
     1
110
0.0
120
0.0
130
0.0
111
1.0
121
0.0
131
0.0
112
0.0
122
1.0
132
0.0
 79
     1
146
0.0
  0
ENDTAB
  0
TABLE
  2
LTYPE
  5
5
330
0
100
AcDbSymbolTable
 70
     1
  0
LTYPE
  5
13
330
5
100
AcDbSymbolTableRecord
100
AcDbLinetypeTableRecord
  2
ByBlock
 70
     0
  3

 72
    65
 73
     0
 40
0.0
  0
LTYPE
  5
14
330
5
100
AcDbSymbolTableRecord
100
AcDbLinetypeTableRecord
  2
ByLayer
 70
     0
  3

 72
    65
 73
     0
 40
0.0
  0
LTYPE
  5
15
330
5
100
AcDbSymbolTableRecord
100
AcDbLinetypeTableRecord
  2
Continuous
 70
     0
  3
Solid line
 72
    65
 73
     0
 40
0.0
  0
ENDTAB
  0
TABLE
  2
LAYER
  5
2
330
0
100
AcDbSymbolTable
 70
     1
  0
LAYER
  5
10
330
2
100
AcDbSymbolTableRecord
100
AcDbLayerTableRecord
  2
0
 70
     0
 62
     7
  6
Continuous
370
    -3
390
F
  0
ENDTAB
  0
TABLE
  2
STYLE
  5
3
330
0
100
AcDbSymbolTable
 70
     1
  0
STYLE
  5
11
330
3
100
AcDbSymbolTableRecord
100
AcDbTextStyleTableRecord
  2
Standard
 70
     0
 40
0.0
 41
1.0
 50
0.0
 71
     0
 42
0.2
  3
txt
  4

  0
ENDTAB
  0
TABLE
  2
VIEW
  5
6
330
0
100
AcDbSymbolTable
 70
     0
  0
ENDTAB
  0
TABLE
  2
UCS
  5
7
330
0
100
AcDbSymbolTable
 70
     0
  0
ENDTAB
  0
TABLE
  2
APPID
  5
9
330
0
100
AcDbSymbolTable
 70
     1
  0
APPID
  5
12
330
9
100
AcDbSymbolTableRecord
100
AcDbRegAppTableRecord
  2
ACAD
 70
     0
  0
ENDTAB
  0
TABLE
  2
DIMSTYLE
  5
A
330
0
100
AcDbSymbolTable
 70
     1
100
AcDbDimStyleTable
 71
     0
  0
DIMSTYLE
105
18D
330
A
100
AcDbSymbolTableRecord
100
AcDbDimStyleTableRecord
  2
Standard
 70
     0
340
11
  0
ENDTAB
  0
TABLE
  2
BLOCK_RECORD
  5
1
330
0
100
AcDbSymbolTable
 70
     0
  0
BLOCK_RECORD
  5
1E
330
1
100
AcDbSymbolTableRecord
100
AcDbBlockTableRecord
  2
*Model_Space
340
21
  0
BLOCK_RECORD
  5
1A
330
1
100
AcDbSymbolTableRecord
100
AcDbBlockTableRecord
  2
*Paper_Space
340
1D
  0
ENDTAB
  0
ENDSEC
  0
SECTION
  2
BLOCKS
  0
BLOCK
  5
1F
330
1E
100
AcDbEntity
  8
0
100
AcDbBlockBegin
  2
*Model_Space
 70
     0
 10
0.0
 20
0.0
 30
0.0
  3
*Model_Space
  1

  0
ENDBLK
  5
20
330
1E
100
AcDbEntity
  8
0
100
AcDbBlockEnd
  0
BLOCK
  5
1B
330
1A
100
AcDbEntity
 67
     1
  8
0
100
AcDbBlockBegin
  2
*Paper_Space
 70
     0
 10
0.0
 20
0.0
 30
0.0
  3
*Paper_Space
  1

  0
ENDBLK
  5
1C
330
1A
100
AcDbEntity
 67
     1
  8
0
100
AcDbBlockEnd
  0
ENDSEC
  0
SECTION
  2
ENTITIES
  0
LINE
  5
22
330
1E
100
AcDbEntity
  8
0
100
AcDbLine
 10
4.781649999999999
 20
644.893
 30
0.0
 11
33.24325
 21
644.893
 31
0.0
  0
LINE
  5
23
330
1E
100
AcDbEntity
  8
0
100
AcDbLine
 10
4.781649999999999
 20
644.893
 30
0.0
 11
33.24325
 21
644.893
 31
0.0
  0
LINE
  5
24
330
1E
100
AcDbEntity
  8
0
100
AcDbLine
 10
33.24325
 20
644.893
 30
0.0
 11
34.01245
 21
645.2769999999999
 31
0.0
  0
LINE
  5
25
330
1E
100
AcDbEntity
  8
0
100
AcDbLine
 10
4.01245
 20
645.853
 30
0.0
 11
4.01245
 21
645.2769999999999
 31
0.0
  0
LINE
  5
26
330
1E
100
AcDbEntity
  8
0
100
AcDbLine
 10
4.01245
 20
645.853
 30
0.0
 11
4.01245
 21
647.3889999999999
 31
0.0
  0
LINE
  5
27
330
1E
100
AcDbEntity
  8
0
100
AcDbLine
 10
4.01245
 20
645.2769999999999
 30
0.0
 11
4.781649999999999
 21
644.893
 31
0.0
  0
LINE
  5
28
330
1E
100
AcDbEntity
  8
0
100
AcDbLine
 10
4.01245
 20
645.2769999999999
 30
0.0
 11
4.01245
 21
645.853
 31
0.0
  0
LINE
  5
29
330
1E
100
AcDbEntity
  8
0
100
AcDbLine
 10
34.01245
 20
645.853
 30
0.0
 11
34.01245
 21
647.3889999999999
 31
0.0
  0
LINE
  5
2A
330
1E
100
AcDbEntity
  8
0
100
AcDbLine
 10
34.01245
 20
645.853
 30
0.0
 11
34.01245
 21
645.2769999999999
 31
0.0
  0
LINE
  5
2B
330
1E
100
AcDbEntity
  8
0
100
AcDbLine
 10
34.01245
 20
645.2769999999999
 30
0.0
 11
34.01245
 21
645.853
 31
0.0
  0
LINE
  5
2C
330
1E
100
AcDbEntity
  8
0
100
AcDbLine
 10
34.01245
 20
644.893
 30
0.0
 11
39.01245
 21
644.893
 31
0.0
  0
LINE
  5
2D
330
1E
100
AcDbEntity
  8
0
100
AcDbLine
 10
34.01245
 20
644.893
 30
0.0
 11
34.01245
 21
645.2769999999999
 31
0.0
  0
LINE
  5
2E
330
1E
100
AcDbEntity
  8
0
100
AcDbLine
 10
34.01245
 20
645.495
 30
0.0
 11
34.01245
 21
644.893
 31
0.0
  0
LINE
  5
2F
330
1E
100
AcDbEntity
  8
0
100
AcDbLine
 10
4.01245
 20
649.885
 30
0.0
 11
4.01245
 21
647.3889999999999
 31
0.0
  0
LINE
  5
30
330
1E
100
AcDbEntity
  8
0
100
AcDbLine
 10
4.01245
 20
649.885
 30
0.0
 11
4.01245
 21
653.1489999999999
 31
0.0
  0
LINE
  5
31
330
1E
100
AcDbEntity
  8
0
100
AcDbLine
 10
4.01245
 20
647.3889999999999
 30
0.0
 11
4.01245
 21
645.853
 31
0.0
  0
LINE
  5
32
330
1E
100
AcDbEntity
  8
0
100
AcDbLine
 10
4.01245
 20
647.3889999999999
 30
0.0
 11
4.01245
 21
649.885
 31
0.0
  0
LINE
  5
33
330
1E
100
AcDbEntity
  8
0
100
AcDbLine
 10
34.01245
 20
649.885
 30
0.0
 11
34.01245
 21
653.1489999999999
 31
0.0
  0
LINE
  5
34
330
1E
100
AcDbEntity
  8
0
100
AcDbLine
 10
34.01245
 20
649.885
 30
0.0
 11
34.01245
 21
647.3889999999999
 31
0.0
  0
LINE
  5
35
330
1E
100
AcDbEntity
  8
0
100
AcDbLine
 10
34.01245
 20
647.3889999999999
 30
0.0
 11
34.01245
 21
649.885
 31
0.0
  0
LINE
  5
36
330
1E
100
AcDbEntity
  8
0
100
AcDbLine
 10
34.01245
 20
647.3889999999999
 30
0.0
 11
34.01245
 21
645.853
 31
0.0
  0
LINE
  5
37
330
1E
100
AcDbEntity
  8
0
100
AcDbLine
 10
34.01245
 20
647.053
 30
0.0
 11
34.01245
 21
645.495
 31
0.0
  0
LINE
  5
38
330
1E
100
AcDbEntity
  8
0
100
AcDbLine
 10
39.27645
 20
199.893
 30
0.0
 11
39.67245
 21
199.893
 31
0.0
  0
LINE
  5
39
330
1E
100
AcDbEntity
  8
0
100
AcDbLine
 10
40.72845
 20
199.893
 30
0.0
 11
42.44445
 21
199.893
 31
0.0
  0
LINE
  5
3A
330
1E
100
AcDbEntity
  8
0
100
AcDbLine
 10
39.67245
 20
199.893
 30
0.0
 11
40.72845
 21
199.893
 31
0.0
  0
LINE
  5
3B
330
1E
100
AcDbEntity
  8
0
100
AcDbLine
 10
44.68845
 20
199.893
 30
0.0
 11
47.24045
 21
199.893
 31
0.0
  0
LINE
  5
3C
330
1E
100
AcDbEntity
  8
0
100
AcDbLine
 10
42.44445
 20
199.893
 30
0.0
 11
44.68845
 21
199.893
 31
0.0
  0
LINE
  5
3D
330
1E
100
AcDbEntity
  8
0
100
AcDbLine
 10
47.24045
 20
199.893
 30
0.0
 11
50.01245
 21
199.893
 31
0.0
  0
LINE
  5
3E
330
1E
100
AcDbEntity
  8
0
100
AcDbLine
 10
47.19644999999999
 20
200.2776149999999
 30
0.0
 11
50.01245
 21
200.2776149999999
 31
0.0
  0
LINE
  5
3F
330
1E
100
AcDbEntity
  8
0
100
AcDbLine
 10
44.55644999999999
 20
200.2776149999999
 30
0.0
 11
47.19644999999999
 21
200.2776149999999
 31
0.0
  0
LINE
  5
40
330
1E
100
AcDbEntity
  8
0
100
AcDbLine
 10
42.22444999999999
 20
200.2776149999999
 30
0.0
 11
44.55644999999999
 21
200.2776149999999
 31
0.0
  0
LINE
  5
41
330
1E
100
AcDbEntity
  8
0
100
AcDbLine
 10
40.46445
 20
200.2776149999999
 30
0.0
 11
42.22444999999999
 21
200.2776149999999
 31
0.0
  0
LINE
  5
42
330
1E
100
AcDbEntity
  8
0
100
AcDbLine
 10
39.40845
 20
200.2776149999999
 30
0.0
 11
40.46445
 21
200.2776149999999
 31
0.0
  0
LINE
  5
43
330
1E
100
AcDbEntity
  8
0
100
AcDbLine
 10
39.01245
 20
200.2776149999999
 30
0.0
 11
39.40845
 21
200.2776149999999
 31
0.0
  0
LINE
  5
44
330
1E
100
AcDbEntity
  8
0
100
AcDbLine
 10
39.01245
 20
200.2776149999999
 30
0.0
 11
39.27645
 21
199.893
 31
0.0
  0
LINE
  5
45
330
1E
100
AcDbEntity
  8
0
100
AcDbLine
 10
39.01245
 20
200.2776149999999
 30
0.0
 11
39.01245
 21
269.5084
 31
0.0
  0
LINE
  5
46
330
1E
100
AcDbEntity
  8
0
100
AcDbLine
 10
50.01245
 20
199.893
 30
0.0
 11
52.78445
 21
199.893
 31
0.0
  0
LINE
  5
47
330
1E
100
AcDbEntity
  8
0
100
AcDbLine
 10
47.19644999999999
 20
269.5084
 30
0.0
 11
50.01245
 21
269.5084
 31
0.0
  0
LINE
  5
48
330
1E
100
AcDbEntity
  8
0
100
AcDbLine
 10
44.55644999999999
 20
269.5084
 30
0.0
 11
47.19644999999999
 21
269.5084
 31
0.0
  0
LINE
  5
49
330
1E
100
AcDbEntity
  8
0
100
AcDbLine
 10
42.22444999999999
 20
269.5084
 30
0.0
 11
44.55644999999999
 21
269.5084
 31
0.0
  0
LINE
  5
4A
330
1E
100
AcDbEntity
  8
0
100
AcDbLine
 10
40.46445
 20
269.5084
 30
0.0
 11
42.22444999999999
 21
269.5084
 31
0.0
  0
LINE
  5
4B
330
1E
100
AcDbEntity
  8
0
100
AcDbLine
 10
39.40845
 20
269.5084
 30
0.0
 11
40.46445
 21
269.5084
 31
0.0
  0
LINE
  5
4C
330
1E
100
AcDbEntity
  8
0
100
AcDbLine
 10
39.01245
 20
269.5084
 30
0.0
 11
39.01245
 21
200.2776149999999
 31
0.0
  0
LINE
  5
4D
330
1E
100
AcDbEntity
  8
0
100
AcDbLine
 10
39.01245
 20
269.5084
 30
0.0
 11
39.40845
 21
269.5084
 31
0.0
  0
LINE
  5
4E
330
1E
100
AcDbEntity
  8
0
100
AcDbLine
 10
39.01245
 20
269.5084
 30
0.0
 11
39.27645
 21
269.8929999999999
 31
0.0
  0
LINE
  5
4F
330
1E
100
AcDbEntity
  8
0
100
AcDbLine
 10
50.01245
 20
200.2776149999999
 30
0.0
 11
52.82845
 21
200.2776149999999
 31
0.0
  0
LINE
  5
50
330
1E
100
AcDbEntity
  8
0
100
AcDbLine
 10
52.78445
 20
199.893
 30
0.0
 11
55.33644999999999
 21
199.893
 31
0.0
  0
LINE
  5
51
330
1E
100
AcDbEntity
  8
0
100
AcDbLine
 10
55.33644999999999
 20
199.893
 30
0.0
 11
57.58045
 21
199.893
 31
0.0
  0
LINE
  5
52
330
1E
100
AcDbEntity
  8
0
100
AcDbLine
 10
52.82845
 20
200.2776149999999
 30
0.0
 11
55.46845
 21
200.2776149999999
 31
0.0
  0
LINE
  5
53
330
1E
100
AcDbEntity
  8
0
100
AcDbLine
 10
55.46845
 20
200.2776149999999
 30
0.0
 11
57.80045
 21
200.2776149999999
 31
0.0
  0
LINE
  5
54
330
1E
100
AcDbEntity
  8
0
100
AcDbLine
 10
50.01245
 20
269.5084
 30
0.0
 11
52.82845
 21
269.5084
 31
0.0
  0
LINE
  5
55
330
1E
100
AcDbEntity
  8
0
100
AcDbLine
 10
52.82845
 20
269.5084
 30
0.0
 11
55.46845
 21
269.5084
 31
0.0
  0
LINE
  5
56
330
1E
100
AcDbEntity
  8
0
100
AcDbLine
 10
57.58045
 20
199.893
 30
0.0
 11
59.29645
 21
199.893
 31
0.0
  0
LINE
  5
57
330
1E
100
AcDbEntity
  8
0
100
AcDbLine
 10
59.29645
 20
199.893
 30
0.0
 11
60.35244999999999
 21
199.893
 31
0.0
  0
LINE
  5
58
330
1E
100
AcDbEntity
  8
0
100
AcDbLine
 10
57.80045
 20
200.2776149999999
 30
0.0
 11
59.56045
 21
200.2776149999999
 31
0.0
  0
LINE
  5
59
330
1E
100
AcDbEntity
  8
0
100
AcDbLine
 10
59.56045
 20
200.2776149999999
 30
0.0
 11
60.61645
 21
200.2776149999999
 31
0.0
  0
LINE
  5
5A
330
1E
100
AcDbEntity
  8
0
100
AcDbLine
 10
55.46845
 20
269.5084
 30
0.0
 11
57.80045
 21
269.5084
 31
0.0
  0
LINE
  5
5B
330
1E
100
AcDbEntity
  8
0
100
AcDbLine
 10
57.80045
 20
269.5084
 30
0.0
 11
59.56045
 21
269.5084
 31
0.0
  0
LINE
  5
5C
330
1E
100
AcDbEntity
  8
0
100
AcDbLine
 10
60.35244999999999
 20
199.893
 30
0.0
 11
60.74844999999999
 21
199.893
 31
0.0
  0
LINE
  5
5D
330
1E
100
AcDbEntity
  8
0
100
AcDbLine
 10
60.74844999999999
 20
199.893
 30
0.0
 11
61.01245
 21
200.2776149999999
 31
0.0
  0
LINE
  5
5E
330
1E
100
AcDbEntity
  8
0
100
AcDbLine
 10
60.61645
 20
200.2776149999999
 30
0.0
 11
61.01245
 21
200.2776149999999
 31
0.0
  0
LINE
  5
5F
330
1E
100
AcDbEntity
  8
0
100
AcDbLine
 10
61.01245
 20
269.5084
 30
0.0
 11
61.01245
 21
200.2776149999999
 31
0.0
  0
LINE
  5
60
330
1E
100
AcDbEntity
  8
0
100
AcDbLine
 10
61.01245
 20
200.2776149999999
 30
0.0
 11
61.01245
 21
269.5084
 31
0.0
  0
LINE
  5
61
330
1E
100
AcDbEntity
  8
0
100
AcDbLine
 10
59.56045
 20
269.5084
 30
0.0
 11
60.61645
 21
269.5084
 31
0.0
  0
LINE
  5
62
330
1E
100
AcDbEntity
  8
0
100
AcDbLine
 10
47.24045
 20
269.8929999999999
 30
0.0
 11
50.01245
 21
269.8929999999999
 31
0.0
  0
LINE
  5
63
330
1E
100
AcDbEntity
  8
0
100
AcDbLine
 10
44.68845
 20
269.8929999999999
 30
0.0
 11
47.24045
 21
269.8929999999999
 31
0.0
  0
LINE
  5
64
330
1E
100
AcDbEntity
  8
0
100
AcDbLine
 10
42.44445
 20
269.8929999999999
 30
0.0
 11
44.68845
 21
269.8929999999999
 31
0.0
  0
LINE
  5
65
330
1E
100
AcDbEntity
  8
0
100
AcDbLine
 10
40.72845
 20
269.8929999999999
 30
0.0
 11
42.44445
 21
269.8929999999999
 31
0.0
  0
LINE
  5
66
330
1E
100
AcDbEntity
  8
0
100
AcDbLine
 10
39.67245
 20
269.8929999999999
 30
0.0
 11
40.72845
 21
269.8929999999999
 31
0.0
  0
LINE
  5
67
330
1E
100
AcDbEntity
  8
0
100
AcDbLine
 10
39.27645
 20
269.8929999999999
 30
0.0
 11
39.67245
 21
269.8929999999999
 31
0.0
  0
LINE
  5
68
330
1E
100
AcDbEntity
  8
0
100
AcDbLine
 10
50.01245
 20
269.8929999999999
 30
0.0
 11
52.78445
 21
269.8929999999999
 31
0.0
  0
LINE
  5
69
330
1E
100
AcDbEntity
  8
0
100
AcDbLine
 10
52.78445
 20
269.8929999999999
 30
0.0
 11
55.33644999999999
 21
269.8929999999999
 31
0.0
  0
LINE
  5
6A
330
1E
100
AcDbEntity
  8
0
100
AcDbLine
 10
55.33644999999999
 20
269.8929999999999
 30
0.0
 11
57.58045
 21
269.8929999999999
 31
0.0
  0
LINE
  5
6B
330
1E
100
AcDbEntity
  8
0
100
AcDbLine
 10
57.58045
 20
269.8929999999999
 30
0.0
 11
59.29645
 21
269.8929999999999
 31
0.0
  0
LINE
  5
6C
330
1E
100
AcDbEntity
  8
0
100
AcDbLine
 10
39.01245
 20
270.493
 30
0.0
 11
39.27645
 21
269.8929999999999
 31
0.0
  0
LINE
  5
6D
330
1E
100
AcDbEntity
  8
0
100
AcDbLine
 10
39.01245
 20
270.493
 30
0.0
 11
39.01245
 21
578.893
 31
0.0
  0
LINE
  5
6E
330
1E
100
AcDbEntity
  8
0
100
AcDbLine
 10
39.01245
 20
578.893
 30
0.0
 11
39.01245
 21
270.493
 31
0.0
  0
LINE
  5
6F
330
1E
100
AcDbEntity
  8
0
100
AcDbLine
 10
39.01245
 20
578.893
 30
0.0
 11
39.01245
 21
644.96825
 31
0.0
  0
LINE
  5
70
330
1E
100
AcDbEntity
  8
0
100
AcDbLine
 10
59.29645
 20
269.8929999999999
 30
0.0
 11
60.35244999999999
 21
269.8929999999999
 31
0.0
  0
LINE
  5
71
330
1E
100
AcDbEntity
  8
0
100
AcDbLine
 10
61.01245
 20
578.893
 30
0.0
 11
61.01245
 21
270.493
 31
0.0
  0
LINE
  5
72
330
1E
100
AcDbEntity
  8
0
100
AcDbLine
 10
61.01245
 20
578.893
 30
0.0
 11
61.01245
 21
644.893
 31
0.0
  0
LINE
  5
73
330
1E
100
AcDbEntity
  8
0
100
AcDbLine
 10
61.01245
 20
270.493
 30
0.0
 11
61.01245
 21
578.893
 31
0.0
  0
LINE
  5
74
330
1E
100
AcDbEntity
  8
0
100
AcDbLine
 10
60.74844999999999
 20
269.8929999999999
 30
0.0
 11
61.01245
 21
269.5084
 31
0.0
  0
LINE
  5
75
330
1E
100
AcDbEntity
  8
0
100
AcDbLine
 10
60.74844999999999
 20
269.8929999999999
 30
0.0
 11
61.01245
 21
270.493
 31
0.0
  0
LINE
  5
76
330
1E
100
AcDbEntity
  8
0
100
AcDbLine
 10
60.35244999999999
 20
269.8929999999999
 30
0.0
 11
60.74844999999999
 21
269.8929999999999
 31
0.0
  0
LINE
  5
77
330
1E
100
AcDbEntity
  8
0
100
AcDbLine
 10
60.61645
 20
269.5084
 30
0.0
 11
61.01245
 21
269.5084
 31
0.0
  0
LINE
  5
78
330
1E
100
AcDbEntity
  8
0
100
AcDbLine
 10
74.01245
 20
644.893
 30
0.0
 11
77.01245
 21
644.893
 31
0.0
  0
LINE
  5
79
330
1E
100
AcDbEntity
  8
0
100
AcDbLine
 10
39.01245
 20
644.96825
 30
0.0
 11
39.01245
 21
578.893
 31
0.0
  0
LINE
  5
7A
330
1E
100
AcDbEntity
  8
0
100
AcDbLine
 10
61.01245
 20
644.893
 30
0.0
 11
74.01245
 21
644.893
 31
0.0
  0
LINE
  5
7B
330
1E
100
AcDbEntity
  8
0
100
AcDbLine
 10
61.01245
 20
644.893
 30
0.0
 11
61.01245
 21
578.893
 31
0.0
  0
LINE
  5
7C
330
1E
100
AcDbEntity
  8
0
100
AcDbLine
 10
34.01245
 20
649.6799999999999
 30
0.0
 11
34.01245
 21
647.053
 31
0.0
  0
LINE
  5
7D
330
1E
100
AcDbEntity
  8
0
100
AcDbLine
 10
4.01245
 20
656.8610000000001
 30
0.0
 11
4.01245
 21
653.1489999999999
 31
0.0
  0
LINE
  5
7E
330
1E
100
AcDbEntity
  8
0
100
AcDbLine
 10
4.01245
 20
656.8610000000001
 30
0.0
 11
4.01245
 21
660.893
 31
0.0
  0
LINE
  5
7F
330
1E
100
AcDbEntity
  8
0
100
AcDbLine
 10
4.01245
 20
653.1489999999999
 30
0.0
 11
4.01245
 21
649.885
 31
0.0
  0
LINE
  5
80
330
1E
100
AcDbEntity
  8
0
100
AcDbLine
 10
4.01245
 20
653.1489999999999
 30
0.0
 11
4.01245
 21
656.8610000000001
 31
0.0
  0
LINE
  5
81
330
1E
100
AcDbEntity
  8
0
100
AcDbLine
 10
4.01245
 20
660.893
 30
0.0
 11
4.01245
 21
656.8610000000001
 31
0.0
  0
LINE
  5
82
330
1E
100
AcDbEntity
  8
0
100
AcDbLine
 10
4.01245
 20
660.893
 30
0.0
 11
4.01245
 21
664.9249999999999
 31
0.0
  0
LINE
  5
83
330
1E
100
AcDbEntity
  8
0
100
AcDbLine
 10
34.01245
 20
660.893
 30
0.0
 11
34.01245
 21
656.8610000000001
 31
0.0
  0
LINE
  5
84
330
1E
100
AcDbEntity
  8
0
100
AcDbLine
 10
34.01245
 20
660.893
 30
0.0
 11
34.01245
 21
664.9249999999999
 31
0.0
  0
LINE
  5
85
330
1E
100
AcDbEntity
  8
0
100
AcDbLine
 10
34.01245
 20
656.8610000000001
 30
0.0
 11
34.01245
 21
660.893
 31
0.0
  0
LINE
  5
86
330
1E
100
AcDbEntity
  8
0
100
AcDbLine
 10
34.01245
 20
656.8610000000001
 30
0.0
 11
34.01245
 21
653.1489999999999
 31
0.0
  0
LINE
  5
87
330
1E
100
AcDbEntity
  8
0
100
AcDbLine
 10
34.01245
 20
653.1489999999999
 30
0.0
 11
34.01245
 21
656.8610000000001
 31
0.0
  0
LINE
  5
88
330
1E
100
AcDbEntity
  8
0
100
AcDbLine
 10
34.01245
 20
653.1489999999999
 30
0.0
 11
34.01245
 21
649.885
 31
0.0
  0
LINE
  5
89
330
1E
100
AcDbEntity
  8
0
100
AcDbLine
 10
4.01245
 20
664.9249999999999
 30
0.0
 11
4.01245
 21
660.893
 31
0.0
  0
LINE
  5
8A
330
1E
100
AcDbEntity
  8
0
100
AcDbLine
 10
4.01245
 20
664.9249999999999
 30
0.0
 11
4.01245
 21
668.6369999999999
 31
0.0
  0
LINE
  5
8B
330
1E
100
AcDbEntity
  8
0
100
AcDbLine
 10
34.01245
 20
664.9249999999999
 30
0.0
 11
34.01245
 21
668.6369999999999
 31
0.0
  0
LINE
  5
8C
330
1E
100
AcDbEntity
  8
0
100
AcDbLine
 10
34.01245
 20
664.9249999999999
 30
0.0
 11
34.01245
 21
660.893
 31
0.0
  0
LINE
  5
8D
330
1E
100
AcDbEntity
  8
0
100
AcDbLine
 10
34.01245
 20
668.6369999999999
 30
0.0
 11
34.01245
 21
671.901
 31
0.0
  0
LINE
  5
8E
330
1E
100
AcDbEntity
  8
0
100
AcDbLine
 10
34.01245
 20
668.6369999999999
 30
0.0
 11
34.01245
 21
664.9249999999999
 31
0.0
  0
LINE
  5
8F
330
1E
100
AcDbEntity
  8
0
100
AcDbLine
 10
4.01245
 20
668.6369999999999
 30
0.0
 11
4.01245
 21
664.9249999999999
 31
0.0
  0
LINE
  5
90
330
1E
100
AcDbEntity
  8
0
100
AcDbLine
 10
4.01245
 20
668.6369999999999
 30
0.0
 11
4.01245
 21
671.901
 31
0.0
  0
LINE
  5
91
330
1E
100
AcDbEntity
  8
0
100
AcDbLine
 10
4.01245
 20
668.6369999999999
 30
0.0
 11
4.01245
 21
670.918120933881
 31
0.0
  0
LINE
  5
92
330
1E
100
AcDbEntity
  8
0
100
AcDbLine
 10
4.01245
 20
670.918120933881
 30
0.0
 11
4.01245
 21
668.6369999999999
 31
0.0
  0
LINE
  5
93
330
1E
100
AcDbEntity
  8
0
100
AcDbLine
 10
4.01245
 20
671.901
 30
0.0
 11
4.01245
 21
668.6369999999999
 31
0.0
  0
LINE
  5
94
330
1E
100
AcDbEntity
  8
0
100
AcDbLine
 10
4.01245
 20
671.901
 30
0.0
 11
4.01245
 21
674.3969999999999
 31
0.0
  0
LINE
  5
95
330
1E
100
AcDbEntity
  8
0
100
AcDbLine
 10
34.01245
 20
671.901
 30
0.0
 11
34.01245
 21
674.3969999999999
 31
0.0
  0
LINE
  5
96
330
1E
100
AcDbEntity
  8
0
100
AcDbLine
 10
34.01245
 20
671.901
 30
0.0
 11
34.01245
 21
668.6369999999999
 31
0.0
  0
LINE
  5
97
330
1E
100
AcDbEntity
  8
0
100
AcDbLine
 10
34.01245
 20
674.3969999999999
 30
0.0
 11
34.01245
 21
675.933
 31
0.0
  0
LINE
  5
98
330
1E
100
AcDbEntity
  8
0
100
AcDbLine
 10
34.01245
 20
674.3969999999999
 30
0.0
 11
34.01245
 21
671.901
 31
0.0
  0
LINE
  5
99
330
1E
100
AcDbEntity
  8
0
100
AcDbLine
 10
4.01245
 20
674.3969999999999
 30
0.0
 11
4.01245
 21
671.901
 31
0.0
  0
LINE
  5
9A
330
1E
100
AcDbEntity
  8
0
100
AcDbLine
 10
4.01245
 20
674.3969999999999
 30
0.0
 11
4.01245
 21
675.933
 31
0.0
  0
LINE
  5
9B
330
1E
100
AcDbEntity
  8
0
100
AcDbLine
 10
34.01245
 20
675.933
 30
0.0
 11
34.01245
 21
676.5089999999998
 31
0.0
  0
LINE
  5
9C
330
1E
100
AcDbEntity
  8
0
100
AcDbLine
 10
34.01245
 20
675.933
 30
0.0
 11
34.01245
 21
674.3969999999999
 31
0.0
  0
LINE
  5
9D
330
1E
100
AcDbEntity
  8
0
100
AcDbLine
 10
4.01245
 20
675.933
 30
0.0
 11
4.01245
 21
674.3969999999999
 31
0.0
  0
LINE
  5
9E
330
1E
100
AcDbEntity
  8
0
100
AcDbLine
 10
34.01245
 20
676.318
 30
0.0
 11
34.01245
 21
674.7869999999998
 31
0.0
  0
LINE
  5
9F
330
1E
100
AcDbEntity
  8
0
100
AcDbLine
 10
34.01245
 20
676.5089999999998
 30
0.0
 11
34.01245
 21
676.9689999999999
 31
0.0
  0
LINE
  5
A0
330
1E
100
AcDbEntity
  8
0
100
AcDbLine
 10
34.01245
 20
676.5089999999998
 30
0.0
 11
34.01245
 21
675.933
 31
0.0
  0
LINE
  5
A1
330
1E
100
AcDbEntity
  8
0
100
AcDbLine
 10
34.01245
 20
674.7869999999998
 30
0.0
 11
34.01245
 21
672.218
 31
0.0
  0
LINE
  5
A2
330
1E
100
AcDbEntity
  8
0
100
AcDbLine
 10
34.01245
 20
672.218
 30
0.0
 11
34.01245
 21
668.9689999999999
 31
0.0
  0
LINE
  5
A3
330
1E
100
AcDbEntity
  8
0
100
AcDbLine
 10
34.01245
 20
668.9689999999999
 30
0.0
 11
34.01245
 21
665.0669999999999
 31
0.0
  0
LINE
  5
A4
330
1E
100
AcDbEntity
  8
0
100
AcDbLine
 10
34.01245
 20
665.0669999999999
 30
0.0
 11
34.01245
 21
660.909
 31
0.0
  0
LINE
  5
A5
330
1E
100
AcDbEntity
  8
0
100
AcDbLine
 10
34.01245
 20
660.909
 30
0.0
 11
34.01245
 21
656.7819999999999
 31
0.0
  0
LINE
  5
A6
330
1E
100
AcDbEntity
  8
0
100
AcDbLine
 10
34.01245
 20
656.7819999999999
 30
0.0
 11
34.01245
 21
652.931
 31
0.0
  0
LINE
  5
A7
330
1E
100
AcDbEntity
  8
0
100
AcDbLine
 10
33.24325
 20
676.893
 30
0.0
 11
34.01245
 21
676.5089999999998
 31
0.0
  0
LINE
  5
A8
330
1E
100
AcDbEntity
  8
0
100
AcDbLine
 10
0.0902500000000001
 20
683.3389999999999
 30
0.0
 11
0.364150000000001
 21
683.4279999999999
 31
0.0
  0
LINE
  5
A9
330
1E
100
AcDbEntity
  8
0
100
AcDbLine
 10
0.364150000000001
 20
683.4279999999999
 30
0.0
 11
0.82065
 21
683.576
 31
0.0
  0
LINE
  5
AA
330
1E
100
AcDbEntity
  8
0
100
AcDbLine
 10
2.840749999999999
 20
684.2319999999999
 30
0.0
 11
3.571149999999999
 21
684.47
 31
0.0
  0
LINE
  5
AB
330
1E
100
AcDbEntity
  8
0
100
AcDbLine
 10
3.571149999999999
 20
684.47
 30
0.0
 11
4.255849999999999
 21
684.6919999999999
 31
0.0
  0
LINE
  5
AC
330
1E
100
AcDbEntity
  8
0
100
AcDbLine
 10
4.255849999999999
 20
684.6919999999999
 30
0.0
 11
4.86075
 21
684.8889999999999
 31
0.0
  0
LINE
  5
AD
330
1E
100
AcDbEntity
  8
0
100
AcDbLine
 10
4.86075
 20
684.8889999999999
 30
0.0
 11
5.317249999999999
 21
685.0369999999998
 31
0.0
  0
LINE
  5
AE
330
1E
100
AcDbEntity
  8
0
100
AcDbLine
 10
5.317249999999999
 20
685.0369999999998
 30
0.0
 11
5.591149999999999
 21
685.126
 31
0.0
  0
LINE
  5
AF
330
1E
100
AcDbEntity
  8
0
100
AcDbLine
 10
5.69385
 20
685.1589999999999
 30
0.0
 11
8.379686574615449
 21
676.893
 31
0.0
  0
LINE
  5
B0
330
1E
100
AcDbEntity
  8
0
100
AcDbLine
 10
5.591149999999999
 20
685.126
 30
0.0
 11
5.69385
 21
685.1589999999999
 31
0.0
  0
LINE
  5
B1
330
1E
100
AcDbEntity
  8
0
100
AcDbLine
 10
2.110349999999999
 20
683.9949999999999
 30
0.0
 11
2.840749999999999
 21
684.2319999999999
 31
0.0
  0
LINE
  5
B2
330
1E
100
AcDbEntity
  8
0
100
AcDbLine
 10
1.42555
 20
683.7719999999999
 30
0.0
 11
2.110349999999999
 21
683.9949999999999
 31
0.0
  0
LINE
  5
B3
330
1E
100
AcDbEntity
  8
0
100
AcDbLine
 10
0.82065
 20
683.576
 30
0.0
 11
1.42555
 21
683.7719999999999
 31
0.0
  0
LINE
  5
B4
330
1E
100
AcDbEntity
  8
0
100
AcDbLine
 10
0.364150000000001
 20
683.4279999999999
 30
0.0
 11
0.82065
 21
683.576
 31
0.0
  0
LINE
  5
B5
330
1E
100
AcDbEntity
  8
0
100
AcDbLine
 10
0.0902500000000001
 20
683.3389999999999
 30
0.0
 11
0.364150000000001
 21
683.4279999999999
 31
0.0
  0
LINE
  5
B6
330
1E
100
AcDbEntity
  8
0
100
AcDbLine
 10
-0.0124499999999985
 20
683.305
 30
0.0
 11
4.01245
 21
670.918120933881
 31
0.0
  0
LINE
  5
B7
330
1E
100
AcDbEntity
  8
0
100
AcDbLine
 10
-0.0124499999999986
 20
683.305
 30
0.0
 11
0.0902500000000001
 21
683.3389999999999
 31
0.0
  0
LINE
  5
B8
330
1E
100
AcDbEntity
  8
0
100
AcDbLine
 10
-0.0124499999999986
 20
683.305
 30
0.0
 11
4.01245
 21
670.918120933881
 31
0.0
  0
LINE
  5
B9
330
1E
100
AcDbEntity
  8
0
100
AcDbLine
 10
8.379686574615449
 20
676.893
 30
0.0
 11
33.24325
 21
676.893
 31
0.0
  0
LINE
  5
BA
330
1E
100
AcDbEntity
  8
0
100
AcDbLine
 10
39.01245
 20
676.9689999999999
 30
0.0
 11
39.01245
 21
887.293
 31
0.0
  0
LINE
  5
BB
330
1E
100
AcDbEntity
  8
0
100
AcDbLine
 10
74.01245
 20
676.9689999999999
 30
0.0
 11
75.01245
 21
676.9689999999999
 31
0.0
  0
LINE
  5
BC
330
1E
100
AcDbEntity
  8
0
100
AcDbLine
 10
61.01245
 20
676.9689999999999
 30
0.0
 11
74.01245
 21
676.9689999999999
 31
0.0
  0
LINE
  5
BD
330
1E
100
AcDbEntity
  8
0
100
AcDbLine
 10
61.01245
 20
676.9689999999999
 30
0.0
 11
61.01245
 21
887.293
 31
0.0
  0
LINE
  5
BE
330
1E
100
AcDbEntity
  8
0
100
AcDbLine
 10
34.01245
 20
676.9689999999999
 30
0.0
 11
39.01245
 21
676.9689999999999
 31
0.0
  0
LINE
  5
BF
330
1E
100
AcDbEntity
  8
0
100
AcDbLine
 10
34.01245
 20
676.9689999999999
 30
0.0
 11
34.01245
 21
676.318
 31
0.0
  0
LINE
  5
C0
330
1E
100
AcDbEntity
  8
0
100
AcDbLine
 10
75.01245
 20
676.5349999999999
 30
0.0
 11
75.01245
 21
702.536
 31
0.0
  0
LINE
  5
C1
330
1E
100
AcDbEntity
  8
0
100
AcDbLine
 10
76.71245
 20
699.286
 30
0.0
 11
78.81244999999999
 21
697.936
 31
0.0
  0
LINE
  5
C2
330
1E
100
AcDbEntity
  8
0
100
AcDbLine
 10
75.51245
 20
700.836
 30
0.0
 11
76.71245
 21
699.286
 31
0.0
  0
LINE
  5
C3
330
1E
100
AcDbEntity
  8
0
100
AcDbLine
 10
75.01245
 20
702.536
 30
0.0
 11
75.01245
 21
676.5349999999999
 31
0.0
  0
LINE
  5
C4
330
1E
100
AcDbEntity
  8
0
100
AcDbLine
 10
75.01245
 20
702.536
 30
0.0
 11
75.51245
 21
700.836
 31
0.0
  0
LINE
  5
C5
330
1E
100
AcDbEntity
  8
0
100
AcDbLine
 10
75.01245
 20
702.536
 30
0.0
 11
75.51245
 21
704.2360000000001
 31
0.0
  0
LINE
  5
C6
330
1E
100
AcDbEntity
  8
0
100
AcDbLine
 10
34.01245
 20
652.931
 30
0.0
 11
34.01245
 21
649.6799999999999
 31
0.0
  0
LINE
  5
C7
330
1E
100
AcDbEntity
  8
0
100
AcDbLine
 10
77.01245
 20
644.893
 30
0.0
 11
77.01245
 21
645.495
 31
0.0
  0
LINE
  5
C8
330
1E
100
AcDbEntity
  8
0
100
AcDbLine
 10
77.01245
 20
645.495
 30
0.0
 11
77.01245
 21
647.053
 31
0.0
  0
LINE
  5
C9
330
1E
100
AcDbEntity
  8
0
100
AcDbLine
 10
77.01245
 20
647.053
 30
0.0
 11
77.01245
 21
649.6799999999999
 31
0.0
  0
LINE
  5
CA
330
1E
100
AcDbEntity
  8
0
100
AcDbLine
 10
77.01245
 20
652.931
 30
0.0
 11
77.01245
 21
656.7819999999999
 31
0.0
  0
LINE
  5
CB
330
1E
100
AcDbEntity
  8
0
100
AcDbLine
 10
77.01245
 20
649.6799999999999
 30
0.0
 11
77.01245
 21
652.931
 31
0.0
  0
LINE
  5
CC
330
1E
100
AcDbEntity
  8
0
100
AcDbLine
 10
79.20225000000001
 20
0.107000000000086
 30
0.0
 11
80.08805
 21
525.452
 31
0.0
  0
LINE
  5
CD
330
1E
100
AcDbEntity
  8
0
100
AcDbLine
 10
79.20225000000001
 20
0.107000000000076
 30
0.0
 11
79.46535
 21
0.236000000000066
 31
0.0
  0
LINE
  5
CE
330
1E
100
AcDbEntity
  8
0
100
AcDbLine
 10
79.20225000000001
 20
0.107000000000076
 30
0.0
 11
80.08805
 21
525.452
 31
0.0
  0
LINE
  5
CF
330
1E
100
AcDbEntity
  8
0
100
AcDbLine
 10
79.4767138235475
 20
0.241582647067801
 30
0.0
 11
80.23825
 21
0.615000000000085
 31
0.0
  0
LINE
  5
D0
330
1E
100
AcDbEntity
  8
0
100
AcDbLine
 10
79.46535
 20
0.236000000000066
 30
0.0
 11
80.89634999999999
 21
0.9390000000000691
 31
0.0
  0
LINE
  5
D1
330
1E
100
AcDbEntity
  8
0
100
AcDbLine
 10
77.01245
 20
665.0669999999999
 30
0.0
 11
77.01245
 21
668.9689999999999
 31
0.0
  0
LINE
  5
D2
330
1E
100
AcDbEntity
  8
0
100
AcDbLine
 10
77.01245
 20
660.909
 30
0.0
 11
77.01245
 21
665.0669999999999
 31
0.0
  0
LINE
  5
D3
330
1E
100
AcDbEntity
  8
0
100
AcDbLine
 10
77.01245
 20
656.7819999999999
 30
0.0
 11
77.01245
 21
660.909
 31
0.0
  0
LINE
  5
D4
330
1E
100
AcDbEntity
  8
0
100
AcDbLine
 10
77.01245
 20
668.9689999999999
 30
0.0
 11
77.01245
 21
672.218
 31
0.0
  0
LINE
  5
D5
330
1E
100
AcDbEntity
  8
0
100
AcDbLine
 10
77.01245
 20
672.218
 30
0.0
 11
77.01245
 21
674.7869999999998
 31
0.0
  0
LINE
  5
D7
330
1E
100
AcDbEntity
  8
0
100
AcDbLine
 10
78.81244999999999
 20
697.936
 30
0.0
 11
79.92191785958109
 21
698.4907339297909
 31
0.0
  0
LINE
  5
D8
330
1E
100
AcDbEntity
  8
0
100
AcDbLine
 10
77.01245
 20
668.7821428571431
 30
0.0
 11
78.81244999999999
 21
667.625
 31
0.0
  0
LINE
  5
D9
330
1E
100
AcDbEntity
  8
0
100
AcDbLine
 10
78.81244999999999
 20
667.625
 30
0.0
 11
78.81244999999999
 21
697.936
 31
0.0
  0
LINE
  5
DA
330
1E
100
AcDbEntity
  8
0
100
AcDbLine
 10
78.81244999999999
 20
667.625
 30
0.0
 11
80.21245
 21
668.3250000000001
 31
0.0
  0
LINE
  5
DB
330
1E
100
AcDbEntity
  8
0
100
AcDbLine
 10
79.87805
 20
654.45
 30
0.0
 11
80.12002122520639
 21
668.2787856126029
 31
0.0
  0
LINE
  5
DC
330
1E
100
AcDbEntity
  8
0
100
AcDbLine
 10
79.87805
 20
654.45
 30
0.0
 11
79.94825
 21
631.344
 31
0.0
  0
LINE
  5
DD
330
1E
100
AcDbEntity
  8
0
100
AcDbLine
 10
80.07215
 20
558.4529999999999
 30
0.0
 11
80.08805
 21
525.452
 31
0.0
  0
LINE
  5
DE
330
1E
100
AcDbEntity
  8
0
100
AcDbLine
 10
80.04405
 20
581.45
 30
0.0
 11
80.07215
 21
558.4529999999999
 31
0.0
  0
LINE
  5
DF
330
1E
100
AcDbEntity
  8
0
100
AcDbLine
 10
80.00215
 20
606.2469999999999
 30
0.0
 11
80.04405
 21
581.45
 31
0.0
  0
LINE
  5
E0
330
1E
100
AcDbEntity
  8
0
100
AcDbLine
 10
80.21245
 20
698.45225
 30
0.0
 11
80.21245
 21
668.3250000000001
 31
0.0
  0
LINE
  5
E1
330
1E
100
AcDbEntity
  8
0
100
AcDbLine
 10
80.00733372093021
 20
698.5334418604649
 30
0.0
 11
80.21245
 21
698.6360000000001
 31
0.0
  0
LINE
  5
E2
330
1E
100
AcDbEntity
  8
0
100
AcDbLine
 10
79.94825
 20
631.344
 30
0.0
 11
80.00215
 21
606.2469999999999
 31
0.0
  0
LINE
  5
E3
330
1E
100
AcDbEntity
  8
0
100
AcDbLine
 10
79.91245000000001
 20
698.571
 30
0.0
 11
82.31244999999999
 21
697.621
 31
0.0
  0
LINE
  5
E4
330
1E
100
AcDbEntity
  8
0
100
AcDbLine
 10
77.01245
 20
702.536
 30
0.0
 11
77.01245
 21
701.136
 31
0.0
  0
LINE
  5
E5
330
1E
100
AcDbEntity
  8
0
100
AcDbLine
 10
77.01245
 20
702.536
 30
0.0
 11
77.01245
 21
703.936
 31
0.0
  0
LINE
  5
E6
330
1E
100
AcDbEntity
  8
0
100
AcDbLine
 10
78.51245
 20
699.7860000000001
 30
0.0
 11
80.21245
 21
698.6360000000001
 31
0.0
  0
LINE
  5
E7
330
1E
100
AcDbEntity
  8
0
100
AcDbLine
 10
77.01245
 20
701.136
 30
0.0
 11
77.01245
 21
702.536
 31
0.0
  0
LINE
  5
E8
330
1E
100
AcDbEntity
  8
0
100
AcDbLine
 10
77.01245
 20
701.136
 30
0.0
 11
78.51245
 21
699.7860000000001
 31
0.0
  0
LINE
  5
E9
330
1E
100
AcDbEntity
  8
0
100
AcDbLine
 10
78.01245
 20
699.771
 30
0.0
 11
79.91245000000001
 21
698.571
 31
0.0
  0
LINE
  5
EA
330
1E
100
AcDbEntity
  8
0
100
AcDbLine
 10
76.91245000000001
 20
701.1210000000001
 30
0.0
 11
78.01245
 21
699.771
 31
0.0
  0
LINE
  5
EB
330
1E
100
AcDbEntity
  8
0
100
AcDbLine
 10
39.01245
 20
887.293
 30
0.0
 11
39.01245
 21
676.9689999999999
 31
0.0
  0
LINE
  5
EC
330
1E
100
AcDbEntity
  8
0
100
AcDbLine
 10
39.01245
 20
887.293
 30
0.0
 11
39.27645
 21
887.893
 31
0.0
  0
LINE
  5
ED
330
1E
100
AcDbEntity
  8
0
100
AcDbLine
 10
47.24045
 20
887.893
 30
0.0
 11
50.01245
 21
887.893
 31
0.0
  0
LINE
  5
EE
330
1E
100
AcDbEntity
  8
0
100
AcDbLine
 10
44.68845
 20
887.893
 30
0.0
 11
47.24045
 21
887.893
 31
0.0
  0
LINE
  5
EF
330
1E
100
AcDbEntity
  8
0
100
AcDbLine
 10
42.44445
 20
887.893
 30
0.0
 11
44.68845
 21
887.893
 31
0.0
  0
LINE
  5
F0
330
1E
100
AcDbEntity
  8
0
100
AcDbLine
 10
40.72845
 20
887.893
 30
0.0
 11
42.44445
 21
887.893
 31
0.0
  0
LINE
  5
F1
330
1E
100
AcDbEntity
  8
0
100
AcDbLine
 10
39.67245
 20
887.893
 30
0.0
 11
40.72845
 21
887.893
 31
0.0
  0
LINE
  5
F2
330
1E
100
AcDbEntity
  8
0
100
AcDbLine
 10
39.27645
 20
887.893
 30
0.0
 11
39.67245
 21
887.893
 31
0.0
  0
LINE
  5
F3
330
1E
100
AcDbEntity
  8
0
100
AcDbLine
 10
50.01245
 20
887.893
 30
0.0
 11
52.78445
 21
887.893
 31
0.0
  0
LINE
  5
F4
330
1E
100
AcDbEntity
  8
0
100
AcDbLine
 10
52.78445
 20
887.893
 30
0.0
 11
55.33644999999999
 21
887.893
 31
0.0
  0
LINE
  5
F5
330
1E
100
AcDbEntity
  8
0
100
AcDbLine
 10
55.33644999999999
 20
887.893
 30
0.0
 11
57.58045
 21
887.893
 31
0.0
  0
LINE
  5
F6
330
1E
100
AcDbEntity
  8
0
100
AcDbLine
 10
57.58045
 20
887.893
 30
0.0
 11
59.29645
 21
887.893
 31
0.0
  0
LINE
  5
F7
330
1E
100
AcDbEntity
  8
0
100
AcDbLine
 10
59.29645
 20
887.893
 30
0.0
 11
60.35244999999999
 21
887.893
 31
0.0
  0
LINE
  5
F8
330
1E
100
AcDbEntity
  8
0
100
AcDbLine
 10
47.19644999999999
 20
888.278
 30
0.0
 11
50.01245
 21
888.278
 31
0.0
  0
LINE
  5
F9
330
1E
100
AcDbEntity
  8
0
100
AcDbLine
 10
44.55644999999999
 20
888.278
 30
0.0
 11
47.19644999999999
 21
888.278
 31
0.0
  0
LINE
  5
FA
330
1E
100
AcDbEntity
  8
0
100
AcDbLine
 10
42.22444999999999
 20
888.278
 30
0.0
 11
44.55644999999999
 21
888.278
 31
0.0
  0
LINE
  5
FB
330
1E
100
AcDbEntity
  8
0
100
AcDbLine
 10
40.46445
 20
888.278
 30
0.0
 11
42.22444999999999
 21
888.278
 31
0.0
  0
LINE
  5
FC
330
1E
100
AcDbEntity
  8
0
100
AcDbLine
 10
39.40845
 20
888.278
 30
0.0
 11
40.46445
 21
888.278
 31
0.0
  0
LINE
  5
FD
330
1E
100
AcDbEntity
  8
0
100
AcDbLine
 10
39.01245
 20
888.278
 30
0.0
 11
39.40845
 21
888.278
 31
0.0
  0
LINE
  5
FE
330
1E
100
AcDbEntity
  8
0
100
AcDbLine
 10
39.01245
 20
888.278
 30
0.0
 11
39.01245
 21
957.5079999999999
 31
0.0
  0
LINE
  5
FF
330
1E
100
AcDbEntity
  8
0
100
AcDbLine
 10
39.01245
 20
888.278
 30
0.0
 11
39.27645
 21
887.893
 31
0.0
  0
LINE
  5
100
330
1E
100
AcDbEntity
  8
0
100
AcDbLine
 10
50.01245
 20
888.278
 30
0.0
 11
52.82845
 21
888.278
 31
0.0
  0
LINE
  5
101
330
1E
100
AcDbEntity
  8
0
100
AcDbLine
 10
52.82845
 20
888.278
 30
0.0
 11
55.46845
 21
888.278
 31
0.0
  0
LINE
  5
102
330
1E
100
AcDbEntity
  8
0
100
AcDbLine
 10
55.46845
 20
888.278
 30
0.0
 11
57.80045
 21
888.278
 31
0.0
  0
LINE
  5
103
330
1E
100
AcDbEntity
  8
0
100
AcDbLine
 10
57.80045
 20
888.278
 30
0.0
 11
59.56045
 21
888.278
 31
0.0
  0
LINE
  5
104
330
1E
100
AcDbEntity
  8
0
100
AcDbLine
 10
59.56045
 20
888.278
 30
0.0
 11
60.61645
 21
888.278
 31
0.0
  0
LINE
  5
105
330
1E
100
AcDbEntity
  8
0
100
AcDbLine
 10
60.35244999999999
 20
887.893
 30
0.0
 11
60.74844999999999
 21
887.893
 31
0.0
  0
LINE
  5
106
330
1E
100
AcDbEntity
  8
0
100
AcDbLine
 10
61.01245
 20
887.293
 30
0.0
 11
61.01245
 21
676.9689999999999
 31
0.0
  0
LINE
  5
107
330
1E
100
AcDbEntity
  8
0
100
AcDbLine
 10
61.01245
 20
888.278
 30
0.0
 11
61.01245
 21
957.5079999999999
 31
0.0
  0
LINE
  5
108
330
1E
100
AcDbEntity
  8
0
100
AcDbLine
 10
60.74844999999999
 20
887.893
 30
0.0
 11
61.01245
 21
888.278
 31
0.0
  0
LINE
  5
109
330
1E
100
AcDbEntity
  8
0
100
AcDbLine
 10
60.74844999999999
 20
887.893
 30
0.0
 11
61.01245
 21
887.293
 31
0.0
  0
LINE
  5
10A
330
1E
100
AcDbEntity
  8
0
100
AcDbLine
 10
47.19644999999999
 20
957.5079999999999
 30
0.0
 11
50.01245
 21
957.5079999999999
 31
0.0
  0
LINE
  5
10B
330
1E
100
AcDbEntity
  8
0
100
AcDbLine
 10
44.55644999999999
 20
957.5079999999999
 30
0.0
 11
47.19644999999999
 21
957.5079999999999
 31
0.0
  0
LINE
  5
10C
330
1E
100
AcDbEntity
  8
0
100
AcDbLine
 10
42.22444999999999
 20
957.5079999999999
 30
0.0
 11
44.55644999999999
 21
957.5079999999999
 31
0.0
  0
LINE
  5
10D
330
1E
100
AcDbEntity
  8
0
100
AcDbLine
 10
40.46445
 20
957.5079999999999
 30
0.0
 11
42.22444999999999
 21
957.5079999999999
 31
0.0
  0
LINE
  5
10E
330
1E
100
AcDbEntity
  8
0
100
AcDbLine
 10
39.40845
 20
957.5079999999999
 30
0.0
 11
40.46445
 21
957.5079999999999
 31
0.0
  0
LINE
  5
10F
330
1E
100
AcDbEntity
  8
0
100
AcDbLine
 10
39.01245
 20
957.5079999999999
 30
0.0
 11
39.01245
 21
888.278
 31
0.0
  0
LINE
  5
110
330
1E
100
AcDbEntity
  8
0
100
AcDbLine
 10
39.01245
 20
957.5079999999999
 30
0.0
 11
39.40845
 21
957.5079999999999
 31
0.0
  0
LINE
  5
111
330
1E
100
AcDbEntity
  8
0
100
AcDbLine
 10
39.01245
 20
957.5079999999999
 30
0.0
 11
39.27645
 21
957.8929999999999
 31
0.0
  0
LINE
  5
112
330
1E
100
AcDbEntity
  8
0
100
AcDbLine
 10
50.01245
 20
957.5079999999999
 30
0.0
 11
52.82845
 21
957.5079999999999
 31
0.0
  0
LINE
  5
113
330
1E
100
AcDbEntity
  8
0
100
AcDbLine
 10
52.82845
 20
957.5079999999999
 30
0.0
 11
55.46845
 21
957.5079999999999
 31
0.0
  0
LINE
  5
114
330
1E
100
AcDbEntity
  8
0
100
AcDbLine
 10
55.46845
 20
957.5079999999999
 30
0.0
 11
57.80045
 21
957.5079999999999
 31
0.0
  0
LINE
  5
115
330
1E
100
AcDbEntity
  8
0
100
AcDbLine
 10
57.80045
 20
957.5079999999999
 30
0.0
 11
59.56045
 21
957.5079999999999
 31
0.0
  0
LINE
  5
116
330
1E
100
AcDbEntity
  8
0
100
AcDbLine
 10
47.24045
 20
957.8929999999999
 30
0.0
 11
50.01245
 21
957.8929999999999
 31
0.0
  0
LINE
  5
117
330
1E
100
AcDbEntity
  8
0
100
AcDbLine
 10
44.68845
 20
957.8929999999999
 30
0.0
 11
47.24045
 21
957.8929999999999
 31
0.0
  0
LINE
  5
118
330
1E
100
AcDbEntity
  8
0
100
AcDbLine
 10
42.44445
 20
957.8929999999999
 30
0.0
 11
44.68845
 21
957.8929999999999
 31
0.0
  0
LINE
  5
119
330
1E
100
AcDbEntity
  8
0
100
AcDbLine
 10
40.72845
 20
957.8929999999999
 30
0.0
 11
42.44445
 21
957.8929999999999
 31
0.0
  0
LINE
  5
11A
330
1E
100
AcDbEntity
  8
0
100
AcDbLine
 10
39.67245
 20
957.8929999999999
 30
0.0
 11
40.72845
 21
957.8929999999999
 31
0.0
  0
LINE
  5
11B
330
1E
100
AcDbEntity
  8
0
100
AcDbLine
 10
39.27645
 20
957.8929999999999
 30
0.0
 11
39.67245
 21
957.8929999999999
 31
0.0
  0
LINE
  5
11C
330
1E
100
AcDbEntity
  8
0
100
AcDbLine
 10
50.01245
 20
957.8929999999999
 30
0.0
 11
52.78445
 21
957.8929999999999
 31
0.0
  0
LINE
  5
11D
330
1E
100
AcDbEntity
  8
0
100
AcDbLine
 10
52.78445
 20
957.8929999999999
 30
0.0
 11
55.33644999999999
 21
957.8929999999999
 31
0.0
  0
LINE
  5
11E
330
1E
100
AcDbEntity
  8
0
100
AcDbLine
 10
55.33644999999999
 20
957.8929999999999
 30
0.0
 11
57.58045
 21
957.8929999999999
 31
0.0
  0
LINE
  5
11F
330
1E
100
AcDbEntity
  8
0
100
AcDbLine
 10
57.58045
 20
957.8929999999999
 30
0.0
 11
59.29645
 21
957.8929999999999
 31
0.0
  0
LINE
  5
120
330
1E
100
AcDbEntity
  8
0
100
AcDbLine
 10
59.29645
 20
957.8929999999999
 30
0.0
 11
60.35244999999999
 21
957.8929999999999
 31
0.0
  0
LINE
  5
121
330
1E
100
AcDbEntity
  8
0
100
AcDbLine
 10
60.35244999999999
 20
957.8929999999999
 30
0.0
 11
60.74844999999999
 21
957.8929999999999
 31
0.0
  0
LINE
  5
122
330
1E
100
AcDbEntity
  8
0
100
AcDbLine
 10
59.56045
 20
957.5079999999999
 30
0.0
 11
60.61645
 21
957.5079999999999
 31
0.0
  0
LINE
  5
123
330
1E
100
AcDbEntity
  8
0
100
AcDbLine
 10
61.01245
 20
957.5079999999999
 30
0.0
 11
61.01245
 21
888.278
 31
0.0
  0
LINE
  5
124
330
1E
100
AcDbEntity
  8
0
100
AcDbLine
 10
60.74844999999999
 20
957.8929999999999
 30
0.0
 11
61.01245
 21
957.5079999999999
 31
0.0
  0
LINE
  5
125
330
1E
100
AcDbEntity
  8
0
100
AcDbLine
 10
60.61645
 20
957.5079999999999
 30
0.0
 11
61.01245
 21
957.5079999999999
 31
0.0
  0
LINE
  5
126
330
1E
100
AcDbEntity
  8
0
100
AcDbLine
 10
60.61645
 20
888.278
 30
0.0
 11
61.01245
 21
888.278
 31
0.0
  0
LINE
  5
127
330
1E
100
AcDbEntity
  8
0
100
AcDbLine
 10
76.71245
 20
705.786
 30
0.0
 11
78.81244999999999
 21
707.1360000000001
 31
0.0
  0
LINE
  5
128
330
1E
100
AcDbEntity
  8
0
100
AcDbLine
 10
75.51245
 20
704.2360000000001
 30
0.0
 11
76.71245
 21
705.786
 31
0.0
  0
LINE
  5
129
330
1E
100
AcDbEntity
  8
0
100
AcDbLine
 10
78.51245
 20
705.286
 30
0.0
 11
80.21245
 21
706.436
 31
0.0
  0
LINE
  5
12A
330
1E
100
AcDbEntity
  8
0
100
AcDbLine
 10
77.01245
 20
703.936
 30
0.0
 11
78.51245
 21
705.286
 31
0.0
  0
LINE
  5
12B
330
1E
100
AcDbEntity
  8
0
100
AcDbLine
 10
77.01245
 20
703.936
 30
0.0
 11
77.01245
 21
702.536
 31
0.0
  0
LINE
  5
12C
330
1E
100
AcDbEntity
  8
0
100
AcDbLine
 10
78.81244999999999
 20
707.1360000000001
 30
0.0
 11
81.51245000000001
 21
708.186
 31
0.0
  0
LINE
  5
12D
330
1E
100
AcDbEntity
  8
0
100
AcDbLine
 10
80.21245
 20
706.436
 30
0.0
 11
82.51245
 21
707.286
 31
0.0
  0
LINE
  5
12E
330
1E
100
AcDbEntity
  8
0
100
AcDbLine
 10
79.91245000000001
 20
706.671
 30
0.0
 11
82.31244999999999
 21
707.6210000000001
 31
0.0
  0
LINE
  5
12F
330
1E
100
AcDbEntity
  8
0
100
AcDbLine
 10
78.01245
 20
705.471
 30
0.0
 11
79.91245000000001
 21
706.671
 31
0.0
  0
LINE
  5
130
330
1E
100
AcDbEntity
  8
0
100
AcDbLine
 10
76.91245000000001
 20
704.1210000000001
 30
0.0
 11
78.01245
 21
705.471
 31
0.0
  0
LINE
  5
131
330
1E
100
AcDbEntity
  8
0
100
AcDbLine
 10
76.51245
 20
702.621
 30
0.0
 11
76.91245000000001
 21
701.1210000000001
 31
0.0
  0
LINE
  5
132
330
1E
100
AcDbEntity
  8
0
100
AcDbLine
 10
76.51245
 20
702.621
 30
0.0
 11
76.5173574323544
 21
702.536
 31
0.0
  0
LINE
  5
133
330
1E
100
AcDbEntity
  8
0
100
AcDbLine
 10
76.51245
 20
702.621
 30
0.0
 11
76.91245000000001
 21
704.1210000000001
 31
0.0
  0
LINE
  5
134
330
1E
100
AcDbEntity
  8
0
100
AcDbLine
 10
80.23825
 20
0.615000000000085
 30
0.0
 11
82.17615
 21
1.56600000000005
 31
0.0
  0
LINE
  5
135
330
1E
100
AcDbEntity
  8
0
100
AcDbLine
 10
82.17615
 20
1.56600000000005
 30
0.0
 11
84.42147437653451
 21
2.66867913837966
 31
0.0
  0
LINE
  5
136
330
1E
100
AcDbEntity
  8
0
100
AcDbLine
 10
80.89634999999999
 20
0.9390000000000691
 30
0.0
 11
83.29375
 21
2.115000000000089
 31
0.0
  0
LINE
  5
138
330
1E
100
AcDbEntity
  8
0
100
AcDbLine
 10
86.20635
 20
3.54500000000006
 30
0.0
 11
89.35605
 21
5.090000000000079
 31
0.0
  0
LINE
  5
139
330
1E
100
AcDbEntity
  8
0
100
AcDbLine
 10
85.1231177715087
 20
3.013165183429809
 30
0.0
 11
88.11775
 21
4.48200000000007
 31
0.0
  0
LINE
  5
13A
330
1E
100
AcDbEntity
  8
0
100
AcDbLine
 10
83.29375
 20
2.115000000000089
 30
0.0
 11
86.20635
 21
3.54500000000006
 31
0.0
  0
LINE
  5
13F
330
1E
100
AcDbEntity
  8
0
100
AcDbLine
 10
88.11775
 20
4.48200000000007
 30
0.0
 11
90.24871836164351
 21
5.527820125932939
 31
0.0
  0
LINE
  5
140
330
1E
100
AcDbEntity
  8
0
100
AcDbLine
 10
89.35605
 20
5.090000000000079
 30
0.0
 11
92.15545
 21
6.46300000000007
 31
0.0
  0
LINE
  5
145
330
1E
100
AcDbEntity
  8
0
100
AcDbLine
 10
88.01244999999999
 20
671.64
 30
0.0
 11
90.61244999999999
 21
671.84
 31
0.0
  0
LINE
  5
146
330
1E
100
AcDbEntity
  8
0
100
AcDbLine
 10
94.0254363481204
 20
7.381116040954509
 30
0.0
 11
94.85744999999999
 21
7.789000000000089
 31
0.0
  0
LINE
  5
147
330
1E
100
AcDbEntity
  8
0
100
AcDbLine
 10
94.85744999999999
 20
7.789000000000089
 30
0.0
 11
95.12444999999999
 21
7.92100000000007
 31
0.0
  0
LINE
  5
148
330
1E
100
AcDbEntity
  8
0
100
AcDbLine
 10
95.12444999999999
 20
7.921000000000089
 30
0.0
 11
96.08845
 21
525.451
 31
0.0
  0
LINE
  5
149
330
1E
100
AcDbEntity
  8
0
100
AcDbLine
 10
95.12444999999999
 20
7.92100000000007
 30
0.0
 11
96.08845
 21
525.451
 31
0.0
  0
LINE
  5
14A
330
1E
100
AcDbEntity
  8
0
100
AcDbLine
 10
94.09444999999999
 20
7.41500000000007
 30
0.0
 11
95.12444999999999
 21
7.92100000000007
 31
0.0
  0
LINE
  5
14B
330
1E
100
AcDbEntity
  8
0
100
AcDbLine
 10
92.15545
 20
6.46300000000007
 30
0.0
 11
94.09444999999999
 21
7.41500000000007
 31
0.0
  0
LINE
  5
14C
330
1E
100
AcDbEntity
  8
0
100
AcDbLine
 10
96.07245
 20
558.452
 30
0.0
 11
96.08845
 21
525.451
 31
0.0
  0
LINE
  5
14D
330
1E
100
AcDbEntity
  8
0
100
AcDbLine
 10
96.04345000000002
 20
581.459
 30
0.0
 11
96.07245
 21
558.452
 31
0.0
  0
LINE
  5
14E
330
1E
100
AcDbEntity
  8
0
100
AcDbLine
 10
96.00245000000001
 20
606.2559999999999
 30
0.0
 11
96.04345000000002
 21
581.459
 31
0.0
  0
LINE
  5
14F
330
1E
100
AcDbEntity
  8
0
100
AcDbLine
 10
95.94745000000001
 20
631.353
 30
0.0
 11
96.00245000000001
 21
606.2559999999999
 31
0.0
  0
LINE
  5
150
330
1E
100
AcDbEntity
  8
0
100
AcDbLine
 10
95.81245
 20
668.3250000000001
 30
0.0
 11
95.81245
 21
698.6360000000001
 31
0.0
  0
LINE
  5
152
330
1E
100
AcDbEntity
  8
0
100
AcDbLine
 10
95.81245
 20
668.3250000000001
 30
0.0
 11
97.21245000000001
 21
667.625
 31
0.0
  0
LINE
  5
153
330
1E
100
AcDbEntity
  8
0
100
AcDbLine
 10
97.21245000000001
 20
667.625
 30
0.0
 11
99.31245
 21
668.975
 31
0.0
  0
LINE
  5
154
330
1E
100
AcDbEntity
  8
0
100
AcDbLine
 10
99.31245
 20
668.975
 30
0.0
 11
100.5124499999999
 21
670.5249999999999
 31
0.0
  0
LINE
  5
155
330
1E
100
AcDbEntity
  8
0
100
AcDbLine
 10
100.5124499999999
 20
670.5249999999999
 30
0.0
 11
101.01245
 21
672.225
 31
0.0
  0
LINE
  5
156
330
1E
100
AcDbEntity
  8
0
100
AcDbLine
 10
95.87744999999999
 20
654.449
 30
0.0
 11
96.1185282095535
 21
668.171960895223
 31
0.0
  0
LINE
  5
157
330
1E
100
AcDbEntity
  8
0
100
AcDbLine
 10
95.87744999999999
 20
654.449
 30
0.0
 11
95.94745000000001
 21
631.353
 31
0.0
  0
LINE
  5
158
330
1E
100
AcDbEntity
  8
0
100
AcDbLine
 10
90.61244999999999
 20
671.84
 30
0.0
 11
93.01244999999999
 21
672.29
 31
0.0
  0
LINE
  5
159
330
1E
100
AcDbEntity
  8
0
100
AcDbLine
 10
93.01244999999999
 20
672.29
 30
0.0
 11
95.11245
 21
673.09
 31
0.0
  0
LINE
  5
15A
330
1E
100
AcDbEntity
  8
0
100
AcDbLine
 10
101.01245
 20
672.225
 30
0.0
 11
101.01245
 21
702.536
 31
0.0
  0
LINE
  5
15B
330
1E
100
AcDbEntity
  8
0
100
AcDbLine
 10
95.11245
 20
673.09
 30
0.0
 11
95.81245
 21
673.549375
 31
0.0
  0
LINE
  5
15C
330
1E
100
AcDbEntity
  8
0
100
AcDbLine
 10
85.41245000000001
 20
671.84
 30
0.0
 11
88.01244999999999
 21
671.64
 31
0.0
  0
LINE
  5
15D
330
1E
100
AcDbEntity
  8
0
100
AcDbLine
 10
83.01244999999999
 20
672.29
 30
0.0
 11
85.41245000000001
 21
671.84
 31
0.0
  0
LINE
  5
15E
330
1E
100
AcDbEntity
  8
0
100
AcDbLine
 10
81.51245000000001
 20
708.186
 30
0.0
 11
84.61244999999999
 21
708.786
 31
0.0
  0
LINE
  5
15F
330
1E
100
AcDbEntity
  8
0
100
AcDbLine
 10
82.31244999999999
 20
707.6210000000001
 30
0.0
 11
85.01245
 21
708.1710000000001
 31
0.0
  0
LINE
  5
160
330
1E
100
AcDbEntity
  8
0
100
AcDbLine
 10
88.01244999999999
 20
696.8710000000001
 30
0.0
 11
91.01245
 21
697.071
 31
0.0
  0
LINE
  5
161
330
1E
100
AcDbEntity
  8
0
100
AcDbLine
 10
91.01245
 20
697.071
 30
0.0
 11
93.71245
 21
697.621
 31
0.0
  0
LINE
  5
162
330
1E
100
AcDbEntity
  8
0
100
AcDbLine
 10
96.10298214041891
 20
698.4907339297909
 30
0.0
 11
97.21245000000001
 21
697.936
 31
0.0
  0
LINE
  5
163
330
1E
100
AcDbEntity
  8
0
100
AcDbLine
 10
95.81245
 20
698.6360000000001
 30
0.0
 11
96.01756627906981
 21
698.5334418604649
 31
0.0
  0
LINE
  5
164
330
1E
100
AcDbEntity
  8
0
100
AcDbLine
 10
95.81245
 20
698.6360000000001
 30
0.0
 11
97.51245
 21
699.7860000000001
 31
0.0
  0
LINE
  5
165
330
1E
100
AcDbEntity
  8
0
100
AcDbLine
 10
93.71245
 20
697.621
 30
0.0
 11
96.11245
 21
698.571
 31
0.0
  0
LINE
  5
166
330
1E
100
AcDbEntity
  8
0
100
AcDbLine
 10
97.21245000000001
 20
697.936
 30
0.0
 11
97.21245000000001
 21
667.625
 31
0.0
  0
LINE
  5
167
330
1E
100
AcDbEntity
  8
0
100
AcDbLine
 10
97.21245000000001
 20
697.936
 30
0.0
 11
99.31245
 21
699.286
 31
0.0
  0
LINE
  5
168
330
1E
100
AcDbEntity
  8
0
100
AcDbLine
 10
96.11245
 20
698.571
 30
0.0
 11
98.01245000000001
 21
699.771
 31
0.0
  0
LINE
  5
169
330
1E
100
AcDbEntity
  8
0
100
AcDbLine
 10
82.51245
 20
707.286
 30
0.0
 11
85.21245
 21
708.036
 31
0.0
  0
LINE
  5
16A
330
1E
100
AcDbEntity
  8
0
100
AcDbLine
 10
84.61244999999999
 20
708.786
 30
0.0
 11
88.01244999999999
 21
709.036
 31
0.0
  0
LINE
  5
16B
330
1E
100
AcDbEntity
  8
0
100
AcDbLine
 10
99.01245000000001
 20
703.936
 30
0.0
 11
99.01245000000001
 21
702.536
 31
0.0
  0
LINE
  5
16C
330
1E
100
AcDbEntity
  8
0
100
AcDbLine
 10
99.01245000000001
 20
701.136
 30
0.0
 11
99.01245000000001
 21
702.536
 31
0.0
  0
LINE
  5
16D
330
1E
100
AcDbEntity
  8
0
100
AcDbLine
 10
97.51245
 20
699.7860000000001
 30
0.0
 11
99.01245000000001
 21
701.136
 31
0.0
  0
LINE
  5
16E
330
1E
100
AcDbEntity
  8
0
100
AcDbLine
 10
99.01245000000001
 20
702.536
 30
0.0
 11
99.01245000000001
 21
701.136
 31
0.0
  0
LINE
  5
16F
330
1E
100
AcDbEntity
  8
0
100
AcDbLine
 10
99.01245000000001
 20
702.536
 30
0.0
 11
99.01245000000001
 21
703.936
 31
0.0
  0
LINE
  5
170
330
1E
100
AcDbEntity
  8
0
100
AcDbLine
 10
95.81245
 20
706.436
 30
0.0
 11
97.51245
 21
705.286
 31
0.0
  0
LINE
  5
171
330
1E
100
AcDbEntity
  8
0
100
AcDbLine
 10
97.51245
 20
705.286
 30
0.0
 11
99.01245000000001
 21
703.936
 31
0.0
  0
LINE
  5
172
330
1E
100
AcDbEntity
  8
0
100
AcDbLine
 10
93.51245
 20
707.286
 30
0.0
 11
95.81245
 21
706.436
 31
0.0
  0
LINE
  5
173
330
1E
100
AcDbEntity
  8
0
100
AcDbLine
 10
90.81245
 20
708.036
 30
0.0
 11
93.51245
 21
707.286
 31
0.0
  0
LINE
  5
174
330
1E
100
AcDbEntity
  8
0
100
AcDbLine
 10
88.01244999999999
 20
708.036
 30
0.0
 11
90.81245
 21
708.036
 31
0.0
  0
LINE
  5
175
330
1E
100
AcDbEntity
  8
0
100
AcDbLine
 10
85.21245
 20
708.036
 30
0.0
 11
88.01244999999999
 21
708.036
 31
0.0
  0
LINE
  5
176
330
1E
100
AcDbEntity
  8
0
100
AcDbLine
 10
88.01244999999999
 20
709.036
 30
0.0
 11
91.41245000000001
 21
708.786
 31
0.0
  0
LINE
  5
177
330
1E
100
AcDbEntity
  8
0
100
AcDbLine
 10
91.41245000000001
 20
708.786
 30
0.0
 11
94.51245
 21
708.186
 31
0.0
  0
LINE
  5
178
330
1E
100
AcDbEntity
  8
0
100
AcDbLine
 10
88.01244999999999
 20
708.371
 30
0.0
 11
91.01245
 21
708.1710000000001
 31
0.0
  0
LINE
  5
179
330
1E
100
AcDbEntity
  8
0
100
AcDbLine
 10
91.01245
 20
708.1710000000001
 30
0.0
 11
93.71245
 21
707.6210000000001
 31
0.0
  0
LINE
  5
17A
330
1E
100
AcDbEntity
  8
0
100
AcDbLine
 10
94.51245
 20
708.186
 30
0.0
 11
97.21245000000001
 21
707.1360000000001
 31
0.0
  0
LINE
  5
17B
330
1E
100
AcDbEntity
  8
0
100
AcDbLine
 10
97.21245000000001
 20
707.1360000000001
 30
0.0
 11
99.31245
 21
705.786
 31
0.0
  0
LINE
  5
17C
330
1E
100
AcDbEntity
  8
0
100
AcDbLine
 10
93.71245
 20
707.6210000000001
 30
0.0
 11
96.11245
 21
706.671
 31
0.0
  0
LINE
  5
17D
330
1E
100
AcDbEntity
  8
0
100
AcDbLine
 10
96.11245
 20
706.671
 30
0.0
 11
98.01245000000001
 21
705.471
 31
0.0
  0
LINE
  5
17E
330
1E
100
AcDbEntity
  8
0
100
AcDbLine
 10
98.01245000000001
 20
705.471
 30
0.0
 11
99.11245
 21
704.1210000000001
 31
0.0
  0
LINE
  5
17F
330
1E
100
AcDbEntity
  8
0
100
AcDbLine
 10
99.11245
 20
704.1210000000001
 30
0.0
 11
99.51245
 21
702.621
 31
0.0
  0
LINE
  5
180
330
1E
100
AcDbEntity
  8
0
100
AcDbLine
 10
85.01245
 20
708.1710000000001
 30
0.0
 11
88.01244999999999
 21
708.371
 31
0.0
  0
LINE
  5
181
330
1E
100
AcDbEntity
  8
0
100
AcDbLine
 10
98.01245000000001
 20
699.771
 30
0.0
 11
99.11245
 21
701.1210000000001
 31
0.0
  0
LINE
  5
182
330
1E
100
AcDbEntity
  8
0
100
AcDbLine
 10
99.31245
 20
699.286
 30
0.0
 11
100.5124499999999
 21
700.836
 31
0.0
  0
LINE
  5
183
330
1E
100
AcDbEntity
  8
0
100
AcDbLine
 10
101.01245
 20
702.536
 30
0.0
 11
101.01245
 21
672.225
 31
0.0
  0
LINE
  5
184
330
1E
100
AcDbEntity
  8
0
100
AcDbLine
 10
100.5124499999999
 20
700.836
 30
0.0
 11
101.01245
 21
702.536
 31
0.0
  0
LINE
  5
185
330
1E
100
AcDbEntity
  8
0
100
AcDbLine
 10
99.31245
 20
705.786
 30
0.0
 11
100.5124499999999
 21
704.2360000000001
 31
0.0
  0
LINE
  5
186
330
1E
100
AcDbEntity
  8
0
100
AcDbLine
 10
100.5124499999999
 20
704.2360000000001
 30
0.0
 11
101.01245
 21
702.536
 31
0.0
  0
LINE
  5
187
330
1E
100
AcDbEntity
  8
0
100
AcDbLine
 10
99.50754256764559
 20
702.536
 30
0.0
 11
99.51245
 21
702.621
 31
0.0
  0
LINE
  5
188
330
1E
100
AcDbEntity
  8
0
100
AcDbLine
 10
99.11245
 20
701.1210000000001
 30
0.0
 11
99.51245
 21
702.621
 31
0.0
  0
LINE
  5
189
330
1E
100
AcDbEntity
  8
0
100
AcDbLine
 10
85.01245
 20
697.071
 30
0.0
 11
88.01244999999999
 21
696.8710000000001
 31
0.0
  0
LINE
  5
18A
330
1E
100
AcDbEntity
  8
0
100
AcDbLine
 10
82.31244999999999
 20
697.621
 30
0.0
 11
85.01245
 21
697.071
 31
0.0
  0
LINE
  5
18B
330
1E
100
AcDbEntity
  8
0
100
AcDbLine
 10
80.91245
 20
673.09
 30
0.0
 11
83.01244999999999
 21
672.29
 31
0.0
  0
LINE
  5
18C
330
1E
100
AcDbEntity
  8
0
100
AcDbLine
 10
80.21245
 20
673.549375
 30
0.0
 11
80.91245
 21
673.09
 31
0.0
  0
ENDSEC
  0
SECTION
  2
OBJECTS
  0
DICTIONARY
  5
C
330
0
100
AcDbDictionary
281
     1
  3
ACAD_GROUP
350
D
  3
ACAD_LAYOUT
350
19
  3
ACAD_MLINESTYLE
350
16
  3
ACAD_PLOTSETTINGS
350
18
  3
ACAD_PLOTSTYLENAME
350
E
  3
AcDbVariableDictionary
350
191
  0
DICTIONARY
  5
D
102
{ACAD_REACTORS
330
C
102
}
330
C
100
AcDbDictionary
281
     1
  0
DICTIONARY
  5
19
102
{ACAD_REACTORS
330
C
102
}
330
C
100
AcDbDictionary
281
     1
  3
Layout1
350
1D
  3
Model
350
21
  0
DICTIONARY
  5
16
102
{ACAD_REACTORS
330
C
102
}
330
C
100
AcDbDictionary
281
     1
  3
Standard
350
17
  0
DICTIONARY
  5
18
102
{ACAD_REACTORS
330
C
102
}
330
C
100
AcDbDictionary
281
     1
  0
ACDBDICTIONARYWDFLT
  5
E
102
{ACAD_REACTORS
330
C
102
}
330
C
100
AcDbDictionary
281
     1
  3
Normal
350
F
100
AcDbDictionaryWithDefault
340
F
  0
DICTIONARY
  5
191
102
{ACAD_REACTORS
330
C
102
}
330
C
100
AcDbDictionary
281
     1
  3
DIMASSOC
350
192
  0
LAYOUT
  5
1D
102
{ACAD_REACTORS
330
19
102
}
330
19
100
AcDbPlotSettings
  1

  2
hp deskjet 980c series
  4

  6

 40
0.0
 41
0.0
 42
0.0
 43
0.0
 44
0.0
 45
0.0
 46
0.0
 47
0.0
 48
0.0
 49
0.0
140
0.0
141
0.0
142
1.0
143
1.0
 70
   688
 72
     0
 73
     0
 74
     5
  7

 75
    16
147
1.0
148
0.0
149
0.0
100
AcDbLayout
  1
Layout1
 70
     1
 71
     1
 10
0.0
 20
0.0
 11
12.0
 21
9.0
 12
0.0
 22
0.0
 32
0.0
 14
1.000000000000000E+20
 24
1.000000000000000E+20
 34
1.000000000000000E+20
 15
-1.000000000000000E+20
 25
-1.000000000000000E+20
 35
-1.000000000000000E+20
146
0.0
 13
0.0
 23
0.0
 33
0.0
 16
1.0
 26
0.0
 36
0.0
 17
0.0
 27
1.0
 37
0.0
 76
     0
330
1A
  0
LAYOUT
  5
21
102
{ACAD_REACTORS
330
19
102
}
330
19
100
AcDbPlotSettings
  1

  2
hp deskjet 980c series
  4

  6

 40
0.0
 41
0.0
 42
0.0
 43
0.0
 44
0.0
 45
0.0
 46
0.0
 47
0.0
 48
0.0
 49
0.0
140
0.0
141
0.0
142
1.0
143
1.0
 70
  1712
 72
     0
 73
     0
 74
     0
  7

 75
     0
147
1.0
148
0.0
149
0.0
100
AcDbLayout
  1
Model
 70
     1
 71
     0
 10
0.0
 20
0.0
 11
12.0
 21
9.0
 12
0.0
 22
0.0
 32
0.0
 14
0.0
 24
0.0
 34
0.0
 15
0.0
 25
0.0
 35
0.0
146
0.0
 13
0.0
 23
0.0
 33
0.0
 16
1.0
 26
0.0
 36
0.0
 17
0.0
 27
1.0
 37
0.0
 76
     0
330
1E
  0
MLINESTYLE
  5
17
102
{ACAD_REACTORS
330
16
102
}
330
16
100
AcDbMlineStyle
  2
STANDARD
 70
     0
  3

 62
   256
 51
90.0
 52
90.0
 71
     2
 49
0.5
 62
   256
  6
BYLAYER
 49
-0.5
 62
   256
  6
BYLAYER
  0
ACDBPLACEHOLDER
  5
F
102
{ACAD_REACTORS
330
E
102
}
330
E
  0
DICTIONARYVAR
  5
192
102
{ACAD_REACTORS
330
191
102
}
330
191
100
DictionaryVariables
280
     0
  1
1
  0
ENDSEC
  0
EOF
