  0
SECTION
  2
HEADER
  9
$ACADVER
  1
AC1015
  9
$ACADMAINTVER
 70
    13
  9
$DWGCODEPAGE
  3
ANSI_1252
  9
$INSBASE
 10
0.0
 20
0.0
 30
0.0
  9
$EXTMIN
 10
-0.114499999999996
 20
-0.149694999999992
 30
0.0
  9
$EXTMAX
 10
196.1144999999999
 20
174.149695
 30
0.0
  9
$LIMMIN
 10
0.0
 20
0.0
  9
$LIMMAX
 10
12.0
 20
9.0
  9
$ORTHOMODE
 70
     0
  9
$REGENMODE
 70
     1
  9
$FILLMODE
 70
     1
  9
$QTEXTMODE
 70
     0
  9
$MIRRTEXT
 70
     1
  9
$LTSCALE
 40
1.0
  9
$ATTMODE
 70
     1
  9
$TEXTSIZE
 40
0.2
  9
$TRACEWID
 40
0.05
  9
$TEXTSTYLE
  7
Standard
  9
$CLAYER
  8
0
  9
$CELTYPE
  6
Continuous
  9
$CECOLOR
 62
   256
  9
$CELTSCALE
 40
1.0
  9
$DISPSILH
 70
     0
  9
$DIMSCALE
 40
1.0
  9
$DIMASZ
 40
0.18
  9
$DIMEXO
 40
0.0625
  9
$DIMDLI
 40
0.38
  9
$DIMRND
 40
0.0
  9
$DIMDLE
 40
0.0
  9
$DIMEXE
 40
0.18
  9
$DIMTP
 40
0.0
  9
$DIMTM
 40
0.0
  9
$DIMTXT
 40
0.18
  9
$DIMCEN
 40
0.09
  9
$DIMTSZ
 40
0.0
  9
$DIMTOL
 70
     0
  9
$DIMLIM
 70
     0
  9
$DIMTIH
 70
     1
  9
$DIMTOH
 70
     1
  9
$DIMSE1
 70
     0
  9
$DIMSE2
 70
     0
  9
$DIMTAD
 70
     0
  9
$DIMZIN
 70
     0
  9
$DIMBLK
  1

  9
$DIMASO
 70
     1
  9
$DIMSHO
 70
     1
  9
$DIMPOST
  1

  9
$DIMAPOST
  1

  9
$DIMALT
 70
     0
  9
$DIMALTD
 70
     2
  9
$DIMALTF
 40
25.4
  9
$DIMLFAC
 40
1.0
  9
$DIMTOFL
 70
     0
  9
$DIMTVP
 40
0.0
  9
$DIMTIX
 70
     0
  9
$DIMSOXD
 70
     0
  9
$DIMSAH
 70
     0
  9
$DIMBLK1
  1

  9
$DIMBLK2
  1

  9
$DIMSTYLE
  2
Standard
  9
$DIMCLRD
 70
     0
  9
$DIMCLRE
 70
     0
  9
$DIMCLRT
 70
     0
  9
$DIMTFAC
 40
1.0
  9
$DIMGAP
 40
0.09
  9
$DIMJUST
 70
     0
  9
$DIMSD1
 70
     0
  9
$DIMSD2
 70
     0
  9
$DIMTOLJ
 70
     1
  9
$DIMTZIN
 70
     0
  9
$DIMALTZ
 70
     0
  9
$DIMALTTZ
 70
     0
  9
$DIMUPT
 70
     0
  9
$DIMDEC
 70
     4
  9
$DIMTDEC
 70
     4
  9
$DIMALTU
 70
     2
  9
$DIMALTTD
 70
     2
  9
$DIMTXSTY
  7
Standard
  9
$DIMAUNIT
 70
     0
  9
$DIMADEC
 70
     0
  9
$DIMALTRND
 40
0.0
  9
$DIMAZIN
 70
     0
  9
$DIMDSEP
 70
    46
  9
$DIMATFIT
 70
     3
  9
$DIMFRAC
 70
     0
  9
$DIMLDRBLK
  1

  9
$DIMLUNIT
 70
     2
  9
$DIMLWD
 70
    -2
  9
$DIMLWE
 70
    -2
  9
$DIMTMOVE
 70
     0
  9
$LUNITS
 70
     2
  9
$LUPREC
 70
     4
  9
$SKETCHINC
 40
0.1
  9
$FILLETRAD
 40
0.0
  9
$AUNITS
 70
     0
  9
$AUPREC
 70
     0
  9
$MENU
  1
.
  9
$ELEVATION
 40
0.0
  9
$PELEVATION
 40
0.0
  9
$THICKNESS
 40
0.0
  9
$LIMCHECK
 70
     0
  9
$CHAMFERA
 40
0.0
  9
$CHAMFERB
 40
0.0
  9
$CHAMFERC
 40
0.0
  9
$CHAMFERD
 40
0.0
  9
$SKPOLY
 70
     0
  9
$TDCREATE
 40
2454737.960062743
  9
$TDUCREATE
 40
2454737.876729409
  9
$TDUPDATE
 40
2454737.960251551
  9
$TDUUPDATE
 40
2454737.876918217
  9
$TDINDWG
 40
0.0001888079
  9
$TDUSRTIMER
 40
0.0001888079
  9
$USRTIMER
 70
     1
  9
$ANGBASE
 50
0.0
  9
$ANGDIR
 70
     0
  9
$PDMODE
 70
     0
  9
$PDSIZE
 40
0.0
  9
$PLINEWID
 40
0.0
  9
$SPLFRAME
 70
     0
  9
$SPLINETYPE
 70
     6
  9
$SPLINESEGS
 70
     8
  9
$HANDSEED
  5
247
  9
$SURFTAB1
 70
     6
  9
$SURFTAB2
 70
     6
  9
$SURFTYPE
 70
     6
  9
$SURFU
 70
     6
  9
$SURFV
 70
     6
  9
$UCSBASE
  2

  9
$UCSNAME
  2

  9
$UCSORG
 10
0.0
 20
0.0
 30
0.0
  9
$UCSXDIR
 10
1.0
 20
0.0
 30
0.0
  9
$UCSYDIR
 10
0.0
 20
1.0
 30
0.0
  9
$UCSORTHOREF
  2

  9
$UCSORTHOVIEW
 70
     1
  9
$UCSORGTOP
 10
0.0
 20
0.0
 30
0.0
  9
$UCSORGBOTTOM
 10
0.0
 20
0.0
 30
0.0
  9
$UCSORGLEFT
 10
0.0
 20
0.0
 30
0.0
  9
$UCSORGRIGHT
 10
0.0
 20
0.0
 30
0.0
  9
$UCSORGFRONT
 10
0.0
 20
0.0
 30
0.0
  9
$UCSORGBACK
 10
0.0
 20
0.0
 30
0.0
  9
$PUCSBASE
  2

  9
$PUCSNAME
  2

  9
$PUCSORG
 10
0.0
 20
0.0
 30
0.0
  9
$PUCSXDIR
 10
1.0
 20
0.0
 30
0.0
  9
$PUCSYDIR
 10
0.0
 20
1.0
 30
0.0
  9
$PUCSORTHOREF
  2

  9
$PUCSORTHOVIEW
 70
     0
  9
$PUCSORGTOP
 10
0.0
 20
0.0
 30
0.0
  9
$PUCSORGBOTTOM
 10
0.0
 20
0.0
 30
0.0
  9
$PUCSORGLEFT
 10
0.0
 20
0.0
 30
0.0
  9
$PUCSORGRIGHT
 10
0.0
 20
0.0
 30
0.0
  9
$PUCSORGFRONT
 10
0.0
 20
0.0
 30
0.0
  9
$PUCSORGBACK
 10
0.0
 20
0.0
 30
0.0
  9
$USERI1
 70
     0
  9
$USERI2
 70
     0
  9
$USERI3
 70
     0
  9
$USERI4
 70
     0
  9
$USERI5
 70
     0
  9
$USERR1
 40
0.0
  9
$USERR2
 40
0.0
  9
$USERR3
 40
0.0
  9
$USERR4
 40
0.0
  9
$USERR5
 40
0.0
  9
$WORLDVIEW
 70
     1
  9
$SHADEDGE
 70
     3
  9
$SHADEDIF
 70
    70
  9
$TILEMODE
 70
     1
  9
$MAXACTVP
 70
    64
  9
$PINSBASE
 10
0.0
 20
0.0
 30
0.0
  9
$PLIMCHECK
 70
     0
  9
$PEXTMIN
 10
1.000000000000000E+20
 20
1.000000000000000E+20
 30
1.000000000000000E+20
  9
$PEXTMAX
 10
-1.000000000000000E+20
 20
-1.000000000000000E+20
 30
-1.000000000000000E+20
  9
$PLIMMIN
 10
0.0
 20
0.0
  9
$PLIMMAX
 10
12.0
 20
9.0
  9
$UNITMODE
 70
     0
  9
$VISRETAIN
 70
     1
  9
$PLINEGEN
 70
     0
  9
$PSLTSCALE
 70
     1
  9
$TREEDEPTH
 70
  3020
  9
$CMLSTYLE
  2
Standard
  9
$CMLJUST
 70
     0
  9
$CMLSCALE
 40
1.0
  9
$PROXYGRAPHICS
 70
     1
  9
$MEASUREMENT
 70
     0
  9
$CELWEIGHT
370
    -1
  9
$ENDCAPS
280
     0
  9
$JOINSTYLE
280
     0
  9
$LWDISPLAY
290
     0
  9
$INSUNITS
 70
     0
  9
$HYPERLINKBASE
  1

  9
$STYLESHEET
  1

  9
$XEDIT
290
     1
  9
$CEPSNTYPE
380
     0
  9
$PSTYLEMODE
290
     1
  9
$FINGERPRINTGUID
  2
{53B47EB2-C838-4E29-BED0-C1371636BAE4}
  9
$VERSIONGUID
  2
{E0DC9FC4-3F6D-4033-9C68-6A7F73A1702D}
  9
$EXTNAMES
290
     1
  9
$PSVPSCALE
 40
0.0
  9
$OLESTARTUP
290
     0
  0
ENDSEC
  0
SECTION
  2
CLASSES
  0
CLASS
  1
ACDBDICTIONARYWDFLT
  2
AcDbDictionaryWithDefault
  3
AutoCAD 2000
 90
        0
280
     0
281
     0
  0
CLASS
  1
ACDBPLACEHOLDER
  2
AcDbPlaceHolder
  3
AutoCAD 2000
 90
        0
280
     0
281
     0
  0
CLASS
  1
LAYOUT
  2
AcDbLayout
  3
AutoCAD 2000
 90
        0
280
     0
281
     0
  0
CLASS
  1
DICTIONARYVAR
  2
AcDbDictionaryVar
  3
AutoCAD 2000
 90
        0
280
     0
281
     0
  0
ENDSEC
  0
SECTION
  2
TABLES
  0
TABLE
  2
VPORT
  5
8
330
0
100
AcDbSymbolTable
 70
     2
  0
VPORT
  5
246
330
8
100
AcDbSymbolTableRecord
100
AcDbViewportTableRecord
  2
*Active
 70
     0
 10
0.0
 20
0.0
 11
1.0
 21
1.0
 12
98.0
 22
87.0
 13
0.0
 23
0.0
 14
1.0
 24
1.0
 15
0.0
 25
0.0
 16
0.0
 26
0.0
 36
1.0
 17
0.0
 27
0.0
 37
0.0
 40
175.6367254731457
 41
2.078104993597951
 42
50.0
 43
0.0
 44
0.0
 50
0.0
 51
0.0
 71
     0
 72
   100
 73
     1
 74
     3
 75
     0
 76
     0
 77
     0
 78
     0
281
     0
 65
     1
110
0.0
120
0.0
130
0.0
111
1.0
121
0.0
131
0.0
112
0.0
122
1.0
132
0.0
 79
     1
146
0.0
  0
ENDTAB
  0
TABLE
  2
LTYPE
  5
5
330
0
100
AcDbSymbolTable
 70
     1
  0
LTYPE
  5
13
330
5
100
AcDbSymbolTableRecord
100
AcDbLinetypeTableRecord
  2
ByBlock
 70
     0
  3

 72
    65
 73
     0
 40
0.0
  0
LTYPE
  5
14
330
5
100
AcDbSymbolTableRecord
100
AcDbLinetypeTableRecord
  2
ByLayer
 70
     0
  3

 72
    65
 73
     0
 40
0.0
  0
LTYPE
  5
15
330
5
100
AcDbSymbolTableRecord
100
AcDbLinetypeTableRecord
  2
Continuous
 70
     0
  3
Solid line
 72
    65
 73
     0
 40
0.0
  0
ENDTAB
  0
TABLE
  2
LAYER
  5
2
330
0
100
AcDbSymbolTable
 70
     1
  0
LAYER
  5
10
330
2
100
AcDbSymbolTableRecord
100
AcDbLayerTableRecord
  2
0
 70
     0
 62
     7
  6
Continuous
370
    -3
390
F
  0
ENDTAB
  0
TABLE
  2
STYLE
  5
3
330
0
100
AcDbSymbolTable
 70
     1
  0
STYLE
  5
11
330
3
100
AcDbSymbolTableRecord
100
AcDbTextStyleTableRecord
  2
Standard
 70
     0
 40
0.0
 41
1.0
 50
0.0
 71
     0
 42
0.2
  3
txt
  4

  0
ENDTAB
  0
TABLE
  2
VIEW
  5
6
330
0
100
AcDbSymbolTable
 70
     0
  0
ENDTAB
  0
TABLE
  2
UCS
  5
7
330
0
100
AcDbSymbolTable
 70
     0
  0
ENDTAB
  0
TABLE
  2
APPID
  5
9
330
0
100
AcDbSymbolTable
 70
     1
  0
APPID
  5
12
330
9
100
AcDbSymbolTableRecord
100
AcDbRegAppTableRecord
  2
ACAD
 70
     0
  0
ENDTAB
  0
TABLE
  2
DIMSTYLE
  5
A
330
0
100
AcDbSymbolTable
 70
     1
100
AcDbDimStyleTable
 71
     0
  0
DIMSTYLE
105
240
330
A
100
AcDbSymbolTableRecord
100
AcDbDimStyleTableRecord
  2
Standard
 70
     0
340
11
  0
ENDTAB
  0
TABLE
  2
BLOCK_RECORD
  5
1
330
0
100
AcDbSymbolTable
 70
     0
  0
BLOCK_RECORD
  5
1E
330
1
100
AcDbSymbolTableRecord
100
AcDbBlockTableRecord
  2
*Model_Space
340
21
  0
BLOCK_RECORD
  5
1A
330
1
100
AcDbSymbolTableRecord
100
AcDbBlockTableRecord
  2
*Paper_Space
340
1D
  0
ENDTAB
  0
ENDSEC
  0
SECTION
  2
BLOCKS
  0
BLOCK
  5
1F
330
1E
100
AcDbEntity
  8
0
100
AcDbBlockBegin
  2
*Model_Space
 70
     0
 10
0.0
 20
0.0
 30
0.0
  3
*Model_Space
  1

  0
ENDBLK
  5
20
330
1E
100
AcDbEntity
  8
0
100
AcDbBlockEnd
  0
BLOCK
  5
1B
330
1A
100
AcDbEntity
 67
     1
  8
0
100
AcDbBlockBegin
  2
*Paper_Space
 70
     0
 10
0.0
 20
0.0
 30
0.0
  3
*Paper_Space
  1

  0
ENDBLK
  5
1C
330
1A
100
AcDbEntity
 67
     1
  8
0
100
AcDbBlockEnd
  0
ENDSEC
  0
SECTION
  2
ENTITIES
  0
LINE
  5
22
330
1E
100
AcDbEntity
  8
0
100
AcDbLine
 10
0.491500000000027
 20
155.2476949999999
 30
0.0
 11
2.050499999999999
 21
154.3476949999999
 31
0.0
  0
LINE
  5
23
330
1E
100
AcDbEntity
  8
0
100
AcDbLine
 10
0.251500000000046
 20
154.231695
 30
0.0
 11
0.8575000000000407
 21
153.881695
 31
0.0
  0
LINE
  5
24
330
1E
100
AcDbEntity
  8
0
100
AcDbLine
 10
0.491500000000027
 20
155.2476949999999
 30
0.0
 11
2.050499999999999
 21
154.3476949999999
 31
0.0
  0
LINE
  5
25
330
1E
100
AcDbEntity
  8
0
100
AcDbLine
 10
-0.114499999999996
 20
155.5976949999999
 30
0.0
 11
10.3855
 21
173.7836949999999
 31
0.0
  0
LINE
  5
26
330
1E
100
AcDbEntity
  8
0
100
AcDbLine
 10
6.642500000000009
 20
149.386695
 30
0.0
 11
7.033616798781769
 21
150.06410929549
 31
0.0
  0
LINE
  5
27
330
1E
100
AcDbEntity
  8
0
100
AcDbLine
 10
6.863500000000009
 20
149.2586949999999
 30
0.0
 11
7.3577494898347
 21
150.114735116394
 31
0.0
  0
LINE
  5
28
330
1E
100
AcDbEntity
  8
0
100
AcDbLine
 10
6.863500000000009
 20
149.2586949999999
 30
0.0
 11
8.363500000000009
 21
148.392695
 31
0.0
  0
LINE
  5
29
330
1E
100
AcDbEntity
  8
0
100
AcDbLine
 10
5.776500000000019
 20
149.886695
 30
0.0
 11
6.642500000000009
 21
149.386695
 31
0.0
  0
LINE
  5
2A
330
1E
100
AcDbEntity
  8
0
100
AcDbLine
 10
5.776500000000019
 20
149.886695
 30
0.0
 11
6.192603216272269
 21
150.6073857705839
 31
0.0
  0
LINE
  5
2B
330
1E
100
AcDbEntity
  8
0
100
AcDbLine
 10
5.675500000000019
 20
149.944695
 30
0.0
 11
6.541500000000009
 21
149.4446949999999
 31
0.0
  0
LINE
  5
2C
330
1E
100
AcDbEntity
  8
0
100
AcDbLine
 10
6.48949999999999
 20
149.4746949999999
 30
0.0
 11
6.863528001232059
 21
149.258743498134
 31
0.0
  0
LINE
  5
2D
330
1E
100
AcDbEntity
  8
0
100
AcDbLine
 10
6.48949999999999
 20
149.4746949999999
 30
0.0
 11
6.863533487297919
 21
149.258753
 31
0.0
  0
LINE
  5
2E
330
1E
100
AcDbEntity
  8
0
100
AcDbLine
 10
7.012197635117
 20
150.027011304023
 30
0.0
 11
7.22665066283969
 21
149.887671948038
 31
0.0
  0
LINE
  5
2F
330
1E
100
AcDbEntity
  8
0
100
AcDbLine
 10
4.276500000000019
 20
150.7526949999999
 30
0.0
 11
5.142500000000009
 21
150.252695
 31
0.0
  0
LINE
  5
30
330
1E
100
AcDbEntity
  8
0
100
AcDbLine
 10
4.276500000000019
 20
150.7526949999999
 30
0.0
 11
4.73590359658254
 21
151.548382029281
 31
0.0
  0
LINE
  5
31
330
1E
100
AcDbEntity
  8
0
100
AcDbLine
 10
4.276500000000019
 20
150.7526949999999
 30
0.0
 11
5.776500000000019
 21
149.886695
 31
0.0
  0
LINE
  5
32
330
1E
100
AcDbEntity
  8
0
100
AcDbLine
 10
4.175500000000019
 20
150.8106949999999
 30
0.0
 11
5.041500000000009
 21
150.3106949999999
 31
0.0
  0
LINE
  5
33
330
1E
100
AcDbEntity
  8
0
100
AcDbLine
 10
4.175500000000019
 20
150.8106949999999
 30
0.0
 11
4.62031741407148
 21
151.581118761172
 31
0.0
  0
LINE
  5
34
330
1E
100
AcDbEntity
  8
0
100
AcDbLine
 10
4.175500000000019
 20
150.8106949999999
 30
0.0
 11
5.675500000000019
 21
149.944695
 31
0.0
  0
LINE
  5
35
330
1E
100
AcDbEntity
  8
0
100
AcDbLine
 10
5.142500000000009
 20
150.252695
 30
0.0
 11
6.642500000000009
 21
149.386695
 31
0.0
  0
LINE
  5
36
330
1E
100
AcDbEntity
  8
0
100
AcDbLine
 10
5.041500000000009
 20
150.3106949999999
 30
0.0
 11
6.541500000000009
 21
149.4446949999999
 31
0.0
  0
LINE
  5
37
330
1E
100
AcDbEntity
  8
0
100
AcDbLine
 10
7.012197635117
 20
150.027011304023
 30
0.0
 11
7.22665066283969
 21
149.887671948038
 31
0.0
  0
LINE
  5
38
330
1E
100
AcDbEntity
  8
0
100
AcDbLine
 10
7.179500000000009
 20
150.2316949999999
 30
0.0
 11
7.462954545535219
 21
150.068058636317
 31
0.0
  0
LINE
  5
39
330
1E
100
AcDbEntity
  8
0
100
AcDbLine
 10
7.179500000000009
 20
150.2316949999999
 30
0.0
 11
7.462954545535219
 21
150.068058636317
 31
0.0
  0
LINE
  5
3A
330
1E
100
AcDbEntity
  8
0
100
AcDbLine
 10
3.368500000000009
 20
152.431695
 30
0.0
 11
4.841500000000019
 21
151.581695
 31
0.0
  0
LINE
  5
3B
330
1E
100
AcDbEntity
  8
0
100
AcDbLine
 10
4.841500000000019
 20
151.581695
 30
0.0
 11
8.0455
 21
149.731695
 31
0.0
  0
LINE
  5
3C
330
1E
100
AcDbEntity
  8
0
100
AcDbLine
 10
4.841500000000019
 20
151.581695
 30
0.0
 11
7.179500000000009
 21
150.2316949999999
 31
0.0
  0
LINE
  5
3D
330
1E
100
AcDbEntity
  8
0
100
AcDbLine
 10
8.43944160581719
 20
148.348899379575
 30
0.0
 11
8.855500000000029
 21
148.1086949999999
 31
0.0
  0
LINE
  5
3E
330
1E
100
AcDbEntity
  8
0
100
AcDbLine
 10
8.460603999971629
 20
148.336695000016
 30
0.0
 11
8.855500000000029
 21
148.1086949999999
 31
0.0
  0
LINE
  5
3F
330
1E
100
AcDbEntity
  8
0
100
AcDbLine
 10
9.230500000000029
 20
147.8926949999999
 30
0.0
 11
9.646393413595928
 21
148.6130223923479
 31
0.0
  0
LINE
  5
40
330
1E
100
AcDbEntity
  8
0
100
AcDbLine
 10
8.363500000000009
 20
148.392695
 30
0.0
 11
9.230500000000029
 21
147.8926949999999
 31
0.0
  0
LINE
  5
41
330
1E
100
AcDbEntity
  8
0
100
AcDbLine
 10
8.363500000000009
 20
148.392695
 30
0.0
 11
8.808239597113709
 21
149.162983982201
 31
0.0
  0
LINE
  5
42
330
1E
100
AcDbEntity
  8
0
100
AcDbLine
 10
8.43944160581719
 20
148.348899379575
 30
0.0
 11
8.855500000000029
 21
148.1086949999999
 31
0.0
  0
LINE
  5
43
330
1E
100
AcDbEntity
  8
0
100
AcDbLine
 10
10.89949999999999
 20
146.928695
 30
0.0
 11
11.1398990512425
 21
147.3450661567519
 31
0.0
  0
LINE
  5
44
330
1E
100
AcDbEntity
  8
0
100
AcDbLine
 10
10.89949999999999
 20
146.928695
 30
0.0
 11
11.76549999999999
 21
146.4286949999999
 31
0.0
  0
LINE
  5
45
330
1E
100
AcDbEntity
  8
0
100
AcDbLine
 10
10.89949999999999
 20
146.928695
 30
0.0
 11
11.361248650274
 21
147.7284436622749
 31
0.0
  0
LINE
  5
46
330
1E
100
AcDbEntity
  8
0
100
AcDbLine
 10
9.52145911799068
 20
148.39663619236
 30
0.0
 11
11.1398990512425
 21
147.3450661567519
 31
0.0
  0
LINE
  5
47
330
1E
100
AcDbEntity
  8
0
100
AcDbLine
 10
9.52145911799068
 20
148.39663619236
 30
0.0
 11
11.1398990512425
 21
147.3450661567519
 31
0.0
  0
LINE
  5
48
330
1E
100
AcDbEntity
  8
0
100
AcDbLine
 10
8.0455
 20
149.731695
 30
0.0
 11
12.3755
 21
147.2316949999999
 31
0.0
  0
LINE
  5
49
330
1E
100
AcDbEntity
  8
0
100
AcDbLine
 10
7.852500000000018
 20
150.9976949999999
 30
0.0
 11
12.1825
 21
148.4976949999999
 31
0.0
  0
LINE
  5
4A
330
1E
100
AcDbEntity
  8
0
100
AcDbLine
 10
2.050499999999999
 20
154.3476949999999
 30
0.0
 11
4.475500000000009
 21
152.9476949999999
 31
0.0
  0
LINE
  5
4B
330
1E
100
AcDbEntity
  8
0
100
AcDbLine
 10
2.85169593873799
 20
152.730268204152
 30
0.0
 11
4.71811637848908
 21
151.517574567543
 31
0.0
  0
LINE
  5
4C
330
1E
100
AcDbEntity
  8
0
100
AcDbLine
 10
2.85169593873798
 20
152.730268204152
 30
0.0
 11
4.71811637848908
 21
151.517574567543
 31
0.0
  0
LINE
  5
4D
330
1E
100
AcDbEntity
  8
0
100
AcDbLine
 10
4.475500000000009
 20
152.9476949999999
 30
0.0
 11
7.852500000000018
 21
150.9976949999999
 31
0.0
  0
LINE
  5
4E
330
1E
100
AcDbEntity
  8
0
100
AcDbLine
 10
2.329500000000019
 20
153.0316949999999
 30
0.0
 11
2.85169593873799
 21
152.730268204152
 31
0.0
  0
LINE
  5
4F
330
1E
100
AcDbEntity
  8
0
100
AcDbLine
 10
2.329500000000019
 20
153.0316949999999
 30
0.0
 11
4.841500000000019
 21
151.581695
 31
0.0
  0
LINE
  5
50
330
1E
100
AcDbEntity
  8
0
100
AcDbLine
 10
3.047214285694619
 20
152.6174092857259
 30
0.0
 11
4.67585512441079
 21
151.6773100754789
 31
0.0
  0
LINE
  5
51
330
1E
100
AcDbEntity
  8
0
100
AcDbLine
 10
3.047214285694619
 20
152.6174092857259
 30
0.0
 11
3.368500000000009
 21
152.431695
 31
0.0
  0
LINE
  5
52
330
1E
100
AcDbEntity
  8
0
100
AcDbLine
 10
0.8575000000000407
 20
153.881695
 30
0.0
 11
2.329500000000019
 21
153.0316949999999
 31
0.0
  0
LINE
  5
53
330
1E
100
AcDbEntity
  8
0
100
AcDbLine
 10
10.9915
 20
173.433695
 30
0.0
 11
12.55049999999999
 21
172.5336949999999
 31
0.0
  0
LINE
  5
54
330
1E
100
AcDbEntity
  8
0
100
AcDbLine
 10
-0.114499999999996
 20
155.5976949999999
 30
0.0
 11
0.251500000000046
 21
154.231695
 31
0.0
  0
LINE
  5
55
330
1E
100
AcDbEntity
  8
0
100
AcDbLine
 10
-0.114499999999996
 20
155.5976949999999
 30
0.0
 11
0.491500000000027
 21
155.2476949999999
 31
0.0
  0
LINE
  5
56
330
1E
100
AcDbEntity
  8
0
100
AcDbLine
 10
-0.114499999999996
 20
155.5976949999999
 30
0.0
 11
10.3855
 21
173.7836949999999
 31
0.0
  0
LINE
  5
57
330
1E
100
AcDbEntity
  8
0
100
AcDbLine
 10
-0.114499999999996
 20
155.5976949999999
 30
0.0
 11
0.491500000000027
 21
155.2476949999999
 31
0.0
  0
LINE
  5
58
330
1E
100
AcDbEntity
  8
0
100
AcDbLine
 10
-0.114499999999996
 20
155.5976949999999
 30
0.0
 11
0.251500000000046
 21
154.231695
 31
0.0
  0
LINE
  5
59
330
1E
100
AcDbEntity
  8
0
100
AcDbLine
 10
11.7515
 20
174.149695
 30
0.0
 11
71.2075
 21
142.131695
 31
0.0
  0
LINE
  5
5A
330
1E
100
AcDbEntity
  8
0
100
AcDbLine
 10
10.3855
 20
173.7836949999999
 30
0.0
 11
11.7515
 21
174.149695
 31
0.0
  0
LINE
  5
5B
330
1E
100
AcDbEntity
  8
0
100
AcDbLine
 10
10.3855
 20
173.7836949999999
 30
0.0
 11
10.9915
 21
173.433695
 31
0.0
  0
LINE
  5
5C
330
1E
100
AcDbEntity
  8
0
100
AcDbLine
 10
69.5935
 20
111.3096949999999
 30
0.0
 11
70.0334881451927
 21
112.071754467474
 31
0.0
  0
LINE
  5
5D
330
1E
100
AcDbEntity
  8
0
100
AcDbLine
 10
62.1524999999922
 20
115.0078727777819
 30
0.0
 11
62.6040294117852
 21
114.7469891176349
 31
0.0
  0
LINE
  5
5E
330
1E
100
AcDbEntity
  8
0
100
AcDbLine
 10
62.1285
 20
115.0216949999999
 30
0.0
 11
62.2749893617015
 21
114.937327978724
 31
0.0
  0
LINE
  5
5F
330
1E
100
AcDbEntity
  8
0
100
AcDbLine
 10
63.14849999999999
 20
114.4326949999999
 30
0.0
 11
63.27549999999829
 21
114.359641902656
 31
0.0
  0
LINE
  5
60
330
1E
100
AcDbEntity
  8
0
100
AcDbLine
 10
63.33038659794371
 20
114.3279080584159
 30
0.0
 11
63.48749999999999
 21
114.2366949999999
 31
0.0
  0
LINE
  5
61
330
1E
100
AcDbEntity
  8
0
100
AcDbLine
 10
63.7835
 20
114.0656949999999
 30
0.0
 11
64.7105545678545
 21
114.706822847659
 31
0.0
  0
LINE
  5
62
330
1E
100
AcDbEntity
  8
0
100
AcDbLine
 10
63.48749999999999
 20
114.2366949999999
 30
0.0
 11
63.6375512820427
 21
114.1504813247909
 31
0.0
  0
LINE
  5
63
330
1E
100
AcDbEntity
  8
0
100
AcDbLine
 10
63.7189000000013
 20
114.103694999999
 30
0.0
 11
63.7835
 21
114.0656949999999
 31
0.0
  0
LINE
  5
64
330
1E
100
AcDbEntity
  8
0
100
AcDbLine
 10
63.68850000000279
 20
114.121111666665
 30
0.0
 11
63.7835
 21
114.0656949999999
 31
0.0
  0
LINE
  5
65
330
1E
100
AcDbEntity
  8
0
100
AcDbLine
 10
63.6805
 20
114.125695
 30
0.0
 11
63.7765
 21
114.0706949999999
 31
0.0
  0
LINE
  5
66
330
1E
100
AcDbEntity
  8
0
100
AcDbLine
 10
63.7765
 20
114.0706949999999
 30
0.0
 11
64.70279926986861
 21
114.711300502385
 31
0.0
  0
LINE
  5
67
330
1E
100
AcDbEntity
  8
0
100
AcDbLine
 10
63.4795
 20
114.2416949999999
 30
0.0
 11
63.6805
 21
114.125695
 31
0.0
  0
LINE
  5
68
330
1E
100
AcDbEntity
  8
0
100
AcDbLine
 10
62.96450000000111
 20
114.5391187288129
 30
0.0
 11
63.14849999999999
 21
114.4326949999999
 31
0.0
  0
LINE
  5
69
330
1E
100
AcDbEntity
  8
0
100
AcDbLine
 10
63.1195
 20
114.4496949999999
 30
0.0
 11
63.19051639343779
 21
114.408776967216
 31
0.0
  0
LINE
  5
6A
330
1E
100
AcDbEntity
  8
0
100
AcDbLine
 10
63.1405
 20
114.4376949999999
 30
0.0
 11
63.4795
 21
114.2416949999999
 31
0.0
  0
LINE
  5
6B
330
1E
100
AcDbEntity
  8
0
100
AcDbLine
 10
62.6685
 20
114.7096949999999
 30
0.0
 11
63.1405
 21
114.4376949999999
 31
0.0
  0
LINE
  5
6C
330
1E
100
AcDbEntity
  8
0
100
AcDbLine
 10
61.8977500000015
 20
115.154944999999
 30
0.0
 11
62.1285
 21
115.0216949999999
 31
0.0
  0
LINE
  5
6D
330
1E
100
AcDbEntity
  8
0
100
AcDbLine
 10
62.1205
 20
115.026695
 30
0.0
 11
62.6685
 21
114.7096949999999
 31
0.0
  0
LINE
  5
6E
330
1E
100
AcDbEntity
  8
0
100
AcDbLine
 10
69.16949999999999
 20
112.1316949999999
 30
0.0
 11
69.4197500110005
 21
112.565128019053
 31
0.0
  0
LINE
  5
6F
330
1E
100
AcDbEntity
  8
0
100
AcDbLine
 10
67.86150000000001
 20
112.3096949999999
 30
0.0
 11
68.1114369972279
 21
112.742585879199
 31
0.0
  0
LINE
  5
70
330
1E
100
AcDbEntity
  8
0
100
AcDbLine
 10
67.86150000000001
 20
112.3096949999999
 30
0.0
 11
69.5935
 21
111.3096949999999
 31
0.0
  0
LINE
  5
71
330
1E
100
AcDbEntity
  8
0
100
AcDbLine
 10
70.2865
 20
112.064695
 30
0.0
 11
70.5364369972279
 21
112.497585879199
 31
0.0
  0
LINE
  5
72
330
1E
100
AcDbEntity
  8
0
100
AcDbLine
 10
67.4375
 20
113.1316949999999
 30
0.0
 11
67.698837896344
 21
113.5843322364679
 31
0.0
  0
LINE
  5
73
330
1E
100
AcDbEntity
  8
0
100
AcDbLine
 10
67.4375
 20
113.1316949999999
 30
0.0
 11
69.16949999999999
 21
112.1316949999999
 31
0.0
  0
LINE
  5
74
330
1E
100
AcDbEntity
  8
0
100
AcDbLine
 10
68.55450000000001
 20
113.064695
 30
0.0
 11
68.8732347704131
 21
113.616743622356
 31
0.0
  0
LINE
  5
75
330
1E
100
AcDbEntity
  8
0
100
AcDbLine
 10
68.55450000000001
 20
113.064695
 30
0.0
 11
70.2865
 21
112.064695
 31
0.0
  0
LINE
  5
76
330
1E
100
AcDbEntity
  8
0
100
AcDbLine
 10
70.72849999999999
 20
112.3866949999999
 30
0.0
 11
71.16964460688291
 21
113.1507574591209
 31
0.0
  0
LINE
  5
77
330
1E
100
AcDbEntity
  8
0
100
AcDbLine
 10
68.9965
 20
113.3866949999999
 30
0.0
 11
69.4966296415532
 21
114.25291953917
 31
0.0
  0
LINE
  5
78
330
1E
100
AcDbEntity
  8
0
100
AcDbLine
 10
68.9965
 20
113.3866949999999
 30
0.0
 11
70.72849999999999
 21
112.3866949999999
 31
0.0
  0
LINE
  5
79
330
1E
100
AcDbEntity
  8
0
100
AcDbLine
 10
68.9965
 20
113.3866949999999
 30
0.0
 11
69.3345602923892
 21
113.9722154264179
 31
0.0
  0
LINE
  5
7A
330
1E
100
AcDbEntity
  8
0
100
AcDbLine
 10
66.8875
 20
113.4496949999999
 30
0.0
 11
67.43771165561359
 21
113.132061587523
 31
0.0
  0
LINE
  5
7B
330
1E
100
AcDbEntity
  8
0
100
AcDbLine
 10
69.8436853680749
 20
111.743016057506
 30
0.0
 11
70.8715
 21
111.149695
 31
0.0
  0
LINE
  5
7C
330
1E
100
AcDbEntity
  8
0
100
AcDbLine
 10
71.2285311304085
 20
113.252748917868
 30
0.0
 11
72.2175
 21
112.681695
 31
0.0
  0
LINE
  5
7D
330
1E
100
AcDbEntity
  8
0
100
AcDbLine
 10
54.8475
 20
119.802695
 30
0.0
 11
56.09449999999999
 21
119.0826949999999
 31
0.0
  0
LINE
  5
7E
330
1E
100
AcDbEntity
  8
0
100
AcDbLine
 10
56.09449999999999
 20
119.0826949999999
 30
0.0
 11
57.4245
 21
118.314695
 31
0.0
  0
LINE
  5
7F
330
1E
100
AcDbEntity
  8
0
100
AcDbLine
 10
56.8415
 20
119.2496949999999
 30
0.0
 11
57.3415
 21
120.115695
 31
0.0
  0
LINE
  5
80
330
1E
100
AcDbEntity
  8
0
100
AcDbLine
 10
56.8415
 20
119.2496949999999
 30
0.0
 11
58.5735
 21
118.2496949999999
 31
0.0
  0
LINE
  5
81
330
1E
100
AcDbEntity
  8
0
100
AcDbLine
 10
56.5915
 20
118.8156949999999
 30
0.0
 11
56.8418246237214
 21
119.2495075729089
 31
0.0
  0
LINE
  5
82
330
1E
100
AcDbEntity
  8
0
100
AcDbLine
 10
56.5915
 20
118.8156949999999
 30
0.0
 11
58.3235
 21
117.8156949999999
 31
0.0
  0
LINE
  5
83
330
1E
100
AcDbEntity
  8
0
100
AcDbLine
 10
57.4245
 20
118.314695
 30
0.0
 11
58.7545
 21
117.546695
 31
0.0
  0
LINE
  5
84
330
1E
100
AcDbEntity
  8
0
100
AcDbLine
 10
58.5735
 20
118.2496949999999
 30
0.0
 11
59.0735
 21
119.115695
 31
0.0
  0
LINE
  5
85
330
1E
100
AcDbEntity
  8
0
100
AcDbLine
 10
58.3235
 20
117.8156949999999
 30
0.0
 11
58.6585798271745
 21
118.3963883404929
 31
0.0
  0
LINE
  5
86
330
1E
100
AcDbEntity
  8
0
100
AcDbLine
 10
57.09150000000001
 20
119.6826949999999
 30
0.0
 11
57.3415
 21
120.115695
 31
0.0
  0
LINE
  5
87
330
1E
100
AcDbEntity
  8
0
100
AcDbLine
 10
57.09150000000001
 20
119.6826949999999
 30
0.0
 11
58.8235
 21
118.6826949999999
 31
0.0
  0
LINE
  5
88
330
1E
100
AcDbEntity
  8
0
100
AcDbLine
 10
53.7455
 20
120.4386949999999
 30
0.0
 11
54.8475
 21
119.802695
 31
0.0
  0
LINE
  5
89
330
1E
100
AcDbEntity
  8
0
100
AcDbLine
 10
57.3415
 20
120.115695
 30
0.0
 11
57.84150574749379
 21
120.981704954659
 31
0.0
  0
LINE
  5
8A
330
1E
100
AcDbEntity
  8
0
100
AcDbLine
 10
57.3415
 20
120.115695
 30
0.0
 11
59.0735
 21
119.115695
 31
0.0
  0
LINE
  5
8B
330
1E
100
AcDbEntity
  8
0
100
AcDbLine
 10
55.7165
 20
119.8996949999999
 30
0.0
 11
56.841586986551
 21
119.249845660706
 31
0.0
  0
LINE
  5
8C
330
1E
100
AcDbEntity
  8
0
100
AcDbLine
 10
58.7545
 20
117.546695
 30
0.0
 11
59.38942413663141
 21
117.18009886658
 31
0.0
  0
LINE
  5
8D
330
1E
100
AcDbEntity
  8
0
100
AcDbLine
 10
58.8235
 20
118.6826949999999
 30
0.0
 11
59.0735
 21
119.115695
 31
0.0
  0
LINE
  5
8E
330
1E
100
AcDbEntity
  8
0
100
AcDbLine
 10
59.0735
 20
119.115695
 30
0.0
 11
59.5735229876867
 21
119.981734814673
 31
0.0
  0
LINE
  5
8F
330
1E
100
AcDbEntity
  8
0
100
AcDbLine
 10
58.57384636090721
 20
118.2495452434519
 30
0.0
 11
59.6995
 21
117.599695
 31
0.0
  0
LINE
  5
90
330
1E
100
AcDbEntity
  8
0
100
AcDbLine
 10
50.5365
 20
121.7146949999999
 30
0.0
 11
50.6135
 21
121.670695
 31
0.0
  0
LINE
  5
91
330
1E
100
AcDbEntity
  8
0
100
AcDbLine
 10
47.8075
 20
123.2896949999999
 30
0.0
 11
48.3965
 21
122.9496949999999
 31
0.0
  0
LINE
  5
92
330
1E
100
AcDbEntity
  8
0
100
AcDbLine
 10
46.8445
 20
123.846695
 30
0.0
 11
47.2875
 21
123.5906949999999
 31
0.0
  0
LINE
  5
93
330
1E
100
AcDbEntity
  8
0
100
AcDbLine
 10
47.2875
 20
123.5906949999999
 30
0.0
 11
47.8075
 21
123.2896949999999
 31
0.0
  0
LINE
  5
94
330
1E
100
AcDbEntity
  8
0
100
AcDbLine
 10
48.9855
 20
122.609695
 30
0.0
 11
49.5045
 21
122.310695
 31
0.0
  0
LINE
  5
95
330
1E
100
AcDbEntity
  8
0
100
AcDbLine
 10
48.3965
 20
122.9496949999999
 30
0.0
 11
48.9855
 21
122.609695
 31
0.0
  0
LINE
  5
96
330
1E
100
AcDbEntity
  8
0
100
AcDbLine
 10
49.5045
 20
122.310695
 30
0.0
 11
49.94749999999999
 21
122.0546949999999
 31
0.0
  0
LINE
  5
97
330
1E
100
AcDbEntity
  8
0
100
AcDbLine
 10
49.94749999999999
 20
122.0546949999999
 30
0.0
 11
50.3155
 21
121.842695
 31
0.0
  0
LINE
  5
98
330
1E
100
AcDbEntity
  8
0
100
AcDbLine
 10
50.3155
 20
121.842695
 30
0.0
 11
50.5365
 21
121.7146949999999
 31
0.0
  0
LINE
  5
99
330
1E
100
AcDbEntity
  8
0
100
AcDbLine
 10
50.6135
 20
121.670695
 30
0.0
 11
51.545250861377
 21
122.3076910384659
 31
0.0
  0
LINE
  5
9A
330
1E
100
AcDbEntity
  8
0
100
AcDbLine
 10
46.4765
 20
124.0586949999999
 30
0.0
 11
46.8445
 21
123.846695
 31
0.0
  0
LINE
  5
9B
330
1E
100
AcDbEntity
  8
0
100
AcDbLine
 10
47.97849999999999
 20
124.3666949999999
 30
0.0
 11
48.2396679230606
 21
124.8190378427409
 31
0.0
  0
LINE
  5
9C
330
1E
100
AcDbEntity
  8
0
100
AcDbLine
 10
47.05449999999999
 20
124.3226949999999
 30
0.0
 11
47.3045630027721
 21
124.7558041208009
 31
0.0
  0
LINE
  5
9D
330
1E
100
AcDbEntity
  8
0
100
AcDbLine
 10
46.25549999999999
 20
124.186695
 30
0.0
 11
46.4765
 21
124.0586949999999
 31
0.0
  0
LINE
  5
9E
330
1E
100
AcDbEntity
  8
0
100
AcDbLine
 10
46.17849999999999
 20
124.2306949999999
 30
0.0
 11
46.22217124215829
 21
124.803254329008
 31
0.0
  0
LINE
  5
9F
330
1E
100
AcDbEntity
  8
0
100
AcDbLine
 10
46.17849999999999
 20
124.2306949999999
 30
0.0
 11
46.25549999999999
 21
124.186695
 31
0.0
  0
LINE
  5
A0
330
1E
100
AcDbEntity
  8
0
100
AcDbLine
 10
48.5285
 20
124.049695
 30
0.0
 11
50.1735
 21
123.0996949999999
 31
0.0
  0
LINE
  5
A1
330
1E
100
AcDbEntity
  8
0
100
AcDbLine
 10
52.4155
 20
121.206695
 30
0.0
 11
52.9145
 21
120.918695
 31
0.0
  0
LINE
  5
A2
330
1E
100
AcDbEntity
  8
0
100
AcDbLine
 10
52.9145
 20
120.918695
 30
0.0
 11
53.7455
 21
120.4386949999999
 31
0.0
  0
LINE
  5
A3
330
1E
100
AcDbEntity
  8
0
100
AcDbLine
 10
52.2285
 20
121.314695
 30
0.0
 11
52.4155
 21
121.206695
 31
0.0
  0
LINE
  5
A4
330
1E
100
AcDbEntity
  8
0
100
AcDbLine
 10
52.2285
 20
121.314695
 30
0.0
 11
52.48765112309239
 21
121.7635447451959
 31
0.0
  0
LINE
  5
A5
330
1E
100
AcDbEntity
  8
0
100
AcDbLine
 10
51.9055
 20
122.0996949999999
 30
0.0
 11
53.8105
 21
120.9996949999999
 31
0.0
  0
LINE
  5
A6
330
1E
100
AcDbEntity
  8
0
100
AcDbLine
 10
51.3465
 20
124.731695
 30
0.0
 11
58.70750000000001
 21
120.481695
 31
0.0
  0
LINE
  5
A7
330
1E
100
AcDbEntity
  8
0
100
AcDbLine
 10
58.70750000000001
 20
120.481695
 30
0.0
 11
66.2425
 21
116.131695
 31
0.0
  0
LINE
  5
A8
330
1E
100
AcDbEntity
  8
0
100
AcDbLine
 10
61.0075
 20
115.668695
 30
0.0
 11
61.1259117647042
 21
115.6005185294129
 31
0.0
  0
LINE
  5
A9
330
1E
100
AcDbEntity
  8
0
100
AcDbLine
 10
60.4515
 20
115.989695
 30
0.0
 11
60.960357142859
 21
115.69626642857
 31
0.0
  0
LINE
  5
AA
330
1E
100
AcDbEntity
  8
0
100
AcDbLine
 10
60.4595
 20
115.984695
 30
0.0
 11
60.8530106383005
 21
115.758062021275
 31
0.0
  0
LINE
  5
AB
330
1E
100
AcDbEntity
  8
0
100
AcDbLine
 10
60.795500000001
 20
115.7913300364959
 30
0.0
 11
61.0075
 21
115.668695
 31
0.0
  0
LINE
  5
AC
330
1E
100
AcDbEntity
  8
0
100
AcDbLine
 10
60.4525
 20
115.989695
 30
0.0
 11
60.9925
 21
115.677695
 31
0.0
  0
LINE
  5
AD
330
1E
100
AcDbEntity
  8
0
100
AcDbLine
 10
60.9925
 20
115.677695
 30
0.0
 11
61.5595
 21
115.349695
 31
0.0
  0
LINE
  5
AE
330
1E
100
AcDbEntity
  8
0
100
AcDbLine
 10
61.5595
 20
115.349695
 30
0.0
 11
62.1205
 21
115.026695
 31
0.0
  0
LINE
  5
AF
330
1E
100
AcDbEntity
  8
0
100
AcDbLine
 10
59.6405
 20
116.4586949999999
 30
0.0
 11
60.0005
 21
116.250695
 31
0.0
  0
LINE
  5
B0
330
1E
100
AcDbEntity
  8
0
100
AcDbLine
 10
59.4195
 20
116.585695
 30
0.0
 11
59.5904999999802
 21
116.4866950000119
 31
0.0
  0
LINE
  5
B1
330
1E
100
AcDbEntity
  8
0
100
AcDbLine
 10
59.3515
 20
116.6246949999999
 30
0.0
 11
59.43949999999951
 21
116.574278333334
 31
0.0
  0
LINE
  5
B2
330
1E
100
AcDbEntity
  8
0
100
AcDbLine
 10
59.3515
 20
116.6246949999999
 30
0.0
 11
59.4195
 21
116.585695
 31
0.0
  0
LINE
  5
B3
330
1E
100
AcDbEntity
  8
0
100
AcDbLine
 10
59.4115
 20
116.5906949999999
 30
0.0
 11
59.6405
 21
116.4586949999999
 31
0.0
  0
LINE
  5
B4
330
1E
100
AcDbEntity
  8
0
100
AcDbLine
 10
59.3445
 20
116.6296949999999
 30
0.0
 11
59.4405
 21
116.573695
 31
0.0
  0
LINE
  5
B5
330
1E
100
AcDbEntity
  8
0
100
AcDbLine
 10
59.3445
 20
116.6296949999999
 30
0.0
 11
59.43608391347529
 21
117.751767539911
 31
0.0
  0
LINE
  5
B6
330
1E
100
AcDbEntity
  8
0
100
AcDbLine
 10
59.3445
 20
116.6296949999999
 30
0.0
 11
59.4115
 21
116.5906949999999
 31
0.0
  0
LINE
  5
B7
330
1E
100
AcDbEntity
  8
0
100
AcDbLine
 10
59.4405
 20
116.573695
 30
0.0
 11
59.6405
 21
116.457695
 31
0.0
  0
LINE
  5
B8
330
1E
100
AcDbEntity
  8
0
100
AcDbLine
 10
60.0501307692331
 20
116.221602692306
 30
0.0
 11
60.4595
 21
115.984695
 31
0.0
  0
LINE
  5
B9
330
1E
100
AcDbEntity
  8
0
100
AcDbLine
 10
59.77522897196589
 20
116.380423971961
 30
0.0
 11
59.9875
 21
116.257695
 31
0.0
  0
LINE
  5
BA
330
1E
100
AcDbEntity
  8
0
100
AcDbLine
 10
59.9875
 20
116.257695
 30
0.0
 11
60.26917741935609
 21
116.095372419354
 31
0.0
  0
LINE
  5
BB
330
1E
100
AcDbEntity
  8
0
100
AcDbLine
 10
59.65305384616261
 20
116.450494999995
 30
0.0
 11
59.93748360655439
 21
116.2866130327889
 31
0.0
  0
LINE
  5
BC
330
1E
100
AcDbEntity
  8
0
100
AcDbLine
 10
60.0005
 20
116.250695
 30
0.0
 11
60.4525
 21
115.989695
 31
0.0
  0
LINE
  5
BD
330
1E
100
AcDbEntity
  8
0
100
AcDbLine
 10
59.6405
 20
116.457695
 30
0.0
 11
59.8758846153877
 21
116.3226949999979
 31
0.0
  0
LINE
  5
BE
330
1E
100
AcDbEntity
  8
0
100
AcDbLine
 10
60.18713225805949
 20
116.142927258067
 30
0.0
 11
60.4515
 21
115.989695
 31
0.0
  0
LINE
  5
BF
330
1E
100
AcDbEntity
  8
0
100
AcDbLine
 10
66.2425
 20
116.131695
 30
0.0
 11
73.43049999999999
 21
111.981695
 31
0.0
  0
LINE
  5
C0
330
1E
100
AcDbEntity
  8
0
100
AcDbLine
 10
59.6995
 20
117.599695
 30
0.0
 11
61.6055
 21
116.4996949999999
 31
0.0
  0
LINE
  5
C1
330
1E
100
AcDbEntity
  8
0
100
AcDbLine
 10
66.82850000000001
 20
116.9476949999999
 30
0.0
 11
74.5365
 21
112.4976949999999
 31
0.0
  0
LINE
  5
C2
330
1E
100
AcDbEntity
  8
0
100
AcDbLine
 10
59.2075
 20
121.3476949999999
 30
0.0
 11
66.82850000000001
 21
116.9476949999999
 31
0.0
  0
LINE
  5
C3
330
1E
100
AcDbEntity
  8
0
100
AcDbLine
 10
67.7025625000814
 20
115.288726249953
 30
0.0
 11
69.3045653027154
 21
114.3638081043029
 31
0.0
  0
LINE
  5
C4
330
1E
100
AcDbEntity
  8
0
100
AcDbLine
 10
67.7025625000814
 20
115.288726249953
 30
0.0
 11
69.30451507218879
 21
114.3637211050309
 31
0.0
  0
LINE
  5
C5
330
1E
100
AcDbEntity
  8
0
100
AcDbLine
 10
67.7025625000814
 20
115.288726249953
 30
0.0
 11
72.2175
 21
112.681695
 31
0.0
  0
LINE
  5
C6
330
1E
100
AcDbEntity
  8
0
100
AcDbLine
 10
114.1985
 20
83.593995
 30
0.0
 11
114.5254999999999
 21
84.559995
 31
0.0
  0
LINE
  5
C7
330
1E
100
AcDbEntity
  8
0
100
AcDbLine
 10
113.5755
 20
82.914495
 30
0.0
 11
114.1985
 21
83.593995
 31
0.0
  0
LINE
  5
C8
330
1E
100
AcDbEntity
  8
0
100
AcDbLine
 10
112.8924999999999
 20
82.731495
 30
0.0
 11
113.5755
 21
82.914495
 31
0.0
  0
LINE
  5
C9
330
1E
100
AcDbEntity
  8
0
100
AcDbLine
 10
111.9765
 20
83.14489499999998
 30
0.0
 11
112.8924999999999
 21
82.731495
 31
0.0
  0
LINE
  5
CA
330
1E
100
AcDbEntity
  8
0
100
AcDbLine
 10
110.2084999999999
 20
85.88729499999999
 30
0.0
 11
111.3465
 21
83.85469499999999
 31
0.0
  0
LINE
  5
CB
330
1E
100
AcDbEntity
  8
0
100
AcDbLine
 10
114.5254999999999
 20
84.559995
 30
0.0
 11
114.5665
 21
88.23129499999998
 31
0.0
  0
LINE
  5
CC
330
1E
100
AcDbEntity
  8
0
100
AcDbLine
 10
111.3465
 20
83.85469499999999
 30
0.0
 11
111.9765
 21
83.14489499999998
 31
0.0
  0
LINE
  5
CD
330
1E
100
AcDbEntity
  8
0
100
AcDbLine
 10
110.1765
 20
85.944795
 30
0.0
 11
111.3465
 21
83.85469499999999
 31
0.0
  0
LINE
  5
CE
330
1E
100
AcDbEntity
  8
0
100
AcDbLine
 10
116.5584999999999
 20
87.081295
 30
0.0
 11
117.1645
 21
86.73129499999999
 31
0.0
  0
LINE
  5
CF
330
1E
100
AcDbEntity
  8
0
100
AcDbLine
 10
117.1645
 20
86.73129499999999
 30
0.0
 11
118.5305
 21
87.09729499999999
 31
0.0
  0
LINE
  5
D0
330
1E
100
AcDbEntity
  8
0
100
AcDbLine
 10
101.5605
 20
94.00829499999998
 30
0.0
 11
101.9520073529649
 21
94.68638573533459
 31
0.0
  0
LINE
  5
D1
330
1E
100
AcDbEntity
  8
0
100
AcDbLine
 10
99.81749999999999
 20
95.591895
 30
0.0
 11
100.3175635369399
 21
96.45805505233401
 31
0.0
  0
LINE
  5
D2
330
1E
100
AcDbEntity
  8
0
100
AcDbLine
 10
99.81749999999999
 20
95.591895
 30
0.0
 11
100.2371464084659
 21
96.31876454410409
 31
0.0
  0
LINE
  5
D3
330
1E
100
AcDbEntity
  8
0
100
AcDbLine
 10
98.0855
 20
96.591895
 30
0.0
 11
98.58555393688
 21
97.4580384240698
 31
0.0
  0
LINE
  5
D4
330
1E
100
AcDbEntity
  8
0
100
AcDbLine
 10
98.0855
 20
96.591895
 30
0.0
 11
99.81749999999999
 21
95.591895
 31
0.0
  0
LINE
  5
D5
330
1E
100
AcDbEntity
  8
0
100
AcDbLine
 10
98.50850000000001
 20
95.770195
 30
0.0
 11
98.75855710251251
 21
96.2032939015517
 31
0.0
  0
LINE
  5
D6
330
1E
100
AcDbEntity
  8
0
100
AcDbLine
 10
98.50850000000001
 20
95.770195
 30
0.0
 11
100.0084999999999
 21
94.90419499999999
 31
0.0
  0
LINE
  5
D7
330
1E
100
AcDbEntity
  8
0
100
AcDbLine
 10
97.6425
 20
96.27019500000001
 30
0.0
 11
97.9451194090949
 21
96.79433181655241
 31
0.0
  0
LINE
  5
D8
330
1E
100
AcDbEntity
  8
0
100
AcDbLine
 10
97.6425
 20
96.27019500000001
 30
0.0
 11
98.50850000000001
 21
95.770195
 31
0.0
  0
LINE
  5
D9
330
1E
100
AcDbEntity
  8
0
100
AcDbLine
 10
100.0084999999999
 20
94.90419499999999
 30
0.0
 11
100.420890219204
 21
95.61845485966159
 31
0.0
  0
LINE
  5
DA
330
1E
100
AcDbEntity
  8
0
100
AcDbLine
 10
100.008553302345
 20
94.90428731966209
 30
0.0
 11
100.0604999999999
 21
94.87429499999999
 31
0.0
  0
LINE
  5
DB
330
1E
100
AcDbEntity
  8
0
100
AcDbLine
 10
100.0604999999999
 20
94.87429499999999
 30
0.0
 11
100.4061960408459
 21
95.47307511234871
 31
0.0
  0
LINE
  5
DC
330
1E
100
AcDbEntity
  8
0
100
AcDbLine
 10
100.0604999999999
 20
94.87429499999999
 30
0.0
 11
101.5605
 21
94.00829499999998
 31
0.0
  0
LINE
  5
DD
330
1E
100
AcDbEntity
  8
0
100
AcDbLine
 10
101.938129330505
 20
94.6623490004339
 30
0.0
 11
103.317913761294
 21
93.95968763456179
 31
0.0
  0
LINE
  5
DE
330
1E
100
AcDbEntity
  8
0
100
AcDbLine
 10
104.6494999999999
 20
92.801895
 30
0.0
 11
105.5155
 21
92.30189499999999
 31
0.0
  0
LINE
  5
DF
330
1E
100
AcDbEntity
  8
0
100
AcDbLine
 10
104.6494999999999
 20
92.801895
 30
0.0
 11
105.0924627099069
 21
93.56915070982978
 31
0.0
  0
LINE
  5
E0
330
1E
100
AcDbEntity
  8
0
100
AcDbLine
 10
103.1495
 20
93.66799499999999
 30
0.0
 11
103.5489439805659
 21
94.3598319743401
 31
0.0
  0
LINE
  5
E1
330
1E
100
AcDbEntity
  8
0
100
AcDbLine
 10
103.1495
 20
93.66799499999999
 30
0.0
 11
104.6494999999999
 21
92.801895
 31
0.0
  0
LINE
  5
E2
330
1E
100
AcDbEntity
  8
0
100
AcDbLine
 10
102.9614999999999
 20
94.931295
 30
0.0
 11
107.1185
 21
92.531295
 31
0.0
  0
LINE
  5
E3
330
1E
100
AcDbEntity
  8
0
100
AcDbLine
 10
96.26550000000001
 20
97.06509500000001
 30
0.0
 11
96.66225582991311
 21
97.7522760974095
 31
0.0
  0
LINE
  5
E4
330
1E
100
AcDbEntity
  8
0
100
AcDbLine
 10
97.6125
 20
96.86519500000001
 30
0.0
 11
97.9011597722399
 21
96.71819372551951
 31
0.0
  0
LINE
  5
E5
330
1E
100
AcDbEntity
  8
0
100
AcDbLine
 10
99.7663313713814
 20
96.77630885030572
 30
0.0
 11
102.9614999999999
 21
94.931295
 31
0.0
  0
LINE
  5
E6
330
1E
100
AcDbEntity
  8
0
100
AcDbLine
 10
100.0175
 20
96.631295
 30
0.0
 11
105.0405
 21
93.73129499999999
 31
0.0
  0
LINE
  5
E7
330
1E
100
AcDbEntity
  8
0
100
AcDbLine
 10
105.5155
 20
92.30189499999999
 30
0.0
 11
105.97700281165
 21
93.10126402005899
 31
0.0
  0
LINE
  5
E8
330
1E
100
AcDbEntity
  8
0
100
AcDbLine
 10
105.7558288133999
 20
92.71816853768958
 30
0.0
 11
106.640877213285
 21
92.2674536987269
 31
0.0
  0
LINE
  5
E9
330
1E
100
AcDbEntity
  8
0
100
AcDbLine
 10
105.0405
 20
93.73129499999999
 30
0.0
 11
109.3705
 21
91.23129499999999
 31
0.0
  0
LINE
  5
EA
330
1E
100
AcDbEntity
  8
0
100
AcDbLine
 10
77.78449999999999
 20
106.580695
 30
0.0
 11
78.146123603181
 21
107.2070270807099
 31
0.0
  0
LINE
  5
EB
330
1E
100
AcDbEntity
  8
0
100
AcDbLine
 10
77.78449999999999
 20
106.580695
 30
0.0
 11
78.6505
 21
106.0806949999999
 31
0.0
  0
LINE
  5
EC
330
1E
100
AcDbEntity
  8
0
100
AcDbLine
 10
76.8995
 20
107.0916949999999
 30
0.0
 11
77.7655
 21
106.591695
 31
0.0
  0
LINE
  5
ED
330
1E
100
AcDbEntity
  8
0
100
AcDbLine
 10
76.8995
 20
107.0916949999999
 30
0.0
 11
77.31729509629591
 21
107.815316106784
 31
0.0
  0
LINE
  5
EE
330
1E
100
AcDbEntity
  8
0
100
AcDbLine
 10
76.2655
 20
107.4576949999999
 30
0.0
 11
77.7655
 21
106.591695
 31
0.0
  0
LINE
  5
EF
330
1E
100
AcDbEntity
  8
0
100
AcDbLine
 10
77.7655
 20
106.591695
 30
0.0
 11
78.1219170658707
 21
107.2090093580879
 31
0.0
  0
LINE
  5
F0
330
1E
100
AcDbEntity
  8
0
100
AcDbLine
 10
77.7655
 20
106.591695
 30
0.0
 11
78.1861339039592
 21
107.320232921657
 31
0.0
  0
LINE
  5
F1
330
1E
100
AcDbEntity
  8
0
100
AcDbLine
 10
80.1505
 20
105.214695
 30
0.0
 11
80.56141375134279
 21
105.9263976173259
 31
0.0
  0
LINE
  5
F2
330
1E
100
AcDbEntity
  8
0
100
AcDbLine
 10
81.74850000000001
 20
105.4466949999999
 30
0.0
 11
81.99843699722791
 21
105.879585879199
 31
0.0
  0
LINE
  5
F3
330
1E
100
AcDbEntity
  8
0
100
AcDbLine
 10
80.55608852850959
 20
105.9171743313789
 30
0.0
 11
84.8926032928565
 21
103.6157499032269
 31
0.0
  0
LINE
  5
F4
330
1E
100
AcDbEntity
  8
0
100
AcDbLine
 10
78.1285
 20
106.9596949999999
 30
0.0
 11
78.5080284847114
 21
107.61703833552
 31
0.0
  0
LINE
  5
F5
330
1E
100
AcDbEntity
  8
0
100
AcDbLine
 10
78.1285
 20
106.9596949999999
 30
0.0
 11
79.8605
 21
105.9596949999999
 31
0.0
  0
LINE
  5
F6
330
1E
100
AcDbEntity
  8
0
100
AcDbLine
 10
79.8605
 20
105.9596949999999
 30
0.0
 11
80.11038199480779
 21
106.392490615007
 31
0.0
  0
LINE
  5
F7
330
1E
100
AcDbEntity
  8
0
100
AcDbLine
 10
80.01649999999999
 20
106.4466949999999
 30
0.0
 11
80.35066110408759
 21
107.02546203228
 31
0.0
  0
LINE
  5
F8
330
1E
100
AcDbEntity
  8
0
100
AcDbLine
 10
80.01649999999999
 20
106.4466949999999
 30
0.0
 11
81.74850000000001
 21
105.4466949999999
 31
0.0
  0
LINE
  5
F9
330
1E
100
AcDbEntity
  8
0
100
AcDbLine
 10
80.45849999999999
 20
106.7686949999999
 30
0.0
 11
80.95880040503258
 21
107.635215301516
 31
0.0
  0
LINE
  5
FA
330
1E
100
AcDbEntity
  8
0
100
AcDbLine
 10
80.45849999999999
 20
106.7686949999999
 30
0.0
 11
82.19050000000001
 21
105.7686949999999
 31
0.0
  0
LINE
  5
FB
330
1E
100
AcDbEntity
  8
0
100
AcDbLine
 10
78.6505
 20
106.0806949999999
 30
0.0
 11
78.9006180051922
 21
106.513899384993
 31
0.0
  0
LINE
  5
FC
330
1E
100
AcDbEntity
  8
0
100
AcDbLine
 10
78.6505
 20
106.0806949999999
 30
0.0
 11
80.1505
 21
105.214695
 31
0.0
  0
LINE
  5
FD
330
1E
100
AcDbEntity
  8
0
100
AcDbLine
 10
80.55608852850959
 20
105.9171743313789
 30
0.0
 11
84.8926032928565
 21
103.6157499032269
 31
0.0
  0
LINE
  5
FE
330
1E
100
AcDbEntity
  8
0
100
AcDbLine
 10
71.65049999999999
 20
110.6996949999999
 30
0.0
 11
72.3435
 21
110.299695
 31
0.0
  0
LINE
  5
FF
330
1E
100
AcDbEntity
  8
0
100
AcDbLine
 10
72.3435
 20
110.299695
 30
0.0
 11
72.6905
 21
110.099695
 31
0.0
  0
LINE
  5
100
330
1E
100
AcDbEntity
  8
0
100
AcDbLine
 10
75.39950000000001
 20
107.957695
 30
0.0
 11
75.70715066740991
 21
108.4905459559539
 31
0.0
  0
LINE
  5
101
330
1E
100
AcDbEntity
  8
0
100
AcDbLine
 10
75.39950000000001
 20
107.957695
 30
0.0
 11
76.2655
 21
107.4576949999999
 31
0.0
  0
LINE
  5
102
330
1E
100
AcDbEntity
  8
0
100
AcDbLine
 10
75.39950000000001
 20
107.957695
 30
0.0
 11
75.7833389906973
 21
108.622504131888
 31
0.0
  0
LINE
  5
103
330
1E
100
AcDbEntity
  8
0
100
AcDbLine
 10
75.39950000000001
 20
107.957695
 30
0.0
 11
76.8995
 21
107.0916949999999
 31
0.0
  0
LINE
  5
104
330
1E
100
AcDbEntity
  8
0
100
AcDbLine
 10
72.8635
 20
109.9996949999999
 30
0.0
 11
75.70715066740991
 21
108.4905459559539
 31
0.0
  0
LINE
  5
105
330
1E
100
AcDbEntity
  8
0
100
AcDbLine
 10
72.8635
 20
109.9996949999999
 30
0.0
 11
75.70715066740991
 21
108.4905459559539
 31
0.0
  0
LINE
  5
106
330
1E
100
AcDbEntity
  8
0
100
AcDbLine
 10
81.0515
 20
107.5816949999999
 30
0.0
 11
87.80649999999999
 21
103.6816949999999
 31
0.0
  0
LINE
  5
107
330
1E
100
AcDbEntity
  8
0
100
AcDbLine
 10
87.01550000000001
 20
101.828695
 30
0.0
 11
87.40080183191251
 21
102.496037772872
 31
0.0
  0
LINE
  5
108
330
1E
100
AcDbEntity
  8
0
100
AcDbLine
 10
86.1495
 20
102.3286949999999
 30
0.0
 11
87.01550000000001
 21
101.828695
 31
0.0
  0
LINE
  5
109
330
1E
100
AcDbEntity
  8
0
100
AcDbLine
 10
86.1495
 20
102.3286949999999
 30
0.0
 11
86.5210317298872
 21
102.972187956165
 31
0.0
  0
LINE
  5
10A
330
1E
100
AcDbEntity
  8
0
100
AcDbLine
 10
87.6255
 20
101.4766949999999
 30
0.0
 11
87.9521542044112
 21
102.04246008204
 31
0.0
  0
LINE
  5
10B
330
1E
100
AcDbEntity
  8
0
100
AcDbLine
 10
87.6255
 20
101.4766949999999
 30
0.0
 11
88.49149999999999
 21
100.9766949999999
 31
0.0
  0
LINE
  5
10C
330
1E
100
AcDbEntity
  8
0
100
AcDbLine
 10
89.6465
 20
100.8866949999999
 30
0.0
 11
90.0643285359918
 21
101.610374024338
 31
0.0
  0
LINE
  5
10D
330
1E
100
AcDbEntity
  8
0
100
AcDbLine
 10
89.6465
 20
100.8866949999999
 30
0.0
 11
90.014911921578
 21
101.524784448173
 31
0.0
  0
LINE
  5
10E
330
1E
100
AcDbEntity
  8
0
100
AcDbLine
 10
89.9915
 20
100.110695
 30
0.0
 11
90.36872750594
 21
100.7640530402879
 31
0.0
  0
LINE
  5
10F
330
1E
100
AcDbEntity
  8
0
100
AcDbLine
 10
87.91450000000001
 20
101.8866949999999
 30
0.0
 11
88.25770914050828
 21
102.4811332313599
 31
0.0
  0
LINE
  5
110
330
1E
100
AcDbEntity
  8
0
100
AcDbLine
 10
87.91450000000001
 20
101.8866949999999
 30
0.0
 11
89.6465
 21
100.8866949999999
 31
0.0
  0
LINE
  5
111
330
1E
100
AcDbEntity
  8
0
100
AcDbLine
 10
87.91450000000001
 20
101.8866949999999
 30
0.0
 11
88.23029912885509
 21
102.433659091177
 31
0.0
  0
LINE
  5
112
330
1E
100
AcDbEntity
  8
0
100
AcDbLine
 10
90.0905
 20
101.2076949999999
 30
0.0
 11
90.51855103471849
 21
101.949079392132
 31
0.0
  0
LINE
  5
113
330
1E
100
AcDbEntity
  8
0
100
AcDbLine
 10
90.0905
 20
101.2076949999999
 30
0.0
 11
91.82250000000001
 21
100.2076949999999
 31
0.0
  0
LINE
  5
114
330
1E
100
AcDbEntity
  8
0
100
AcDbLine
 10
88.49149999999999
 20
100.9766949999999
 30
0.0
 11
88.74129099080359
 21
101.409332996072
 31
0.0
  0
LINE
  5
115
330
1E
100
AcDbEntity
  8
0
100
AcDbLine
 10
88.49149999999999
 20
100.9766949999999
 30
0.0
 11
89.9915
 21
100.110695
 31
0.0
  0
LINE
  5
116
330
1E
100
AcDbEntity
  8
0
100
AcDbLine
 10
88.5635
 20
100.9346949999999
 30
0.0
 11
90.06350000000001
 21
100.0686949999999
 31
0.0
  0
LINE
  5
117
330
1E
100
AcDbEntity
  8
0
100
AcDbLine
 10
87.6975
 20
101.4346949999999
 30
0.0
 11
88.5635
 21
100.9346949999999
 31
0.0
  0
LINE
  5
118
330
1E
100
AcDbEntity
  8
0
100
AcDbLine
 10
90.06350000000001
 20
100.0686949999999
 30
0.0
 11
90.41830359490059
 21
100.6832148263679
 31
0.0
  0
LINE
  5
119
330
1E
100
AcDbEntity
  8
0
100
AcDbLine
 10
93.8995
 20
98.431095
 30
0.0
 11
94.21357362846711
 21
98.9749448950536
 31
0.0
  0
LINE
  5
11A
330
1E
100
AcDbEntity
  8
0
100
AcDbLine
 10
93.8995
 20
98.431095
 30
0.0
 11
95.39950000000001
 21
97.56509499999999
 31
0.0
  0
LINE
  5
11B
330
1E
100
AcDbEntity
  8
0
100
AcDbLine
 10
93.8995
 20
98.431095
 30
0.0
 11
94.76550000000001
 21
97.93109499999999
 31
0.0
  0
LINE
  5
11C
330
1E
100
AcDbEntity
  8
0
100
AcDbLine
 10
91.82250000000001
 20
100.2076949999999
 30
0.0
 11
92.30610642623359
 21
101.045301330237
 31
0.0
  0
LINE
  5
11D
330
1E
100
AcDbEntity
  8
0
100
AcDbLine
 10
90.34462905224899
 20
100.722314518495
 30
0.0
 11
94.0783527047154
 21
98.7407963434852
 31
0.0
  0
LINE
  5
11E
330
1E
100
AcDbEntity
  8
0
100
AcDbLine
 10
85.5155
 20
102.6946949999999
 30
0.0
 11
87.01550000000001
 21
101.828695
 31
0.0
  0
LINE
  5
11F
330
1E
100
AcDbEntity
  8
0
100
AcDbLine
 10
84.64949999999999
 20
103.194695
 30
0.0
 11
84.8926032928565
 21
103.6157499032269
 31
0.0
  0
LINE
  5
120
330
1E
100
AcDbEntity
  8
0
100
AcDbLine
 10
84.64949999999999
 20
103.194695
 30
0.0
 11
84.9870756242886
 21
103.779375981268
 31
0.0
  0
LINE
  5
121
330
1E
100
AcDbEntity
  8
0
100
AcDbLine
 10
84.64949999999999
 20
103.194695
 30
0.0
 11
86.1495
 21
102.3286949999999
 31
0.0
  0
LINE
  5
122
330
1E
100
AcDbEntity
  8
0
100
AcDbLine
 10
84.64949999999999
 20
103.194695
 30
0.0
 11
85.5155
 21
102.6946949999999
 31
0.0
  0
LINE
  5
123
330
1E
100
AcDbEntity
  8
0
100
AcDbLine
 10
87.30736969131729
 20
102.334213305362
 30
0.0
 11
87.92986265378809
 21
102.003851116361
 31
0.0
  0
LINE
  5
124
330
1E
100
AcDbEntity
  8
0
100
AcDbLine
 10
94.76550000000001
 20
97.93109499999999
 30
0.0
 11
96.26550000000001
 21
97.06509500000001
 31
0.0
  0
LINE
  5
125
330
1E
100
AcDbEntity
  8
0
100
AcDbLine
 10
94.2145
 20
99.98169500000001
 30
0.0
 11
100.0175
 21
96.631295
 31
0.0
  0
LINE
  5
126
330
1E
100
AcDbEntity
  8
0
100
AcDbLine
 10
87.80649999999999
 20
103.6816949999999
 30
0.0
 11
94.2145
 21
99.98169500000001
 31
0.0
  0
LINE
  5
127
330
1E
100
AcDbEntity
  8
0
100
AcDbLine
 10
95.39950000000001
 20
97.56509499999999
 30
0.0
 11
96.26550000000001
 21
97.06509500000001
 31
0.0
  0
LINE
  5
128
330
1E
100
AcDbEntity
  8
0
100
AcDbLine
 10
95.39950000000001
 20
97.56509499999999
 30
0.0
 11
95.76602937060741
 21
98.19977725814371
 31
0.0
  0
LINE
  5
129
330
1E
100
AcDbEntity
  8
0
100
AcDbLine
 10
96.49308748571959
 20
97.45927652526631
 30
0.0
 11
97.6125
 21
96.86519500000001
 31
0.0
  0
LINE
  5
12A
330
1E
100
AcDbEntity
  8
0
100
AcDbLine
 10
95.2345
 20
100.5476949999999
 30
0.0
 11
101.1235
 21
97.147295
 31
0.0
  0
LINE
  5
12B
330
1E
100
AcDbEntity
  8
0
100
AcDbLine
 10
82.19050000000001
 20
105.7686949999999
 30
0.0
 11
82.6908131478507
 21
106.635237372077
 31
0.0
  0
LINE
  5
12C
330
1E
100
AcDbEntity
  8
0
100
AcDbLine
 10
88.7395
 20
104.2976949999999
 30
0.0
 11
95.2345
 21
100.5476949999999
 31
0.0
  0
LINE
  5
12D
330
1E
100
AcDbEntity
  8
0
100
AcDbLine
 10
81.8975
 20
108.247695
 30
0.0
 11
88.7395
 21
104.2976949999999
 31
0.0
  0
LINE
  5
12E
330
1E
100
AcDbEntity
  8
0
100
AcDbLine
 10
101.1235
 20
97.147295
 30
0.0
 11
106.2335
 21
94.197295
 31
0.0
  0
LINE
  5
12F
330
1E
100
AcDbEntity
  8
0
100
AcDbLine
 10
115.0865
 20
87.93129499999999
 30
0.0
 11
116.5584999999999
 21
87.081295
 31
0.0
  0
LINE
  5
130
330
1E
100
AcDbEntity
  8
0
100
AcDbLine
 10
112.1384999999999
 20
88.47819499999999
 30
0.0
 11
112.5978644404459
 21
89.27381421085328
 31
0.0
  0
LINE
  5
131
330
1E
100
AcDbEntity
  8
0
100
AcDbLine
 10
112.5877197723609
 20
89.25624364572959
 30
0.0
 11
114.5665
 21
88.23129499999998
 31
0.0
  0
LINE
  5
132
330
1E
100
AcDbEntity
  8
0
100
AcDbLine
 10
114.0465
 20
88.53129499999999
 30
0.0
 11
114.5665
 21
88.23129499999998
 31
0.0
  0
LINE
  5
133
330
1E
100
AcDbEntity
  8
0
100
AcDbLine
 10
116.3655
 20
88.34729499999999
 30
0.0
 11
117.9244999999999
 21
87.447295
 31
0.0
  0
LINE
  5
134
330
1E
100
AcDbEntity
  8
0
100
AcDbLine
 10
118.7785399552969
 20
87.52690965171499
 30
0.0
 11
132.6835
 21
67.61019499999999
 31
0.0
  0
LINE
  5
135
330
1E
100
AcDbEntity
  8
0
100
AcDbLine
 10
117.9244999999999
 20
87.447295
 30
0.0
 11
118.5305
 21
87.09729499999999
 31
0.0
  0
LINE
  5
136
330
1E
100
AcDbEntity
  8
0
100
AcDbLine
 10
106.6302722061339
 20
92.28631622838491
 30
0.0
 11
110.2084999999999
 21
85.88729499999999
 31
0.0
  0
LINE
  5
137
330
1E
100
AcDbEntity
  8
0
100
AcDbLine
 10
106.615327409625
 20
92.3131437222694
 30
0.0
 11
110.1765
 21
85.944795
 31
0.0
  0
LINE
  5
138
330
1E
100
AcDbEntity
  8
0
100
AcDbLine
 10
106.2335
 20
94.197295
 30
0.0
 11
110.5635
 21
91.697295
 31
0.0
  0
LINE
  5
139
330
1E
100
AcDbEntity
  8
0
100
AcDbLine
 10
108.0515
 20
90.837795
 30
0.0
 11
108.496045631961
 21
91.6077924891204
 31
0.0
  0
LINE
  5
13A
330
1E
100
AcDbEntity
  8
0
100
AcDbLine
 10
108.0515
 20
90.837795
 30
0.0
 11
109.5515
 21
89.97179499999999
 31
0.0
  0
LINE
  5
13B
330
1E
100
AcDbEntity
  8
0
100
AcDbLine
 10
109.5515
 20
89.97179499999999
 30
0.0
 11
110.045535834822
 21
90.8274650659117
 31
0.0
  0
LINE
  5
13C
330
1E
100
AcDbEntity
  8
0
100
AcDbLine
 10
110.6384999999999
 20
89.344195
 30
0.0
 11
111.054580677752
 21
90.06484673386557
 31
0.0
  0
LINE
  5
13D
330
1E
100
AcDbEntity
  8
0
100
AcDbLine
 10
110.6384999999999
 20
89.344195
 30
0.0
 11
112.1384999999999
 21
88.47819499999999
 31
0.0
  0
LINE
  5
13E
330
1E
100
AcDbEntity
  8
0
100
AcDbLine
 10
109.7725
 20
89.84419499999999
 30
0.0
 11
110.1635784501479
 21
90.5215428756562
 31
0.0
  0
LINE
  5
13F
330
1E
100
AcDbEntity
  8
0
100
AcDbLine
 10
109.7725
 20
89.84419499999999
 30
0.0
 11
110.6384999999999
 21
89.344195
 31
0.0
  0
LINE
  5
140
330
1E
100
AcDbEntity
  8
0
100
AcDbLine
 10
107.1855
 20
91.33779500000001
 30
0.0
 11
107.601472925428
 21
92.05830170413401
 31
0.0
  0
LINE
  5
141
330
1E
100
AcDbEntity
  8
0
100
AcDbLine
 10
107.1855
 20
91.33779500000001
 30
0.0
 11
108.0515
 21
90.837795
 31
0.0
  0
LINE
  5
142
330
1E
100
AcDbEntity
  8
0
100
AcDbLine
 10
109.3705
 20
91.23129499999999
 30
0.0
 11
112.5744999999999
 21
89.381295
 31
0.0
  0
LINE
  5
143
330
1E
100
AcDbEntity
  8
0
100
AcDbLine
 10
112.5744999999999
 20
89.381295
 30
0.0
 11
115.0865
 21
87.93129499999999
 31
0.0
  0
LINE
  5
144
330
1E
100
AcDbEntity
  8
0
100
AcDbLine
 10
112.5744999999999
 20
89.381295
 30
0.0
 11
114.0465
 21
88.53129499999999
 31
0.0
  0
LINE
  5
145
330
1E
100
AcDbEntity
  8
0
100
AcDbLine
 10
110.5635
 20
91.697295
 30
0.0
 11
113.9405
 21
89.747295
 31
0.0
  0
LINE
  5
146
330
1E
100
AcDbEntity
  8
0
100
AcDbLine
 10
113.9405
 20
89.747295
 30
0.0
 11
116.3655
 21
88.34729499999999
 31
0.0
  0
LINE
  5
147
330
1E
100
AcDbEntity
  8
0
100
AcDbLine
 10
126.8655
 20
106.533695
 30
0.0
 11
128.4245
 21
105.6336949999999
 31
0.0
  0
LINE
  5
148
330
1E
100
AcDbEntity
  8
0
100
AcDbLine
 10
128.4245
 20
105.6336949999999
 30
0.0
 11
129.0304999999999
 21
105.2836949999999
 31
0.0
  0
LINE
  5
149
330
1E
100
AcDbEntity
  8
0
100
AcDbLine
 10
124.4404999999999
 20
107.933695
 30
0.0
 11
126.8655
 21
106.533695
 31
0.0
  0
LINE
  5
14A
330
1E
100
AcDbEntity
  8
0
100
AcDbLine
 10
121.0635
 20
109.8836949999999
 30
0.0
 11
124.4404999999999
 21
107.933695
 31
0.0
  0
LINE
  5
14B
330
1E
100
AcDbEntity
  8
0
100
AcDbLine
 10
120.8705
 20
111.149695
 30
0.0
 11
124.0744999999999
 21
109.299695
 31
0.0
  0
LINE
  5
14C
330
1E
100
AcDbEntity
  8
0
100
AcDbLine
 10
124.0744999999999
 20
109.299695
 30
0.0
 11
126.5865
 21
107.8496949999999
 31
0.0
  0
LINE
  5
14D
330
1E
100
AcDbEntity
  8
0
100
AcDbLine
 10
126.5865
 20
107.8496949999999
 30
0.0
 11
128.0585
 21
106.9996949999999
 31
0.0
  0
LINE
  5
14E
330
1E
100
AcDbEntity
  8
0
100
AcDbLine
 10
128.0585
 20
106.9996949999999
 30
0.0
 11
128.6645
 21
106.6496949999999
 31
0.0
  0
LINE
  5
14F
330
1E
100
AcDbEntity
  8
0
100
AcDbLine
 10
107.1185
 20
92.531295
 30
0.0
 11
107.6855540365049
 21
92.2039385966298
 31
0.0
  0
LINE
  5
150
330
1E
100
AcDbEntity
  8
0
100
AcDbLine
 10
107.1185
 20
92.531295
 30
0.0
 11
109.953045454429
 21
90.89493136370359
 31
0.0
  0
LINE
  5
151
330
1E
100
AcDbEntity
  8
0
100
AcDbLine
 10
112.7404108143799
 20
89.28549052158761
 30
0.0
 11
114.0465
 21
88.53129499999999
 31
0.0
  0
LINE
  5
152
330
1E
100
AcDbEntity
  8
0
100
AcDbLine
 10
106.015680550126
 20
93.16825773087391
 30
0.0
 11
107.685635850095
 21
92.2040803059497
 31
0.0
  0
LINE
  5
153
330
1E
100
AcDbEntity
  8
0
100
AcDbLine
 10
118.5305
 20
87.09729499999999
 30
0.0
 11
118.7785399552969
 21
87.52690965171499
 31
0.0
  0
LINE
  5
154
330
1E
100
AcDbEntity
  8
0
100
AcDbLine
 10
130.9834999999999
 20
64.665695
 30
0.0
 11
131.6835
 21
65.87819499999999
 31
0.0
  0
LINE
  5
155
330
1E
100
AcDbEntity
  8
0
100
AcDbLine
 10
131.6835
 20
65.87819499999999
 30
0.0
 11
132.7835
 21
67.783395
 31
0.0
  0
LINE
  5
156
330
1E
100
AcDbEntity
  8
0
100
AcDbLine
 10
132.7835
 20
67.783395
 30
0.0
 11
134.2335
 21
70.294895
 31
0.0
  0
LINE
  5
157
330
1E
100
AcDbEntity
  8
0
100
AcDbLine
 10
132.92850000011
 20
68.0345450001912
 30
0.0
 11
133.3334999999999
 21
68.73609499999999
 31
0.0
  0
LINE
  5
158
330
1E
100
AcDbEntity
  8
0
100
AcDbLine
 10
133.3334999999999
 20
68.73609499999999
 30
0.0
 11
134.1334999999999
 21
70.12169499999998
 31
0.0
  0
LINE
  5
159
330
1E
100
AcDbEntity
  8
0
100
AcDbLine
 10
130.7334999999999
 20
64.23269499999999
 30
0.0
 11
130.9834999999999
 21
64.665695
 31
0.0
  0
LINE
  5
15A
330
1E
100
AcDbEntity
  8
0
100
AcDbLine
 10
130.7334999999999
 20
64.23269499999999
 30
0.0
 11
175.6714999999999
 21
0.0672850000000101
 31
0.0
  0
LINE
  5
15B
330
1E
100
AcDbEntity
  8
0
100
AcDbLine
 10
130.7334999999999
 20
64.23269499999999
 30
0.0
 11
175.6714999999999
 21
0.0672850000000086
 31
0.0
  0
LINE
  5
15C
330
1E
100
AcDbEntity
  8
0
100
AcDbLine
 10
134.2335
 20
70.294895
 30
0.0
 11
135.8835
 21
73.15279499999999
 31
0.0
  0
LINE
  5
15D
330
1E
100
AcDbEntity
  8
0
100
AcDbLine
 10
134.1334999999999
 20
70.12169499999998
 30
0.0
 11
135.1835
 21
71.94039499999999
 31
0.0
  0
LINE
  5
15E
330
1E
100
AcDbEntity
  8
0
100
AcDbLine
 10
135.8835
 20
73.15279499999999
 30
0.0
 11
137.6335
 21
76.18389499999999
 31
0.0
  0
LINE
  5
15F
330
1E
100
AcDbEntity
  8
0
100
AcDbLine
 10
135.1835
 20
71.94039499999999
 30
0.0
 11
135.8835
 21
73.15279499999999
 31
0.0
  0
LINE
  5
160
330
1E
100
AcDbEntity
  8
0
100
AcDbLine
 10
139.4335
 20
79.30159499999999
 30
0.0
 11
141.0834999999999
 21
82.15949499999998
 31
0.0
  0
LINE
  5
161
330
1E
100
AcDbEntity
  8
0
100
AcDbLine
 10
141.0834999999999
 20
82.15949499999998
 30
0.0
 11
142.5335
 21
84.670895
 31
0.0
  0
LINE
  5
162
330
1E
100
AcDbEntity
  8
0
100
AcDbLine
 10
138.9335
 20
78.43559499999999
 30
0.0
 11
139.433499999828
 21
79.30159499970129
 31
0.0
  0
LINE
  5
163
330
1E
100
AcDbEntity
  8
0
100
AcDbLine
 10
142.5335
 20
84.670895
 30
0.0
 11
143.6334999999999
 21
86.576195
 31
0.0
  0
LINE
  5
164
330
1E
100
AcDbEntity
  8
0
100
AcDbLine
 10
177.0465
 20
-0.149694999999992
 30
0.0
 11
177.4205
 21
0.096715000000009
 31
0.0
  0
LINE
  5
165
330
1E
100
AcDbEntity
  8
0
100
AcDbLine
 10
177.0465
 20
-0.149694999999992
 30
0.0
 11
177.4205
 21
0.096715000000009
 31
0.0
  0
LINE
  5
166
330
1E
100
AcDbEntity
  8
0
100
AcDbLine
 10
175.6714999999999
 20
0.0672850000000086
 30
0.0
 11
176.0945
 21
0.400305000000008
 31
0.0
  0
LINE
  5
167
330
1E
100
AcDbEntity
  8
0
100
AcDbLine
 10
175.6714999999999
 20
0.0672850000000086
 30
0.0
 11
177.0465
 21
-0.149694999999992
 31
0.0
  0
LINE
  5
168
330
1E
100
AcDbEntity
  8
0
100
AcDbLine
 10
176.0945
 20
0.400305000000008
 30
0.0
 11
177.0774999999999
 21
1.102925000000009
 31
0.0
  0
LINE
  5
169
330
1E
100
AcDbEntity
  8
0
100
AcDbLine
 10
177.4205
 20
0.096715000000009
 30
0.0
 11
178.3535
 21
0.7127350000000079
 31
0.0
  0
LINE
  5
16A
330
1E
100
AcDbEntity
  8
0
100
AcDbLine
 10
177.0774999999999
 20
1.102925000000009
 30
0.0
 11
178.6704999999999
 21
2.261775000000009
 31
0.0
  0
LINE
  5
16B
330
1E
100
AcDbEntity
  8
0
100
AcDbLine
 10
175.6714999999999
 20
0.0672850000000086
 30
0.0
 11
177.0465
 21
-0.149694999999992
 31
0.0
  0
LINE
  5
16C
330
1E
100
AcDbEntity
  8
0
100
AcDbLine
 10
175.6714999999999
 20
0.0672850000000086
 30
0.0
 11
176.0945
 21
0.400305000000008
 31
0.0
  0
LINE
  5
16D
330
1E
100
AcDbEntity
  8
0
100
AcDbLine
 10
178.3535
 20
0.7127350000000092
 30
0.0
 11
186.4035
 21
6.456965000000009
 31
0.0
  0
LINE
  5
16E
330
1E
100
AcDbEntity
  8
0
100
AcDbLine
 10
179.8095
 20
1.83497500000001
 30
0.0
 11
181.7755
 21
3.240235000000009
 31
0.0
  0
LINE
  5
16F
330
1E
100
AcDbEntity
  8
0
100
AcDbLine
 10
178.6704999999999
 20
2.261775000000009
 30
0.0
 11
180.7724999999999
 21
3.703635000000009
 31
0.0
  0
LINE
  5
170
330
1E
100
AcDbEntity
  8
0
100
AcDbLine
 10
181.7755
 20
3.240235000000009
 30
0.0
 11
184.0645
 21
4.805305000000009
 31
0.0
  0
LINE
  5
171
330
1E
100
AcDbEntity
  8
0
100
AcDbLine
 10
184.0645
 20
4.805305000000009
 30
0.0
 11
186.4035
 21
6.456965000000009
 31
0.0
  0
LINE
  5
172
330
1E
100
AcDbEntity
  8
0
100
AcDbLine
 10
180.7724999999999
 20
3.703635000000009
 30
0.0
 11
183.2984999999999
 21
5.478505000000009
 31
0.0
  0
LINE
  5
173
330
1E
100
AcDbEntity
  8
0
100
AcDbLine
 10
183.2984999999999
 20
5.478505000000009
 30
0.0
 11
185.8745
 21
7.339975000000009
 31
0.0
  0
LINE
  5
174
330
1E
100
AcDbEntity
  8
0
100
AcDbLine
 10
186.4035
 20
6.456965000000009
 30
0.0
 11
188.8795
 21
8.14523500000001
 31
0.0
  0
LINE
  5
175
330
1E
100
AcDbEntity
  8
0
100
AcDbLine
 10
188.8795
 20
8.14523500000001
 30
0.0
 11
191.1685
 21
9.710295000000009
 31
0.0
  0
LINE
  5
176
330
1E
100
AcDbEntity
  8
0
100
AcDbLine
 10
185.8745
 20
7.339975000000009
 30
0.0
 11
188.5365
 21
9.151495000000009
 31
0.0
  0
LINE
  5
177
330
1E
100
AcDbEntity
  8
0
100
AcDbLine
 10
188.5365
 20
9.151495000000009
 30
0.0
 11
191.0124999999999
 21
10.839695
 31
0.0
  0
LINE
  5
178
330
1E
100
AcDbEntity
  8
0
100
AcDbLine
 10
191.1685
 20
9.710295000000009
 30
0.0
 11
193.1345
 21
11.115595
 31
0.0
  0
LINE
  5
179
330
1E
100
AcDbEntity
  8
0
100
AcDbLine
 10
193.1345
 20
11.115595
 30
0.0
 11
194.6775
 21
12.187795
 31
0.0
  0
LINE
  5
17A
330
1E
100
AcDbEntity
  8
0
100
AcDbLine
 10
194.6775
 20
12.187795
 30
0.0
 11
195.5244999999999
 21
12.853795
 31
0.0
  0
LINE
  5
17B
330
1E
100
AcDbEntity
  8
0
100
AcDbLine
 10
191.0124999999999
 20
10.839695
 30
0.0
 11
193.1655
 21
12.368195
 31
0.0
  0
LINE
  5
17C
330
1E
100
AcDbEntity
  8
0
100
AcDbLine
 10
195.355871885337
 20
12.721201936995
 30
0.0
 11
195.8975
 21
13.100195
 31
0.0
  0
LINE
  5
17D
330
1E
100
AcDbEntity
  8
0
100
AcDbLine
 10
193.1655
 20
12.368195
 30
0.0
 11
194.7585
 21
13.526995
 31
0.0
  0
LINE
  5
17E
330
1E
100
AcDbEntity
  8
0
100
AcDbLine
 10
178.3535
 20
0.7127350000000079
 30
0.0
 11
186.4035
 21
6.456965000000009
 31
0.0
  0
LINE
  5
17F
330
1E
100
AcDbEntity
  8
0
100
AcDbLine
 10
178.3535
 20
0.7127350000000079
 30
0.0
 11
179.8095
 21
1.83497500000001
 31
0.0
  0
LINE
  5
180
330
1E
100
AcDbEntity
  8
0
100
AcDbLine
 10
195.5244999999999
 20
12.853795
 30
0.0
 11
195.8975
 21
13.100195
 31
0.0
  0
LINE
  5
181
330
1E
100
AcDbEntity
  8
0
100
AcDbLine
 10
195.355871885337
 20
12.721201936995
 30
0.0
 11
195.8975
 21
13.100195
 31
0.0
  0
LINE
  5
182
330
1E
100
AcDbEntity
  8
0
100
AcDbLine
 10
177.4205
 20
0.096715000000009
 30
0.0
 11
178.3535
 21
0.7127350000000079
 31
0.0
  0
LINE
  5
183
330
1E
100
AcDbEntity
  8
0
100
AcDbLine
 10
194.7585
 20
13.526995
 30
0.0
 11
195.7415
 21
14.229695
 31
0.0
  0
LINE
  5
184
330
1E
100
AcDbEntity
  8
0
100
AcDbLine
 10
195.7415
 20
14.229695
 30
0.0
 11
196.1144999999999
 21
14.476095
 31
0.0
  0
LINE
  5
185
330
1E
100
AcDbEntity
  8
0
100
AcDbLine
 10
195.8975
 20
13.100195
 30
0.0
 11
196.1144999999999
 21
14.476095
 31
0.0
  0
LINE
  5
186
330
1E
100
AcDbEntity
  8
0
100
AcDbLine
 10
142.6334971271699
 20
84.84409911490558
 30
0.0
 11
143.6334999999999
 21
86.576195
 31
0.0
  0
LINE
  5
187
330
1E
100
AcDbEntity
  8
0
100
AcDbLine
 10
144.2835
 20
87.701995
 30
0.0
 11
144.5335
 21
88.13499499999998
 31
0.0
  0
LINE
  5
188
330
1E
100
AcDbEntity
  8
0
100
AcDbLine
 10
144.5335
 20
88.13499499999998
 30
0.0
 11
196.1144999999999
 21
14.476095
 31
0.0
  0
LINE
  5
189
330
1E
100
AcDbEntity
  8
0
100
AcDbLine
 10
144.5335
 20
88.13499499999998
 30
0.0
 11
196.1144999999999
 21
14.476095
 31
0.0
  0
LINE
  5
18A
330
1E
100
AcDbEntity
  8
0
100
AcDbLine
 10
143.6334999999999
 20
86.576195
 30
0.0
 11
144.2835
 21
87.701995
 31
0.0
  0
LINE
  5
18B
330
1E
100
AcDbEntity
  8
0
100
AcDbLine
 10
137.6335
 20
76.18389499999999
 30
0.0
 11
138.9335
 21
78.43559499999999
 31
0.0
  0
LINE
  5
18C
330
1E
100
AcDbEntity
  8
0
100
AcDbLine
 10
137.6335
 20
76.18389499999999
 30
0.0
 11
139.4335
 21
79.30159499999999
 31
0.0
  0
LINE
  5
18D
330
1E
100
AcDbEntity
  8
0
100
AcDbLine
 10
128.7160842331469
 20
104.778738635522
 30
0.0
 11
142.6334971271699
 21
84.84409911490558
 31
0.0
  0
LINE
  5
18E
330
1E
100
AcDbEntity
  8
0
100
AcDbLine
 10
128.7286059878829
 20
104.760803070289
 30
0.0
 11
129.0304999999999
 21
105.2836949999999
 31
0.0
  0
LINE
  5
18F
330
1E
100
AcDbEntity
  8
0
100
AcDbLine
 10
128.6645
 20
106.6496949999999
 30
0.0
 11
129.0304999999999
 21
105.2836949999999
 31
0.0
  0
LINE
  5
190
330
1E
100
AcDbEntity
  8
0
100
AcDbLine
 10
74.5365
 20
112.4976949999999
 30
0.0
 11
81.8975
 21
108.247695
 31
0.0
  0
LINE
  5
191
330
1E
100
AcDbEntity
  8
0
100
AcDbLine
 10
116.7335
 20
112.3836949999999
 30
0.0
 11
121.0635
 21
109.8836949999999
 31
0.0
  0
LINE
  5
192
330
1E
100
AcDbEntity
  8
0
100
AcDbLine
 10
99.23950000000001
 20
122.483695
 30
0.0
 11
105.7344999999999
 21
118.7336949999999
 31
0.0
  0
LINE
  5
193
330
1E
100
AcDbEntity
  8
0
100
AcDbLine
 10
105.7344999999999
 20
118.7336949999999
 30
0.0
 11
111.6235
 21
115.3336949999999
 31
0.0
  0
LINE
  5
194
330
1E
100
AcDbEntity
  8
0
100
AcDbLine
 10
105.7145
 20
119.8996949999999
 30
0.0
 11
111.5175
 21
116.549695
 31
0.0
  0
LINE
  5
195
330
1E
100
AcDbEntity
  8
0
100
AcDbLine
 10
99.30649999999999
 20
123.599695
 30
0.0
 11
105.7145
 21
119.8996949999999
 31
0.0
  0
LINE
  5
196
330
1E
100
AcDbEntity
  8
0
100
AcDbLine
 10
111.6235
 20
115.3336949999999
 30
0.0
 11
116.7335
 21
112.3836949999999
 31
0.0
  0
LINE
  5
197
330
1E
100
AcDbEntity
  8
0
100
AcDbLine
 10
111.5175
 20
116.549695
 30
0.0
 11
116.5405
 21
113.6496949999999
 31
0.0
  0
LINE
  5
198
330
1E
100
AcDbEntity
  8
0
100
AcDbLine
 10
116.5405
 20
113.6496949999999
 30
0.0
 11
120.8705
 21
111.149695
 31
0.0
  0
LINE
  5
199
330
1E
100
AcDbEntity
  8
0
100
AcDbLine
 10
72.2175
 20
112.681695
 30
0.0
 11
77.7853571427201
 21
109.4674092857929
 31
0.0
  0
LINE
  5
19A
330
1E
100
AcDbEntity
  8
0
100
AcDbLine
 10
73.43049999999999
 20
111.981695
 30
0.0
 11
77.7853571427201
 21
109.4674092857929
 31
0.0
  0
LINE
  5
19B
330
1E
100
AcDbEntity
  8
0
100
AcDbLine
 10
73.43049999999999
 20
111.981695
 30
0.0
 11
77.7853571427201
 21
109.4674092857929
 31
0.0
  0
LINE
  5
19C
330
1E
100
AcDbEntity
  8
0
100
AcDbLine
 10
73.43049999999999
 20
111.981695
 30
0.0
 11
81.0515
 21
107.5816949999999
 31
0.0
  0
LINE
  5
19D
330
1E
100
AcDbEntity
  8
0
100
AcDbLine
 10
71.22864169002459
 20
113.2529404071229
 30
0.0
 11
73.43049999999999
 21
111.981695
 31
0.0
  0
LINE
  5
19E
330
1E
100
AcDbEntity
  8
0
100
AcDbLine
 10
46.24649999999999
 20
125.3666949999999
 30
0.0
 11
47.97849999999999
 21
124.3666949999999
 31
0.0
  0
LINE
  5
19F
330
1E
100
AcDbEntity
  8
0
100
AcDbLine
 10
46.24649999999999
 20
125.3666949999999
 30
0.0
 11
46.4962499889995
 21
125.7992619809469
 31
0.0
  0
LINE
  5
1A0
330
1E
100
AcDbEntity
  8
0
100
AcDbLine
 10
47.3615
 20
125.2996949999999
 30
0.0
 11
47.6804935872389
 21
125.8521918930979
 31
0.0
  0
LINE
  5
1A1
330
1E
100
AcDbEntity
  8
0
100
AcDbLine
 10
45.62949999999999
 20
126.299695
 30
0.0
 11
47.3615
 21
125.2996949999999
 31
0.0
  0
LINE
  5
1A2
330
1E
100
AcDbEntity
  8
0
100
AcDbLine
 10
45.62949999999999
 20
126.299695
 30
0.0
 11
45.8795630027721
 21
126.7328041208009
 31
0.0
  0
LINE
  5
1A3
330
1E
100
AcDbEntity
  8
0
100
AcDbLine
 10
47.4195
 20
125.8436949999999
 30
0.0
 11
47.91980338051189
 21
126.710220455047
 31
0.0
  0
LINE
  5
1A4
330
1E
100
AcDbEntity
  8
0
100
AcDbLine
 10
45.6875
 20
126.8436949999999
 30
0.0
 11
47.4195
 21
125.8436949999999
 31
0.0
  0
LINE
  5
1A5
330
1E
100
AcDbEntity
  8
0
100
AcDbLine
 10
45.6875
 20
126.8436949999999
 30
0.0
 11
46.12876614672219
 21
127.607967966123
 31
0.0
  0
LINE
  5
1A6
330
1E
100
AcDbEntity
  8
0
100
AcDbLine
 10
45.3225
 20
125.3226949999999
 30
0.0
 11
46.22217124215829
 21
124.803254329008
 31
0.0
  0
LINE
  5
1A7
330
1E
100
AcDbEntity
  8
0
100
AcDbLine
 10
45.3225
 20
125.3226949999999
 30
0.0
 11
45.5727476702079
 21
125.7561239648
 31
0.0
  0
LINE
  5
1A8
330
1E
100
AcDbEntity
  8
0
100
AcDbLine
 10
45.3225
 20
125.3226949999999
 30
0.0
 11
47.05449999999999
 21
124.3226949999999
 31
0.0
  0
LINE
  5
1A9
330
1E
100
AcDbEntity
  8
0
100
AcDbLine
 10
45.3225
 20
125.3226949999999
 30
0.0
 11
45.762441285988
 21
126.0846733073309
 31
0.0
  0
LINE
  5
1AA
330
1E
100
AcDbEntity
  8
0
100
AcDbLine
 10
45.3225
 20
125.3226949999999
 30
0.0
 11
45.71250989727761
 21
125.998192142085
 31
0.0
  0
LINE
  5
1AB
330
1E
100
AcDbEntity
  8
0
100
AcDbLine
 10
43.07249999999999
 20
127.1996949999999
 30
0.0
 11
43.7645
 21
126.799695
 31
0.0
  0
LINE
  5
1AC
330
1E
100
AcDbEntity
  8
0
100
AcDbLine
 10
42.5525
 20
127.499695
 30
0.0
 11
42.72549999999999
 21
127.3996949999999
 31
0.0
  0
LINE
  5
1AD
330
1E
100
AcDbEntity
  8
0
100
AcDbLine
 10
39.5155
 20
128.6746949999999
 30
0.0
 11
39.8997015041406
 21
129.340132005172
 31
0.0
  0
LINE
  5
1AE
330
1E
100
AcDbEntity
  8
0
100
AcDbLine
 10
45.1975
 20
128.2816949999999
 30
0.0
 11
46.1876921117561
 21
127.7100277375619
 31
0.0
  0
LINE
  5
1AF
330
1E
100
AcDbEntity
  8
0
100
AcDbLine
 10
45.1975
 20
128.2816949999999
 30
0.0
 11
51.3465
 21
124.731695
 31
0.0
  0
LINE
  5
1B0
330
1E
100
AcDbEntity
  8
0
100
AcDbLine
 10
48.1117864070792
 20
126.599191057061
 30
0.0
 11
51.3465
 21
124.731695
 31
0.0
  0
LINE
  5
1B1
330
1E
100
AcDbEntity
  8
0
100
AcDbLine
 10
27.7905
 20
136.0216949999999
 30
0.0
 11
28.11767771671199
 21
136.588366805345
 31
0.0
  0
LINE
  5
1B2
330
1E
100
AcDbEntity
  8
0
100
AcDbLine
 10
26.9245
 20
136.5216949999999
 30
0.0
 11
27.7905
 21
136.0216949999999
 31
0.0
  0
LINE
  5
1B3
330
1E
100
AcDbEntity
  8
0
100
AcDbLine
 10
26.9245
 20
136.5216949999999
 30
0.0
 11
27.1747090091964
 21
136.955057003928
 31
0.0
  0
LINE
  5
1B4
330
1E
100
AcDbEntity
  8
0
100
AcDbLine
 10
28.0015
 20
136.4776949999999
 30
0.0
 11
28.3445652995948
 21
137.0718840988979
 31
0.0
  0
LINE
  5
1B5
330
1E
100
AcDbEntity
  8
0
100
AcDbLine
 10
29.2655
 20
135.169695
 30
0.0
 11
29.6373071623427
 21
135.8140368123399
 31
0.0
  0
LINE
  5
1B6
330
1E
100
AcDbEntity
  8
0
100
AcDbLine
 10
29.2655
 20
135.169695
 30
0.0
 11
30.7655
 21
134.303695
 31
0.0
  0
LINE
  5
1B7
330
1E
100
AcDbEntity
  8
0
100
AcDbLine
 10
30.7655
 20
134.303695
 30
0.0
 11
31.103355386496
 21
134.889198384798
 31
0.0
  0
LINE
  5
1B8
330
1E
100
AcDbEntity
  8
0
100
AcDbLine
 10
28.39949999999999
 20
135.6696949999999
 30
0.0
 11
29.2655
 21
135.169695
 31
0.0
  0
LINE
  5
1B9
330
1E
100
AcDbEntity
  8
0
100
AcDbLine
 10
28.39949999999999
 20
135.6696949999999
 30
0.0
 11
28.78503532141889
 21
136.3378277120189
 31
0.0
  0
LINE
  5
1BA
330
1E
100
AcDbEntity
  8
0
100
AcDbLine
 10
28.0951988757067
 20
136.549433452724
 30
0.0
 11
28.6916864775687
 21
136.1760541656269
 31
0.0
  0
LINE
  5
1BB
330
1E
100
AcDbEntity
  8
0
100
AcDbLine
 10
26.2905
 20
136.887695
 30
0.0
 11
27.7905
 21
136.0216949999999
 31
0.0
  0
LINE
  5
1BC
330
1E
100
AcDbEntity
  8
0
100
AcDbLine
 10
28.0951988757067
 20
136.549433452724
 30
0.0
 11
28.6916864775687
 21
136.1760541656269
 31
0.0
  0
LINE
  5
1BD
330
1E
100
AcDbEntity
  8
0
100
AcDbLine
 10
34.16749999999999
 20
132.917695
 30
0.0
 11
35.8995
 21
131.917695
 31
0.0
  0
LINE
  5
1BE
330
1E
100
AcDbEntity
  8
0
100
AcDbLine
 10
34.16749999999999
 20
132.917695
 30
0.0
 11
34.41756300277219
 21
133.350804120801
 31
0.0
  0
LINE
  5
1BF
330
1E
100
AcDbEntity
  8
0
100
AcDbLine
 10
34.22549999999999
 20
133.461695
 30
0.0
 11
35.9575
 21
132.461695
 31
0.0
  0
LINE
  5
1C0
330
1E
100
AcDbEntity
  8
0
100
AcDbLine
 10
34.22549999999999
 20
133.461695
 30
0.0
 11
34.7256198744075
 21
134.327902622474
 31
0.0
  0
LINE
  5
1C1
330
1E
100
AcDbEntity
  8
0
100
AcDbLine
 10
34.22549999999999
 20
133.461695
 30
0.0
 11
34.57572672718169
 21
134.0682876914789
 31
0.0
  0
LINE
  5
1C2
330
1E
100
AcDbEntity
  8
0
100
AcDbLine
 10
34.7655
 20
131.417695
 30
0.0
 11
35.6315
 21
130.917695
 31
0.0
  0
LINE
  5
1C3
330
1E
100
AcDbEntity
  8
0
100
AcDbLine
 10
34.7655
 20
131.417695
 30
0.0
 11
35.1763481987781
 21
132.129284080284
 31
0.0
  0
LINE
  5
1C4
330
1E
100
AcDbEntity
  8
0
100
AcDbLine
 10
34.7655
 20
131.417695
 30
0.0
 11
36.2655
 21
130.5516949999999
 31
0.0
  0
LINE
  5
1C5
330
1E
100
AcDbEntity
  8
0
100
AcDbLine
 10
35.6315
 20
130.917695
 30
0.0
 11
37.1315
 21
130.051695
 31
0.0
  0
LINE
  5
1C6
330
1E
100
AcDbEntity
  8
0
100
AcDbLine
 10
35.5555
 20
131.5386949999999
 30
0.0
 11
37.2875
 21
130.5386949999999
 31
0.0
  0
LINE
  5
1C7
330
1E
100
AcDbEntity
  8
0
100
AcDbLine
 10
35.5555
 20
131.5386949999999
 30
0.0
 11
35.8056180051922
 21
131.971899384993
 31
0.0
  0
LINE
  5
1C8
330
1E
100
AcDbEntity
  8
0
100
AcDbLine
 10
36.2655
 20
130.5516949999999
 30
0.0
 11
37.1315
 21
130.051695
 31
0.0
  0
LINE
  5
1C9
330
1E
100
AcDbEntity
  8
0
100
AcDbLine
 10
36.2655
 20
130.5516949999999
 30
0.0
 11
36.51538199480779
 21
130.9844906150069
 31
0.0
  0
LINE
  5
1CA
330
1E
100
AcDbEntity
  8
0
100
AcDbLine
 10
35.8995
 20
131.917695
 30
0.0
 11
36.2337189823844
 21
132.49656227749
 31
0.0
  0
LINE
  5
1CB
330
1E
100
AcDbEntity
  8
0
100
AcDbLine
 10
35.9575
 20
132.461695
 30
0.0
 11
36.4576326168614
 21
133.3279246924039
 31
0.0
  0
LINE
  5
1CC
330
1E
100
AcDbEntity
  8
0
100
AcDbLine
 10
31.00892398411
 20
134.725548764463
 30
0.0
 11
35.1710938731199
 21
132.120183588244
 31
0.0
  0
LINE
  5
1CD
330
1E
100
AcDbEntity
  8
0
100
AcDbLine
 10
31.00892398411
 20
134.725548764463
 30
0.0
 11
35.1710938731199
 21
132.120183588244
 31
0.0
  0
LINE
  5
1CE
330
1E
100
AcDbEntity
  8
0
100
AcDbLine
 10
30.9085
 20
136.5316949999999
 30
0.0
 11
37.4035
 21
132.7816949999999
 31
0.0
  0
LINE
  5
1CF
330
1E
100
AcDbEntity
  8
0
100
AcDbLine
 10
25.4245
 20
137.387695
 30
0.0
 11
26.2905
 21
136.887695
 31
0.0
  0
LINE
  5
1D0
330
1E
100
AcDbEntity
  8
0
100
AcDbLine
 10
25.4245
 20
137.387695
 30
0.0
 11
25.8022668015152
 21
138.0419871002239
 31
0.0
  0
LINE
  5
1D1
330
1E
100
AcDbEntity
  8
0
100
AcDbLine
 10
25.4245
 20
137.387695
 30
0.0
 11
26.9245
 21
136.5216949999999
 31
0.0
  0
LINE
  5
1D2
330
1E
100
AcDbEntity
  8
0
100
AcDbLine
 10
25.3525
 20
137.429695
 30
0.0
 11
25.42468600818439
 21
137.3880171661749
 31
0.0
  0
LINE
  5
1D3
330
1E
100
AcDbEntity
  8
0
100
AcDbLine
 10
25.3525
 20
137.429695
 30
0.0
 11
25.7072837446732
 21
138.0441804457739
 31
0.0
  0
LINE
  5
1D4
330
1E
100
AcDbEntity
  8
0
100
AcDbLine
 10
25.3525
 20
137.429695
 30
0.0
 11
25.4246870669746
 21
137.3880189999999
 31
0.0
  0
LINE
  5
1D5
330
1E
100
AcDbEntity
  8
0
100
AcDbLine
 10
26.2695
 20
137.4776949999999
 30
0.0
 11
28.0015
 21
136.4776949999999
 31
0.0
  0
LINE
  5
1D6
330
1E
100
AcDbEntity
  8
0
100
AcDbLine
 10
26.2695
 20
137.4776949999999
 30
0.0
 11
26.6871668833345
 21
138.2010940419349
 31
0.0
  0
LINE
  5
1D7
330
1E
100
AcDbEntity
  8
0
100
AcDbLine
 10
26.2695
 20
137.4776949999999
 30
0.0
 11
26.63783794371159
 21
138.1156563185089
 31
0.0
  0
LINE
  5
1D8
330
1E
100
AcDbEntity
  8
0
100
AcDbLine
 10
26.3255
 20
138.0226949999999
 30
0.0
 11
26.75331315794899
 21
138.763667389568
 31
0.0
  0
LINE
  5
1D9
330
1E
100
AcDbEntity
  8
0
100
AcDbLine
 10
29.6095
 20
137.2816949999999
 30
0.0
 11
36.36449999999999
 21
133.381695
 31
0.0
  0
LINE
  5
1DA
330
1E
100
AcDbEntity
  8
0
100
AcDbLine
 10
36.36449999999999
 20
133.381695
 30
0.0
 11
43.9855
 21
128.981695
 31
0.0
  0
LINE
  5
1DB
330
1E
100
AcDbEntity
  8
0
100
AcDbLine
 10
22.0155
 20
139.933695
 30
0.0
 11
22.329381507756
 21
140.4773377714329
 31
0.0
  0
LINE
  5
1DC
330
1E
100
AcDbEntity
  8
0
100
AcDbLine
 10
20.5155
 20
140.7996949999999
 30
0.0
 11
22.0155
 21
139.933695
 31
0.0
  0
LINE
  5
1DD
330
1E
100
AcDbEntity
  8
0
100
AcDbLine
 10
20.5155
 20
140.7996949999999
 30
0.0
 11
20.88189066664389
 21
141.434283634627
 31
0.0
  0
LINE
  5
1DE
330
1E
100
AcDbEntity
  8
0
100
AcDbLine
 10
18.2735
 20
142.094695
 30
0.0
 11
18.5760121960496
 21
142.6186461235579
 31
0.0
  0
LINE
  5
1DF
330
1E
100
AcDbEntity
  8
0
100
AcDbLine
 10
19.64949999999999
 20
141.2996949999999
 30
0.0
 11
20.5155
 21
140.7996949999999
 31
0.0
  0
LINE
  5
1E0
330
1E
100
AcDbEntity
  8
0
100
AcDbLine
 10
19.64949999999999
 20
141.2996949999999
 30
0.0
 11
20.04619369694689
 21
141.9867684831119
 31
0.0
  0
LINE
  5
1E1
330
1E
100
AcDbEntity
  8
0
100
AcDbLine
 10
22.1942161932188
 20
140.243231446655
 30
0.0
 11
25.77798204908679
 21
137.9999259090179
 31
0.0
  0
LINE
  5
1E2
330
1E
100
AcDbEntity
  8
0
100
AcDbLine
 10
18.80349999999999
 20
142.3656949999999
 30
0.0
 11
19.8769993665989
 21
141.693723902949
 31
0.0
  0
LINE
  5
1E3
330
1E
100
AcDbEntity
  8
0
100
AcDbLine
 10
18.80349999999999
 20
142.3656949999999
 30
0.0
 11
19.8769993665989
 21
141.693723902949
 31
0.0
  0
LINE
  5
1E4
330
1E
100
AcDbEntity
  8
0
100
AcDbLine
 10
22.1942161932188
 20
140.243231446655
 30
0.0
 11
25.77798204908679
 21
137.9999259090179
 31
0.0
  0
LINE
  5
1E5
330
1E
100
AcDbEntity
  8
0
100
AcDbLine
 10
16.77349999999999
 20
142.9606949999999
 30
0.0
 11
18.2735
 21
142.094695
 31
0.0
  0
LINE
  5
1E6
330
1E
100
AcDbEntity
  8
0
100
AcDbLine
 10
16.72158718244809
 20
142.9898459999999
 30
0.0
 11
17.8685
 21
142.3276949999999
 31
0.0
  0
LINE
  5
1E7
330
1E
100
AcDbEntity
  8
0
100
AcDbLine
 10
17.4075
 20
142.5946949999999
 30
0.0
 11
18.2735
 21
142.094695
 31
0.0
  0
LINE
  5
1E8
330
1E
100
AcDbEntity
  8
0
100
AcDbLine
 10
17.4075
 20
142.5946949999999
 30
0.0
 11
17.6573129917717
 21
143.027371101748
 31
0.0
  0
LINE
  5
1E9
330
1E
100
AcDbEntity
  8
0
100
AcDbLine
 10
17.0025
 20
142.827695
 30
0.0
 11
17.8685
 21
142.3276949999999
 31
0.0
  0
LINE
  5
1EA
330
1E
100
AcDbEntity
  8
0
100
AcDbLine
 10
16.72159988452659
 20
142.9898679999999
 30
0.0
 11
17.0025
 21
142.827695
 31
0.0
  0
LINE
  5
1EB
330
1E
100
AcDbEntity
  8
0
100
AcDbLine
 10
16.72158718244809
 20
142.9898459999999
 30
0.0
 11
17.8685
 21
142.3276949999999
 31
0.0
  0
LINE
  5
1EC
330
1E
100
AcDbEntity
  8
0
100
AcDbLine
 10
18.3305
 20
142.6386949999999
 30
0.0
 11
18.83057866221109
 21
143.5048312429499
 31
0.0
  0
LINE
  5
1ED
330
1E
100
AcDbEntity
  8
0
100
AcDbLine
 10
18.3305
 20
142.6386949999999
 30
0.0
 11
18.69770842032839
 21
143.274699984009
 31
0.0
  0
LINE
  5
1EE
330
1E
100
AcDbEntity
  8
0
100
AcDbLine
 10
18.53186699972689
 20
142.542186643527
 30
0.0
 11
18.80349999999999
 21
142.3656949999999
 31
0.0
  0
LINE
  5
1EF
330
1E
100
AcDbEntity
  8
0
100
AcDbLine
 10
24.5925
 20
139.0226949999999
 30
0.0
 11
26.3255
 21
138.0226949999999
 31
0.0
  0
LINE
  5
1F0
330
1E
100
AcDbEntity
  8
0
100
AcDbLine
 10
24.5925
 20
139.0226949999999
 30
0.0
 11
25.0760940787941
 21
139.8602799444709
 31
0.0
  0
LINE
  5
1F1
330
1E
100
AcDbEntity
  8
0
100
AcDbLine
 10
26.6514999995708
 20
138.9893873079399
 30
0.0
 11
30.9085
 21
136.5316949999999
 31
0.0
  0
LINE
  5
1F2
330
1E
100
AcDbEntity
  8
0
100
AcDbLine
 10
26.6514999995708
 20
138.9893873079399
 30
0.0
 11
30.9085
 21
136.5316949999999
 31
0.0
  0
LINE
  5
1F3
330
1E
100
AcDbEntity
  8
0
100
AcDbLine
 10
23.2005
 20
140.9816949999999
 30
0.0
 11
29.6095
 21
137.2816949999999
 31
0.0
  0
LINE
  5
1F4
330
1E
100
AcDbEntity
  8
0
100
AcDbLine
 10
23.1815
 20
142.1476949999999
 30
0.0
 11
29.6765
 21
138.397695
 31
0.0
  0
LINE
  5
1F5
330
1E
100
AcDbEntity
  8
0
100
AcDbLine
 10
29.6765
 20
138.397695
 30
0.0
 11
36.5185
 21
134.4476949999999
 31
0.0
  0
LINE
  5
1F6
330
1E
100
AcDbEntity
  8
0
100
AcDbLine
 10
36.5185
 20
134.4476949999999
 30
0.0
 11
43.8795
 21
130.1976949999999
 31
0.0
  0
LINE
  5
1F7
330
1E
100
AcDbEntity
  8
0
100
AcDbLine
 10
11.76549999999999
 20
146.4286949999999
 30
0.0
 11
12.20873189902299
 21
147.196372649108
 31
0.0
  0
LINE
  5
1F8
330
1E
100
AcDbEntity
  8
0
100
AcDbLine
 10
11.76549999999999
 20
146.4286949999999
 30
0.0
 11
13.2655
 21
145.5626949999999
 31
0.0
  0
LINE
  5
1F9
330
1E
100
AcDbEntity
  8
0
100
AcDbLine
 10
15.9075
 20
143.4606949999999
 30
0.0
 11
16.77349999999999
 21
142.9606949999999
 31
0.0
  0
LINE
  5
1FA
330
1E
100
AcDbEntity
  8
0
100
AcDbLine
 10
15.9075
 20
143.4606949999999
 30
0.0
 11
16.3196602086209
 21
144.1745564813309
 31
0.0
  0
LINE
  5
1FB
330
1E
100
AcDbEntity
  8
0
100
AcDbLine
 10
15.9075
 20
143.4606949999999
 30
0.0
 11
17.4075
 21
142.5946949999999
 31
0.0
  0
LINE
  5
1FC
330
1E
100
AcDbEntity
  8
0
100
AcDbLine
 10
15.8555
 20
143.4896949999999
 30
0.0
 11
16.7215
 21
142.9896949999999
 31
0.0
  0
LINE
  5
1FD
330
1E
100
AcDbEntity
  8
0
100
AcDbLine
 10
15.8555
 20
143.4896949999999
 30
0.0
 11
16.20142539305409
 21
144.08883778077
 31
0.0
  0
LINE
  5
1FE
330
1E
100
AcDbEntity
  8
0
100
AcDbLine
 10
14.3555
 20
144.355695
 30
0.0
 11
15.2215
 21
143.8556949999999
 31
0.0
  0
LINE
  5
1FF
330
1E
100
AcDbEntity
  8
0
100
AcDbLine
 10
14.3555
 20
144.355695
 30
0.0
 11
14.747090121698
 21
145.034320680903
 31
0.0
  0
LINE
  5
200
330
1E
100
AcDbEntity
  8
0
100
AcDbLine
 10
14.3555
 20
144.355695
 30
0.0
 11
15.8555
 21
143.4896949999999
 31
0.0
  0
LINE
  5
201
330
1E
100
AcDbEntity
  8
0
100
AcDbLine
 10
15.2215
 20
143.8556949999999
 30
0.0
 11
16.7215
 21
142.9896949999999
 31
0.0
  0
LINE
  5
202
330
1E
100
AcDbEntity
  8
0
100
AcDbLine
 10
16.5985
 20
143.6386949999999
 30
0.0
 11
18.3305
 21
142.6386949999999
 31
0.0
  0
LINE
  5
203
330
1E
100
AcDbEntity
  8
0
100
AcDbLine
 10
16.5985
 20
143.6386949999999
 30
0.0
 11
17.0985880184858
 21
144.504847448017
 31
0.0
  0
LINE
  5
204
330
1E
100
AcDbEntity
  8
0
100
AcDbLine
 10
16.5985
 20
143.6386949999999
 30
0.0
 11
17.0183399992758
 21
144.365857878746
 31
0.0
  0
LINE
  5
205
330
1E
100
AcDbEntity
  8
0
100
AcDbLine
 10
13.2655
 20
145.5626949999999
 30
0.0
 11
13.66520458768009
 21
146.2549833458619
 31
0.0
  0
LINE
  5
206
330
1E
100
AcDbEntity
  8
0
100
AcDbLine
 10
13.4339803078704
 20
145.854502893232
 30
0.0
 11
14.7332398189449
 21
145.010318106231
 31
0.0
  0
LINE
  5
207
330
1E
100
AcDbEntity
  8
0
100
AcDbLine
 10
12.3755
 20
147.2316949999999
 30
0.0
 11
17.39849999999999
 21
144.3316949999999
 31
0.0
  0
LINE
  5
208
330
1E
100
AcDbEntity
  8
0
100
AcDbLine
 10
12.1825
 20
148.4976949999999
 30
0.0
 11
17.2925
 21
145.5476949999999
 31
0.0
  0
LINE
  5
209
330
1E
100
AcDbEntity
  8
0
100
AcDbLine
 10
17.7986379306524
 20
144.100660517462
 30
0.0
 11
19.30349999999999
 21
143.231695
 31
0.0
  0
LINE
  5
20A
330
1E
100
AcDbEntity
  8
0
100
AcDbLine
 10
17.39849999999999
 20
144.3316949999999
 30
0.0
 11
23.2005
 21
140.9816949999999
 31
0.0
  0
LINE
  5
20B
330
1E
100
AcDbEntity
  8
0
100
AcDbLine
 10
17.2925
 20
145.5476949999999
 30
0.0
 11
23.1815
 21
142.1476949999999
 31
0.0
  0
LINE
  5
20C
330
1E
100
AcDbEntity
  8
0
100
AcDbLine
 10
27.7925
 20
163.7336949999999
 30
0.0
 11
33.68149999999999
 21
160.333695
 31
0.0
  0
LINE
  5
20D
330
1E
100
AcDbEntity
  8
0
100
AcDbLine
 10
33.68149999999999
 20
160.333695
 30
0.0
 11
40.17649999999999
 21
156.583695
 31
0.0
  0
LINE
  5
20E
330
1E
100
AcDbEntity
  8
0
100
AcDbLine
 10
14.9755
 20
171.1336949999999
 30
0.0
 11
18.3525
 21
169.183695
 31
0.0
  0
LINE
  5
20F
330
1E
100
AcDbEntity
  8
0
100
AcDbLine
 10
12.55049999999999
 20
172.5336949999999
 30
0.0
 11
14.9755
 21
171.1336949999999
 31
0.0
  0
LINE
  5
210
330
1E
100
AcDbEntity
  8
0
100
AcDbLine
 10
22.6825
 20
166.6836949999999
 30
0.0
 11
27.7925
 21
163.7336949999999
 31
0.0
  0
LINE
  5
211
330
1E
100
AcDbEntity
  8
0
100
AcDbLine
 10
18.3525
 20
169.183695
 30
0.0
 11
22.6825
 21
166.6836949999999
 31
0.0
  0
LINE
  5
212
330
1E
100
AcDbEntity
  8
0
100
AcDbLine
 10
23.8755
 20
167.149695
 30
0.0
 11
28.8985
 21
164.2496949999999
 31
0.0
  0
LINE
  5
213
330
1E
100
AcDbEntity
  8
0
100
AcDbLine
 10
19.5455
 20
169.649695
 30
0.0
 11
23.8755
 21
167.149695
 31
0.0
  0
LINE
  5
214
330
1E
100
AcDbEntity
  8
0
100
AcDbLine
 10
16.34149999999999
 20
171.4996949999999
 30
0.0
 11
19.5455
 21
169.649695
 31
0.0
  0
LINE
  5
215
330
1E
100
AcDbEntity
  8
0
100
AcDbLine
 10
13.8295
 20
172.9496949999999
 30
0.0
 11
16.34149999999999
 21
171.4996949999999
 31
0.0
  0
LINE
  5
216
330
1E
100
AcDbEntity
  8
0
100
AcDbLine
 10
12.3575
 20
173.7996949999999
 30
0.0
 11
13.8295
 21
172.9496949999999
 31
0.0
  0
LINE
  5
217
330
1E
100
AcDbEntity
  8
0
100
AcDbLine
 10
28.8985
 20
164.2496949999999
 30
0.0
 11
34.7005
 21
160.899695
 31
0.0
  0
LINE
  5
218
330
1E
100
AcDbEntity
  8
0
100
AcDbLine
 10
34.7005
 20
160.899695
 30
0.0
 11
41.10949999999999
 21
157.1996949999999
 31
0.0
  0
LINE
  5
219
330
1E
100
AcDbEntity
  8
0
100
AcDbLine
 10
19.30349999999999
 20
143.231695
 30
0.0
 11
20.3995990492542
 21
142.598866553308
 31
0.0
  0
LINE
  5
21A
330
1E
100
AcDbEntity
  8
0
100
AcDbLine
 10
19.30349999999999
 20
143.231695
 30
0.0
 11
21.1921153850787
 21
142.141310384348
 31
0.0
  0
LINE
  5
21B
330
1E
100
AcDbEntity
  8
0
100
AcDbLine
 10
19.30349999999999
 20
143.231695
 30
0.0
 11
21.1921153850787
 21
142.141310384348
 31
0.0
  0
LINE
  5
21C
330
1E
100
AcDbEntity
  8
0
100
AcDbLine
 10
37.1315
 20
130.051695
 30
0.0
 11
37.49303170273199
 21
130.677867909132
 31
0.0
  0
LINE
  5
21D
330
1E
100
AcDbEntity
  8
0
100
AcDbLine
 10
37.2875
 20
130.5386949999999
 30
0.0
 11
37.6674550737871
 21
131.196777187799
 31
0.0
  0
LINE
  5
21E
330
1E
100
AcDbEntity
  8
0
100
AcDbLine
 10
37.1495
 20
130.0406949999999
 30
0.0
 11
38.0155
 21
129.540695
 31
0.0
  0
LINE
  5
21F
330
1E
100
AcDbEntity
  8
0
100
AcDbLine
 10
37.1495
 20
130.0406949999999
 30
0.0
 11
37.5061973232579
 21
130.658494763883
 31
0.0
  0
LINE
  5
220
330
1E
100
AcDbEntity
  8
0
100
AcDbLine
 10
37.1495
 20
130.0406949999999
 30
0.0
 11
37.5704381235117
 21
130.769759829922
 31
0.0
  0
LINE
  5
221
330
1E
100
AcDbEntity
  8
0
100
AcDbLine
 10
38.0155
 20
129.540695
 30
0.0
 11
39.5155
 21
128.6746949999999
 31
0.0
  0
LINE
  5
222
330
1E
100
AcDbEntity
  8
0
100
AcDbLine
 10
38.0155
 20
129.540695
 30
0.0
 11
38.4336676490556
 21
130.2649613681639
 31
0.0
  0
LINE
  5
223
330
1E
100
AcDbEntity
  8
0
100
AcDbLine
 10
39.8234141498778
 20
129.2080023075879
 30
0.0
 11
42.5525
 21
127.499695
 31
0.0
  0
LINE
  5
224
330
1E
100
AcDbEntity
  8
0
100
AcDbLine
 10
43.8795
 20
130.1976949999999
 30
0.0
 11
51.5865
 21
125.747695
 31
0.0
  0
LINE
  5
225
330
1E
100
AcDbEntity
  8
0
100
AcDbLine
 10
40.17649999999999
 20
156.583695
 30
0.0
 11
47.0185
 21
152.6336949999999
 31
0.0
  0
LINE
  5
226
330
1E
100
AcDbEntity
  8
0
100
AcDbLine
 10
47.0185
 20
152.6336949999999
 30
0.0
 11
54.3795
 21
148.3836949999999
 31
0.0
  0
LINE
  5
227
330
1E
100
AcDbEntity
  8
0
100
AcDbLine
 10
41.10949999999999
 20
157.1996949999999
 30
0.0
 11
47.8645
 21
153.2996949999999
 31
0.0
  0
LINE
  5
228
330
1E
100
AcDbEntity
  8
0
100
AcDbLine
 10
47.8645
 20
153.2996949999999
 30
0.0
 11
55.4855
 21
148.899695
 31
0.0
  0
LINE
  5
229
330
1E
100
AcDbEntity
  8
0
100
AcDbLine
 10
37.4035
 20
132.7816949999999
 30
0.0
 11
45.1975
 21
128.2816949999999
 31
0.0
  0
LINE
  5
22A
330
1E
100
AcDbEntity
  8
0
100
AcDbLine
 10
36.64969687978779
 20
133.2170359957919
 30
0.0
 11
43.9855
 21
128.981695
 31
0.0
  0
LINE
  5
22B
330
1E
100
AcDbEntity
  8
0
100
AcDbLine
 10
43.9855
 20
128.981695
 30
0.0
 11
46.18779133204049
 21
127.7101995870939
 31
0.0
  0
LINE
  5
22C
330
1E
100
AcDbEntity
  8
0
100
AcDbLine
 10
43.9855
 20
128.981695
 30
0.0
 11
51.1735
 21
124.8316949999999
 31
0.0
  0
LINE
  5
22D
330
1E
100
AcDbEntity
  8
0
100
AcDbLine
 10
51.5865
 20
125.747695
 30
0.0
 11
59.2075
 21
121.3476949999999
 31
0.0
  0
LINE
  5
22E
330
1E
100
AcDbEntity
  8
0
100
AcDbLine
 10
69.70749999999999
 20
139.5336949999999
 30
0.0
 11
77.3285
 21
135.1336949999999
 31
0.0
  0
LINE
  5
22F
330
1E
100
AcDbEntity
  8
0
100
AcDbLine
 10
77.3285
 20
135.1336949999999
 30
0.0
 11
85.0365
 21
130.683695
 31
0.0
  0
LINE
  5
230
330
1E
100
AcDbEntity
  8
0
100
AcDbLine
 10
92.39749999999999
 20
126.433695
 30
0.0
 11
99.23950000000001
 21
122.483695
 31
0.0
  0
LINE
  5
231
330
1E
100
AcDbEntity
  8
0
100
AcDbLine
 10
85.0365
 20
130.683695
 30
0.0
 11
92.39749999999999
 21
126.433695
 31
0.0
  0
LINE
  5
232
330
1E
100
AcDbEntity
  8
0
100
AcDbLine
 10
92.5515
 20
127.499695
 30
0.0
 11
99.30649999999999
 21
123.599695
 31
0.0
  0
LINE
  5
233
330
1E
100
AcDbEntity
  8
0
100
AcDbLine
 10
84.9305
 20
131.899695
 30
0.0
 11
92.5515
 21
127.499695
 31
0.0
  0
LINE
  5
234
330
1E
100
AcDbEntity
  8
0
100
AcDbLine
 10
77.74250000000001
 20
136.0496949999999
 30
0.0
 11
84.9305
 21
131.899695
 31
0.0
  0
LINE
  5
235
330
1E
100
AcDbEntity
  8
0
100
AcDbLine
 10
70.20749999999999
 20
140.3996949999999
 30
0.0
 11
77.74250000000001
 21
136.0496949999999
 31
0.0
  0
LINE
  5
236
330
1E
100
AcDbEntity
  8
0
100
AcDbLine
 10
54.3795
 20
148.3836949999999
 30
0.0
 11
62.0865
 21
143.9336949999999
 31
0.0
  0
LINE
  5
237
330
1E
100
AcDbEntity
  8
0
100
AcDbLine
 10
62.0865
 20
143.9336949999999
 30
0.0
 11
69.70749999999999
 21
139.5336949999999
 31
0.0
  0
LINE
  5
238
330
1E
100
AcDbEntity
  8
0
100
AcDbLine
 10
55.4855
 20
148.899695
 30
0.0
 11
62.6735
 21
144.749695
 31
0.0
  0
LINE
  5
239
330
1E
100
AcDbEntity
  8
0
100
AcDbLine
 10
62.6735
 20
144.749695
 30
0.0
 11
70.20749999999999
 21
140.3996949999999
 31
0.0
  0
LINE
  5
23A
330
1E
100
AcDbEntity
  8
0
100
AcDbLine
 10
71.2075
 20
142.131695
 30
0.0
 11
128.6645
 21
106.6496949999999
 31
0.0
  0
LINE
  5
23B
330
1E
100
AcDbEntity
  8
0
100
AcDbLine
 10
48.1118677193497
 20
126.5993318899139
 30
0.0
 11
51.1735
 21
124.8316949999999
 31
0.0
  0
LINE
  5
23C
330
1E
100
AcDbEntity
  8
0
100
AcDbLine
 10
51.1735
 20
124.8316949999999
 30
0.0
 11
57.84150574749379
 21
120.981704954659
 31
0.0
  0
LINE
  5
23D
330
1E
100
AcDbEntity
  8
0
100
AcDbLine
 10
51.1735
 20
124.8316949999999
 30
0.0
 11
58.70750000000001
 21
120.481695
 31
0.0
  0
LINE
  5
23E
330
1E
100
AcDbEntity
  8
0
100
AcDbLine
 10
11.7515
 20
174.149695
 30
0.0
 11
71.2075
 21
142.131695
 31
0.0
  0
LINE
  5
23F
330
1E
100
AcDbEntity
  8
0
100
AcDbLine
 10
11.7515
 20
174.149695
 30
0.0
 11
12.3575
 21
173.7996949999999
 31
0.0
  0
ENDSEC
  0
SECTION
  2
OBJECTS
  0
DICTIONARY
  5
C
330
0
100
AcDbDictionary
281
     1
  3
ACAD_GROUP
350
D
  3
ACAD_LAYOUT
350
19
  3
ACAD_MLINESTYLE
350
16
  3
ACAD_PLOTSETTINGS
350
18
  3
ACAD_PLOTSTYLENAME
350
E
  3
AcDbVariableDictionary
350
244
  0
DICTIONARY
  5
D
102
{ACAD_REACTORS
330
C
102
}
330
C
100
AcDbDictionary
281
     1
  0
DICTIONARY
  5
19
102
{ACAD_REACTORS
330
C
102
}
330
C
100
AcDbDictionary
281
     1
  3
Layout1
350
1D
  3
Model
350
21
  0
DICTIONARY
  5
16
102
{ACAD_REACTORS
330
C
102
}
330
C
100
AcDbDictionary
281
     1
  3
Standard
350
17
  0
DICTIONARY
  5
18
102
{ACAD_REACTORS
330
C
102
}
330
C
100
AcDbDictionary
281
     1
  0
ACDBDICTIONARYWDFLT
  5
E
102
{ACAD_REACTORS
330
C
102
}
330
C
100
AcDbDictionary
281
     1
  3
Normal
350
F
100
AcDbDictionaryWithDefault
340
F
  0
DICTIONARY
  5
244
102
{ACAD_REACTORS
330
C
102
}
330
C
100
AcDbDictionary
281
     1
  3
DIMASSOC
350
245
  0
LAYOUT
  5
1D
102
{ACAD_REACTORS
330
19
102
}
330
19
100
AcDbPlotSettings
  1

  2
hp deskjet 980c series
  4

  6

 40
0.0
 41
0.0
 42
0.0
 43
0.0
 44
0.0
 45
0.0
 46
0.0
 47
0.0
 48
0.0
 49
0.0
140
0.0
141
0.0
142
1.0
143
1.0
 70
   688
 72
     0
 73
     0
 74
     5
  7

 75
    16
147
1.0
148
0.0
149
0.0
100
AcDbLayout
  1
Layout1
 70
     1
 71
     1
 10
0.0
 20
0.0
 11
12.0
 21
9.0
 12
0.0
 22
0.0
 32
0.0
 14
1.000000000000000E+20
 24
1.000000000000000E+20
 34
1.000000000000000E+20
 15
-1.000000000000000E+20
 25
-1.000000000000000E+20
 35
-1.000000000000000E+20
146
0.0
 13
0.0
 23
0.0
 33
0.0
 16
1.0
 26
0.0
 36
0.0
 17
0.0
 27
1.0
 37
0.0
 76
     0
330
1A
  0
LAYOUT
  5
21
102
{ACAD_REACTORS
330
19
102
}
330
19
100
AcDbPlotSettings
  1

  2
hp deskjet 980c series
  4

  6

 40
0.0
 41
0.0
 42
0.0
 43
0.0
 44
0.0
 45
0.0
 46
0.0
 47
0.0
 48
0.0
 49
0.0
140
0.0
141
0.0
142
1.0
143
1.0
 70
  1712
 72
     0
 73
     0
 74
     0
  7

 75
     0
147
1.0
148
0.0
149
0.0
100
AcDbLayout
  1
Model
 70
     1
 71
     0
 10
0.0
 20
0.0
 11
12.0
 21
9.0
 12
0.0
 22
0.0
 32
0.0
 14
0.0
 24
0.0
 34
0.0
 15
0.0
 25
0.0
 35
0.0
146
0.0
 13
0.0
 23
0.0
 33
0.0
 16
1.0
 26
0.0
 36
0.0
 17
0.0
 27
1.0
 37
0.0
 76
     0
330
1E
  0
MLINESTYLE
  5
17
102
{ACAD_REACTORS
330
16
102
}
330
16
100
AcDbMlineStyle
  2
STANDARD
 70
     0
  3

 62
   256
 51
90.0
 52
90.0
 71
     2
 49
0.5
 62
   256
  6
BYLAYER
 49
-0.5
 62
   256
  6
BYLAYER
  0
ACDBPLACEHOLDER
  5
F
102
{ACAD_REACTORS
330
E
102
}
330
E
  0
DICTIONARYVAR
  5
245
102
{ACAD_REACTORS
330
244
102
}
330
244
100
DictionaryVariables
280
     0
  1
1
  0
ENDSEC
  0
EOF
