  0
SECTION
  2
HEADER
  9
$ACADVER
  1
AC1015
  9
$ACADMAINTVER
 70
    13
  9
$DWGCODEPAGE
  3
ANSI_1252
  9
$INSBASE
 10
0.0
 20
0.0
 30
0.0
  9
$EXTMIN
 10
-0.12049999999998
 20
-0.199029999999994
 30
0.0
  9
$EXTMAX
 10
167.1205
 20
161.1990299999999
 30
0.0
  9
$LIMMIN
 10
0.0
 20
0.0
  9
$LIMMAX
 10
12.0
 20
9.0
  9
$ORTHOMODE
 70
     0
  9
$REGENMODE
 70
     1
  9
$FILLMODE
 70
     1
  9
$QTEXTMODE
 70
     0
  9
$MIRRTEXT
 70
     1
  9
$LTSCALE
 40
1.0
  9
$ATTMODE
 70
     1
  9
$TEXTSIZE
 40
0.2
  9
$TRACEWID
 40
0.05
  9
$TEXTSTYLE
  7
Standard
  9
$CLAYER
  8
0
  9
$CELTYPE
  6
Continuous
  9
$CECOLOR
 62
   256
  9
$CELTSCALE
 40
1.0
  9
$DISPSILH
 70
     0
  9
$DIMSCALE
 40
1.0
  9
$DIMASZ
 40
0.18
  9
$DIMEXO
 40
0.0625
  9
$DIMDLI
 40
0.38
  9
$DIMRND
 40
0.0
  9
$DIMDLE
 40
0.0
  9
$DIMEXE
 40
0.18
  9
$DIMTP
 40
0.0
  9
$DIMTM
 40
0.0
  9
$DIMTXT
 40
0.18
  9
$DIMCEN
 40
0.09
  9
$DIMTSZ
 40
0.0
  9
$DIMTOL
 70
     0
  9
$DIMLIM
 70
     0
  9
$DIMTIH
 70
     1
  9
$DIMTOH
 70
     1
  9
$DIMSE1
 70
     0
  9
$DIMSE2
 70
     0
  9
$DIMTAD
 70
     0
  9
$DIMZIN
 70
     0
  9
$DIMBLK
  1

  9
$DIMASO
 70
     1
  9
$DIMSHO
 70
     1
  9
$DIMPOST
  1

  9
$DIMAPOST
  1

  9
$DIMALT
 70
     0
  9
$DIMALTD
 70
     2
  9
$DIMALTF
 40
25.4
  9
$DIMLFAC
 40
1.0
  9
$DIMTOFL
 70
     0
  9
$DIMTVP
 40
0.0
  9
$DIMTIX
 70
     0
  9
$DIMSOXD
 70
     0
  9
$DIMSAH
 70
     0
  9
$DIMBLK1
  1

  9
$DIMBLK2
  1

  9
$DIMSTYLE
  2
Standard
  9
$DIMCLRD
 70
     0
  9
$DIMCLRE
 70
     0
  9
$DIMCLRT
 70
     0
  9
$DIMTFAC
 40
1.0
  9
$DIMGAP
 40
0.09
  9
$DIMJUST
 70
     0
  9
$DIMSD1
 70
     0
  9
$DIMSD2
 70
     0
  9
$DIMTOLJ
 70
     1
  9
$DIMTZIN
 70
     0
  9
$DIMALTZ
 70
     0
  9
$DIMALTTZ
 70
     0
  9
$DIMUPT
 70
     0
  9
$DIMDEC
 70
     4
  9
$DIMTDEC
 70
     4
  9
$DIMALTU
 70
     2
  9
$DIMALTTD
 70
     2
  9
$DIMTXSTY
  7
Standard
  9
$DIMAUNIT
 70
     0
  9
$DIMADEC
 70
     0
  9
$DIMALTRND
 40
0.0
  9
$DIMAZIN
 70
     0
  9
$DIMDSEP
 70
    46
  9
$DIMATFIT
 70
     3
  9
$DIMFRAC
 70
     0
  9
$DIMLDRBLK
  1

  9
$DIMLUNIT
 70
     2
  9
$DIMLWD
 70
    -2
  9
$DIMLWE
 70
    -2
  9
$DIMTMOVE
 70
     0
  9
$LUNITS
 70
     2
  9
$LUPREC
 70
     4
  9
$SKETCHINC
 40
0.1
  9
$FILLETRAD
 40
0.0
  9
$AUNITS
 70
     0
  9
$AUPREC
 70
     0
  9
$MENU
  1
.
  9
$ELEVATION
 40
0.0
  9
$PELEVATION
 40
0.0
  9
$THICKNESS
 40
0.0
  9
$LIMCHECK
 70
     0
  9
$CHAMFERA
 40
0.0
  9
$CHAMFERB
 40
0.0
  9
$CHAMFERC
 40
0.0
  9
$CHAMFERD
 40
0.0
  9
$SKPOLY
 70
     0
  9
$TDCREATE
 40
2454737.957141562
  9
$TDUCREATE
 40
2454737.873808229
  9
$TDUPDATE
 40
2454737.958600984
  9
$TDUUPDATE
 40
2454737.875267650
  9
$TDINDWG
 40
0.0014599537
  9
$TDUSRTIMER
 40
0.0014599537
  9
$USRTIMER
 70
     1
  9
$ANGBASE
 50
0.0
  9
$ANGDIR
 70
     0
  9
$PDMODE
 70
     0
  9
$PDSIZE
 40
0.0
  9
$PLINEWID
 40
0.0
  9
$SPLFRAME
 70
     0
  9
$SPLINETYPE
 70
     6
  9
$SPLINESEGS
 70
     8
  9
$HANDSEED
  5
23A
  9
$SURFTAB1
 70
     6
  9
$SURFTAB2
 70
     6
  9
$SURFTYPE
 70
     6
  9
$SURFU
 70
     6
  9
$SURFV
 70
     6
  9
$UCSBASE
  2

  9
$UCSNAME
  2

  9
$UCSORG
 10
0.0
 20
0.0
 30
0.0
  9
$UCSXDIR
 10
1.0
 20
0.0
 30
0.0
  9
$UCSYDIR
 10
0.0
 20
1.0
 30
0.0
  9
$UCSORTHOREF
  2

  9
$UCSORTHOVIEW
 70
     1
  9
$UCSORGTOP
 10
0.0
 20
0.0
 30
0.0
  9
$UCSORGBOTTOM
 10
0.0
 20
0.0
 30
0.0
  9
$UCSORGLEFT
 10
0.0
 20
0.0
 30
0.0
  9
$UCSORGRIGHT
 10
0.0
 20
0.0
 30
0.0
  9
$UCSORGFRONT
 10
0.0
 20
0.0
 30
0.0
  9
$UCSORGBACK
 10
0.0
 20
0.0
 30
0.0
  9
$PUCSBASE
  2

  9
$PUCSNAME
  2

  9
$PUCSORG
 10
0.0
 20
0.0
 30
0.0
  9
$PUCSXDIR
 10
1.0
 20
0.0
 30
0.0
  9
$PUCSYDIR
 10
0.0
 20
1.0
 30
0.0
  9
$PUCSORTHOREF
  2

  9
$PUCSORTHOVIEW
 70
     0
  9
$PUCSORGTOP
 10
0.0
 20
0.0
 30
0.0
  9
$PUCSORGBOTTOM
 10
0.0
 20
0.0
 30
0.0
  9
$PUCSORGLEFT
 10
0.0
 20
0.0
 30
0.0
  9
$PUCSORGRIGHT
 10
0.0
 20
0.0
 30
0.0
  9
$PUCSORGFRONT
 10
0.0
 20
0.0
 30
0.0
  9
$PUCSORGBACK
 10
0.0
 20
0.0
 30
0.0
  9
$USERI1
 70
     0
  9
$USERI2
 70
     0
  9
$USERI3
 70
     0
  9
$USERI4
 70
     0
  9
$USERI5
 70
     0
  9
$USERR1
 40
0.0
  9
$USERR2
 40
0.0
  9
$USERR3
 40
0.0
  9
$USERR4
 40
0.0
  9
$USERR5
 40
0.0
  9
$WORLDVIEW
 70
     1
  9
$SHADEDGE
 70
     3
  9
$SHADEDIF
 70
    70
  9
$TILEMODE
 70
     1
  9
$MAXACTVP
 70
    64
  9
$PINSBASE
 10
0.0
 20
0.0
 30
0.0
  9
$PLIMCHECK
 70
     0
  9
$PEXTMIN
 10
1.000000000000000E+20
 20
1.000000000000000E+20
 30
1.000000000000000E+20
  9
$PEXTMAX
 10
-1.000000000000000E+20
 20
-1.000000000000000E+20
 30
-1.000000000000000E+20
  9
$PLIMMIN
 10
0.0
 20
0.0
  9
$PLIMMAX
 10
12.0
 20
9.0
  9
$UNITMODE
 70
     0
  9
$VISRETAIN
 70
     1
  9
$PLINEGEN
 70
     0
  9
$PSLTSCALE
 70
     1
  9
$TREEDEPTH
 70
  3020
  9
$CMLSTYLE
  2
Standard
  9
$CMLJUST
 70
     0
  9
$CMLSCALE
 40
1.0
  9
$PROXYGRAPHICS
 70
     1
  9
$MEASUREMENT
 70
     0
  9
$CELWEIGHT
370
    -1
  9
$ENDCAPS
280
     0
  9
$JOINSTYLE
280
     0
  9
$LWDISPLAY
290
     0
  9
$INSUNITS
 70
     0
  9
$HYPERLINKBASE
  1

  9
$STYLESHEET
  1

  9
$XEDIT
290
     1
  9
$CEPSNTYPE
380
     0
  9
$PSTYLEMODE
290
     1
  9
$FINGERPRINTGUID
  2
{EC70EB1F-FEAC-486D-BC49-57B8C12AEA0F}
  9
$VERSIONGUID
  2
{1B151E53-CF70-4D54-A13D-145887AB7907}
  9
$EXTNAMES
290
     1
  9
$PSVPSCALE
 40
0.0
  9
$OLESTARTUP
290
     0
  0
ENDSEC
  0
SECTION
  2
CLASSES
  0
CLASS
  1
ACDBDICTIONARYWDFLT
  2
AcDbDictionaryWithDefault
  3
AutoCAD 2000
 90
        0
280
     0
281
     0
  0
CLASS
  1
ACDBPLACEHOLDER
  2
AcDbPlaceHolder
  3
AutoCAD 2000
 90
        0
280
     0
281
     0
  0
CLASS
  1
LAYOUT
  2
AcDbLayout
  3
AutoCAD 2000
 90
        0
280
     0
281
     0
  0
CLASS
  1
DICTIONARYVAR
  2
AcDbDictionaryVar
  3
AutoCAD 2000
 90
        0
280
     0
281
     0
  0
ENDSEC
  0
SECTION
  2
TABLES
  0
TABLE
  2
VPORT
  5
8
330
0
100
AcDbSymbolTable
 70
     2
  0
VPORT
  5
239
330
8
100
AcDbSymbolTableRecord
100
AcDbViewportTableRecord
  2
*Active
 70
     0
 10
0.0
 20
0.0
 11
1.0
 21
1.0
 12
83.50000000000001
 22
80.5
 13
0.0
 23
0.0
 14
1.0
 24
1.0
 15
0.0
 25
0.0
 16
0.0
 26
0.0
 36
1.0
 17
0.0
 27
0.0
 37
0.0
 40
162.636408286445
 41
2.078104993597951
 42
50.0
 43
0.0
 44
0.0
 50
0.0
 51
0.0
 71
     0
 72
   100
 73
     1
 74
     3
 75
     0
 76
     0
 77
     0
 78
     0
281
     0
 65
     1
110
0.0
120
0.0
130
0.0
111
1.0
121
0.0
131
0.0
112
0.0
122
1.0
132
0.0
 79
     1
146
0.0
  0
ENDTAB
  0
TABLE
  2
LTYPE
  5
5
330
0
100
AcDbSymbolTable
 70
     1
  0
LTYPE
  5
13
330
5
100
AcDbSymbolTableRecord
100
AcDbLinetypeTableRecord
  2
ByBlock
 70
     0
  3

 72
    65
 73
     0
 40
0.0
  0
LTYPE
  5
14
330
5
100
AcDbSymbolTableRecord
100
AcDbLinetypeTableRecord
  2
ByLayer
 70
     0
  3

 72
    65
 73
     0
 40
0.0
  0
LTYPE
  5
15
330
5
100
AcDbSymbolTableRecord
100
AcDbLinetypeTableRecord
  2
Continuous
 70
     0
  3
Solid line
 72
    65
 73
     0
 40
0.0
  0
ENDTAB
  0
TABLE
  2
LAYER
  5
2
330
0
100
AcDbSymbolTable
 70
     1
  0
LAYER
  5
10
330
2
100
AcDbSymbolTableRecord
100
AcDbLayerTableRecord
  2
0
 70
     0
 62
     7
  6
Continuous
370
    -3
390
F
  0
ENDTAB
  0
TABLE
  2
STYLE
  5
3
330
0
100
AcDbSymbolTable
 70
     1
  0
STYLE
  5
11
330
3
100
AcDbSymbolTableRecord
100
AcDbTextStyleTableRecord
  2
Standard
 70
     0
 40
0.0
 41
1.0
 50
0.0
 71
     0
 42
0.2
  3
txt
  4

  0
ENDTAB
  0
TABLE
  2
VIEW
  5
6
330
0
100
AcDbSymbolTable
 70
     0
  0
ENDTAB
  0
TABLE
  2
UCS
  5
7
330
0
100
AcDbSymbolTable
 70
     0
  0
ENDTAB
  0
TABLE
  2
APPID
  5
9
330
0
100
AcDbSymbolTable
 70
     1
  0
APPID
  5
12
330
9
100
AcDbSymbolTableRecord
100
AcDbRegAppTableRecord
  2
ACAD
 70
     0
  0
ENDTAB
  0
TABLE
  2
DIMSTYLE
  5
A
330
0
100
AcDbSymbolTable
 70
     1
100
AcDbDimStyleTable
 71
     0
  0
DIMSTYLE
105
233
330
A
100
AcDbSymbolTableRecord
100
AcDbDimStyleTableRecord
  2
Standard
 70
     0
340
11
  0
ENDTAB
  0
TABLE
  2
BLOCK_RECORD
  5
1
330
0
100
AcDbSymbolTable
 70
     0
  0
BLOCK_RECORD
  5
1E
330
1
100
AcDbSymbolTableRecord
100
AcDbBlockTableRecord
  2
*Model_Space
340
21
  0
BLOCK_RECORD
  5
1A
330
1
100
AcDbSymbolTableRecord
100
AcDbBlockTableRecord
  2
*Paper_Space
340
1D
  0
ENDTAB
  0
ENDSEC
  0
SECTION
  2
BLOCKS
  0
BLOCK
  5
1F
330
1E
100
AcDbEntity
  8
0
100
AcDbBlockBegin
  2
*Model_Space
 70
     0
 10
0.0
 20
0.0
 30
0.0
  3
*Model_Space
  1

  0
ENDBLK
  5
20
330
1E
100
AcDbEntity
  8
0
100
AcDbBlockEnd
  0
BLOCK
  5
1B
330
1A
100
AcDbEntity
 67
     1
  8
0
100
AcDbBlockBegin
  2
*Paper_Space
 70
     0
 10
0.0
 20
0.0
 30
0.0
  3
*Paper_Space
  1

  0
ENDBLK
  5
1C
330
1A
100
AcDbEntity
 67
     1
  8
0
100
AcDbBlockEnd
  0
ENDSEC
  0
SECTION
  2
ENTITIES
  0
LINE
  5
22
330
1E
100
AcDbEntity
  8
0
100
AcDbLine
 10
-0.12049999999998
 20
142.51203
 30
0.0
 11
0.321499999999999
 21
142.25603
 31
0.0
  0
LINE
  5
23
330
1E
100
AcDbEntity
  8
0
100
AcDbLine
 10
0.0114999999999963
 20
141.28103
 30
0.0
 11
0.453500000000004
 21
141.02503
 31
0.0
  0
LINE
  5
24
330
1E
100
AcDbEntity
  8
0
100
AcDbLine
 10
0.453500000000004
 20
141.02503
 30
0.0
 11
1.528499999999989
 21
140.40503
 31
0.0
  0
LINE
  5
25
330
1E
100
AcDbEntity
  8
0
100
AcDbLine
 10
0.0114999999999963
 20
141.28103
 30
0.0
 11
0.453500000000004
 21
141.02503
 31
0.0
  0
LINE
  5
26
330
1E
100
AcDbEntity
  8
0
100
AcDbLine
 10
1.90749999999998
 20
140.18603
 30
0.0
 11
3.185151376383589
 21
139.320166183896
 31
0.0
  0
LINE
  5
27
330
1E
100
AcDbEntity
  8
0
100
AcDbLine
 10
2.81450000000002
 20
138.50703
 30
0.0
 11
3.44649999999997
 21
138.14203
 31
0.0
  0
LINE
  5
28
330
1E
100
AcDbEntity
  8
0
100
AcDbLine
 10
2.740499999999979
 20
138.5500299999999
 30
0.0
 11
3.37249999999999
 21
138.18503
 31
0.0
  0
LINE
  5
29
330
1E
100
AcDbEntity
  8
0
100
AcDbLine
 10
2.740499999999979
 20
138.5500299999999
 30
0.0
 11
3.20066923205388
 21
139.3470431099169
 31
0.0
  0
LINE
  5
2A
330
1E
100
AcDbEntity
  8
0
100
AcDbLine
 10
2.2865
 20
139.9670299999999
 30
0.0
 11
3.36149999999999
 21
139.34603
 31
0.0
  0
LINE
  5
2B
330
1E
100
AcDbEntity
  8
0
100
AcDbLine
 10
1.90749999999998
 20
140.18603
 30
0.0
 11
2.2865
 21
139.9670299999999
 31
0.0
  0
LINE
  5
2C
330
1E
100
AcDbEntity
  8
0
100
AcDbLine
 10
1.90749999999998
 20
140.18603
 30
0.0
 11
3.185151376383589
 21
139.320166183896
 31
0.0
  0
LINE
  5
2D
330
1E
100
AcDbEntity
  8
0
100
AcDbLine
 10
5.41148417719058
 20
137.008030000014
 30
0.0
 11
5.7975
 21
136.78503
 31
0.0
  0
LINE
  5
2F
330
1E
100
AcDbEntity
  8
0
100
AcDbLine
 10
5.061500000000009
 20
137.21003
 30
0.0
 11
6.156500000000009
 21
136.57803
 31
0.0
  0
LINE
  5
30
330
1E
100
AcDbEntity
  8
0
100
AcDbLine
 10
3.44649999999997
 20
138.14203
 30
0.0
 11
4.5415
 21
137.5100299999999
 31
0.0
  0
LINE
  5
32
330
1E
100
AcDbEntity
  8
0
100
AcDbLine
 10
3.37249999999999
 20
138.18503
 30
0.0
 11
4.46749999999999
 21
137.55303
 31
0.0
  0
LINE
  5
33
330
1E
100
AcDbEntity
  8
0
100
AcDbLine
 10
4.429499999999999
 20
137.5750299999999
 30
0.0
 11
5.061500000000009
 21
137.21003
 31
0.0
  0
LINE
  5
35
330
1E
100
AcDbEntity
  8
0
100
AcDbLine
 10
3.36149999999999
 20
139.34603
 30
0.0
 11
5.70049999999999
 21
137.99603
 31
0.0
  0
LINE
  5
36
330
1E
100
AcDbEntity
  8
0
100
AcDbLine
 10
1.528499999999989
 20
140.40503
 30
0.0
 11
3.36149999999999
 21
139.34603
 31
0.0
  0
LINE
  5
37
330
1E
100
AcDbEntity
  8
0
100
AcDbLine
 10
6.43049999999998
 20
136.42003
 30
0.0
 11
6.721310003528709
 21
136.923712926112
 31
0.0
  0
LINE
  5
38
330
1E
100
AcDbEntity
  8
0
100
AcDbLine
 10
5.7975
 20
136.78503
 30
0.0
 11
6.43049999999998
 21
136.42003
 31
0.0
  0
LINE
  5
39
330
1E
100
AcDbEntity
  8
0
100
AcDbLine
 10
6.156562486652379
 20
136.578138226882
 30
0.0
 11
6.43049999999998
 21
136.42003
 31
0.0
  0
LINE
  5
3B
330
1E
100
AcDbEntity
  8
0
100
AcDbLine
 10
8.743499999999999
 20
135.08403
 30
0.0
 11
9.37649999999998
 21
134.71903
 31
0.0
  0
LINE
  5
3D
330
1E
100
AcDbEntity
  8
0
100
AcDbLine
 10
8.28150000000001
 20
135.35103
 30
0.0
 11
9.37649999999998
 21
134.71903
 31
0.0
  0
LINE
  5
3E
330
1E
100
AcDbEntity
  8
0
100
AcDbLine
 10
7.649500000000029
 20
135.71603
 30
0.0
 11
8.28150000000001
 21
135.35103
 31
0.0
  0
LINE
  5
3F
330
1E
100
AcDbEntity
  8
0
100
AcDbLine
 10
7.649500000000029
 20
135.71603
 30
0.0
 11
8.110997934965109
 21
136.51534442336
 31
0.0
  0
LINE
  5
40
330
1E
100
AcDbEntity
  8
0
100
AcDbLine
 10
7.649500000000029
 20
135.71603
 30
0.0
 11
8.743499999999999
 21
135.08403
 31
0.0
  0
LINE
  5
41
330
1E
100
AcDbEntity
  8
0
100
AcDbLine
 10
7.649500000000029
 20
135.71603
 30
0.0
 11
7.88963322925491
 21
136.1319407530689
 31
0.0
  0
LINE
  5
42
330
1E
100
AcDbEntity
  8
0
100
AcDbLine
 10
6.45880093302876
 20
137.1016152160059
 30
0.0
 11
7.88963322925491
 21
136.1319407530689
 31
0.0
  0
LINE
  5
43
330
1E
100
AcDbEntity
  8
0
100
AcDbLine
 10
10.1035
 20
133.72203
 30
0.0
 11
10.7355
 21
133.35703
 31
0.0
  0
LINE
  5
44
330
1E
100
AcDbEntity
  8
0
100
AcDbLine
 10
10.1035
 20
133.72203
 30
0.0
 11
10.4809637094198
 21
134.3757971447149
 31
0.0
  0
LINE
  5
45
330
1E
100
AcDbEntity
  8
0
100
AcDbLine
 10
9.37649999999998
 20
134.71903
 30
0.0
 11
9.775875307833119
 21
135.410748033167
 31
0.0
  0
LINE
  5
46
330
1E
100
AcDbEntity
  8
0
100
AcDbLine
 10
9.37649999999998
 20
134.71903
 30
0.0
 11
9.544679366020348
 21
135.010316661947
 31
0.0
  0
LINE
  5
47
330
1E
100
AcDbEntity
  8
0
100
AcDbLine
 10
9.544679366020348
 20
135.010316661947
 30
0.0
 11
11.2841410044945
 21
133.8314842197839
 31
0.0
  0
LINE
  5
48
330
1E
100
AcDbEntity
  8
0
100
AcDbLine
 10
8.86149999999999
 20
136.17103
 30
0.0
 11
12.5275
 21
134.05403
 31
0.0
  0
LINE
  5
49
330
1E
100
AcDbEntity
  8
0
100
AcDbLine
 10
5.70049999999999
 20
137.99603
 30
0.0
 11
8.86149999999999
 21
136.17103
 31
0.0
  0
LINE
  5
4A
330
1E
100
AcDbEntity
  8
0
100
AcDbLine
 10
8.855500000000018
 20
137.32903
 30
0.0
 11
12.5855
 21
135.17603
 31
0.0
  0
LINE
  5
4B
330
1E
100
AcDbEntity
  8
0
100
AcDbLine
 10
5.694500000000019
 20
139.15403
 30
0.0
 11
8.855500000000018
 21
137.32903
 31
0.0
  0
LINE
  5
4C
330
1E
100
AcDbEntity
  8
0
100
AcDbLine
 10
3.229500000000009
 20
140.57703
 30
0.0
 11
5.694500000000019
 21
139.15403
 31
0.0
  0
LINE
  5
4D
330
1E
100
AcDbEntity
  8
0
100
AcDbLine
 10
1.4595
 20
141.5990299999999
 30
0.0
 11
3.229500000000009
 21
140.57703
 31
0.0
  0
LINE
  5
4E
330
1E
100
AcDbEntity
  8
0
100
AcDbLine
 10
0.321499999999999
 20
142.25603
 30
0.0
 11
1.4595
 21
141.5990299999999
 31
0.0
  0
LINE
  5
4F
330
1E
100
AcDbEntity
  8
0
100
AcDbLine
 10
-0.12049999999998
 20
142.51203
 30
0.0
 11
10.3795
 21
160.69803
 31
0.0
  0
LINE
  5
50
330
1E
100
AcDbEntity
  8
0
100
AcDbLine
 10
-0.12049999999998
 20
142.51203
 30
0.0
 11
0.321499999999999
 21
142.25603
 31
0.0
  0
LINE
  5
51
330
1E
100
AcDbEntity
  8
0
100
AcDbLine
 10
-0.12049999999998
 20
142.51203
 30
0.0
 11
0.0114999999999963
 21
141.28103
 31
0.0
  0
LINE
  5
52
330
1E
100
AcDbEntity
  8
0
100
AcDbLine
 10
-0.12049999999998
 20
142.51203
 30
0.0
 11
10.3795
 21
160.69803
 31
0.0
  0
LINE
  5
54
330
1E
100
AcDbEntity
  8
0
100
AcDbLine
 10
10.7355
 20
133.35703
 30
0.0
 11
10.941544689821
 21
133.23810740277
 31
0.0
  0
LINE
  5
55
330
1E
100
AcDbEntity
  8
0
100
AcDbLine
 10
10.94149999999999
 20
133.23803
 30
0.0
 11
11.57349999999999
 21
132.8730299999999
 31
0.0
  0
LINE
  5
57
330
1E
100
AcDbEntity
  8
0
100
AcDbLine
 10
10.94149999999999
 20
133.23803
 30
0.0
 11
12.0355
 21
132.6060299999999
 31
0.0
  0
LINE
  5
58
330
1E
100
AcDbEntity
  8
0
100
AcDbLine
 10
10.8215
 20
160.4430299999999
 30
0.0
 11
11.9595
 21
159.78603
 31
0.0
  0
LINE
  5
59
330
1E
100
AcDbEntity
  8
0
100
AcDbLine
 10
10.3795
 20
160.69803
 30
0.0
 11
10.8215
 21
160.4430299999999
 31
0.0
  0
LINE
  5
5A
330
1E
100
AcDbEntity
  8
0
100
AcDbLine
 10
10.3795
 20
160.69803
 30
0.0
 11
11.5115
 21
161.1990299999999
 31
0.0
  0
LINE
  5
5B
330
1E
100
AcDbEntity
  8
0
100
AcDbLine
 10
11.5115
 20
161.1990299999999
 30
0.0
 11
11.9535
 21
160.9440299999999
 31
0.0
  0
LINE
  5
5C
330
1E
100
AcDbEntity
  8
0
100
AcDbLine
 10
11.5115
 20
161.1990299999999
 30
0.0
 11
55.1805
 21
138.29603
 31
0.0
  0
LINE
  5
5E
330
1E
100
AcDbEntity
  8
0
100
AcDbLine
 10
11.57349999999999
 20
132.8730299999999
 30
0.0
 11
12.6675
 21
132.24103
 31
0.0
  0
LINE
  5
5F
330
1E
100
AcDbEntity
  8
0
100
AcDbLine
 10
12.0355
 20
132.6060299999999
 30
0.0
 11
12.6675
 21
132.24103
 31
0.0
  0
LINE
  5
60
330
1E
100
AcDbEntity
  8
0
100
AcDbLine
 10
11.8085
 20
133.31503
 30
0.0
 11
12.3082686178204
 21
134.1806292460649
 31
0.0
  0
LINE
  5
61
330
1E
100
AcDbEntity
  8
0
100
AcDbLine
 10
11.8085
 20
133.31503
 30
0.0
 11
13.0725
 21
132.58503
 31
0.0
  0
LINE
  5
62
330
1E
100
AcDbEntity
  8
0
100
AcDbLine
 10
11.8085
 20
133.31503
 30
0.0
 11
12.2280300432805
 21
134.041656034962
 31
0.0
  0
LINE
  5
63
330
1E
100
AcDbEntity
  8
0
100
AcDbLine
 10
12.5275
 20
134.05403
 30
0.0
 11
16.7625
 21
131.60903
 31
0.0
  0
LINE
  5
64
330
1E
100
AcDbEntity
  8
0
100
AcDbLine
 10
12.9635
 20
132.07103
 30
0.0
 11
13.2217700832777
 21
132.518353784237
 31
0.0
  0
LINE
  5
65
330
1E
100
AcDbEntity
  8
0
100
AcDbLine
 10
12.66786463730059
 20
132.241661551805
 30
0.0
 11
12.9635
 21
132.07103
 31
0.0
  0
LINE
  5
67
330
1E
100
AcDbEntity
  8
0
100
AcDbLine
 10
12.5855
 20
135.17603
 30
0.0
 11
16.8835
 21
132.6940299999999
 31
0.0
  0
LINE
  5
68
330
1E
100
AcDbEntity
  8
0
100
AcDbLine
 10
11.9595
 20
159.78603
 30
0.0
 11
13.7295
 21
158.7640299999999
 31
0.0
  0
LINE
  5
69
330
1E
100
AcDbEntity
  8
0
100
AcDbLine
 10
13.0725
 20
132.58503
 30
0.0
 11
13.5723650309509
 21
133.450796233607
 31
0.0
  0
LINE
  5
6A
330
1E
100
AcDbEntity
  8
0
100
AcDbLine
 10
13.0725
 20
132.58503
 30
0.0
 11
13.4395013542299
 21
133.220676345526
 31
0.0
  0
LINE
  5
6B
330
1E
100
AcDbEntity
  8
0
100
AcDbLine
 10
15.6955
 20
130.49303
 30
0.0
 11
16.009345946902
 21
131.036611180034
 31
0.0
  0
LINE
  5
6C
330
1E
100
AcDbEntity
  8
0
100
AcDbLine
 10
15.0635
 20
130.85803
 30
0.0
 11
15.6955
 21
130.49303
 31
0.0
  0
LINE
  5
6E
330
1E
100
AcDbEntity
  8
0
100
AcDbLine
 10
14.6005
 20
131.12603
 30
0.0
 11
15.6955
 21
130.49303
 31
0.0
  0
LINE
  5
6F
330
1E
100
AcDbEntity
  8
0
100
AcDbLine
 10
13.9685
 20
131.49003
 30
0.0
 11
14.6005
 21
131.12603
 31
0.0
  0
LINE
  5
70
330
1E
100
AcDbEntity
  8
0
100
AcDbLine
 10
13.9685
 20
131.49003
 30
0.0
 11
14.3650232569286
 21
132.177204804257
 31
0.0
  0
LINE
  5
71
330
1E
100
AcDbEntity
  8
0
100
AcDbLine
 10
13.9685
 20
131.49003
 30
0.0
 11
15.0635
 21
130.85803
 31
0.0
  0
LINE
  5
72
330
1E
100
AcDbEntity
  8
0
100
AcDbLine
 10
13.9685
 20
131.49003
 30
0.0
 11
14.1958455096954
 21
131.884019768302
 31
0.0
  0
LINE
  5
73
330
1E
100
AcDbEntity
  8
0
100
AcDbLine
 10
15.87409818697949
 20
130.802362059848
 30
0.0
 11
18.41789782404649
 21
129.162847031249
 31
0.0
  0
LINE
  5
74
330
1E
100
AcDbEntity
  8
0
100
AcDbLine
 10
15.87409818697949
 20
130.802362059848
 30
0.0
 11
18.41789782404649
 21
129.162847031249
 31
0.0
  0
LINE
  5
75
330
1E
100
AcDbEntity
  8
0
100
AcDbLine
 10
13.41849999999999
 20
132.3850299999999
 30
0.0
 11
14.1958455096954
 21
131.884019768302
 31
0.0
  0
LINE
  5
76
330
1E
100
AcDbEntity
  8
0
100
AcDbLine
 10
13.08681052187799
 20
132.6098158238929
 30
0.0
 11
13.41849999999999
 21
132.3850299999999
 31
0.0
  0
LINE
  5
77
330
1E
100
AcDbEntity
  8
0
100
AcDbLine
 10
16.7625
 20
131.60903
 30
0.0
 11
21.4405
 21
128.9080299999999
 31
0.0
  0
LINE
  5
78
330
1E
100
AcDbEntity
  8
0
100
AcDbLine
 10
16.8835
 20
132.6940299999999
 30
0.0
 11
21.6245
 21
129.95703
 31
0.0
  0
LINE
  5
79
330
1E
100
AcDbEntity
  8
0
100
AcDbLine
 10
16.1945
 20
157.34103
 30
0.0
 11
19.3555
 21
155.51603
 31
0.0
  0
LINE
  5
7A
330
1E
100
AcDbEntity
  8
0
100
AcDbLine
 10
13.7295
 20
158.7640299999999
 30
0.0
 11
16.1945
 21
157.34103
 31
0.0
  0
LINE
  5
7C
330
1E
100
AcDbEntity
  8
0
100
AcDbLine
 10
18.6955
 20
128.18403
 30
0.0
 11
19.7905
 21
127.5520299999999
 31
0.0
  0
LINE
  5
7D
330
1E
100
AcDbEntity
  8
0
100
AcDbLine
 10
18.0635
 20
128.54903
 30
0.0
 11
18.6955
 21
128.18403
 31
0.0
  0
LINE
  5
7E
330
1E
100
AcDbEntity
  8
0
100
AcDbLine
 10
18.0635
 20
128.54903
 30
0.0
 11
18.4420960220598
 21
129.204758310208
 31
0.0
  0
LINE
  5
7F
330
1E
100
AcDbEntity
  8
0
100
AcDbLine
 10
18.80049999999999
 20
128.70103
 30
0.0
 11
19.21781550651219
 21
129.423820457279
 31
0.0
  0
LINE
  5
80
330
1E
100
AcDbEntity
  8
0
100
AcDbLine
 10
18.80049999999999
 20
128.70103
 30
0.0
 11
20.0645
 21
127.97103
 31
0.0
  0
LINE
  5
81
330
1E
100
AcDbEntity
  8
0
100
AcDbLine
 10
18.9085
 20
129.21603
 30
0.0
 11
19.3359701795363
 21
129.9564083509569
 31
0.0
  0
LINE
  5
82
330
1E
100
AcDbEntity
  8
0
100
AcDbLine
 10
17.6435
 20
129.94603
 30
0.0
 11
18.1266726095741
 21
130.782884959782
 31
0.0
  0
LINE
  5
83
330
1E
100
AcDbEntity
  8
0
100
AcDbLine
 10
17.6435
 20
129.94603
 30
0.0
 11
18.9085
 21
129.21603
 31
0.0
  0
LINE
  5
84
330
1E
100
AcDbEntity
  8
0
100
AcDbLine
 10
34.23449999999999
 20
117.90903
 30
0.0
 11
34.4565
 21
117.7810299999999
 31
0.0
  0
LINE
  5
85
330
1E
100
AcDbEntity
  8
0
100
AcDbLine
 10
32.3165
 20
119.01703
 30
0.0
 11
32.90449999999999
 21
118.67703
 31
0.0
  0
LINE
  5
86
330
1E
100
AcDbEntity
  8
0
100
AcDbLine
 10
33.8365
 20
118.86503
 30
0.0
 11
34.086563029931
 21
119.29813916784
 31
0.0
  0
LINE
  5
87
330
1E
100
AcDbEntity
  8
0
100
AcDbLine
 10
33.4245
 20
118.37703
 30
0.0
 11
33.8675
 21
118.12103
 31
0.0
  0
LINE
  5
88
330
1E
100
AcDbEntity
  8
0
100
AcDbLine
 10
32.90449999999999
 20
118.67703
 30
0.0
 11
33.4245
 21
118.37703
 31
0.0
  0
LINE
  5
89
330
1E
100
AcDbEntity
  8
0
100
AcDbLine
 10
33.8675
 20
118.12103
 30
0.0
 11
34.23449999999999
 21
117.90903
 31
0.0
  0
LINE
  5
8A
330
1E
100
AcDbEntity
  8
0
100
AcDbLine
 10
36.1485
 20
117.38203
 30
0.0
 11
36.3355
 21
117.27403
 31
0.0
  0
LINE
  5
8B
330
1E
100
AcDbEntity
  8
0
100
AcDbLine
 10
36.1485
 20
117.38203
 30
0.0
 11
36.46268051475879
 21
117.926190651562
 31
0.0
  0
LINE
  5
8C
330
1E
100
AcDbEntity
  8
0
100
AcDbLine
 10
36.3355
 20
117.27403
 30
0.0
 11
36.8345
 21
116.98603
 31
0.0
  0
LINE
  5
8D
330
1E
100
AcDbEntity
  8
0
100
AcDbLine
 10
36.8345
 20
116.98603
 30
0.0
 11
37.6655
 21
116.50603
 31
0.0
  0
LINE
  5
8F
330
1E
100
AcDbEntity
  8
0
100
AcDbLine
 10
34.5325
 20
117.7370299999999
 30
0.0
 11
35.5660166044785
 21
118.443598687008
 31
0.0
  0
LINE
  5
90
330
1E
100
AcDbEntity
  8
0
100
AcDbLine
 10
34.4565
 20
117.7810299999999
 30
0.0
 11
34.5325
 21
117.7370299999999
 31
0.0
  0
LINE
  5
91
330
1E
100
AcDbEntity
  8
0
100
AcDbLine
 10
30.7645
 20
119.9130299999999
 30
0.0
 11
31.2075
 21
119.65703
 31
0.0
  0
LINE
  5
92
330
1E
100
AcDbEntity
  8
0
100
AcDbLine
 10
33.3145
 20
119.74403
 30
0.0
 11
33.564375041938
 21
120.176813572637
 31
0.0
  0
LINE
  5
93
330
1E
100
AcDbEntity
  8
0
100
AcDbLine
 10
33.3145
 20
119.74403
 30
0.0
 11
34.5785
 21
119.01403
 31
0.0
  0
LINE
  5
94
330
1E
100
AcDbEntity
  8
0
100
AcDbLine
 10
32.57249999999999
 20
119.59503
 30
0.0
 11
33.01213788840069
 21
120.35648282271
 31
0.0
  0
LINE
  5
95
330
1E
100
AcDbEntity
  8
0
100
AcDbLine
 10
32.57249999999999
 20
119.59503
 30
0.0
 11
33.8365
 21
118.86503
 31
0.0
  0
LINE
  5
96
330
1E
100
AcDbEntity
  8
0
100
AcDbLine
 10
32.57249999999999
 20
119.59503
 30
0.0
 11
32.9621958823623
 21
120.269983268251
 31
0.0
  0
LINE
  5
97
330
1E
100
AcDbEntity
  8
0
100
AcDbLine
 10
32.57249999999999
 20
119.59503
 30
0.0
 11
33.01213788840069
 21
120.35648282271
 31
0.0
  0
LINE
  5
99
330
1E
100
AcDbEntity
  8
0
100
AcDbLine
 10
31.7275
 20
119.35703
 30
0.0
 11
32.3165
 21
119.01703
 31
0.0
  0
LINE
  5
9A
330
1E
100
AcDbEntity
  8
0
100
AcDbLine
 10
31.2075
 20
119.65703
 30
0.0
 11
31.7275
 21
119.35703
 31
0.0
  0
LINE
  5
9B
330
1E
100
AcDbEntity
  8
0
100
AcDbLine
 10
32.9315
 20
120.54203
 30
0.0
 11
33.181563029931
 21
120.9751391678409
 31
0.0
  0
LINE
  5
9C
330
1E
100
AcDbEntity
  8
0
100
AcDbLine
 10
32.9315
 20
120.54203
 30
0.0
 11
34.1965
 21
119.81203
 31
0.0
  0
LINE
  5
9E
330
1E
100
AcDbEntity
  8
0
100
AcDbLine
 10
30.17549999999999
 20
120.25303
 30
0.0
 11
30.39649999999999
 21
120.12503
 31
0.0
  0
LINE
  5
9F
330
1E
100
AcDbEntity
  8
0
100
AcDbLine
 10
30.39649999999999
 20
120.12503
 30
0.0
 11
30.7645
 21
119.9130299999999
 31
0.0
  0
LINE
  5
A0
330
1E
100
AcDbEntity
  8
0
100
AcDbLine
 10
30.0985
 20
120.29703
 30
0.0
 11
30.17549999999999
 21
120.25303
 31
0.0
  0
LINE
  5
A1
330
1E
100
AcDbEntity
  8
0
100
AcDbLine
 10
30.0985
 20
120.29703
 30
0.0
 11
30.1963817856114
 21
121.5807128642639
 31
0.0
  0
LINE
  5
A2
330
1E
100
AcDbEntity
  8
0
100
AcDbLine
 10
34.0863070788001
 20
119.297695860482
 30
0.0
 11
34.9795
 21
118.78203
 31
0.0
  0
LINE
  5
A3
330
1E
100
AcDbEntity
  8
0
100
AcDbLine
 10
38.76749999999999
 20
115.87003
 30
0.0
 11
40.0145
 21
115.15003
 31
0.0
  0
LINE
  5
A4
330
1E
100
AcDbEntity
  8
0
100
AcDbLine
 10
40.0145
 20
115.15003
 30
0.0
 11
41.3445
 21
114.38203
 31
0.0
  0
LINE
  5
A5
330
1E
100
AcDbEntity
  8
0
100
AcDbLine
 10
42.6745
 20
113.61403
 30
0.0
 11
43.3095020835861
 21
113.247388861121
 31
0.0
  0
LINE
  5
A6
330
1E
100
AcDbEntity
  8
0
100
AcDbLine
 10
41.3445
 20
114.38203
 30
0.0
 11
42.6745
 21
113.61403
 31
0.0
  0
LINE
  5
A7
330
1E
100
AcDbEntity
  8
0
100
AcDbLine
 10
45.6982900000039
 20
111.290669999998
 30
0.0
 11
46.0555
 21
111.08403
 31
0.0
  0
LINE
  5
A8
330
1E
100
AcDbEntity
  8
0
100
AcDbLine
 10
44.5383776595736
 20
111.96049675532
 30
0.0
 11
44.9195
 21
111.74003
 31
0.0
  0
LINE
  5
A9
330
1E
100
AcDbEntity
  8
0
100
AcDbLine
 10
43.9205
 20
112.3170299999999
 30
0.0
 11
44.3725
 21
112.05603
 31
0.0
  0
LINE
  5
AA
330
1E
100
AcDbEntity
  8
0
100
AcDbLine
 10
44.3725
 20
112.05603
 30
0.0
 11
44.91249999999999
 21
111.74503
 31
0.0
  0
LINE
  5
AB
330
1E
100
AcDbEntity
  8
0
100
AcDbLine
 10
44.9195
 20
111.74003
 30
0.0
 11
45.2682647058817
 21
111.539226078432
 31
0.0
  0
LINE
  5
AC
330
1E
100
AcDbEntity
  8
0
100
AcDbLine
 10
44.91249999999999
 20
111.74503
 30
0.0
 11
45.4795
 21
111.41703
 31
0.0
  0
LINE
  5
AD
330
1E
100
AcDbEntity
  8
0
100
AcDbLine
 10
45.4795
 20
111.41703
 30
0.0
 11
46.04049999999999
 21
111.0930299999999
 31
0.0
  0
LINE
  5
AE
330
1E
100
AcDbEntity
  8
0
100
AcDbLine
 10
46.5965
 20
110.7720299999999
 30
0.0
 11
47.0130628140988
 21
110.5314671859129
 31
0.0
  0
LINE
  5
AF
330
1E
100
AcDbEntity
  8
0
100
AcDbLine
 10
47.6355
 20
110.1720299999999
 30
0.0
 11
47.6950000000001
 21
110.137905
 31
0.0
  0
LINE
  5
B0
330
1E
100
AcDbEntity
  8
0
100
AcDbLine
 10
47.49110000000129
 20
110.255629999999
 30
0.0
 11
47.6355
 21
110.1720299999999
 31
0.0
  0
LINE
  5
B1
330
1E
100
AcDbEntity
  8
0
100
AcDbLine
 10
47.3995
 20
110.30803
 30
0.0
 11
47.5970493562225
 21
110.1950214163089
 31
0.0
  0
LINE
  5
B2
330
1E
100
AcDbEntity
  8
0
100
AcDbLine
 10
47.60049999999999
 20
110.19303
 30
0.0
 11
47.6965
 21
110.13703
 31
0.0
  0
LINE
  5
B3
330
1E
100
AcDbEntity
  8
0
100
AcDbLine
 10
47.70349999999999
 20
110.13303
 30
0.0
 11
48.73025360982861
 21
110.8431072217419
 31
0.0
  0
LINE
  5
B4
330
1E
100
AcDbEntity
  8
0
100
AcDbLine
 10
47.6965
 20
110.13703
 30
0.0
 11
48.7232861580243
 21
110.847129731264
 31
0.0
  0
LINE
  5
B5
330
1E
100
AcDbEntity
  8
0
100
AcDbLine
 10
47.0887499999795
 20
110.487780000012
 30
0.0
 11
47.2497399999998
 21
110.394974
 31
0.0
  0
LINE
  5
B6
330
1E
100
AcDbEntity
  8
0
100
AcDbLine
 10
47.2120345622107
 20
110.416864101383
 30
0.0
 11
47.3995
 21
110.30803
 31
0.0
  0
LINE
  5
B7
330
1E
100
AcDbEntity
  8
0
100
AcDbLine
 10
47.3995
 20
110.30903
 30
0.0
 11
47.60049999999999
 21
110.19303
 31
0.0
  0
LINE
  5
B8
330
1E
100
AcDbEntity
  8
0
100
AcDbLine
 10
47.0605
 20
110.5040299999999
 30
0.0
 11
47.3995
 21
110.30903
 31
0.0
  0
LINE
  5
B9
330
1E
100
AcDbEntity
  8
0
100
AcDbLine
 10
46.4296223404264
 20
110.8685632446799
 30
0.0
 11
46.5965
 21
110.7720299999999
 31
0.0
  0
LINE
  5
BA
330
1E
100
AcDbEntity
  8
0
100
AcDbLine
 10
46.0555
 20
111.08403
 30
0.0
 11
46.5445566037726
 21
110.802369622642
 31
0.0
  0
LINE
  5
BB
330
1E
100
AcDbEntity
  8
0
100
AcDbLine
 10
46.5885
 20
110.77703
 30
0.0
 11
47.0605
 21
110.5040299999999
 31
0.0
  0
LINE
  5
BC
330
1E
100
AcDbEntity
  8
0
100
AcDbLine
 10
46.04049999999999
 20
111.0930299999999
 30
0.0
 11
46.5885
 21
110.77703
 31
0.0
  0
LINE
  5
BD
330
1E
100
AcDbEntity
  8
0
100
AcDbLine
 10
43.3675
 20
112.6360299999999
 30
0.0
 11
43.4256573604054
 21
112.602755888325
 31
0.0
  0
LINE
  5
BE
330
1E
100
AcDbEntity
  8
0
100
AcDbLine
 10
43.33149999999999
 20
112.65703
 30
0.0
 11
43.56049999999999
 21
112.52503
 31
0.0
  0
LINE
  5
BF
330
1E
100
AcDbEntity
  8
0
100
AcDbLine
 10
43.2645
 20
112.69603
 30
0.0
 11
43.36606205650279
 21
113.9403532700419
 31
0.0
  0
LINE
  5
C0
330
1E
100
AcDbEntity
  8
0
100
AcDbLine
 10
43.2645
 20
112.69603
 30
0.0
 11
43.33149999999999
 21
112.65703
 31
0.0
  0
LINE
  5
C1
330
1E
100
AcDbEntity
  8
0
100
AcDbLine
 10
43.56049999999999
 20
112.52503
 30
0.0
 11
43.8995
 21
112.32903
 31
0.0
  0
LINE
  5
C2
330
1E
100
AcDbEntity
  8
0
100
AcDbLine
 10
43.56049999999999
 20
112.52503
 30
0.0
 11
43.9205
 21
112.3170299999999
 31
0.0
  0
LINE
  5
C3
330
1E
100
AcDbEntity
  8
0
100
AcDbLine
 10
43.8995
 20
112.32903
 30
0.0
 11
44.00798387095121
 21
112.266513870977
 31
0.0
  0
LINE
  5
C4
330
1E
100
AcDbEntity
  8
0
100
AcDbLine
 10
43.1345
 20
114.07403
 30
0.0
 11
44.5255
 21
113.27103
 31
0.0
  0
LINE
  5
C5
330
1E
100
AcDbEntity
  8
0
100
AcDbLine
 10
41.04849999999999
 20
115.27903
 30
0.0
 11
42.3125
 21
114.54903
 31
0.0
  0
LINE
  5
C6
330
1E
100
AcDbEntity
  8
0
100
AcDbLine
 10
41.04849999999999
 20
115.27903
 30
0.0
 11
41.54841246157129
 21
116.144878383442
 31
0.0
  0
LINE
  5
C7
330
1E
100
AcDbEntity
  8
0
100
AcDbLine
 10
40.79849999999999
 20
114.84503
 30
0.0
 11
42.06249999999999
 21
114.11603
 31
0.0
  0
LINE
  5
C8
330
1E
100
AcDbEntity
  8
0
100
AcDbLine
 10
40.79849999999999
 20
114.84503
 30
0.0
 11
41.048824600618
 21
115.2788425328709
 31
0.0
  0
LINE
  5
CA
330
1E
100
AcDbEntity
  8
0
100
AcDbLine
 10
41.2985
 20
115.71203
 30
0.0
 11
41.54849999999999
 21
116.14503
 31
0.0
  0
LINE
  5
CB
330
1E
100
AcDbEntity
  8
0
100
AcDbLine
 10
42.3125
 20
114.54903
 30
0.0
 11
42.5625
 21
114.98203
 31
0.0
  0
LINE
  5
CC
330
1E
100
AcDbEntity
  8
0
100
AcDbLine
 10
42.5625
 20
114.98203
 30
0.0
 11
42.8125
 21
115.4150299999999
 31
0.0
  0
LINE
  5
CD
330
1E
100
AcDbEntity
  8
0
100
AcDbLine
 10
42.8125
 20
115.4150299999999
 30
0.0
 11
43.3125210990395
 21
116.281066543536
 31
0.0
  0
LINE
  5
CF
330
1E
100
AcDbEntity
  8
0
100
AcDbLine
 10
41.54849999999999
 20
116.14503
 30
0.0
 11
42.04842913943779
 21
117.010907269506
 31
0.0
  0
LINE
  5
D0
330
1E
100
AcDbEntity
  8
0
100
AcDbLine
 10
42.3124493795722
 20
114.548942325419
 30
0.0
 11
43.1345
 21
114.07403
 31
0.0
  0
LINE
  5
D1
330
1E
100
AcDbEntity
  8
0
100
AcDbLine
 10
40.2265
 20
115.75303
 30
0.0
 11
41.0486871214029
 21
115.278604281391
 31
0.0
  0
LINE
  5
D2
330
1E
100
AcDbEntity
  8
0
100
AcDbLine
 10
37.6655
 20
116.50603
 30
0.0
 11
38.76749999999999
 21
115.87003
 31
0.0
  0
LINE
  5
D3
330
1E
100
AcDbEntity
  8
0
100
AcDbLine
 10
38.8355
 20
116.55603
 30
0.0
 11
40.2265
 21
115.75303
 31
0.0
  0
LINE
  5
D4
330
1E
100
AcDbEntity
  8
0
100
AcDbLine
 10
43.3125210990395
 20
116.281066543536
 30
0.0
 11
48.1805
 21
113.47003
 31
0.0
  0
LINE
  5
D5
330
1E
100
AcDbEntity
  8
0
100
AcDbLine
 10
48.0535
 20
113.54303
 30
0.0
 11
52.43730520940339
 21
111.012183454197
 31
0.0
  0
LINE
  5
D6
330
1E
100
AcDbEntity
  8
0
100
AcDbLine
 10
48.0535
 20
113.54303
 30
0.0
 11
49.78123844368589
 21
112.5455767229079
 31
0.0
  0
LINE
  5
D7
330
1E
100
AcDbEntity
  8
0
100
AcDbLine
 10
37.4455
 20
117.35903
 30
0.0
 11
38.8355
 21
116.55603
 31
0.0
  0
LINE
  5
D8
330
1E
100
AcDbEntity
  8
0
100
AcDbLine
 10
43.1805
 20
117.51203
 30
0.0
 11
48.74349999999999
 21
114.30003
 31
0.0
  0
LINE
  5
D9
330
1E
100
AcDbEntity
  8
0
100
AcDbLine
 10
42.6805
 20
116.64603
 30
0.0
 11
48.1805
 21
113.47003
 31
0.0
  0
LINE
  5
DA
330
1E
100
AcDbEntity
  8
0
100
AcDbLine
 10
42.6805
 20
116.64603
 30
0.0
 11
48.0535
 21
113.54303
 31
0.0
  0
LINE
  5
DB
330
1E
100
AcDbEntity
  8
0
100
AcDbLine
 10
37.1805
 20
119.82103
 30
0.0
 11
42.6805
 21
116.64603
 31
0.0
  0
LINE
  5
DC
330
1E
100
AcDbEntity
  8
0
100
AcDbLine
 10
24.5655
 20
125.37203
 30
0.0
 11
24.81574595375249
 21
125.805455991899
 31
0.0
  0
LINE
  5
DD
330
1E
100
AcDbEntity
  8
0
100
AcDbLine
 10
24.5655
 20
125.37203
 30
0.0
 11
25.8295
 21
124.64203
 31
0.0
  0
LINE
  5
DF
330
1E
100
AcDbEntity
  8
0
100
AcDbLine
 10
25.4985
 20
123.67903
 30
0.0
 11
26.59349999999999
 21
123.04603
 31
0.0
  0
LINE
  5
E0
330
1E
100
AcDbEntity
  8
0
100
AcDbLine
 10
24.8665
 20
124.04403
 30
0.0
 11
25.4985
 21
123.67903
 31
0.0
  0
LINE
  5
E1
330
1E
100
AcDbEntity
  8
0
100
AcDbLine
 10
24.8665
 20
124.04403
 30
0.0
 11
25.2770058891143
 21
124.755026199946
 31
0.0
  0
LINE
  5
E2
330
1E
100
AcDbEntity
  8
0
100
AcDbLine
 10
24.8665
 20
124.04403
 30
0.0
 11
25.9615
 21
123.41103
 31
0.0
  0
LINE
  5
E3
330
1E
100
AcDbEntity
  8
0
100
AcDbLine
 10
25.5105
 20
124.24903
 30
0.0
 11
25.7604349147452
 21
124.681917272339
 31
0.0
  0
LINE
  5
E4
330
1E
100
AcDbEntity
  8
0
100
AcDbLine
 10
25.5105
 20
124.24903
 30
0.0
 11
26.7745
 21
123.5190299999999
 31
0.0
  0
LINE
  5
E5
330
1E
100
AcDbEntity
  8
0
100
AcDbLine
 10
25.9615
 20
123.41103
 30
0.0
 11
26.59349999999999
 21
123.04603
 31
0.0
  0
LINE
  5
E7
330
1E
100
AcDbEntity
  8
0
100
AcDbLine
 10
26.7745
 20
123.5190299999999
 30
0.0
 11
27.1542424328348
 21
124.1767438936699
 31
0.0
  0
LINE
  5
E8
330
1E
100
AcDbEntity
  8
0
100
AcDbLine
 10
25.8295
 20
124.64203
 30
0.0
 11
26.1636702751671
 21
125.2208129165889
 31
0.0
  0
LINE
  5
E9
330
1E
100
AcDbEntity
  8
0
100
AcDbLine
 10
25.9385
 20
125.15703
 30
0.0
 11
26.43863645085789
 21
126.023266332886
 31
0.0
  0
LINE
  5
EA
330
1E
100
AcDbEntity
  8
0
100
AcDbLine
 10
24.67449999999999
 20
125.88703
 30
0.0
 11
25.174442124405
 21
126.7529297594689
 31
0.0
  0
LINE
  5
EB
330
1E
100
AcDbEntity
  8
0
100
AcDbLine
 10
24.67449999999999
 20
125.88703
 30
0.0
 11
25.9385
 21
125.15703
 31
0.0
  0
LINE
  5
EC
330
1E
100
AcDbEntity
  8
0
100
AcDbLine
 10
24.67449999999999
 20
125.88703
 30
0.0
 11
25.0244370657016
 21
126.4931209977949
 31
0.0
  0
LINE
  5
ED
330
1E
100
AcDbEntity
  8
0
100
AcDbLine
 10
26.6075
 20
123.03903
 30
0.0
 11
27.2395
 21
122.67403
 31
0.0
  0
LINE
  5
EF
330
1E
100
AcDbEntity
  8
0
100
AcDbLine
 10
26.6075
 20
123.03903
 30
0.0
 11
27.7015
 21
122.40703
 31
0.0
  0
LINE
  5
F1
330
1E
100
AcDbEntity
  8
0
100
AcDbLine
 10
26.88300687538
 20
123.706963908158
 30
0.0
 11
26.9632740156817
 21
123.655230595161
 31
0.0
  0
LINE
  5
F2
330
1E
100
AcDbEntity
  8
0
100
AcDbLine
 10
26.5798912940461
 20
125.941707721288
 30
0.0
 11
31.9345
 21
122.85003
 31
0.0
  0
LINE
  5
F3
330
1E
100
AcDbEntity
  8
0
100
AcDbLine
 10
27.7015
 20
122.40703
 30
0.0
 11
28.3335
 21
122.04203
 31
0.0
  0
LINE
  5
F4
330
1E
100
AcDbEntity
  8
0
100
AcDbLine
 10
28.3335
 20
122.04203
 30
0.0
 11
28.71731779356539
 21
122.706802418455
 31
0.0
  0
LINE
  5
F7
330
1E
100
AcDbEntity
  8
0
100
AcDbLine
 10
27.2395
 20
122.67403
 30
0.0
 11
28.3335
 21
122.04203
 31
0.0
  0
LINE
  5
F8
330
1E
100
AcDbEntity
  8
0
100
AcDbLine
 10
28.6407022310305
 20
122.5741042641449
 30
0.0
 11
30.195708328596
 21
121.571880728386
 31
0.0
  0
LINE
  5
F9
330
1E
100
AcDbEntity
  8
0
100
AcDbLine
 10
27.1295
 20
125.6240299999999
 30
0.0
 11
32.8195
 21
122.33903
 31
0.0
  0
LINE
  5
FA
330
1E
100
AcDbEntity
  8
0
100
AcDbLine
 10
22.0145
 20
126.26803
 30
0.0
 11
22.3518687020251
 21
126.852352591907
 31
0.0
  0
LINE
  5
FC
330
1E
100
AcDbEntity
  8
0
100
AcDbLine
 10
20.9195
 20
126.90003
 30
0.0
 11
22.0145
 21
126.26803
 31
0.0
  0
LINE
  5
FD
330
1E
100
AcDbEntity
  8
0
100
AcDbLine
 10
22.2571898168278
 20
126.688368762746
 30
0.0
 11
25.5159685771535
 21
124.588039525103
 31
0.0
  0
LINE
  5
FE
330
1E
100
AcDbEntity
  8
0
100
AcDbLine
 10
22.2571898168278
 20
126.688368762746
 30
0.0
 11
25.5159685771535
 21
124.588039525103
 31
0.0
  0
LINE
  5
FF
330
1E
100
AcDbEntity
  8
0
100
AcDbLine
 10
26.3715
 20
126.06203
 30
0.0
 11
31.9345
 21
122.85003
 31
0.0
  0
LINE
  5
100
330
1E
100
AcDbEntity
  8
0
100
AcDbLine
 10
31.9345
 20
122.85003
 30
0.0
 11
37.1805
 21
119.82103
 31
0.0
  0
LINE
  5
101
330
1E
100
AcDbEntity
  8
0
100
AcDbLine
 10
31.9345
 20
122.85003
 30
0.0
 11
32.9236947903722
 21
122.278876545933
 31
0.0
  0
LINE
  5
102
330
1E
100
AcDbEntity
  8
0
100
AcDbLine
 10
31.9345
 20
122.85003
 30
0.0
 11
32.9236947903722
 21
122.278876545933
 31
0.0
  0
LINE
  5
103
330
1E
100
AcDbEntity
  8
0
100
AcDbLine
 10
19.8425
 20
127.5220299999999
 30
0.0
 11
20.1465758906198
 21
128.048689442554
 31
0.0
  0
LINE
  5
104
330
1E
100
AcDbEntity
  8
0
100
AcDbLine
 10
19.790505536792
 20
127.552039589724
 30
0.0
 11
19.8425
 21
127.5220299999999
 31
0.0
  0
LINE
  5
105
330
1E
100
AcDbEntity
  8
0
100
AcDbLine
 10
19.7905
 20
127.5520299999999
 30
0.0
 11
20.0404397105008
 21
127.984925578587
 31
0.0
  0
LINE
  5
106
330
1E
100
AcDbEntity
  8
0
100
AcDbLine
 10
20.0645
 20
127.97103
 30
0.0
 11
20.4073021619588
 21
128.5647633445129
 31
0.0
  0
LINE
  5
107
330
1E
100
AcDbEntity
  8
0
100
AcDbLine
 10
20.0645
 20
127.97103
 30
0.0
 11
20.3799259622748
 21
128.51734776666
 31
0.0
  0
LINE
  5
108
330
1E
100
AcDbEntity
  8
0
100
AcDbLine
 10
20.2875
 20
127.26503
 30
0.0
 11
20.9195
 21
126.90003
 31
0.0
  0
LINE
  5
109
330
1E
100
AcDbEntity
  8
0
100
AcDbLine
 10
20.2875
 20
127.26503
 30
0.0
 11
20.6725503436466
 21
127.9319371951959
 31
0.0
  0
LINE
  5
10A
330
1E
100
AcDbEntity
  8
0
100
AcDbLine
 10
20.1194369829006
 20
128.066180854384
 30
0.0
 11
20.5790328029772
 21
127.7699648147569
 31
0.0
  0
LINE
  5
10B
330
1E
100
AcDbEntity
  8
0
100
AcDbLine
 10
20.1194369829006
 20
128.066180854384
 30
0.0
 11
20.5790328029772
 21
127.7699648147569
 31
0.0
  0
LINE
  5
10C
330
1E
100
AcDbEntity
  8
0
100
AcDbLine
 10
21.4405
 20
128.9080299999999
 30
0.0
 11
26.3715
 21
126.06203
 31
0.0
  0
LINE
  5
10D
330
1E
100
AcDbEntity
  8
0
100
AcDbLine
 10
23.48034023317079
 20
127.730705866233
 30
0.0
 11
27.1295
 21
125.6240299999999
 31
0.0
  0
LINE
  5
10E
330
1E
100
AcDbEntity
  8
0
100
AcDbLine
 10
23.48034023317079
 20
127.730705866233
 30
0.0
 11
27.1295
 21
125.6240299999999
 31
0.0
  0
LINE
  5
10F
330
1E
100
AcDbEntity
  8
0
100
AcDbLine
 10
21.6245
 20
129.95703
 30
0.0
 11
26.6185
 21
127.07403
 31
0.0
  0
LINE
  5
110
330
1E
100
AcDbEntity
  8
0
100
AcDbLine
 10
26.6185
 20
127.07403
 30
0.0
 11
31.99149999999999
 21
123.97103
 31
0.0
  0
LINE
  5
111
330
1E
100
AcDbEntity
  8
0
100
AcDbLine
 10
33.04149999999999
 20
121.05603
 30
0.0
 11
33.4826673597058
 21
121.8201318670109
 31
0.0
  0
LINE
  5
112
330
1E
100
AcDbEntity
  8
0
100
AcDbLine
 10
33.04149999999999
 20
121.05603
 30
0.0
 11
34.3055
 21
120.3260299999999
 31
0.0
  0
LINE
  5
113
330
1E
100
AcDbEntity
  8
0
100
AcDbLine
 10
32.8195
 20
122.33903
 30
0.0
 11
32.9236947903722
 21
122.278876545933
 31
0.0
  0
LINE
  5
114
330
1E
100
AcDbEntity
  8
0
100
AcDbLine
 10
32.8195
 20
122.33903
 30
0.0
 11
32.9236947903722
 21
122.278876545933
 31
0.0
  0
LINE
  5
115
330
1E
100
AcDbEntity
  8
0
100
AcDbLine
 10
31.99149999999999
 20
123.97103
 30
0.0
 11
37.6175
 21
120.72303
 31
0.0
  0
LINE
  5
116
330
1E
100
AcDbEntity
  8
0
100
AcDbLine
 10
37.6175
 20
120.72303
 30
0.0
 11
43.1805
 21
117.51203
 31
0.0
  0
LINE
  5
117
330
1E
100
AcDbEntity
  8
0
100
AcDbLine
 10
48.7815
 20
110.81303
 30
0.0
 11
49.25198236860549
 21
110.541898263468
 31
0.0
  0
LINE
  5
118
330
1E
100
AcDbEntity
  8
0
100
AcDbLine
 10
48.7815
 20
110.81303
 30
0.0
 11
50.0465
 21
110.0840299999999
 31
0.0
  0
LINE
  5
119
330
1E
100
AcDbEntity
  8
0
100
AcDbLine
 10
48.7815
 20
110.81303
 30
0.0
 11
49.04265400176079
 21
111.265609885051
 31
0.0
  0
LINE
  5
11A
330
1E
100
AcDbEntity
  8
0
100
AcDbLine
 10
49.0245
 20
110.09603
 30
0.0
 11
50.2885
 21
109.36603
 31
0.0
  0
LINE
  5
11B
330
1E
100
AcDbEntity
  8
0
100
AcDbLine
 10
49.0245
 20
110.09603
 30
0.0
 11
49.2744429227219
 21
110.528931142154
 31
0.0
  0
LINE
  5
11C
330
1E
100
AcDbEntity
  8
0
100
AcDbLine
 10
49.0245
 20
110.09603
 30
0.0
 11
49.27445308187039
 21
110.5289487378
 31
0.0
  0
LINE
  5
11D
330
1E
100
AcDbEntity
  8
0
100
AcDbLine
 10
48.73025360982861
 20
110.8431072217419
 30
0.0
 11
48.7817126159213
 21
110.8133984633919
 31
0.0
  0
LINE
  5
11E
330
1E
100
AcDbEntity
  8
0
100
AcDbLine
 10
50.2885
 20
109.36603
 30
0.0
 11
50.7283521237683
 21
110.127853878367
 31
0.0
  0
LINE
  5
11F
330
1E
100
AcDbEntity
  8
0
100
AcDbLine
 10
50.0465
 20
110.0840299999999
 30
0.0
 11
50.2961918842306
 21
110.5164963434869
 31
0.0
  0
LINE
  5
120
330
1E
100
AcDbEntity
  8
0
100
AcDbLine
 10
50.9295
 20
110.15103
 30
0.0
 11
51.179436970069
 21
110.58392083216
 31
0.0
  0
LINE
  5
121
330
1E
100
AcDbEntity
  8
0
100
AcDbLine
 10
49.6645
 20
110.88103
 30
0.0
 11
50.9295
 21
110.15103
 31
0.0
  0
LINE
  5
122
330
1E
100
AcDbEntity
  8
0
100
AcDbLine
 10
49.6645
 20
110.88103
 30
0.0
 11
49.983446039084
 21
111.4334445396929
 31
0.0
  0
LINE
  5
123
330
1E
100
AcDbEntity
  8
0
100
AcDbLine
 10
51.31949999999999
 20
110.50303
 30
0.0
 11
51.7605396039045
 21
111.2669105939629
 31
0.0
  0
LINE
  5
124
330
1E
100
AcDbEntity
  8
0
100
AcDbLine
 10
51.28849999999999
 20
109.36603
 30
0.0
 11
51.8575
 21
109.03803
 31
0.0
  0
LINE
  5
125
330
1E
100
AcDbEntity
  8
0
100
AcDbLine
 10
50.0555
 20
111.2330299999999
 30
0.0
 11
51.31949999999999
 21
110.50303
 31
0.0
  0
LINE
  5
126
330
1E
100
AcDbEntity
  8
0
100
AcDbLine
 10
50.0555
 20
111.2330299999999
 30
0.0
 11
50.5553671902239
 21
112.098799973468
 31
0.0
  0
LINE
  5
127
330
1E
100
AcDbEntity
  8
0
100
AcDbLine
 10
48.38049999999999
 20
111.04503
 30
0.0
 11
48.7817126159213
 21
110.8133984633919
 31
0.0
  0
LINE
  5
128
330
1E
100
AcDbEntity
  8
0
100
AcDbLine
 10
51.8575
 20
109.03803
 30
0.0
 11
52.3635
 21
108.74603
 31
0.0
  0
LINE
  5
129
330
1E
100
AcDbEntity
  8
0
100
AcDbLine
 10
52.3635
 20
108.74603
 30
0.0
 11
52.6165
 21
108.60003
 31
0.0
  0
LINE
  5
12A
330
1E
100
AcDbEntity
  8
0
100
AcDbLine
 10
52.7425
 20
108.52703
 30
0.0
 11
54.83424813148211
 21
107.4520497637269
 31
0.0
  0
LINE
  5
12B
330
1E
100
AcDbEntity
  8
0
100
AcDbLine
 10
51.81942339024971
 20
111.368897311912
 30
0.0
 11
52.43730520940339
 21
111.012183454197
 31
0.0
  0
LINE
  5
12C
330
1E
100
AcDbEntity
  8
0
100
AcDbLine
 10
51.8194434588585
 20
111.368932070743
 30
0.0
 11
52.43730520940339
 21
111.012183454197
 31
0.0
  0
LINE
  5
12D
330
1E
100
AcDbEntity
  8
0
100
AcDbLine
 10
53.42649999999999
 20
110.44103
 30
0.0
 11
58.9895
 21
107.2300299999999
 31
0.0
  0
LINE
  5
12E
330
1E
100
AcDbEntity
  8
0
100
AcDbLine
 10
48.1805
 20
113.47003
 30
0.0
 11
53.42649999999999
 21
110.44103
 31
0.0
  0
LINE
  5
12F
330
1E
100
AcDbEntity
  8
0
100
AcDbLine
 10
48.1805
 20
113.47003
 30
0.0
 11
49.7813246745671
 21
112.545726161025
 31
0.0
  0
LINE
  5
130
330
1E
100
AcDbEntity
  8
0
100
AcDbLine
 10
56.2675
 20
105.9150299999999
 30
0.0
 11
57.3625
 21
105.28203
 31
0.0
  0
LINE
  5
132
330
1E
100
AcDbEntity
  8
0
100
AcDbLine
 10
55.1585
 20
106.55403
 30
0.0
 11
56.2535
 21
105.92203
 31
0.0
  0
LINE
  5
133
330
1E
100
AcDbEntity
  8
0
100
AcDbLine
 10
54.5265
 20
106.91903
 30
0.0
 11
55.62149999999999
 21
106.2870299999999
 31
0.0
  0
LINE
  5
134
330
1E
100
AcDbEntity
  8
0
100
AcDbLine
 10
54.5265
 20
106.91903
 30
0.0
 11
54.9106143724822
 21
107.5843160931389
 31
0.0
  0
LINE
  5
135
330
1E
100
AcDbEntity
  8
0
100
AcDbLine
 10
54.5265
 20
106.91903
 30
0.0
 11
55.1585
 21
106.55403
 31
0.0
  0
LINE
  5
136
330
1E
100
AcDbEntity
  8
0
100
AcDbLine
 10
54.5265
 20
106.91903
 30
0.0
 11
54.83424813148211
 21
107.4520497637269
 31
0.0
  0
LINE
  5
13A
330
1E
100
AcDbEntity
  8
0
100
AcDbLine
 10
55.62149999999999
 20
106.2870299999999
 30
0.0
 11
56.2535
 21
105.92203
 31
0.0
  0
LINE
  5
13E
330
1E
100
AcDbEntity
  8
0
100
AcDbLine
 10
57.85029999999999
 20
105.5780299999999
 30
0.0
 11
58.1003691835885
 21
106.0111498259749
 31
0.0
  0
LINE
  5
13F
330
1E
100
AcDbEntity
  8
0
100
AcDbLine
 10
57.3625
 20
105.28203
 30
0.0
 11
57.9941
 21
104.91703
 31
0.0
  0
LINE
  5
141
330
1E
100
AcDbEntity
  8
0
100
AcDbLine
 10
57.9941
 20
104.91703
 30
0.0
 11
58.4049308002926
 21
105.628999776907
 31
0.0
  0
LINE
  5
142
330
1E
100
AcDbEntity
  8
0
100
AcDbLine
 10
58.0313
 20
106.05103
 30
0.0
 11
59.2956
 21
105.32103
 31
0.0
  0
LINE
  5
144
330
1E
100
AcDbEntity
  8
0
100
AcDbLine
 10
58.4219
 20
106.4030299999999
 30
0.0
 11
59.6861
 21
105.67303
 31
0.0
  0
LINE
  5
145
330
1E
100
AcDbEntity
  8
0
100
AcDbLine
 10
58.4219
 20
106.4030299999999
 30
0.0
 11
58.921908298228
 21
107.2690443725309
 31
0.0
  0
LINE
  5
146
330
1E
100
AcDbEntity
  8
0
100
AcDbLine
 10
58.4219
 20
106.4030299999999
 30
0.0
 11
58.7036640861134
 21
106.8910453971479
 31
0.0
  0
LINE
  5
147
330
1E
100
AcDbEntity
  8
0
100
AcDbLine
 10
58.0063497722091
 20
105.821859914429
 30
0.0
 11
61.58897786517551
 21
103.9806944624839
 31
0.0
  0
LINE
  5
149
330
1E
100
AcDbEntity
  8
0
100
AcDbLine
 10
58.6730123179891
 20
107.412708760909
 30
0.0
 11
62.972
 21
104.93003
 31
0.0
  0
LINE
  5
14A
330
1E
100
AcDbEntity
  8
0
100
AcDbLine
 10
58.6730123179891
 20
107.412708760909
 30
0.0
 11
58.78136160963979
 21
107.3501367078959
 31
0.0
  0
LINE
  5
14B
330
1E
100
AcDbEntity
  8
0
100
AcDbLine
 10
58.9895
 20
107.2300299999999
 30
0.0
 11
63.92009999999999
 21
104.3830299999999
 31
0.0
  0
LINE
  5
14C
330
1E
100
AcDbEntity
  8
0
100
AcDbLine
 10
54.3695
 20
111.05203
 30
0.0
 11
59.7423
 21
107.95003
 31
0.0
  0
LINE
  5
14D
330
1E
100
AcDbEntity
  8
0
100
AcDbLine
 10
48.74349999999999
 20
114.30003
 30
0.0
 11
54.3695
 21
111.05203
 31
0.0
  0
LINE
  5
14E
330
1E
100
AcDbEntity
  8
0
100
AcDbLine
 10
59.2956
 20
105.32103
 30
0.0
 11
59.54565644619679
 21
105.754127764813
 31
0.0
  0
LINE
  5
14F
330
1E
100
AcDbEntity
  8
0
100
AcDbLine
 10
59.2432
 20
132.48603
 30
0.0
 11
64.86920000000001
 21
129.23803
 31
0.0
  0
LINE
  5
150
330
1E
100
AcDbEntity
  8
0
100
AcDbLine
 10
53.6805
 20
135.69803
 30
0.0
 11
59.2432
 21
132.48603
 31
0.0
  0
LINE
  5
151
330
1E
100
AcDbEntity
  8
0
100
AcDbLine
 10
61.3461
 20
103.56003
 30
0.0
 11
62.44089999999999
 21
102.92703
 31
0.0
  0
LINE
  5
152
330
1E
100
AcDbEntity
  8
0
100
AcDbLine
 10
61.3461
 20
103.56003
 30
0.0
 11
61.68344425699991
 21
104.144310253124
 31
0.0
  0
LINE
  5
153
330
1E
100
AcDbEntity
  8
0
100
AcDbLine
 10
62.44089999999999
 20
102.92703
 30
0.0
 11
63.0731
 21
102.56203
 31
0.0
  0
LINE
  5
155
330
1E
100
AcDbEntity
  8
0
100
AcDbLine
 10
63.0731
 20
102.56203
 30
0.0
 11
63.45827128285719
 21
103.2295318331919
 31
0.0
  0
LINE
  5
156
330
1E
100
AcDbEntity
  8
0
100
AcDbLine
 10
63.7964
 20
102.7220299999999
 30
0.0
 11
65.0607
 21
101.99203
 31
0.0
  0
LINE
  5
159
330
1E
100
AcDbEntity
  8
0
100
AcDbLine
 10
63.518
 20
102.30603
 30
0.0
 11
63.5707054914771
 21
102.275559111238
 31
0.0
  0
LINE
  5
15A
330
1E
100
AcDbEntity
  8
0
100
AcDbLine
 10
63.518
 20
102.30603
 30
0.0
 11
63.82224641668571
 21
102.8329847936999
 31
0.0
  0
LINE
  5
15B
330
1E
100
AcDbEntity
  8
0
100
AcDbLine
 10
63.5704
 20
102.27503
 30
0.0
 11
64.6652
 21
101.64303
 31
0.0
  0
LINE
  5
15C
330
1E
100
AcDbEntity
  8
0
100
AcDbLine
 10
63.5704
 20
102.27503
 30
0.0
 11
63.82046171724081
 21
102.708136894261
 31
0.0
  0
LINE
  5
15D
330
1E
100
AcDbEntity
  8
0
100
AcDbLine
 10
63.5704
 20
102.27503
 30
0.0
 11
64.2025
 21
101.91003
 31
0.0
  0
LINE
  5
15E
330
1E
100
AcDbEntity
  8
0
100
AcDbLine
 10
63.365034614398
 20
103.0679526867519
 30
0.0
 11
63.8517171700807
 21
102.8178393385799
 31
0.0
  0
LINE
  5
15F
330
1E
100
AcDbEntity
  8
0
100
AcDbLine
 10
64.0728100361097
 20
104.2945274925779
 30
0.0
 11
64.51777800910829
 21
104.037645511776
 31
0.0
  0
LINE
  5
160
330
1E
100
AcDbEntity
  8
0
100
AcDbLine
 10
64.494399999999
 20
101.741538996256
 30
0.0
 11
64.61289999999999
 21
101.67303
 31
0.0
  0
LINE
  5
161
330
1E
100
AcDbEntity
  8
0
100
AcDbLine
 10
64.61289999999999
 20
101.67303
 30
0.0
 11
64.6922809347201
 21
101.6273178338269
 31
0.0
  0
LINE
  5
162
330
1E
100
AcDbEntity
  8
0
100
AcDbLine
 10
64.2025
 20
101.91003
 30
0.0
 11
65.2974
 21
101.2780299999999
 31
0.0
  0
LINE
  5
163
330
1E
100
AcDbEntity
  8
0
100
AcDbLine
 10
64.6652
 20
101.64303
 30
0.0
 11
65.2974
 21
101.2780299999999
 31
0.0
  0
LINE
  5
165
330
1E
100
AcDbEntity
  8
0
100
AcDbLine
 10
64.07295134572649
 20
104.2947723821439
 30
0.0
 11
64.5178993885892
 21
104.037855741037
 31
0.0
  0
LINE
  5
166
330
1E
100
AcDbEntity
  8
0
100
AcDbLine
 10
59.6861
 20
105.67303
 30
0.0
 11
60.18612848912979
 21
106.539079343173
 31
0.0
  0
LINE
  5
167
330
1E
100
AcDbEntity
  8
0
100
AcDbLine
 10
60.1860419430062
 20
106.538929445287
 30
0.0
 11
62.3458658358784
 21
105.291624427741
 31
0.0
  0
LINE
  5
168
330
1E
100
AcDbEntity
  8
0
100
AcDbLine
 10
62.972
 20
104.93003
 30
0.0
 11
67.2194489969495
 21
102.477958889486
 31
0.0
  0
LINE
  5
169
330
1E
100
AcDbEntity
  8
0
100
AcDbLine
 10
63.92009999999999
 20
104.3830299999999
 30
0.0
 11
68.5979
 21
101.68203
 31
0.0
  0
LINE
  5
16A
330
1E
100
AcDbEntity
  8
0
100
AcDbLine
 10
66.71689999999999
 20
101.61303
 30
0.0
 11
67.2003623220446
 21
102.4503867417809
 31
0.0
  0
LINE
  5
16B
330
1E
100
AcDbEntity
  8
0
100
AcDbLine
 10
65.2974
 20
101.2780299999999
 30
0.0
 11
65.6765681353092
 21
101.9347492103549
 31
0.0
  0
LINE
  5
16C
330
1E
100
AcDbEntity
  8
0
100
AcDbLine
 10
68.1654
 20
100.2000299999999
 30
0.0
 11
69.2603
 21
99.56803
 31
0.0
  0
LINE
  5
16D
330
1E
100
AcDbEntity
  8
0
100
AcDbLine
 10
68.1654
 20
100.2000299999999
 30
0.0
 11
68.4789966773794
 21
100.7431794452209
 31
0.0
  0
LINE
  5
16E
330
1E
100
AcDbEntity
  8
0
100
AcDbLine
 10
68.1654
 20
100.2000299999999
 30
0.0
 11
68.7975
 21
99.83503
 31
0.0
  0
LINE
  5
16F
330
1E
100
AcDbEntity
  8
0
100
AcDbLine
 10
65.0607
 20
101.99203
 30
0.0
 11
65.4783740105423
 21
102.715441386259
 31
0.0
  0
LINE
  5
170
330
1E
100
AcDbEntity
  8
0
100
AcDbLine
 10
65.0607
 20
101.99203
 30
0.0
 11
65.42893824299421
 21
102.6298186368659
 31
0.0
  0
LINE
  5
171
330
1E
100
AcDbEntity
  8
0
100
AcDbLine
 10
65.6522004628315
 20
101.8925444016239
 30
0.0
 11
68.34392149834929
 21
100.5092292351409
 31
0.0
  0
LINE
  5
172
330
1E
100
AcDbEntity
  8
0
100
AcDbLine
 10
69.2603
 20
99.56803
 30
0.0
 11
69.89239999999999
 21
99.20273000000001
 31
0.0
  0
LINE
  5
174
330
1E
100
AcDbEntity
  8
0
100
AcDbLine
 10
69.89239999999999
 20
99.20273000000001
 30
0.0
 11
70.28883115570749
 21
99.88946769103208
 31
0.0
  0
LINE
  5
175
330
1E
100
AcDbEntity
  8
0
100
AcDbLine
 10
68.7975
 20
99.83503
 30
0.0
 11
69.89239999999999
 21
99.20273000000001
 31
0.0
  0
LINE
  5
176
330
1E
100
AcDbEntity
  8
0
100
AcDbLine
 10
70.11976618465221
 20
99.59659644167299
 30
0.0
 11
70.9426
 21
99.17373000000001
 31
0.0
  0
LINE
  5
177
330
1E
100
AcDbEntity
  8
0
100
AcDbLine
 10
68.5979
 20
101.68203
 30
0.0
 11
72.8332
 21
99.23693
 31
0.0
  0
LINE
  5
178
330
1E
100
AcDbEntity
  8
0
100
AcDbLine
 10
65.4526
 20
102.34303
 30
0.0
 11
66.71689999999999
 21
101.61303
 31
0.0
  0
LINE
  5
179
330
1E
100
AcDbEntity
  8
0
100
AcDbLine
 10
65.4526
 20
102.34303
 30
0.0
 11
65.88049079709699
 21
103.0841368605719
 31
0.0
  0
LINE
  5
17A
330
1E
100
AcDbEntity
  8
0
100
AcDbLine
 10
65.4526
 20
102.34303
 30
0.0
 11
65.84907332040571
 21
103.0297217909429
 31
0.0
  0
LINE
  5
17B
330
1E
100
AcDbEntity
  8
0
100
AcDbLine
 10
69.47729999999999
 20
102.3290299999999
 30
0.0
 11
73.7758
 21
99.84703000000001
 31
0.0
  0
LINE
  5
17C
330
1E
100
AcDbEntity
  8
0
100
AcDbLine
 10
64.7362
 20
105.06603
 30
0.0
 11
69.47729999999999
 21
102.3290299999999
 31
0.0
  0
LINE
  5
17D
330
1E
100
AcDbEntity
  8
0
100
AcDbLine
 10
59.7423
 20
107.95003
 30
0.0
 11
64.7362
 21
105.06603
 31
0.0
  0
LINE
  5
17E
330
1E
100
AcDbEntity
  8
0
100
AcDbLine
 10
70.2424
 20
126.1360299999999
 30
0.0
 11
75.2362
 21
123.25303
 31
0.0
  0
LINE
  5
17F
330
1E
100
AcDbEntity
  8
0
100
AcDbLine
 10
64.86920000000001
 20
129.23803
 30
0.0
 11
70.2424
 21
126.1360299999999
 31
0.0
  0
LINE
  5
180
330
1E
100
AcDbEntity
  8
0
100
AcDbLine
 10
76.0797
 20
96.20783000000001
 30
0.0
 11
76.71179999999999
 21
95.84293
 31
0.0
  0
LINE
  5
182
330
1E
100
AcDbEntity
  8
0
100
AcDbLine
 10
76.0797
 20
96.20783000000001
 30
0.0
 11
76.44078499586079
 21
95.99938210411391
 31
0.0
  0
LINE
  5
183
330
1E
100
AcDbEntity
  8
0
100
AcDbLine
 10
76.44078499586079
 20
95.99938210411391
 30
0.0
 11
79.3411
 21
90.81283
 31
0.0
  0
LINE
  5
184
330
1E
100
AcDbEntity
  8
0
100
AcDbLine
 10
76.71179999999999
 20
95.84293
 30
0.0
 11
77.17319423728959
 21
96.6420648189856
 31
0.0
  0
LINE
  5
185
330
1E
100
AcDbEntity
  8
0
100
AcDbLine
 10
76.4409263744086
 20
95.9993004888124
 30
0.0
 11
79.3092
 21
90.87033000000001
 31
0.0
  0
LINE
  5
186
330
1E
100
AcDbEntity
  8
0
100
AcDbLine
 10
73.75709999999999
 20
96.97143
 30
0.0
 11
74.13467092398041
 21
97.62542059742642
 31
0.0
  0
LINE
  5
187
330
1E
100
AcDbEntity
  8
0
100
AcDbLine
 10
74.98470000000001
 20
96.84003
 30
0.0
 11
76.0797
 21
96.20783000000001
 31
0.0
  0
LINE
  5
188
330
1E
100
AcDbEntity
  8
0
100
AcDbLine
 10
74.98470000000001
 20
96.84003
 30
0.0
 11
75.38407105726649
 21
97.53174067118559
 31
0.0
  0
LINE
  5
189
330
1E
100
AcDbEntity
  8
0
100
AcDbLine
 10
77.2117980902102
 20
96.708926692244
 30
0.0
 11
78.38677835947549
 21
96.03052586540741
 31
0.0
  0
LINE
  5
18A
330
1E
100
AcDbEntity
  8
0
100
AcDbLine
 10
79.3411
 20
90.81283
 30
0.0
 11
80.47929999999999
 21
88.78023
 31
0.0
  0
LINE
  5
18B
330
1E
100
AcDbEntity
  8
0
100
AcDbLine
 10
78.8362
 20
94.61633
 30
0.0
 11
79.08500000027808
 21
94.4726945262802
 31
0.0
  0
LINE
  5
18C
330
1E
100
AcDbEntity
  8
0
100
AcDbLine
 10
78.20409999999999
 20
94.98133000000001
 30
0.0
 11
79.29899999999999
 21
94.34912999999999
 31
0.0
  0
LINE
  5
18D
330
1E
100
AcDbEntity
  8
0
100
AcDbLine
 10
78.20409999999999
 20
94.98133000000001
 30
0.0
 11
78.5750634346364
 21
95.62383866879029
 31
0.0
  0
LINE
  5
18E
330
1E
100
AcDbEntity
  8
0
100
AcDbLine
 10
78.20409999999999
 20
94.98133000000001
 30
0.0
 11
78.8362
 21
94.61633
 31
0.0
  0
LINE
  5
18F
330
1E
100
AcDbEntity
  8
0
100
AcDbLine
 10
79.29899999999999
 20
94.34912999999999
 30
0.0
 11
79.9311
 21
93.98423000000001
 31
0.0
  0
LINE
  5
191
330
1E
100
AcDbEntity
  8
0
100
AcDbLine
 10
79.3092
 20
90.87033000000001
 30
0.0
 11
80.47929999999999
 21
88.78023
 31
0.0
  0
LINE
  5
192
330
1E
100
AcDbEntity
  8
0
100
AcDbLine
 10
78.01680000000001
 20
96.24413
 30
0.0
 11
78.38677835947549
 21
96.03052586540741
 31
0.0
  0
LINE
  5
193
330
1E
100
AcDbEntity
  8
0
100
AcDbLine
 10
78.01680000000001
 20
96.24413
 30
0.0
 11
78.3867783594756
 21
96.03052586540741
 31
0.0
  0
LINE
  5
194
330
1E
100
AcDbEntity
  8
0
100
AcDbLine
 10
72.9198076688722
 20
97.4548432832535
 30
0.0
 11
73.1249
 21
97.33643
 31
0.0
  0
LINE
  5
195
330
1E
100
AcDbEntity
  8
0
100
AcDbLine
 10
73.1249
 20
97.33643
 30
0.0
 11
73.75709999999999
 21
96.97143
 31
0.0
  0
LINE
  5
198
330
1E
100
AcDbEntity
  8
0
100
AcDbLine
 10
76.4996
 20
97.12013
 30
0.0
 11
79.6603
 21
95.29523000000001
 31
0.0
  0
LINE
  5
199
330
1E
100
AcDbEntity
  8
0
100
AcDbLine
 10
79.9311247979651
 20
93.98427295007548
 30
0.0
 11
80.52519999999999
 21
93.64123000000001
 31
0.0
  0
LINE
  5
19A
330
1E
100
AcDbEntity
  8
0
100
AcDbLine
 10
79.93112538987701
 20
93.98427397526692
 30
0.0
 11
80.988
 21
93.37403
 31
0.0
  0
LINE
  5
19C
330
1E
100
AcDbEntity
  8
0
100
AcDbLine
 10
79.6603
 20
95.29523000000001
 30
0.0
 11
81.9992
 21
93.94493
 31
0.0
  0
LINE
  5
19D
330
1E
100
AcDbEntity
  8
0
100
AcDbLine
 10
70.8974
 20
98.62253
 30
0.0
 11
71.19281505135321
 21
98.45195607044892
 31
0.0
  0
LINE
  5
19E
330
1E
100
AcDbEntity
  8
0
100
AcDbLine
 10
70.8974
 20
98.62253
 30
0.0
 11
71.15584944522
 21
99.07029366384371
 31
0.0
  0
LINE
  5
19F
330
1E
100
AcDbEntity
  8
0
100
AcDbLine
 10
71.9923
 20
97.99033000000001
 30
0.0
 11
72.28427363961491
 21
97.8217788512965
 31
0.0
  0
LINE
  5
1A0
330
1E
100
AcDbEntity
  8
0
100
AcDbLine
 10
72.0301
 20
97.96853
 30
0.0
 11
72.4609689866478
 21
97.71976101346361
 31
0.0
  0
LINE
  5
1A1
330
1E
100
AcDbEntity
  8
0
100
AcDbLine
 10
72.0388999999886
 20
97.96346547356579
 30
0.0
 11
72.91979999999999
 21
97.45483
 31
0.0
  0
LINE
  5
1A2
330
1E
100
AcDbEntity
  8
0
100
AcDbLine
 10
72.2877
 20
97.81983000000002
 30
0.0
 11
72.91979999999999
 21
97.45483
 31
0.0
  0
LINE
  5
1A3
330
1E
100
AcDbEntity
  8
0
100
AcDbLine
 10
72.2877
 20
97.81983000000002
 30
0.0
 11
72.53764802604909
 21
98.2527899707223
 31
0.0
  0
LINE
  5
1A4
330
1E
100
AcDbEntity
  8
0
100
AcDbLine
 10
72.5523
 20
98.24433
 30
0.0
 11
73.052409299598
 21
99.1103692741138
 31
0.0
  0
LINE
  5
1A5
330
1E
100
AcDbEntity
  8
0
100
AcDbLine
 10
72.5523
 20
98.24433
 30
0.0
 11
72.97202864454259
 21
98.9711740937545
 31
0.0
  0
LINE
  5
1A6
330
1E
100
AcDbEntity
  8
0
100
AcDbLine
 10
71.288
 20
98.97433000000001
 30
0.0
 11
72.5523
 21
98.24433
 31
0.0
  0
LINE
  5
1A9
330
1E
100
AcDbEntity
  8
0
100
AcDbLine
 10
71.5733999998751
 20
98.23220467355829
 30
0.0
 11
71.9923
 21
97.99033000000001
 31
0.0
  0
LINE
  5
1AA
330
1E
100
AcDbEntity
  8
0
100
AcDbLine
 10
71.1928
 20
98.45193000000001
 30
0.0
 11
72.2877
 21
97.81983000000002
 31
0.0
  0
LINE
  5
1AC
330
1E
100
AcDbEntity
  8
0
100
AcDbLine
 10
73.262520376392
 20
98.0484559639485
 30
0.0
 11
75.1529801295742
 21
97.13149118442249
 31
0.0
  0
LINE
  5
1AD
330
1E
100
AcDbEntity
  8
0
100
AcDbLine
 10
70.9426
 20
99.17373000000001
 30
0.0
 11
71.30237430849629
 21
98.999221990023
 31
0.0
  0
LINE
  5
1AE
330
1E
100
AcDbEntity
  8
0
100
AcDbLine
 10
72.8332
 20
99.23693
 30
0.0
 11
76.4996
 21
97.12013
 31
0.0
  0
LINE
  5
1AF
330
1E
100
AcDbEntity
  8
0
100
AcDbLine
 10
75.02955517607009
 20
97.96886196685981
 30
0.0
 11
78.01680000000001
 21
96.24413
 31
0.0
  0
LINE
  5
1B0
330
1E
100
AcDbEntity
  8
0
100
AcDbLine
 10
75.02955517607009
 20
97.96886196685981
 30
0.0
 11
78.01680000000001
 21
96.24413
 31
0.0
  0
LINE
  5
1B1
330
1E
100
AcDbEntity
  8
0
100
AcDbLine
 10
75.02955517607009
 20
97.96886196685981
 30
0.0
 11
75.48472321482091
 21
97.70607020806981
 31
0.0
  0
LINE
  5
1B2
330
1E
100
AcDbEntity
  8
0
100
AcDbLine
 10
73.7758
 20
99.84703000000001
 30
0.0
 11
77.50530000000001
 21
97.69413
 31
0.0
  0
LINE
  5
1B3
330
1E
100
AcDbEntity
  8
0
100
AcDbLine
 10
77.50530000000001
 20
97.69413
 30
0.0
 11
80.66599999999999
 21
95.86933
 31
0.0
  0
LINE
  5
1B4
330
1E
100
AcDbEntity
  8
0
100
AcDbLine
 10
79.9773
 20
120.5160299999999
 30
0.0
 11
84.2758
 21
118.03403
 31
0.0
  0
LINE
  5
1B5
330
1E
100
AcDbEntity
  8
0
100
AcDbLine
 10
75.2362
 20
123.25303
 30
0.0
 11
79.9773
 21
120.5160299999999
 31
0.0
  0
LINE
  5
1B6
330
1E
100
AcDbEntity
  8
0
100
AcDbLine
 10
82.7078
 20
87.84003
 30
0.0
 11
83.33099999999999
 21
88.51943
 31
0.0
  0
LINE
  5
1B7
330
1E
100
AcDbEntity
  8
0
100
AcDbLine
 10
82.02469999999999
 20
87.65703
 30
0.0
 11
82.7078
 21
87.84003
 31
0.0
  0
LINE
  5
1B8
330
1E
100
AcDbEntity
  8
0
100
AcDbLine
 10
83.65779999999999
 20
89.48553000000002
 30
0.0
 11
83.6967507635669
 21
92.9648472331665
 31
0.0
  0
LINE
  5
1B9
330
1E
100
AcDbEntity
  8
0
100
AcDbLine
 10
83.33099999999999
 20
88.51943
 30
0.0
 11
83.65779999999999
 21
89.48553000000002
 31
0.0
  0
LINE
  5
1BA
330
1E
100
AcDbEntity
  8
0
100
AcDbLine
 10
81.1087
 20
88.07043
 30
0.0
 11
82.02469999999999
 21
87.65703
 31
0.0
  0
LINE
  5
1BB
330
1E
100
AcDbEntity
  8
0
100
AcDbLine
 10
80.47929999999999
 20
88.78023
 30
0.0
 11
81.1087
 21
88.07043
 31
0.0
  0
LINE
  5
1BC
330
1E
100
AcDbEntity
  8
0
100
AcDbLine
 10
84.90700000000002
 20
92.26613
 30
0.0
 11
85.3495
 21
92.01063000000001
 31
0.0
  0
LINE
  5
1BD
330
1E
100
AcDbEntity
  8
0
100
AcDbLine
 10
85.3495
 20
92.01063000000001
 30
0.0
 11
86.4817
 21
92.51163000000001
 31
0.0
  0
LINE
  5
1BE
330
1E
100
AcDbEntity
  8
0
100
AcDbLine
 10
80.52519999999999
 20
93.64123000000001
 30
0.0
 11
80.7739999999438
 21
93.49759452647319
 31
0.0
  0
LINE
  5
1BF
330
1E
100
AcDbEntity
  8
0
100
AcDbLine
 10
80.988
 20
93.37403
 30
0.0
 11
81.6201
 21
93.00912999999999
 31
0.0
  0
LINE
  5
1C1
330
1E
100
AcDbEntity
  8
0
100
AcDbLine
 10
81.6201
 20
93.00912999999999
 30
0.0
 11
82.08014428197429
 21
93.80592669637941
 31
0.0
  0
LINE
  5
1C2
330
1E
100
AcDbEntity
  8
0
100
AcDbLine
 10
83.6967507635669
 20
92.9648472331665
 30
0.0
 11
83.8324
 21
92.88653000000001
 31
0.0
  0
LINE
  5
1C3
330
1E
100
AcDbEntity
  8
0
100
AcDbLine
 10
83.0738
 20
93.32443000000001
 30
0.0
 11
83.4074838669324
 21
93.13185578836941
 31
0.0
  0
LINE
  5
1C4
330
1E
100
AcDbEntity
  8
0
100
AcDbLine
 10
81.9992
 20
93.94493
 30
0.0
 11
83.8324
 21
92.88653000000001
 31
0.0
  0
LINE
  5
1C5
330
1E
100
AcDbEntity
  8
0
100
AcDbLine
 10
81.9992
 20
93.94493
 30
0.0
 11
83.0738
 21
93.32443000000001
 31
0.0
  0
LINE
  5
1C6
330
1E
100
AcDbEntity
  8
0
100
AcDbLine
 10
83.8324
 20
92.88653000000001
 30
0.0
 11
84.90700000000002
 21
92.26613
 31
0.0
  0
LINE
  5
1C7
330
1E
100
AcDbEntity
  8
0
100
AcDbLine
 10
80.66599999999999
 20
95.86933
 30
0.0
 11
83.13129999999999
 21
94.44593000000001
 31
0.0
  0
LINE
  5
1C8
330
1E
100
AcDbEntity
  8
0
100
AcDbLine
 10
83.13129999999999
 20
94.44593000000001
 30
0.0
 11
84.9013
 21
93.42403
 31
0.0
  0
LINE
  5
1C9
330
1E
100
AcDbEntity
  8
0
100
AcDbLine
 10
84.9013
 20
93.42403
 30
0.0
 11
86.0392
 21
92.76713
 31
0.0
  0
LINE
  5
1CA
330
1E
100
AcDbEntity
  8
0
100
AcDbLine
 10
86.0392
 20
92.76713
 30
0.0
 11
86.4817
 21
92.51163000000001
 31
0.0
  0
LINE
  5
1CB
330
1E
100
AcDbEntity
  8
0
100
AcDbLine
 10
96.84000000000001
 20
72.39463
 30
0.0
 11
97.07489999999999
 21
72.81713
 31
0.0
  0
LINE
  5
1CC
330
1E
100
AcDbEntity
  8
0
100
AcDbLine
 10
96.84000000000001
 20
72.39463
 30
0.0
 11
147.5105
 21
0.0413000000000087
 31
0.0
  0
LINE
  5
1CD
330
1E
100
AcDbEntity
  8
0
100
AcDbLine
 10
96.84000000000001
 20
72.39463
 30
0.0
 11
147.5105
 21
0.0413000000000062
 31
0.0
  0
LINE
  5
1CE
330
1E
100
AcDbEntity
  8
0
100
AcDbLine
 10
86.7261959684693
 20
92.9351063315209
 30
0.0
 11
98.67220000000001
 21
75.68963
 31
0.0
  0
LINE
  5
1CF
330
1E
100
AcDbEntity
  8
0
100
AcDbLine
 10
96.25635475559299
 20
109.4417044044869
 30
0.0
 11
96.98170000000001
 21
110.69803
 31
0.0
  0
LINE
  5
1D0
330
1E
100
AcDbEntity
  8
0
100
AcDbLine
 10
96.25635475559299
 20
109.4417044044869
 30
0.0
 11
108.0215
 21
92.50232999999999
 31
0.0
  0
LINE
  5
1D1
330
1E
100
AcDbEntity
  8
0
100
AcDbLine
 10
86.4817
 20
92.51163000000001
 30
0.0
 11
86.73008297207122
 21
92.94183876983579
 31
0.0
  0
LINE
  5
1D2
330
1E
100
AcDbEntity
  8
0
100
AcDbLine
 10
95.40130000000001
 20
111.61103
 30
0.0
 11
96.53919999999999
 21
110.95403
 31
0.0
  0
LINE
  5
1D3
330
1E
100
AcDbEntity
  8
0
100
AcDbLine
 10
96.53919999999999
 20
110.95403
 30
0.0
 11
96.98170000000001
 21
110.69803
 31
0.0
  0
LINE
  5
1D4
330
1E
100
AcDbEntity
  8
0
100
AcDbLine
 10
97.07489999999999
 20
72.81713
 30
0.0
 11
97.7326
 21
73.99993000000001
 31
0.0
  0
LINE
  5
1D5
330
1E
100
AcDbEntity
  8
0
100
AcDbLine
 10
97.7326
 20
73.99993000000001
 30
0.0
 11
98.7662
 21
75.85863
 31
0.0
  0
LINE
  5
1D6
330
1E
100
AcDbEntity
  8
0
100
AcDbLine
 10
98.7662
 20
75.85863
 30
0.0
 11
100.1284999999999
 21
78.30873000000001
 31
0.0
  0
LINE
  5
1D7
330
1E
100
AcDbEntity
  8
0
100
AcDbLine
 10
98.67220000000001
 20
75.68963
 30
0.0
 11
98.76619999995892
 21
75.8586299999261
 31
0.0
  0
LINE
  5
1D8
330
1E
100
AcDbEntity
  8
0
100
AcDbLine
 10
99.83694942825609
 20
77.784375558372
 30
0.0
 11
100.0345
 21
78.13973
 31
0.0
  0
LINE
  5
1D9
330
1E
100
AcDbEntity
  8
0
100
AcDbLine
 10
99.83694942825609
 20
77.784375558372
 30
0.0
 11
100.0979143021229
 21
78.253721544911
 31
0.0
  0
LINE
  5
1DA
330
1E
100
AcDbEntity
  8
0
100
AcDbLine
 10
100.1284999999999
 20
78.30873000000001
 30
0.0
 11
101.6795
 21
81.09673
 31
0.0
  0
LINE
  5
1DB
330
1E
100
AcDbEntity
  8
0
100
AcDbLine
 10
100.0345
 20
78.13973
 30
0.0
 11
100.0979143021229
 21
78.253721544911
 31
0.0
  0
LINE
  5
1DC
330
1E
100
AcDbEntity
  8
0
100
AcDbLine
 10
101.6795
 20
81.09673
 30
0.0
 11
103.3234999999999
 21
84.05362999999999
 31
0.0
  0
LINE
  5
1DD
330
1E
100
AcDbEntity
  8
0
100
AcDbLine
 10
101.028839730487
 20
79.9271356535115
 30
0.0
 11
102.1484999999999
 21
81.94163000000001
 31
0.0
  0
LINE
  5
1DE
330
1E
100
AcDbEntity
  8
0
100
AcDbLine
 10
101.028839730487
 20
79.9271356535115
 30
0.0
 11
101.6795
 21
81.09673
 31
0.0
  0
LINE
  5
1DF
330
1E
100
AcDbEntity
  8
0
100
AcDbLine
 10
102.1484999999999
 20
81.94163000000001
 30
0.0
 11
103.3234999999999
 21
84.05362999999999
 31
0.0
  0
LINE
  5
1E0
330
1E
100
AcDbEntity
  8
0
100
AcDbLine
 10
103.3234999999999
 20
84.05362999999999
 30
0.0
 11
104.5444999999999
 21
86.25043000000001
 31
0.0
  0
LINE
  5
1E1
330
1E
100
AcDbEntity
  8
0
100
AcDbLine
 10
103.3234999999999
 20
84.05362999999999
 30
0.0
 11
105.0145
 21
87.09523
 31
0.0
  0
LINE
  5
1E2
330
1E
100
AcDbEntity
  8
0
100
AcDbLine
 10
105.0145
 20
87.09523
 30
0.0
 11
106.5655
 21
89.88323000000001
 31
0.0
  0
LINE
  5
1E3
330
1E
100
AcDbEntity
  8
0
100
AcDbLine
 10
104.5444999999999
 20
86.25043000000001
 30
0.0
 11
105.6724999999999
 21
88.27803000000001
 31
0.0
  0
LINE
  5
1E4
330
1E
100
AcDbEntity
  8
0
100
AcDbLine
 10
106.5655
 20
89.88323000000001
 30
0.0
 11
107.9274999999999
 21
92.33333
 31
0.0
  0
LINE
  5
1E5
330
1E
100
AcDbEntity
  8
0
100
AcDbLine
 10
105.6724999999999
 20
88.27803000000001
 30
0.0
 11
106.5766483803219
 21
89.9032848066273
 31
0.0
  0
LINE
  5
1E6
330
1E
100
AcDbEntity
  8
0
100
AcDbLine
 10
106.662323992772
 20
90.05740655263641
 30
0.0
 11
107.3635
 21
91.31943000000001
 31
0.0
  0
LINE
  5
1E7
330
1E
100
AcDbEntity
  8
0
100
AcDbLine
 10
106.662323992772
 20
90.05740655263641
 30
0.0
 11
107.9274999999999
 21
92.33333
 31
0.0
  0
LINE
  5
1E8
330
1E
100
AcDbEntity
  8
0
100
AcDbLine
 10
148.8534999999999
 20
-0.199029999999994
 30
0.0
 11
149.2115
 21
0.0369500000000064
 31
0.0
  0
LINE
  5
1E9
330
1E
100
AcDbEntity
  8
0
100
AcDbLine
 10
148.8534999999999
 20
-0.199029999999994
 30
0.0
 11
149.2115
 21
0.0369500000000064
 31
0.0
  0
LINE
  5
1EA
330
1E
100
AcDbEntity
  8
0
100
AcDbLine
 10
147.5105
 20
0.0413000000000062
 30
0.0
 11
147.9155
 21
0.361770000000005
 31
0.0
  0
LINE
  5
1EB
330
1E
100
AcDbEntity
  8
0
100
AcDbLine
 10
147.5105
 20
0.0413000000000062
 30
0.0
 11
148.8534999999999
 21
-0.199029999999994
 31
0.0
  0
LINE
  5
1EC
330
1E
100
AcDbEntity
  8
0
100
AcDbLine
 10
147.9155
 20
0.361770000000005
 30
0.0
 11
148.8585
 21
1.03620000000001
 31
0.0
  0
LINE
  5
1ED
330
1E
100
AcDbEntity
  8
0
100
AcDbLine
 10
147.9155
 20
0.361770000000005
 30
0.0
 11
148.8585
 21
1.03620000000001
 31
0.0
  0
LINE
  5
1EE
330
1E
100
AcDbEntity
  8
0
100
AcDbLine
 10
149.2115
 20
0.0369500000000064
 30
0.0
 11
150.1074999999999
 21
0.6269000000000061
 31
0.0
  0
LINE
  5
1EF
330
1E
100
AcDbEntity
  8
0
100
AcDbLine
 10
149.2115
 20
0.0369500000000064
 30
0.0
 11
150.1074999999999
 21
0.6269000000000061
 31
0.0
  0
LINE
  5
1F0
330
1E
100
AcDbEntity
  8
0
100
AcDbLine
 10
150.1074999999999
 20
0.6269000000000061
 30
0.0
 11
151.5025
 21
1.70628
 31
0.0
  0
LINE
  5
1F1
330
1E
100
AcDbEntity
  8
0
100
AcDbLine
 10
150.1074999999999
 20
0.6269000000000061
 30
0.0
 11
157.8284999999999
 21
6.140370000000009
 31
0.0
  0
LINE
  5
1F2
330
1E
100
AcDbEntity
  8
0
100
AcDbLine
 10
151.5025
 20
1.70628
 30
0.0
 11
153.3874999999999
 21
3.055150000000009
 31
0.0
  0
LINE
  5
1F3
330
1E
100
AcDbEntity
  8
0
100
AcDbLine
 10
148.8585
 20
1.03620000000001
 30
0.0
 11
150.3855
 21
2.149090000000009
 31
0.0
  0
LINE
  5
1F4
330
1E
100
AcDbEntity
  8
0
100
AcDbLine
 10
150.3855
 20
2.149090000000009
 30
0.0
 11
152.4035
 21
3.531460000000009
 31
0.0
  0
LINE
  5
1F5
330
1E
100
AcDbEntity
  8
0
100
AcDbLine
 10
153.3874999999999
 20
3.055150000000009
 30
0.0
 11
155.5844999999999
 21
4.555510000000009
 31
0.0
  0
LINE
  5
1F6
330
1E
100
AcDbEntity
  8
0
100
AcDbLine
 10
155.5844999999999
 20
4.555510000000009
 30
0.0
 11
157.8284999999999
 21
6.140370000000009
 31
0.0
  0
LINE
  5
1F7
330
1E
100
AcDbEntity
  8
0
100
AcDbLine
 10
152.4035
 20
3.531460000000009
 30
0.0
 11
154.8265
 21
5.2343
 31
0.0
  0
LINE
  5
1F8
330
1E
100
AcDbEntity
  8
0
100
AcDbLine
 10
154.8265
 20
5.2343
 30
0.0
 11
157.2965
 21
7.02161
 31
0.0
  0
LINE
  5
1F9
330
1E
100
AcDbEntity
  8
0
100
AcDbLine
 10
157.8284999999999
 20
6.140370000000009
 30
0.0
 11
160.2044999999999
 21
7.7587
 31
0.0
  0
LINE
  5
1FA
330
1E
100
AcDbEntity
  8
0
100
AcDbLine
 10
160.2044999999999
 20
7.7587
 30
0.0
 11
162.4014999999999
 21
9.259060000000008
 31
0.0
  0
LINE
  5
1FB
330
1E
100
AcDbEntity
  8
0
100
AcDbLine
 10
157.2965
 20
7.02161
 30
0.0
 11
159.8514999999999
 21
8.757980000000008
 31
0.0
  0
LINE
  5
1FC
330
1E
100
AcDbEntity
  8
0
100
AcDbLine
 10
159.8514999999999
 20
8.757980000000008
 30
0.0
 11
162.2274999999999
 21
10.37633
 31
0.0
  0
LINE
  5
1FD
330
1E
100
AcDbEntity
  8
0
100
AcDbLine
 10
162.4014999999999
 20
9.259060000000008
 30
0.0
 11
164.2865
 21
10.60793
 31
0.0
  0
LINE
  5
1FE
330
1E
100
AcDbEntity
  8
0
100
AcDbLine
 10
164.2865
 20
10.60793
 30
0.0
 11
165.7665
 21
11.63633
 31
0.0
  0
LINE
  5
1FF
330
1E
100
AcDbEntity
  8
0
100
AcDbLine
 10
165.7665
 20
11.63633
 30
0.0
 11
166.5775
 21
12.27723
 31
0.0
  0
LINE
  5
200
330
1E
100
AcDbEntity
  8
0
100
AcDbLine
 10
162.2274999999999
 20
10.37633
 30
0.0
 11
164.2924999999999
 21
11.84313
 31
0.0
  0
LINE
  5
201
330
1E
100
AcDbEntity
  8
0
100
AcDbLine
 10
164.2924999999999
 20
11.84313
 30
0.0
 11
165.8195
 21
12.95603
 31
0.0
  0
LINE
  5
202
330
1E
100
AcDbEntity
  8
0
100
AcDbLine
 10
166.4170299020399
 20
12.1504170705519
 30
0.0
 11
166.9354999999999
 21
12.51323
 31
0.0
  0
LINE
  5
203
330
1E
100
AcDbEntity
  8
0
100
AcDbLine
 10
166.9354999999999
 20
12.51323
 30
0.0
 11
167.1205
 21
13.86643
 31
0.0
  0
LINE
  5
204
330
1E
100
AcDbEntity
  8
0
100
AcDbLine
 10
166.5775
 20
12.27723
 30
0.0
 11
166.9354999999999
 21
12.51323
 31
0.0
  0
LINE
  5
205
330
1E
100
AcDbEntity
  8
0
100
AcDbLine
 10
165.8195
 20
12.95603
 30
0.0
 11
166.7624999999999
 21
13.63043
 31
0.0
  0
LINE
  5
206
330
1E
100
AcDbEntity
  8
0
100
AcDbLine
 10
166.7624999999999
 20
13.63043
 30
0.0
 11
167.1205
 21
13.86643
 31
0.0
  0
LINE
  5
207
330
1E
100
AcDbEntity
  8
0
100
AcDbLine
 10
107.3635
 20
91.31943000000001
 30
0.0
 11
107.8335
 21
92.16433
 31
0.0
  0
LINE
  5
208
330
1E
100
AcDbEntity
  8
0
100
AcDbLine
 10
107.9274999999999
 20
92.33333
 30
0.0
 11
108.9615
 21
94.19163000000001
 31
0.0
  0
LINE
  5
209
330
1E
100
AcDbEntity
  8
0
100
AcDbLine
 10
108.9615
 20
94.19163000000001
 30
0.0
 11
109.5715
 21
95.29042999999999
 31
0.0
  0
LINE
  5
20A
330
1E
100
AcDbEntity
  8
0
100
AcDbLine
 10
109.8065
 20
95.71263
 30
0.0
 11
167.1205
 21
13.86643
 31
0.0
  0
LINE
  5
20B
330
1E
100
AcDbEntity
  8
0
100
AcDbLine
 10
109.8065
 20
95.71263
 30
0.0
 11
167.1205
 21
13.86643
 31
0.0
  0
LINE
  5
20C
330
1E
100
AcDbEntity
  8
0
100
AcDbLine
 10
109.5715
 20
95.29042999999999
 30
0.0
 11
109.8065
 21
95.71263
 31
0.0
  0
LINE
  5
20D
330
1E
100
AcDbEntity
  8
0
100
AcDbLine
 10
107.8335
 20
92.16433
 30
0.0
 11
108.0215
 21
92.50232999999999
 31
0.0
  0
LINE
  5
20E
330
1E
100
AcDbEntity
  8
0
100
AcDbLine
 10
96.8495
 20
111.92903
 30
0.0
 11
96.98170000000001
 21
110.69803
 31
0.0
  0
LINE
  5
20F
330
1E
100
AcDbEntity
  8
0
100
AcDbLine
 10
93.63129999999999
 20
112.6320299999999
 30
0.0
 11
95.40130000000001
 21
111.61103
 31
0.0
  0
LINE
  5
210
330
1E
100
AcDbEntity
  8
0
100
AcDbLine
 10
88.0053
 20
115.88103
 30
0.0
 11
91.166
 21
114.05603
 31
0.0
  0
LINE
  5
211
330
1E
100
AcDbEntity
  8
0
100
AcDbLine
 10
84.2758
 20
118.03403
 30
0.0
 11
88.0053
 21
115.88103
 31
0.0
  0
LINE
  5
212
330
1E
100
AcDbEntity
  8
0
100
AcDbLine
 10
84.3332
 20
119.15503
 30
0.0
 11
87.9996
 21
117.03903
 31
0.0
  0
LINE
  5
213
330
1E
100
AcDbEntity
  8
0
100
AcDbLine
 10
87.9996
 20
117.03903
 30
0.0
 11
91.1603
 21
115.21403
 31
0.0
  0
LINE
  5
214
330
1E
100
AcDbEntity
  8
0
100
AcDbLine
 10
91.166
 20
114.05603
 30
0.0
 11
93.63129999999999
 21
112.6320299999999
 31
0.0
  0
LINE
  5
215
330
1E
100
AcDbEntity
  8
0
100
AcDbLine
 10
91.1603
 20
115.21403
 30
0.0
 11
93.4992
 21
113.86303
 31
0.0
  0
LINE
  5
216
330
1E
100
AcDbEntity
  8
0
100
AcDbLine
 10
93.4992
 20
113.86303
 30
0.0
 11
95.33240000000001
 21
112.8050299999999
 31
0.0
  0
LINE
  5
217
330
1E
100
AcDbEntity
  8
0
100
AcDbLine
 10
95.33240000000001
 20
112.8050299999999
 30
0.0
 11
96.40700000000002
 21
112.1850299999999
 31
0.0
  0
LINE
  5
218
330
1E
100
AcDbEntity
  8
0
100
AcDbLine
 10
96.40700000000002
 20
112.1850299999999
 30
0.0
 11
96.8495
 21
111.92903
 31
0.0
  0
LINE
  5
219
330
1E
100
AcDbEntity
  8
0
100
AcDbLine
 10
80.0979
 20
121.60103
 30
0.0
 11
84.3332
 21
119.15503
 31
0.0
  0
LINE
  5
21A
330
1E
100
AcDbEntity
  8
0
100
AcDbLine
 10
75.42010000000001
 20
124.30103
 30
0.0
 11
80.0979
 21
121.60103
 31
0.0
  0
LINE
  5
21B
330
1E
100
AcDbEntity
  8
0
100
AcDbLine
 10
70.48950000000001
 20
127.14803
 30
0.0
 11
75.42010000000001
 21
124.30103
 31
0.0
  0
LINE
  5
21C
330
1E
100
AcDbEntity
  8
0
100
AcDbLine
 10
64.9267
 20
130.36003
 30
0.0
 11
70.48950000000001
 21
127.14803
 31
0.0
  0
LINE
  5
21D
330
1E
100
AcDbEntity
  8
0
100
AcDbLine
 10
59.67999999999999
 20
133.3890299999999
 30
0.0
 11
64.9267
 21
130.36003
 31
0.0
  0
LINE
  5
21E
330
1E
100
AcDbEntity
  8
0
100
AcDbLine
 10
55.1805
 20
138.29603
 30
0.0
 11
96.8495
 21
111.92903
 31
0.0
  0
LINE
  5
21F
330
1E
100
AcDbEntity
  8
0
100
AcDbLine
 10
54.1805
 20
136.56403
 30
0.0
 11
59.67999999999999
 21
133.3890299999999
 31
0.0
  0
LINE
  5
220
330
1E
100
AcDbEntity
  8
0
100
AcDbLine
 10
48.11749999999999
 20
138.91003
 30
0.0
 11
53.6805
 21
135.69803
 31
0.0
  0
LINE
  5
221
330
1E
100
AcDbEntity
  8
0
100
AcDbLine
 10
37.1185
 20
145.26003
 30
0.0
 11
42.4915
 21
142.15803
 31
0.0
  0
LINE
  5
222
330
1E
100
AcDbEntity
  8
0
100
AcDbLine
 10
42.4915
 20
142.15803
 30
0.0
 11
48.11749999999999
 21
138.91003
 31
0.0
  0
LINE
  5
223
330
1E
100
AcDbEntity
  8
0
100
AcDbLine
 10
27.3835
 20
150.88103
 30
0.0
 11
32.1245
 21
148.14303
 31
0.0
  0
LINE
  5
224
330
1E
100
AcDbEntity
  8
0
100
AcDbLine
 10
32.1245
 20
148.14303
 30
0.0
 11
37.1185
 21
145.26003
 31
0.0
  0
LINE
  5
225
330
1E
100
AcDbEntity
  8
0
100
AcDbLine
 10
23.08549999999999
 20
153.36203
 30
0.0
 11
27.3835
 21
150.88103
 31
0.0
  0
LINE
  5
226
330
1E
100
AcDbEntity
  8
0
100
AcDbLine
 10
24.0275
 20
153.9730299999999
 30
0.0
 11
28.26249999999999
 21
151.52803
 31
0.0
  0
LINE
  5
227
330
1E
100
AcDbEntity
  8
0
100
AcDbLine
 10
28.26249999999999
 20
151.52803
 30
0.0
 11
32.9405
 21
148.82703
 31
0.0
  0
LINE
  5
228
330
1E
100
AcDbEntity
  8
0
100
AcDbLine
 10
32.9405
 20
148.82703
 30
0.0
 11
37.8715
 21
145.9800299999999
 31
0.0
  0
LINE
  5
229
330
1E
100
AcDbEntity
  8
0
100
AcDbLine
 10
37.8715
 20
145.9800299999999
 30
0.0
 11
43.43449999999999
 21
142.76903
 31
0.0
  0
LINE
  5
22A
330
1E
100
AcDbEntity
  8
0
100
AcDbLine
 10
43.43449999999999
 20
142.76903
 30
0.0
 11
48.6805
 21
139.73903
 31
0.0
  0
LINE
  5
22B
330
1E
100
AcDbEntity
  8
0
100
AcDbLine
 10
48.6805
 20
139.73903
 30
0.0
 11
54.1805
 21
136.56403
 31
0.0
  0
LINE
  5
22C
330
1E
100
AcDbEntity
  8
0
100
AcDbLine
 10
19.3555
 20
155.51603
 30
0.0
 11
23.08549999999999
 21
153.36203
 31
0.0
  0
LINE
  5
22D
330
1E
100
AcDbEntity
  8
0
100
AcDbLine
 10
20.3615
 20
156.09003
 30
0.0
 11
24.0275
 21
153.9730299999999
 31
0.0
  0
LINE
  5
22E
330
1E
100
AcDbEntity
  8
0
100
AcDbLine
 10
17.2005
 20
157.91503
 30
0.0
 11
20.3615
 21
156.09003
 31
0.0
  0
LINE
  5
22F
330
1E
100
AcDbEntity
  8
0
100
AcDbLine
 10
14.8615
 20
159.26503
 30
0.0
 11
17.2005
 21
157.91503
 31
0.0
  0
LINE
  5
230
330
1E
100
AcDbEntity
  8
0
100
AcDbLine
 10
13.0285
 20
160.32303
 30
0.0
 11
14.8615
 21
159.26503
 31
0.0
  0
LINE
  5
231
330
1E
100
AcDbEntity
  8
0
100
AcDbLine
 10
11.9535
 20
160.9440299999999
 30
0.0
 11
13.0285
 21
160.32303
 31
0.0
  0
LINE
  5
232
330
1E
100
AcDbEntity
  8
0
100
AcDbLine
 10
11.5115
 20
161.1990299999999
 30
0.0
 11
55.1805
 21
138.29603
 31
0.0
  0
ENDSEC
  0
SECTION
  2
OBJECTS
  0
DICTIONARY
  5
C
330
0
100
AcDbDictionary
281
     1
  3
ACAD_GROUP
350
D
  3
ACAD_LAYOUT
350
19
  3
ACAD_MLINESTYLE
350
16
  3
ACAD_PLOTSETTINGS
350
18
  3
ACAD_PLOTSTYLENAME
350
E
  3
AcDbVariableDictionary
350
237
  0
DICTIONARY
  5
D
102
{ACAD_REACTORS
330
C
102
}
330
C
100
AcDbDictionary
281
     1
  0
DICTIONARY
  5
19
102
{ACAD_REACTORS
330
C
102
}
330
C
100
AcDbDictionary
281
     1
  3
Layout1
350
1D
  3
Model
350
21
  0
DICTIONARY
  5
16
102
{ACAD_REACTORS
330
C
102
}
330
C
100
AcDbDictionary
281
     1
  3
Standard
350
17
  0
DICTIONARY
  5
18
102
{ACAD_REACTORS
330
C
102
}
330
C
100
AcDbDictionary
281
     1
  0
ACDBDICTIONARYWDFLT
  5
E
102
{ACAD_REACTORS
330
C
102
}
330
C
100
AcDbDictionary
281
     1
  3
Normal
350
F
100
AcDbDictionaryWithDefault
340
F
  0
DICTIONARY
  5
237
102
{ACAD_REACTORS
330
C
102
}
330
C
100
AcDbDictionary
281
     1
  3
DIMASSOC
350
238
  0
LAYOUT
  5
1D
102
{ACAD_REACTORS
330
19
102
}
330
19
100
AcDbPlotSettings
  1

  2
hp deskjet 980c series
  4

  6

 40
0.0
 41
0.0
 42
0.0
 43
0.0
 44
0.0
 45
0.0
 46
0.0
 47
0.0
 48
0.0
 49
0.0
140
0.0
141
0.0
142
1.0
143
1.0
 70
   688
 72
     0
 73
     0
 74
     5
  7

 75
    16
147
1.0
148
0.0
149
0.0
100
AcDbLayout
  1
Layout1
 70
     1
 71
     1
 10
0.0
 20
0.0
 11
12.0
 21
9.0
 12
0.0
 22
0.0
 32
0.0
 14
1.000000000000000E+20
 24
1.000000000000000E+20
 34
1.000000000000000E+20
 15
-1.000000000000000E+20
 25
-1.000000000000000E+20
 35
-1.000000000000000E+20
146
0.0
 13
0.0
 23
0.0
 33
0.0
 16
1.0
 26
0.0
 36
0.0
 17
0.0
 27
1.0
 37
0.0
 76
     0
330
1A
  0
LAYOUT
  5
21
102
{ACAD_REACTORS
330
19
102
}
330
19
100
AcDbPlotSettings
  1

  2
hp deskjet 980c series
  4

  6

 40
0.0
 41
0.0
 42
0.0
 43
0.0
 44
0.0
 45
0.0
 46
0.0
 47
0.0
 48
0.0
 49
0.0
140
0.0
141
0.0
142
1.0
143
1.0
 70
  1712
 72
     0
 73
     0
 74
     0
  7

 75
     0
147
1.0
148
0.0
149
0.0
100
AcDbLayout
  1
Model
 70
     1
 71
     0
 10
0.0
 20
0.0
 11
12.0
 21
9.0
 12
0.0
 22
0.0
 32
0.0
 14
0.0
 24
0.0
 34
0.0
 15
0.0
 25
0.0
 35
0.0
146
0.0
 13
0.0
 23
0.0
 33
0.0
 16
1.0
 26
0.0
 36
0.0
 17
0.0
 27
1.0
 37
0.0
 76
     0
330
1E
  0
MLINESTYLE
  5
17
102
{ACAD_REACTORS
330
16
102
}
330
16
100
AcDbMlineStyle
  2
STANDARD
 70
     0
  3

 62
   256
 51
90.0
 52
90.0
 71
     2
 49
0.5
 62
   256
  6
BYLAYER
 49
-0.5
 62
   256
  6
BYLAYER
  0
ACDBPLACEHOLDER
  5
F
102
{ACAD_REACTORS
330
E
102
}
330
E
  0
DICTIONARYVAR
  5
238
102
{ACAD_REACTORS
330
237
102
}
330
237
100
DictionaryVariables
280
     0
  1
1
  0
ENDSEC
  0
EOF
