  0
SECTION
  2
HEADER
  9
$ACADVER
  1
AC1015
  9
$ACADMAINTVER
 70
    13
  9
$DWGCODEPAGE
  3
ANSI_1252
  9
$INSBASE
 10
0.0
 20
0.0
 30
0.0
  9
$EXTMIN
 10
-0.000000000000001
 20
-0.199029999999994
 30
0.0
  9
$EXTMAX
 10
100.0
 20
161.1990299999999
 30
0.0
  9
$LIMMIN
 10
0.0
 20
0.0
  9
$LIMMAX
 10
12.0
 20
9.0
  9
$ORTHOMODE
 70
     0
  9
$REGENMODE
 70
     1
  9
$FILLMODE
 70
     1
  9
$QTEXTMODE
 70
     0
  9
$MIRRTEXT
 70
     1
  9
$LTSCALE
 40
1.0
  9
$ATTMODE
 70
     1
  9
$TEXTSIZE
 40
0.2
  9
$TRACEWID
 40
0.05
  9
$TEXTSTYLE
  7
Standard
  9
$CLAYER
  8
0
  9
$CELTYPE
  6
Continuous
  9
$CECOLOR
 62
   256
  9
$CELTSCALE
 40
1.0
  9
$DISPSILH
 70
     0
  9
$DIMSCALE
 40
1.0
  9
$DIMASZ
 40
0.18
  9
$DIMEXO
 40
0.0625
  9
$DIMDLI
 40
0.38
  9
$DIMRND
 40
0.0
  9
$DIMDLE
 40
0.0
  9
$DIMEXE
 40
0.18
  9
$DIMTP
 40
0.0
  9
$DIMTM
 40
0.0
  9
$DIMTXT
 40
0.18
  9
$DIMCEN
 40
0.09
  9
$DIMTSZ
 40
0.0
  9
$DIMTOL
 70
     0
  9
$DIMLIM
 70
     0
  9
$DIMTIH
 70
     1
  9
$DIMTOH
 70
     1
  9
$DIMSE1
 70
     0
  9
$DIMSE2
 70
     0
  9
$DIMTAD
 70
     0
  9
$DIMZIN
 70
     0
  9
$DIMBLK
  1

  9
$DIMASO
 70
     1
  9
$DIMSHO
 70
     1
  9
$DIMPOST
  1

  9
$DIMAPOST
  1

  9
$DIMALT
 70
     0
  9
$DIMALTD
 70
     2
  9
$DIMALTF
 40
25.4
  9
$DIMLFAC
 40
1.0
  9
$DIMTOFL
 70
     0
  9
$DIMTVP
 40
0.0
  9
$DIMTIX
 70
     0
  9
$DIMSOXD
 70
     0
  9
$DIMSAH
 70
     0
  9
$DIMBLK1
  1

  9
$DIMBLK2
  1

  9
$DIMSTYLE
  2
Standard
  9
$DIMCLRD
 70
     0
  9
$DIMCLRE
 70
     0
  9
$DIMCLRT
 70
     0
  9
$DIMTFAC
 40
1.0
  9
$DIMGAP
 40
0.09
  9
$DIMJUST
 70
     0
  9
$DIMSD1
 70
     0
  9
$DIMSD2
 70
     0
  9
$DIMTOLJ
 70
     1
  9
$DIMTZIN
 70
     0
  9
$DIMALTZ
 70
     0
  9
$DIMALTTZ
 70
     0
  9
$DIMUPT
 70
     0
  9
$DIMDEC
 70
     4
  9
$DIMTDEC
 70
     4
  9
$DIMALTU
 70
     2
  9
$DIMALTTD
 70
     2
  9
$DIMTXSTY
  7
Standard
  9
$DIMAUNIT
 70
     0
  9
$DIMADEC
 70
     0
  9
$DIMALTRND
 40
0.0
  9
$DIMAZIN
 70
     0
  9
$DIMDSEP
 70
    46
  9
$DIMATFIT
 70
     3
  9
$DIMFRAC
 70
     0
  9
$DIMLDRBLK
  1

  9
$DIMLUNIT
 70
     2
  9
$DIMLWD
 70
    -2
  9
$DIMLWE
 70
    -2
  9
$DIMTMOVE
 70
     0
  9
$LUNITS
 70
     2
  9
$LUPREC
 70
     4
  9
$SKETCHINC
 40
0.1
  9
$FILLETRAD
 40
0.0
  9
$AUNITS
 70
     0
  9
$AUPREC
 70
     0
  9
$MENU
  1
.
  9
$ELEVATION
 40
0.0
  9
$PELEVATION
 40
0.0
  9
$THICKNESS
 40
0.0
  9
$LIMCHECK
 70
     0
  9
$CHAMFERA
 40
0.0
  9
$CHAMFERB
 40
0.0
  9
$CHAMFERC
 40
0.0
  9
$CHAMFERD
 40
0.0
  9
$SKPOLY
 70
     0
  9
$TDCREATE
 40
2454737.957138484
  9
$TDUCREATE
 40
2454737.873805150
  9
$TDUPDATE
 40
2454737.958797013
  9
$TDUUPDATE
 40
2454737.875463680
  9
$TDINDWG
 40
0.0016587153
  9
$TDUSRTIMER
 40
0.0016587153
  9
$USRTIMER
 70
     1
  9
$ANGBASE
 50
0.0
  9
$ANGDIR
 70
     0
  9
$PDMODE
 70
     0
  9
$PDSIZE
 40
0.0
  9
$PLINEWID
 40
0.0
  9
$SPLFRAME
 70
     0
  9
$SPLINETYPE
 70
     6
  9
$SPLINESEGS
 70
     8
  9
$HANDSEED
  5
484
  9
$SURFTAB1
 70
     6
  9
$SURFTAB2
 70
     6
  9
$SURFTYPE
 70
     6
  9
$SURFU
 70
     6
  9
$SURFV
 70
     6
  9
$UCSBASE
  2

  9
$UCSNAME
  2

  9
$UCSORG
 10
0.0
 20
0.0
 30
0.0
  9
$UCSXDIR
 10
1.0
 20
0.0
 30
0.0
  9
$UCSYDIR
 10
0.0
 20
1.0
 30
0.0
  9
$UCSORTHOREF
  2

  9
$UCSORTHOVIEW
 70
     1
  9
$UCSORGTOP
 10
0.0
 20
0.0
 30
0.0
  9
$UCSORGBOTTOM
 10
0.0
 20
0.0
 30
0.0
  9
$UCSORGLEFT
 10
0.0
 20
0.0
 30
0.0
  9
$UCSORGRIGHT
 10
0.0
 20
0.0
 30
0.0
  9
$UCSORGFRONT
 10
0.0
 20
0.0
 30
0.0
  9
$UCSORGBACK
 10
0.0
 20
0.0
 30
0.0
  9
$PUCSBASE
  2

  9
$PUCSNAME
  2

  9
$PUCSORG
 10
0.0
 20
0.0
 30
0.0
  9
$PUCSXDIR
 10
1.0
 20
0.0
 30
0.0
  9
$PUCSYDIR
 10
0.0
 20
1.0
 30
0.0
  9
$PUCSORTHOREF
  2

  9
$PUCSORTHOVIEW
 70
     0
  9
$PUCSORGTOP
 10
0.0
 20
0.0
 30
0.0
  9
$PUCSORGBOTTOM
 10
0.0
 20
0.0
 30
0.0
  9
$PUCSORGLEFT
 10
0.0
 20
0.0
 30
0.0
  9
$PUCSORGRIGHT
 10
0.0
 20
0.0
 30
0.0
  9
$PUCSORGFRONT
 10
0.0
 20
0.0
 30
0.0
  9
$PUCSORGBACK
 10
0.0
 20
0.0
 30
0.0
  9
$USERI1
 70
     0
  9
$USERI2
 70
     0
  9
$USERI3
 70
     0
  9
$USERI4
 70
     0
  9
$USERI5
 70
     0
  9
$USERR1
 40
0.0
  9
$USERR2
 40
0.0
  9
$USERR3
 40
0.0
  9
$USERR4
 40
0.0
  9
$USERR5
 40
0.0
  9
$WORLDVIEW
 70
     1
  9
$SHADEDGE
 70
     3
  9
$SHADEDIF
 70
    70
  9
$TILEMODE
 70
     1
  9
$MAXACTVP
 70
    64
  9
$PINSBASE
 10
0.0
 20
0.0
 30
0.0
  9
$PLIMCHECK
 70
     0
  9
$PEXTMIN
 10
1.000000000000000E+20
 20
1.000000000000000E+20
 30
1.000000000000000E+20
  9
$PEXTMAX
 10
-1.000000000000000E+20
 20
-1.000000000000000E+20
 30
-1.000000000000000E+20
  9
$PLIMMIN
 10
0.0
 20
0.0
  9
$PLIMMAX
 10
12.0
 20
9.0
  9
$UNITMODE
 70
     0
  9
$VISRETAIN
 70
     1
  9
$PLINEGEN
 70
     0
  9
$PSLTSCALE
 70
     1
  9
$TREEDEPTH
 70
  3020
  9
$CMLSTYLE
  2
Standard
  9
$CMLJUST
 70
     0
  9
$CMLSCALE
 40
1.0
  9
$PROXYGRAPHICS
 70
     1
  9
$MEASUREMENT
 70
     0
  9
$CELWEIGHT
370
    -1
  9
$ENDCAPS
280
     0
  9
$JOINSTYLE
280
     0
  9
$LWDISPLAY
290
     0
  9
$INSUNITS
 70
     0
  9
$HYPERLINKBASE
  1

  9
$STYLESHEET
  1

  9
$XEDIT
290
     1
  9
$CEPSNTYPE
380
     0
  9
$PSTYLEMODE
290
     1
  9
$FINGERPRINTGUID
  2
{57A41831-9F09-4E34-BA58-D3C9B49CCF91}
  9
$VERSIONGUID
  2
{06B37500-FA5D-4C6E-8E2B-57C9BAD63FED}
  9
$EXTNAMES
290
     1
  9
$PSVPSCALE
 40
0.0
  9
$OLESTARTUP
290
     0
  0
ENDSEC
  0
SECTION
  2
CLASSES
  0
CLASS
  1
ACDBDICTIONARYWDFLT
  2
AcDbDictionaryWithDefault
  3
AutoCAD 2000
 90
        0
280
     0
281
     0
  0
CLASS
  1
ACDBPLACEHOLDER
  2
AcDbPlaceHolder
  3
AutoCAD 2000
 90
        0
280
     0
281
     0
  0
CLASS
  1
LAYOUT
  2
AcDbLayout
  3
AutoCAD 2000
 90
        0
280
     0
281
     0
  0
CLASS
  1
DICTIONARYVAR
  2
AcDbDictionaryVar
  3
AutoCAD 2000
 90
        0
280
     0
281
     0
  0
ENDSEC
  0
SECTION
  2
TABLES
  0
TABLE
  2
VPORT
  5
8
330
0
100
AcDbSymbolTable
 70
     2
  0
VPORT
  5
483
330
8
100
AcDbSymbolTableRecord
100
AcDbViewportTableRecord
  2
*Active
 70
     0
 10
0.0
 20
0.0
 11
1.0
 21
1.0
 12
50.0
 22
80.5
 13
0.0
 23
0.0
 14
1.0
 24
1.0
 15
0.0
 25
0.0
 16
0.0
 26
0.0
 36
1.0
 17
0.0
 27
0.0
 37
0.0
 40
162.636408286445
 41
2.078104993597951
 42
50.0
 43
0.0
 44
0.0
 50
0.0
 51
0.0
 71
     0
 72
   100
 73
     1
 74
     3
 75
     0
 76
     0
 77
     0
 78
     0
281
     0
 65
     1
110
0.0
120
0.0
130
0.0
111
1.0
121
0.0
131
0.0
112
0.0
122
1.0
132
0.0
 79
     1
146
0.0
  0
ENDTAB
  0
TABLE
  2
LTYPE
  5
5
330
0
100
AcDbSymbolTable
 70
     1
  0
LTYPE
  5
13
330
5
100
AcDbSymbolTableRecord
100
AcDbLinetypeTableRecord
  2
ByBlock
 70
     0
  3

 72
    65
 73
     0
 40
0.0
  0
LTYPE
  5
14
330
5
100
AcDbSymbolTableRecord
100
AcDbLinetypeTableRecord
  2
ByLayer
 70
     0
  3

 72
    65
 73
     0
 40
0.0
  0
LTYPE
  5
15
330
5
100
AcDbSymbolTableRecord
100
AcDbLinetypeTableRecord
  2
Continuous
 70
     0
  3
Solid line
 72
    65
 73
     0
 40
0.0
  0
ENDTAB
  0
TABLE
  2
LAYER
  5
2
330
0
100
AcDbSymbolTable
 70
     1
  0
LAYER
  5
10
330
2
100
AcDbSymbolTableRecord
100
AcDbLayerTableRecord
  2
0
 70
     0
 62
     7
  6
Continuous
370
    -3
390
F
  0
ENDTAB
  0
TABLE
  2
STYLE
  5
3
330
0
100
AcDbSymbolTable
 70
     1
  0
STYLE
  5
11
330
3
100
AcDbSymbolTableRecord
100
AcDbTextStyleTableRecord
  2
Standard
 70
     0
 40
0.0
 41
1.0
 50
0.0
 71
     0
 42
0.2
  3
txt
  4

  0
ENDTAB
  0
TABLE
  2
VIEW
  5
6
330
0
100
AcDbSymbolTable
 70
     0
  0
ENDTAB
  0
TABLE
  2
UCS
  5
7
330
0
100
AcDbSymbolTable
 70
     0
  0
ENDTAB
  0
TABLE
  2
APPID
  5
9
330
0
100
AcDbSymbolTable
 70
     1
  0
APPID
  5
12
330
9
100
AcDbSymbolTableRecord
100
AcDbRegAppTableRecord
  2
ACAD
 70
     0
  0
ENDTAB
  0
TABLE
  2
DIMSTYLE
  5
A
330
0
100
AcDbSymbolTable
 70
     1
100
AcDbDimStyleTable
 71
     0
  0
DIMSTYLE
105
47D
330
A
100
AcDbSymbolTableRecord
100
AcDbDimStyleTableRecord
  2
Standard
 70
     0
340
11
  0
ENDTAB
  0
TABLE
  2
BLOCK_RECORD
  5
1
330
0
100
AcDbSymbolTable
 70
     0
  0
BLOCK_RECORD
  5
1E
330
1
100
AcDbSymbolTableRecord
100
AcDbBlockTableRecord
  2
*Model_Space
340
21
  0
BLOCK_RECORD
  5
1A
330
1
100
AcDbSymbolTableRecord
100
AcDbBlockTableRecord
  2
*Paper_Space
340
1D
  0
ENDTAB
  0
ENDSEC
  0
SECTION
  2
BLOCKS
  0
BLOCK
  5
1F
330
1E
100
AcDbEntity
  8
0
100
AcDbBlockBegin
  2
*Model_Space
 70
     0
 10
0.0
 20
0.0
 30
0.0
  3
*Model_Space
  1

  0
ENDBLK
  5
20
330
1E
100
AcDbEntity
  8
0
100
AcDbBlockEnd
  0
BLOCK
  5
1B
330
1A
100
AcDbEntity
 67
     1
  8
0
100
AcDbBlockBegin
  2
*Paper_Space
 70
     0
 10
0.0
 20
0.0
 30
0.0
  3
*Paper_Space
  1

  0
ENDBLK
  5
1C
330
1A
100
AcDbEntity
 67
     1
  8
0
100
AcDbBlockEnd
  0
ENDSEC
  0
SECTION
  2
ENTITIES
  0
LINE
  5
22
330
1E
100
AcDbEntity
  8
0
100
AcDbLine
 10
41.55199999999999
 20
2.149090000000009
 30
0.0
 11
44.048
 21
1.03620000000001
 31
0.0
  0
LINE
  5
23
330
1E
100
AcDbEntity
  8
0
100
AcDbLine
 10
41.55199999999999
 20
2.149090000000009
 30
0.0
 11
42.22399999999999
 21
1.70628
 31
0.0
  0
LINE
  5
24
330
1E
100
AcDbEntity
  8
0
100
AcDbLine
 10
39.632
 20
3.531460000000009
 30
0.0
 11
41.55199999999999
 21
2.149090000000009
 31
0.0
  0
LINE
  5
25
330
1E
100
AcDbEntity
  8
0
100
AcDbLine
 10
38.384
 20
5.2343
 30
0.0
 11
39.632
 21
3.531460000000009
 31
0.0
  0
LINE
  5
26
330
1E
100
AcDbEntity
  8
0
100
AcDbLine
 10
38.0
 20
7.02161
 30
0.0
 11
38.0
 21
84.05362999999999
 31
0.0
  0
LINE
  5
27
330
1E
100
AcDbEntity
  8
0
100
AcDbLine
 10
38.0
 20
7.02161
 30
0.0
 11
38.384
 21
5.2343
 31
0.0
  0
LINE
  5
28
330
1E
100
AcDbEntity
  8
0
100
AcDbLine
 10
44.048
 20
1.03620000000001
 30
0.0
 11
46.928
 21
0.361770000000005
 31
0.0
  0
LINE
  5
29
330
1E
100
AcDbEntity
  8
0
100
AcDbLine
 10
44.048
 20
1.03620000000001
 30
0.0
 11
46.928
 21
0.361770000000005
 31
0.0
  0
LINE
  5
2A
330
1E
100
AcDbEntity
  8
0
100
AcDbLine
 10
42.22399999999999
 20
1.70628
 30
0.0
 11
44.52799999999999
 21
0.6269000000000061
 31
0.0
  0
LINE
  5
2B
330
1E
100
AcDbEntity
  8
0
100
AcDbLine
 10
44.52799999999999
 20
0.6269000000000061
 30
0.0
 11
47.11999999999999
 21
0.0369500000000064
 31
0.0
  0
LINE
  5
2C
330
1E
100
AcDbEntity
  8
0
100
AcDbLine
 10
44.52799999999999
 20
0.6269000000000061
 30
0.0
 11
47.11999999999999
 21
0.0369500000000064
 31
0.0
  0
LINE
  5
2D
330
1E
100
AcDbEntity
  8
0
100
AcDbLine
 10
47.11999999999999
 20
0.0369500000000064
 30
0.0
 11
50.0
 21
-0.199029999999994
 31
0.0
  0
LINE
  5
2E
330
1E
100
AcDbEntity
  8
0
100
AcDbLine
 10
47.11999999999999
 20
0.0369500000000064
 30
0.0
 11
50.0
 21
-0.199029999999994
 31
0.0
  0
LINE
  5
2F
330
1E
100
AcDbEntity
  8
0
100
AcDbLine
 10
46.928
 20
0.361770000000005
 30
0.0
 11
50.0
 21
0.0413000000000062
 31
0.0
  0
LINE
  5
30
330
1E
100
AcDbEntity
  8
0
100
AcDbLine
 10
50.0
 20
-0.199029999999994
 30
0.0
 11
52.88
 21
0.0369500000000064
 31
0.0
  0
LINE
  5
31
330
1E
100
AcDbEntity
  8
0
100
AcDbLine
 10
50.0
 20
-0.199029999999994
 30
0.0
 11
52.88
 21
0.0369500000000064
 31
0.0
  0
LINE
  5
32
330
1E
100
AcDbEntity
  8
0
100
AcDbLine
 10
50.0
 20
0.0413000000000062
 30
0.0
 11
53.07199999999999
 21
0.361770000000005
 31
0.0
  0
LINE
  5
33
330
1E
100
AcDbEntity
  8
0
100
AcDbLine
 10
38.384
 20
81.09673
 30
0.0
 11
39.632
 21
78.30873000000001
 31
0.0
  0
LINE
  5
34
330
1E
100
AcDbEntity
  8
0
100
AcDbLine
 10
38.0
 20
84.05362999999999
 30
0.0
 11
38.384
 21
87.09523
 31
0.0
  0
LINE
  5
35
330
1E
100
AcDbEntity
  8
0
100
AcDbLine
 10
38.0
 20
84.05362999999999
 30
0.0
 11
38.0
 21
7.021610000000009
 31
0.0
  0
LINE
  5
36
330
1E
100
AcDbEntity
  8
0
100
AcDbLine
 10
38.0
 20
84.05362999999999
 30
0.0
 11
38.384
 21
81.09673
 31
0.0
  0
LINE
  5
37
330
1E
100
AcDbEntity
  8
0
100
AcDbLine
 10
39.632
 20
78.30873000000001
 30
0.0
 11
41.55199999999999
 21
75.85863
 31
0.0
  0
LINE
  5
38
330
1E
100
AcDbEntity
  8
0
100
AcDbLine
 10
38.384
 20
87.09523
 30
0.0
 11
39.632
 21
89.88323000000001
 31
0.0
  0
LINE
  5
39
330
1E
100
AcDbEntity
  8
0
100
AcDbLine
 10
39.632
 20
89.88323000000001
 30
0.0
 11
41.36
 21
92.08831999999999
 31
0.0
  0
LINE
  5
3A
330
1E
100
AcDbEntity
  8
0
100
AcDbLine
 10
41.55199999999999
 20
75.85863
 30
0.0
 11
44.048
 21
73.99993000000001
 31
0.0
  0
LINE
  5
3B
330
1E
100
AcDbEntity
  8
0
100
AcDbLine
 10
44.048
 20
73.99993000000001
 30
0.0
 11
46.928
 21
72.81713
 31
0.0
  0
LINE
  5
3C
330
1E
100
AcDbEntity
  8
0
100
AcDbLine
 10
46.928
 20
72.81713
 30
0.0
 11
50.0
 21
72.39463
 31
0.0
  0
LINE
  5
3D
330
1E
100
AcDbEntity
  8
0
100
AcDbLine
 10
47.792
 20
76.02763
 30
0.0
 11
50.0
 21
75.68963
 31
0.0
  0
LINE
  5
3E
330
1E
100
AcDbEntity
  8
0
100
AcDbLine
 10
45.68
 20
76.78793
 30
0.0
 11
47.792
 21
76.02763
 31
0.0
  0
LINE
  5
3F
330
1E
100
AcDbEntity
  8
0
100
AcDbLine
 10
43.856
 20
78.13973
 30
0.0
 11
45.68
 21
76.78793
 31
0.0
  0
LINE
  5
40
330
1E
100
AcDbEntity
  8
0
100
AcDbLine
 10
42.51199999999999
 20
79.91393000000001
 30
0.0
 11
43.856
 21
78.13973
 31
0.0
  0
LINE
  5
41
330
1E
100
AcDbEntity
  8
0
100
AcDbLine
 10
49.0
 20
88.51943
 30
0.0
 11
49.0
 21
87.84003
 31
0.0
  0
LINE
  5
42
330
1E
100
AcDbEntity
  8
0
100
AcDbLine
 10
49.0
 20
88.51943
 30
0.0
 11
49.0
 21
89.48553000000002
 31
0.0
  0
LINE
  5
43
330
1E
100
AcDbEntity
  8
0
100
AcDbLine
 10
49.0
 20
87.84003
 30
0.0
 11
49.0
 21
87.65703
 31
0.0
  0
LINE
  5
44
330
1E
100
AcDbEntity
  8
0
100
AcDbLine
 10
49.0
 20
87.84003
 30
0.0
 11
49.0
 21
88.51943
 31
0.0
  0
LINE
  5
45
330
1E
100
AcDbEntity
  8
0
100
AcDbLine
 10
49.0
 20
87.65703
 30
0.0
 11
49.0
 21
88.07043
 31
0.0
  0
LINE
  5
46
330
1E
100
AcDbEntity
  8
0
100
AcDbLine
 10
49.0
 20
87.65703
 30
0.0
 11
49.0
 21
87.84003
 31
0.0
  0
LINE
  5
47
330
1E
100
AcDbEntity
  8
0
100
AcDbLine
 10
49.0
 20
87.65703
 30
0.0
 11
51.0
 21
87.65703
 31
0.0
  0
LINE
  5
48
330
1E
100
AcDbEntity
  8
0
100
AcDbLine
 10
49.0
 20
88.07043
 30
0.0
 11
49.0
 21
88.78023
 31
0.0
  0
LINE
  5
49
330
1E
100
AcDbEntity
  8
0
100
AcDbLine
 10
49.0
 20
88.07043
 30
0.0
 11
49.0
 21
87.65703
 31
0.0
  0
LINE
  5
4A
330
1E
100
AcDbEntity
  8
0
100
AcDbLine
 10
49.0
 20
89.48553000000002
 30
0.0
 11
49.0
 21
88.51943
 31
0.0
  0
LINE
  5
4B
330
1E
100
AcDbEntity
  8
0
100
AcDbLine
 10
49.0
 20
88.78023
 30
0.0
 11
49.0
 21
90.81283
 31
0.0
  0
LINE
  5
4C
330
1E
100
AcDbEntity
  8
0
100
AcDbLine
 10
49.0
 20
88.78023
 30
0.0
 11
49.0
 21
88.07043
 31
0.0
  0
LINE
  5
4D
330
1E
100
AcDbEntity
  8
0
100
AcDbLine
 10
49.0
 20
90.81283
 30
0.0
 11
49.0
 21
97.241592936012
 31
0.0
  0
LINE
  5
4E
330
1E
100
AcDbEntity
  8
0
100
AcDbLine
 10
49.0
 20
90.81283
 30
0.0
 11
49.0
 21
88.78023
 31
0.0
  0
LINE
  5
4F
330
1E
100
AcDbEntity
  8
0
100
AcDbLine
 10
41.648
 20
81.94163000000001
 30
0.0
 11
42.51199999999999
 21
79.91393000000001
 31
0.0
  0
LINE
  5
50
330
1E
100
AcDbEntity
  8
0
100
AcDbLine
 10
41.36
 20
84.05362999999999
 30
0.0
 11
41.648
 21
81.94163000000001
 31
0.0
  0
LINE
  5
51
330
1E
100
AcDbEntity
  8
0
100
AcDbLine
 10
41.36
 20
84.05362999999999
 30
0.0
 11
41.36
 21
92.50059253796379
 31
0.0
  0
LINE
  5
52
330
1E
100
AcDbEntity
  8
0
100
AcDbLine
 10
50.0
 20
72.39463
 30
0.0
 11
53.07199999999999
 21
72.81713
 31
0.0
  0
LINE
  5
53
330
1E
100
AcDbEntity
  8
0
100
AcDbLine
 10
50.0
 20
75.68963
 30
0.0
 11
52.208
 21
76.02763
 31
0.0
  0
LINE
  5
54
330
1E
100
AcDbEntity
  8
0
100
AcDbLine
 10
0.5108999999999981
 20
114.30003
 30
0.0
 11
1.824799999999999
 21
111.05203
 31
0.0
  0
LINE
  5
55
330
1E
100
AcDbEntity
  8
0
100
AcDbLine
 10
13.87
 20
101.61303
 30
0.0
 11
13.87
 21
102.4844695180479
 31
0.0
  0
LINE
  5
56
330
1E
100
AcDbEntity
  8
0
100
AcDbLine
 10
13.87
 20
101.61303
 30
0.0
 11
13.87
 21
102.34303
 31
0.0
  0
LINE
  5
57
330
1E
100
AcDbEntity
  8
0
100
AcDbLine
 10
13.87
 20
101.61303
 30
0.0
 11
15.3299
 21
101.61303
 31
0.0
  0
LINE
  5
58
330
1E
100
AcDbEntity
  8
0
100
AcDbLine
 10
13.87
 20
102.4844695180479
 30
0.0
 11
13.87
 21
101.61303
 31
0.0
  0
LINE
  5
59
330
1E
100
AcDbEntity
  8
0
100
AcDbLine
 10
13.87
 20
102.692411749063
 30
0.0
 11
13.87
 21
102.34303
 31
0.0
  0
LINE
  5
5A
330
1E
100
AcDbEntity
  8
0
100
AcDbLine
 10
13.87
 20
102.34303
 30
0.0
 11
13.87
 21
101.61303
 31
0.0
  0
LINE
  5
5B
330
1E
100
AcDbEntity
  8
0
100
AcDbLine
 10
13.87
 20
102.34303
 30
0.0
 11
13.87
 21
102.692411749063
 31
0.0
  0
LINE
  5
5C
330
1E
100
AcDbEntity
  8
0
100
AcDbLine
 10
13.87
 20
102.34303
 30
0.0
 11
15.3299
 21
102.34303
 31
0.0
  0
LINE
  5
5D
330
1E
100
AcDbEntity
  8
0
100
AcDbLine
 10
12.7007
 20
102.33903
 30
0.0
 11
13.87
 21
101.6813774165769
 31
0.0
  0
LINE
  5
5E
330
1E
100
AcDbEntity
  8
0
100
AcDbLine
 10
13.99152105263159
 20
101.61303
 30
0.0
 11
16.7883
 21
100.04003
 31
0.0
  0
LINE
  5
5F
330
1E
100
AcDbEntity
  8
0
100
AcDbLine
 10
10.9489
 20
101.68203
 30
0.0
 11
15.1825
 21
99.23693
 31
0.0
  0
LINE
  5
60
330
1E
100
AcDbEntity
  8
0
100
AcDbLine
 10
9.0843
 20
105.67303
 30
0.0
 11
9.0843
 21
106.4030299999999
 31
0.0
  0
LINE
  5
61
330
1E
100
AcDbEntity
  8
0
100
AcDbLine
 10
9.0843
 20
105.67303
 30
0.0
 11
10.5441
 21
105.67303
 31
0.0
  0
LINE
  5
62
330
1E
100
AcDbEntity
  8
0
100
AcDbLine
 10
9.0843
 20
107.638374406881
 30
0.0
 11
9.0843
 21
106.4030299999999
 31
0.0
  0
LINE
  5
63
330
1E
100
AcDbEntity
  8
0
100
AcDbLine
 10
10.5441
 20
106.4030299999999
 30
0.0
 11
10.5441
 21
107.6211611922349
 31
0.0
  0
LINE
  5
64
330
1E
100
AcDbEntity
  8
0
100
AcDbLine
 10
10.5441
 20
106.4030299999999
 30
0.0
 11
10.5441
 21
105.67303
 31
0.0
  0
LINE
  5
65
330
1E
100
AcDbEntity
  8
0
100
AcDbLine
 10
10.5441
 20
105.67303
 30
0.0
 11
10.5441
 21
106.4030299999999
 31
0.0
  0
LINE
  5
66
330
1E
100
AcDbEntity
  8
0
100
AcDbLine
 10
10.5441
 20
107.6211611922349
 30
0.0
 11
10.5441
 21
106.4030299999999
 31
0.0
  0
LINE
  5
67
330
1E
100
AcDbEntity
  8
0
100
AcDbLine
 10
9.0843
 20
106.4030299999999
 30
0.0
 11
9.0843
 21
105.67303
 31
0.0
  0
LINE
  5
68
330
1E
100
AcDbEntity
  8
0
100
AcDbLine
 10
9.0843
 20
106.4030299999999
 30
0.0
 11
9.0843
 21
107.638374406881
 31
0.0
  0
LINE
  5
69
330
1E
100
AcDbEntity
  8
0
100
AcDbLine
 10
9.0843
 20
106.4030299999999
 30
0.0
 11
10.5441
 21
106.4030299999999
 31
0.0
  0
LINE
  5
6A
330
1E
100
AcDbEntity
  8
0
100
AcDbLine
 10
9.1971
 20
104.93003
 30
0.0
 11
12.7007
 21
102.33903
 31
0.0
  0
LINE
  5
6B
330
1E
100
AcDbEntity
  8
0
100
AcDbLine
 10
6.5693
 20
107.66803
 30
0.0
 11
9.1971
 21
104.93003
 31
0.0
  0
LINE
  5
6C
330
1E
100
AcDbEntity
  8
0
100
AcDbLine
 10
7.29929999999999
 20
104.3830299999999
 30
0.0
 11
10.9489
 21
101.68203
 31
0.0
  0
LINE
  5
6D
330
1E
100
AcDbEntity
  8
0
100
AcDbLine
 10
4.598499999999999
 20
107.2300299999999
 30
0.0
 11
7.29929999999999
 21
104.3830299999999
 31
0.0
  0
LINE
  5
6E
330
1E
100
AcDbEntity
  8
0
100
AcDbLine
 10
14.6799
 20
110.15103
 30
0.0
 11
14.6799
 21
111.3731669622019
 31
0.0
  0
LINE
  5
6F
330
1E
100
AcDbEntity
  8
0
100
AcDbLine
 10
14.6799
 20
110.15103
 30
0.0
 11
14.6799
 21
110.88103
 31
0.0
  0
LINE
  5
70
330
1E
100
AcDbEntity
  8
0
100
AcDbLine
 10
14.6799
 20
110.15103
 30
0.0
 11
16.1397
 21
110.15103
 31
0.0
  0
LINE
  5
71
330
1E
100
AcDbEntity
  8
0
100
AcDbLine
 10
7.218399999999999
 20
110.50303
 30
0.0
 11
7.218399999999999
 21
111.2330299999999
 31
0.0
  0
LINE
  5
72
330
1E
100
AcDbEntity
  8
0
100
AcDbLine
 10
14.6799
 20
110.88103
 30
0.0
 11
14.6799
 21
110.15103
 31
0.0
  0
LINE
  5
73
330
1E
100
AcDbEntity
  8
0
100
AcDbLine
 10
14.6799
 20
110.88103
 30
0.0
 11
14.6799
 21
111.3731669622019
 31
0.0
  0
LINE
  5
74
330
1E
100
AcDbEntity
  8
0
100
AcDbLine
 10
14.6799
 20
110.88103
 30
0.0
 11
16.1397
 21
110.88103
 31
0.0
  0
LINE
  5
75
330
1E
100
AcDbEntity
  8
0
100
AcDbLine
 10
5.758499999999999
 20
111.000487444021
 30
0.0
 11
5.758499999999999
 21
110.50303
 31
0.0
  0
LINE
  5
76
330
1E
100
AcDbEntity
  8
0
100
AcDbLine
 10
5.758499999999999
 20
110.50303
 30
0.0
 11
5.758499999999999
 21
111.000487444021
 31
0.0
  0
LINE
  5
77
330
1E
100
AcDbEntity
  8
0
100
AcDbLine
 10
5.758499999999999
 20
110.50303
 30
0.0
 11
5.758499999999999
 21
111.2330299999999
 31
0.0
  0
LINE
  5
78
330
1E
100
AcDbEntity
  8
0
100
AcDbLine
 10
5.758499999999999
 20
110.50303
 30
0.0
 11
7.218399999999999
 21
110.50303
 31
0.0
  0
LINE
  5
79
330
1E
100
AcDbEntity
  8
0
100
AcDbLine
 10
4.598499999999999
 20
110.95203
 30
0.0
 11
6.5693
 21
107.66803
 31
0.0
  0
LINE
  5
7A
330
1E
100
AcDbEntity
  8
0
100
AcDbLine
 10
3.868599999999999
 20
107.95003
 30
0.0
 11
4.598499999999999
 21
107.2300299999999
 31
0.0
  0
LINE
  5
7B
330
1E
100
AcDbEntity
  8
0
100
AcDbLine
 10
2.481799999999999
 20
110.44103
 30
0.0
 11
4.598499999999999
 21
107.2300299999999
 31
0.0
  0
LINE
  5
7C
330
1E
100
AcDbEntity
  8
0
100
AcDbLine
 10
14.6799
 20
111.3731669622019
 30
0.0
 11
14.6799
 21
110.88103
 31
0.0
  0
LINE
  5
7D
330
1E
100
AcDbEntity
  8
0
100
AcDbLine
 10
14.6799
 20
111.3731669622019
 30
0.0
 11
14.6799
 21
110.15103
 31
0.0
  0
LINE
  5
7E
330
1E
100
AcDbEntity
  8
0
100
AcDbLine
 10
7.218399999999999
 20
111.2330299999999
 30
0.0
 11
7.218399999999999
 21
110.50303
 31
0.0
  0
LINE
  5
7F
330
1E
100
AcDbEntity
  8
0
100
AcDbLine
 10
5.758499999999999
 20
111.2330299999999
 30
0.0
 11
5.758499999999999
 21
110.50303
 31
0.0
  0
LINE
  5
80
330
1E
100
AcDbEntity
  8
0
100
AcDbLine
 10
5.758499999999999
 20
111.2330299999999
 30
0.0
 11
7.218399999999999
 21
111.2330299999999
 31
0.0
  0
LINE
  5
81
330
1E
100
AcDbEntity
  8
0
100
AcDbLine
 10
4.379599999999999
 20
116.336277161646
 30
0.0
 11
4.379599999999999
 21
115.4150299999999
 31
0.0
  0
LINE
  5
82
330
1E
100
AcDbEntity
  8
0
100
AcDbLine
 10
4.379599999999999
 20
116.778033941378
 30
0.0
 11
4.379599999999999
 21
116.14503
 31
0.0
  0
LINE
  5
83
330
1E
100
AcDbEntity
  8
0
100
AcDbLine
 10
4.379599999999999
 20
116.14503
 30
0.0
 11
4.379599999999999
 21
115.4150299999999
 31
0.0
  0
LINE
  5
84
330
1E
100
AcDbEntity
  8
0
100
AcDbLine
 10
4.379599999999999
 20
116.14503
 30
0.0
 11
4.379599999999999
 21
116.778033941378
 31
0.0
  0
LINE
  5
85
330
1E
100
AcDbEntity
  8
0
100
AcDbLine
 10
4.379599999999999
 20
116.14503
 30
0.0
 11
5.8394
 21
116.14503
 31
0.0
  0
LINE
  5
86
330
1E
100
AcDbEntity
  8
0
100
AcDbLine
 10
5.8394
 20
116.14503
 30
0.0
 11
5.8394
 21
116.910028840771
 31
0.0
  0
LINE
  5
87
330
1E
100
AcDbEntity
  8
0
100
AcDbLine
 10
5.8394
 20
116.14503
 30
0.0
 11
5.8394
 21
115.4150299999999
 31
0.0
  0
LINE
  5
88
330
1E
100
AcDbEntity
  8
0
100
AcDbLine
 10
14.5985
 20
114.98203
 30
0.0
 11
14.5985
 21
115.71203
 31
0.0
  0
LINE
  5
89
330
1E
100
AcDbEntity
  8
0
100
AcDbLine
 10
13.1387
 20
116.0079227649509
 30
0.0
 11
13.1387
 21
115.71203
 31
0.0
  0
LINE
  5
8A
330
1E
100
AcDbEntity
  8
0
100
AcDbLine
 10
13.1387
 20
116.0079227649509
 30
0.0
 11
13.1387
 21
114.98203
 31
0.0
  0
LINE
  5
8B
330
1E
100
AcDbEntity
  8
0
100
AcDbLine
 10
14.5985
 20
115.71203
 30
0.0
 11
14.5985
 21
115.916768156699
 31
0.0
  0
LINE
  5
8C
330
1E
100
AcDbEntity
  8
0
100
AcDbLine
 10
14.5985
 20
115.71203
 30
0.0
 11
14.5985
 21
114.98203
 31
0.0
  0
LINE
  5
8D
330
1E
100
AcDbEntity
  8
0
100
AcDbLine
 10
14.5985
 20
115.916768156699
 30
0.0
 11
14.5985
 21
115.71203
 31
0.0
  0
LINE
  5
8E
330
1E
100
AcDbEntity
  8
0
100
AcDbLine
 10
13.1387
 20
115.71203
 30
0.0
 11
13.1387
 21
114.98203
 31
0.0
  0
LINE
  5
8F
330
1E
100
AcDbEntity
  8
0
100
AcDbLine
 10
13.1387
 20
115.71203
 30
0.0
 11
13.1387
 21
116.0079227649509
 31
0.0
  0
LINE
  5
90
330
1E
100
AcDbEntity
  8
0
100
AcDbLine
 10
13.1387
 20
115.71203
 30
0.0
 11
14.5985
 21
115.71203
 31
0.0
  0
LINE
  5
91
330
1E
100
AcDbEntity
  8
0
100
AcDbLine
 10
13.1387
 20
114.98203
 30
0.0
 11
13.1387
 21
116.0079227649509
 31
0.0
  0
LINE
  5
92
330
1E
100
AcDbEntity
  8
0
100
AcDbLine
 10
13.1387
 20
114.98203
 30
0.0
 11
13.1387
 21
115.71203
 31
0.0
  0
LINE
  5
93
330
1E
100
AcDbEntity
  8
0
100
AcDbLine
 10
13.1387
 20
114.98203
 30
0.0
 11
14.5985
 21
114.98203
 31
0.0
  0
LINE
  5
94
330
1E
100
AcDbEntity
  8
0
100
AcDbLine
 10
5.8394
 20
115.4150299999999
 30
0.0
 11
5.8394
 21
116.14503
 31
0.0
  0
LINE
  5
95
330
1E
100
AcDbEntity
  8
0
100
AcDbLine
 10
5.8394
 20
116.910028840771
 30
0.0
 11
5.8394
 21
116.14503
 31
0.0
  0
LINE
  5
96
330
1E
100
AcDbEntity
  8
0
100
AcDbLine
 10
4.379599999999999
 20
115.4150299999999
 30
0.0
 11
4.379599999999999
 21
116.336277161646
 31
0.0
  0
LINE
  5
97
330
1E
100
AcDbEntity
  8
0
100
AcDbLine
 10
4.379599999999999
 20
115.4150299999999
 30
0.0
 11
4.379599999999999
 21
116.14503
 31
0.0
  0
LINE
  5
98
330
1E
100
AcDbEntity
  8
0
100
AcDbLine
 10
4.379599999999999
 20
115.4150299999999
 30
0.0
 11
5.8394
 21
115.4150299999999
 31
0.0
  0
LINE
  5
99
330
1E
100
AcDbEntity
  8
0
100
AcDbLine
 10
3.35769999999999
 20
113.54303
 30
0.0
 11
4.598499999999999
 21
110.95203
 31
0.0
  0
LINE
  5
9A
330
1E
100
AcDbEntity
  8
0
100
AcDbLine
 10
2.9197
 20
116.64603
 30
0.0
 11
3.35769999999999
 21
113.54303
 31
0.0
  0
LINE
  5
9B
330
1E
100
AcDbEntity
  8
0
100
AcDbLine
 10
2.9197
 20
116.64603
 30
0.0
 11
3.35769999999999
 21
119.74803
 31
0.0
  0
LINE
  5
9C
330
1E
100
AcDbEntity
  8
0
100
AcDbLine
 10
1.240899999999999
 20
113.47003
 30
0.0
 11
2.481799999999999
 21
110.44103
 31
0.0
  0
LINE
  5
9D
330
1E
100
AcDbEntity
  8
0
100
AcDbLine
 10
0.7298999999999929
 20
116.64603
 30
0.0
 11
1.240899999999999
 21
113.47003
 31
0.0
  0
LINE
  5
9E
330
1E
100
AcDbEntity
  8
0
100
AcDbLine
 10
0.7298999999999929
 20
116.64603
 30
0.0
 11
1.240899999999999
 21
119.82103
 31
0.0
  0
LINE
  5
9F
330
1E
100
AcDbEntity
  8
0
100
AcDbLine
 10
1.824799999999999
 20
111.05203
 30
0.0
 11
3.868599999999999
 21
107.95003
 31
0.0
  0
LINE
  5
A0
330
1E
100
AcDbEntity
  8
0
100
AcDbLine
 10
0.5108999999999981
 20
114.30003
 30
0.0
 11
1.824799999999999
 21
111.05203
 31
0.0
  0
LINE
  5
A1
330
1E
100
AcDbEntity
  8
0
100
AcDbLine
 10
0.5108999999999981
 20
120.72303
 30
0.0
 11
1.824799999999999
 21
123.97103
 31
0.0
  0
LINE
  5
A2
330
1E
100
AcDbEntity
  8
0
100
AcDbLine
 10
1.240899999999999
 20
119.82103
 30
0.0
 11
2.481799999999999
 21
122.85003
 31
0.0
  0
LINE
  5
A3
330
1E
100
AcDbEntity
  8
0
100
AcDbLine
 10
5.758499999999999
 20
122.140250269957
 30
0.0
 11
5.758499999999999
 21
121.05603
 31
0.0
  0
LINE
  5
A4
330
1E
100
AcDbEntity
  8
0
100
AcDbLine
 10
5.758499999999999
 20
121.05603
 30
0.0
 11
5.758499999999999
 21
122.140250269957
 31
0.0
  0
LINE
  5
A5
330
1E
100
AcDbEntity
  8
0
100
AcDbLine
 10
5.758499999999999
 20
121.05603
 30
0.0
 11
5.758499999999999
 21
120.3260299999999
 31
0.0
  0
LINE
  5
A6
330
1E
100
AcDbEntity
  8
0
100
AcDbLine
 10
5.758499999999999
 20
121.05603
 30
0.0
 11
7.218399999999999
 21
121.05603
 31
0.0
  0
LINE
  5
A7
330
1E
100
AcDbEntity
  8
0
100
AcDbLine
 10
14.6799
 20
120.54203
 30
0.0
 11
14.6799
 21
120.611462784087
 31
0.0
  0
LINE
  5
A8
330
1E
100
AcDbEntity
  8
0
100
AcDbLine
 10
14.6799
 20
120.54203
 30
0.0
 11
14.6799
 21
119.81203
 31
0.0
  0
LINE
  5
A9
330
1E
100
AcDbEntity
  8
0
100
AcDbLine
 10
14.6799
 20
120.54203
 30
0.0
 11
16.1397
 21
120.54203
 31
0.0
  0
LINE
  5
AA
330
1E
100
AcDbEntity
  8
0
100
AcDbLine
 10
14.6799
 20
120.611462784087
 30
0.0
 11
14.6799
 21
119.81203
 31
0.0
  0
LINE
  5
AB
330
1E
100
AcDbEntity
  8
0
100
AcDbLine
 10
14.6799
 20
120.611462784087
 30
0.0
 11
14.6799
 21
120.54203
 31
0.0
  0
LINE
  5
AC
330
1E
100
AcDbEntity
  8
0
100
AcDbLine
 10
14.6799
 20
119.81203
 30
0.0
 11
14.6799
 21
120.54203
 31
0.0
  0
LINE
  5
AD
330
1E
100
AcDbEntity
  8
0
100
AcDbLine
 10
14.6799
 20
119.81203
 30
0.0
 11
14.6799
 21
120.611462784087
 31
0.0
  0
LINE
  5
AE
330
1E
100
AcDbEntity
  8
0
100
AcDbLine
 10
14.6799
 20
119.81203
 30
0.0
 11
16.1397
 21
119.81203
 31
0.0
  0
LINE
  5
AF
330
1E
100
AcDbEntity
  8
0
100
AcDbLine
 10
7.218399999999999
 20
120.3260299999999
 30
0.0
 11
7.218399999999999
 21
121.05603
 31
0.0
  0
LINE
  5
B0
330
1E
100
AcDbEntity
  8
0
100
AcDbLine
 10
7.218399999999999
 20
121.890079125224
 30
0.0
 11
7.218399999999999
 21
121.05603
 31
0.0
  0
LINE
  5
B1
330
1E
100
AcDbEntity
  8
0
100
AcDbLine
 10
7.218399999999999
 20
121.05603
 30
0.0
 11
7.218399999999999
 21
120.3260299999999
 31
0.0
  0
LINE
  5
B2
330
1E
100
AcDbEntity
  8
0
100
AcDbLine
 10
7.218399999999999
 20
121.05603
 30
0.0
 11
7.218399999999999
 21
121.890079125224
 31
0.0
  0
LINE
  5
B3
330
1E
100
AcDbEntity
  8
0
100
AcDbLine
 10
5.758499999999999
 20
120.3260299999999
 30
0.0
 11
5.758499999999999
 21
121.05603
 31
0.0
  0
LINE
  5
B4
330
1E
100
AcDbEntity
  8
0
100
AcDbLine
 10
5.758499999999999
 20
120.3260299999999
 30
0.0
 11
7.218399999999999
 21
120.3260299999999
 31
0.0
  0
LINE
  5
B5
330
1E
100
AcDbEntity
  8
0
100
AcDbLine
 10
10.5441
 20
125.15703
 30
0.0
 11
10.5441
 21
125.88703
 31
0.0
  0
LINE
  5
B6
330
1E
100
AcDbEntity
  8
0
100
AcDbLine
 10
9.0843
 20
125.88703
 30
0.0
 11
9.0843
 21
125.15703
 31
0.0
  0
LINE
  5
B7
330
1E
100
AcDbEntity
  8
0
100
AcDbLine
 10
9.0843
 20
125.88703
 30
0.0
 11
10.5441
 21
125.88703
 31
0.0
  0
LINE
  5
B8
330
1E
100
AcDbEntity
  8
0
100
AcDbLine
 10
10.5441
 20
125.88703
 30
0.0
 11
10.5441
 21
125.15703
 31
0.0
  0
LINE
  5
B9
330
1E
100
AcDbEntity
  8
0
100
AcDbLine
 10
9.0843
 20
125.356615403092
 30
0.0
 11
9.0843
 21
125.15703
 31
0.0
  0
LINE
  5
BA
330
1E
100
AcDbEntity
  8
0
100
AcDbLine
 10
9.0843
 20
125.15703
 30
0.0
 11
9.0843
 21
125.88703
 31
0.0
  0
LINE
  5
BB
330
1E
100
AcDbEntity
  8
0
100
AcDbLine
 10
9.0843
 20
125.15703
 30
0.0
 11
9.0843
 21
125.356615403092
 31
0.0
  0
LINE
  5
BC
330
1E
100
AcDbEntity
  8
0
100
AcDbLine
 10
9.0843
 20
125.15703
 30
0.0
 11
10.5441
 21
125.15703
 31
0.0
  0
LINE
  5
BD
330
1E
100
AcDbEntity
  8
0
100
AcDbLine
 10
6.5693
 20
125.6240299999999
 30
0.0
 11
9.1971
 21
128.36103
 31
0.0
  0
LINE
  5
BE
330
1E
100
AcDbEntity
  8
0
100
AcDbLine
 10
4.598499999999999
 20
122.33903
 30
0.0
 11
6.5693
 21
125.6240299999999
 31
0.0
  0
LINE
  5
BF
330
1E
100
AcDbEntity
  8
0
100
AcDbLine
 10
3.35769999999999
 20
119.74803
 30
0.0
 11
4.598499999999999
 21
122.33903
 31
0.0
  0
LINE
  5
C0
330
1E
100
AcDbEntity
  8
0
100
AcDbLine
 10
4.598499999999999
 20
126.06203
 30
0.0
 11
7.29929999999999
 21
128.9080299999999
 31
0.0
  0
LINE
  5
C1
330
1E
100
AcDbEntity
  8
0
100
AcDbLine
 10
2.481799999999999
 20
122.85003
 30
0.0
 11
4.598499999999999
 21
126.06203
 31
0.0
  0
LINE
  5
C2
330
1E
100
AcDbEntity
  8
0
100
AcDbLine
 10
13.87
 20
129.94603
 30
0.0
 11
13.87
 21
130.6605607745549
 31
0.0
  0
LINE
  5
C3
330
1E
100
AcDbEntity
  8
0
100
AcDbLine
 10
13.87
 20
129.94603
 30
0.0
 11
13.87
 21
129.21603
 31
0.0
  0
LINE
  5
C4
330
1E
100
AcDbEntity
  8
0
100
AcDbLine
 10
13.87
 20
129.94603
 30
0.0
 11
15.3299
 21
129.94603
 31
0.0
  0
LINE
  5
C5
330
1E
100
AcDbEntity
  8
0
100
AcDbLine
 10
13.87
 20
130.6605607745549
 30
0.0
 11
13.87
 21
129.94603
 31
0.0
  0
LINE
  5
C6
330
1E
100
AcDbEntity
  8
0
100
AcDbLine
 10
13.87
 20
130.414902472078
 30
0.0
 11
13.87
 21
129.21603
 31
0.0
  0
LINE
  5
C7
330
1E
100
AcDbEntity
  8
0
100
AcDbLine
 10
13.87
 20
129.21603
 30
0.0
 11
13.87
 21
129.94603
 31
0.0
  0
LINE
  5
C8
330
1E
100
AcDbEntity
  8
0
100
AcDbLine
 10
13.87
 20
129.21603
 30
0.0
 11
13.87
 21
130.414902472078
 31
0.0
  0
LINE
  5
C9
330
1E
100
AcDbEntity
  8
0
100
AcDbLine
 10
13.87
 20
129.21603
 30
0.0
 11
15.3299
 21
129.21603
 31
0.0
  0
LINE
  5
CA
330
1E
100
AcDbEntity
  8
0
100
AcDbLine
 10
12.7007
 20
130.95203
 30
0.0
 11
16.7883
 21
133.25103
 31
0.0
  0
LINE
  5
CB
330
1E
100
AcDbEntity
  8
0
100
AcDbLine
 10
9.1971
 20
128.36103
 30
0.0
 11
12.7007
 21
130.95203
 31
0.0
  0
LINE
  5
CC
330
1E
100
AcDbEntity
  8
0
100
AcDbLine
 10
10.9489
 20
131.60903
 30
0.0
 11
15.1825
 21
134.05403
 31
0.0
  0
LINE
  5
CD
330
1E
100
AcDbEntity
  8
0
100
AcDbLine
 10
7.29929999999999
 20
128.9080299999999
 30
0.0
 11
10.9489
 21
131.60903
 31
0.0
  0
LINE
  5
CE
330
1E
100
AcDbEntity
  8
0
100
AcDbLine
 10
15.1825
 20
134.05403
 30
0.0
 11
20.073
 21
136.17103
 31
0.0
  0
LINE
  5
CF
330
1E
100
AcDbEntity
  8
0
100
AcDbLine
 10
14.6715
 20
135.17603
 30
0.0
 11
19.635
 21
137.32903
 31
0.0
  0
LINE
  5
D0
330
1E
100
AcDbEntity
  8
0
100
AcDbLine
 10
10.36499999999999
 20
132.6940299999999
 30
0.0
 11
14.6715
 21
135.17603
 31
0.0
  0
LINE
  5
D1
330
1E
100
AcDbEntity
  8
0
100
AcDbLine
 10
6.7153
 20
129.95703
 30
0.0
 11
10.36499999999999
 21
132.6940299999999
 31
0.0
  0
LINE
  5
D2
330
1E
100
AcDbEntity
  8
0
100
AcDbLine
 10
3.868599999999999
 20
127.07403
 30
0.0
 11
6.7153
 21
129.95703
 31
0.0
  0
LINE
  5
D3
330
1E
100
AcDbEntity
  8
0
100
AcDbLine
 10
1.824799999999999
 20
123.97103
 30
0.0
 11
3.868599999999999
 21
127.07403
 31
0.0
  0
LINE
  5
D4
330
1E
100
AcDbEntity
  8
0
100
AcDbLine
 10
0.5108999999999981
 20
138.91003
 30
0.0
 11
1.824799999999999
 21
142.15803
 31
0.0
  0
LINE
  5
D5
330
1E
100
AcDbEntity
  8
0
100
AcDbLine
 10
0.5108999999999981
 20
120.72303
 30
0.0
 11
1.824799999999999
 21
123.97103
 31
0.0
  0
LINE
  5
D6
330
1E
100
AcDbEntity
  8
0
100
AcDbLine
 10
0.5108999999999981
 20
138.91003
 30
0.0
 11
1.824799999999999
 21
142.15803
 31
0.0
  0
LINE
  5
D7
330
1E
100
AcDbEntity
  8
0
100
AcDbLine
 10
-0.000000000000001
 20
135.69803
 30
0.0
 11
0.5108999999999981
 21
138.91003
 31
0.0
  0
LINE
  5
D8
330
1E
100
AcDbEntity
  8
0
100
AcDbLine
 10
-0.000000000000001
 20
135.69803
 30
0.0
 11
-0.000000000000001
 21
117.51203
 31
0.0
  0
LINE
  5
D9
330
1E
100
AcDbEntity
  8
0
100
AcDbLine
 10
-0.000000000000001
 20
117.51203
 30
0.0
 11
0.5108999999999981
 21
114.30003
 31
0.0
  0
LINE
  5
DA
330
1E
100
AcDbEntity
  8
0
100
AcDbLine
 10
-0.000000000000001
 20
117.51203
 30
0.0
 11
-0.000000000000001
 21
135.69803
 31
0.0
  0
LINE
  5
DB
330
1E
100
AcDbEntity
  8
0
100
AcDbLine
 10
-0.000000000000001
 20
117.51203
 30
0.0
 11
0.5108999999999981
 21
120.72303
 31
0.0
  0
LINE
  5
DC
330
1E
100
AcDbEntity
  8
0
100
AcDbLine
 10
20.27819999999999
 20
98.48882841690951
 30
0.0
 11
20.27819999999999
 21
98.24433
 31
0.0
  0
LINE
  5
DD
330
1E
100
AcDbEntity
  8
0
100
AcDbLine
 10
20.27819999999999
 20
98.97433000000001
 30
0.0
 11
20.27819999999999
 21
98.24433
 31
0.0
  0
LINE
  5
DE
330
1E
100
AcDbEntity
  8
0
100
AcDbLine
 10
20.27819999999999
 20
98.97433000000001
 30
0.0
 11
21.738
 21
98.97433000000001
 31
0.0
  0
LINE
  5
DF
330
1E
100
AcDbEntity
  8
0
100
AcDbLine
 10
20.27819999999999
 20
98.24433
 30
0.0
 11
20.27819999999999
 21
98.48882841690951
 31
0.0
  0
LINE
  5
E0
330
1E
100
AcDbEntity
  8
0
100
AcDbLine
 10
20.27819999999999
 20
98.24433
 30
0.0
 11
20.27819999999999
 21
98.97433000000001
 31
0.0
  0
LINE
  5
E1
330
1E
100
AcDbEntity
  8
0
100
AcDbLine
 10
20.27819999999999
 20
98.24433
 30
0.0
 11
21.738
 21
98.24433
 31
0.0
  0
LINE
  5
E2
330
1E
100
AcDbEntity
  8
0
100
AcDbLine
 10
15.3299
 20
102.34303
 30
0.0
 11
15.3299
 21
103.133617611936
 31
0.0
  0
LINE
  5
E3
330
1E
100
AcDbEntity
  8
0
100
AcDbLine
 10
15.3299
 20
102.34303
 30
0.0
 11
15.3299
 21
101.61303
 31
0.0
  0
LINE
  5
E4
330
1E
100
AcDbEntity
  8
0
100
AcDbLine
 10
15.3299
 20
101.61303
 30
0.0
 11
15.3299
 21
102.34303
 31
0.0
  0
LINE
  5
E5
330
1E
100
AcDbEntity
  8
0
100
AcDbLine
 10
15.3299
 20
103.133617611936
 30
0.0
 11
15.3299
 21
102.34303
 31
0.0
  0
LINE
  5
E6
330
1E
100
AcDbEntity
  8
0
100
AcDbLine
 10
15.3299
 20
129.21603
 30
0.0
 11
15.3299
 21
129.94603
 31
0.0
  0
LINE
  5
E7
330
1E
100
AcDbEntity
  8
0
100
AcDbLine
 10
15.3299
 20
130.296654230276
 30
0.0
 11
15.3299
 21
129.94603
 31
0.0
  0
LINE
  5
E8
330
1E
100
AcDbEntity
  8
0
100
AcDbLine
 10
16.1397
 20
110.88103
 30
0.0
 11
16.1397
 21
111.434148149083
 31
0.0
  0
LINE
  5
E9
330
1E
100
AcDbEntity
  8
0
100
AcDbLine
 10
16.1397
 20
110.88103
 30
0.0
 11
16.1397
 21
110.15103
 31
0.0
  0
LINE
  5
EA
330
1E
100
AcDbEntity
  8
0
100
AcDbLine
 10
16.1397
 20
110.15103
 30
0.0
 11
16.1397
 21
110.88103
 31
0.0
  0
LINE
  5
EB
330
1E
100
AcDbEntity
  8
0
100
AcDbLine
 10
16.1397
 20
111.434148149083
 30
0.0
 11
16.1397
 21
110.88103
 31
0.0
  0
LINE
  5
EC
330
1E
100
AcDbEntity
  8
0
100
AcDbLine
 10
19.1412
 20
105.436631080858
 30
0.0
 11
19.1412
 21
105.32103
 31
0.0
  0
LINE
  5
ED
330
1E
100
AcDbEntity
  8
0
100
AcDbLine
 10
19.1412
 20
107.0478513271559
 30
0.0
 11
19.1412
 21
106.05103
 31
0.0
  0
LINE
  5
EE
330
1E
100
AcDbEntity
  8
0
100
AcDbLine
 10
19.1412
 20
106.05103
 30
0.0
 11
19.1412
 21
105.32103
 31
0.0
  0
LINE
  5
EF
330
1E
100
AcDbEntity
  8
0
100
AcDbLine
 10
19.1412
 20
106.05103
 30
0.0
 11
19.1412
 21
107.0478513271559
 31
0.0
  0
LINE
  5
F0
330
1E
100
AcDbEntity
  8
0
100
AcDbLine
 10
19.1412
 20
106.05103
 30
0.0
 11
20.60109999999999
 21
106.05103
 31
0.0
  0
LINE
  5
F1
330
1E
100
AcDbEntity
  8
0
100
AcDbLine
 10
19.1412
 20
105.32103
 30
0.0
 11
19.1412
 21
105.436631080858
 31
0.0
  0
LINE
  5
F2
330
1E
100
AcDbEntity
  8
0
100
AcDbLine
 10
19.1412
 20
105.32103
 30
0.0
 11
19.1412
 21
106.05103
 31
0.0
  0
LINE
  5
F3
330
1E
100
AcDbEntity
  8
0
100
AcDbLine
 10
19.1412
 20
105.32103
 30
0.0
 11
20.60109999999999
 21
105.32103
 31
0.0
  0
LINE
  5
F4
330
1E
100
AcDbEntity
  8
0
100
AcDbLine
 10
16.1397
 20
119.81203
 30
0.0
 11
16.1397
 21
120.54203
 31
0.0
  0
LINE
  5
F5
330
1E
100
AcDbEntity
  8
0
100
AcDbLine
 10
19.1412
 20
126.6687085515129
 30
0.0
 11
19.1412
 21
125.37203
 31
0.0
  0
LINE
  5
F6
330
1E
100
AcDbEntity
  8
0
100
AcDbLine
 10
19.1412
 20
125.37203
 30
0.0
 11
19.1412
 21
126.6687085515129
 31
0.0
  0
LINE
  5
F7
330
1E
100
AcDbEntity
  8
0
100
AcDbLine
 10
19.1412
 20
125.37203
 30
0.0
 11
19.1412
 21
124.64203
 31
0.0
  0
LINE
  5
F8
330
1E
100
AcDbEntity
  8
0
100
AcDbLine
 10
19.1412
 20
125.37203
 30
0.0
 11
20.60109999999999
 21
125.37203
 31
0.0
  0
LINE
  5
F9
330
1E
100
AcDbEntity
  8
0
100
AcDbLine
 10
19.1412
 20
124.813163238679
 30
0.0
 11
19.1412
 21
124.64203
 31
0.0
  0
LINE
  5
FA
330
1E
100
AcDbEntity
  8
0
100
AcDbLine
 10
19.1412
 20
124.64203
 30
0.0
 11
19.1412
 21
125.37203
 31
0.0
  0
LINE
  5
FB
330
1E
100
AcDbEntity
  8
0
100
AcDbLine
 10
19.1412
 20
124.64203
 30
0.0
 11
19.1412
 21
124.813163238679
 31
0.0
  0
LINE
  5
FC
330
1E
100
AcDbEntity
  8
0
100
AcDbLine
 10
19.1412
 20
124.64203
 30
0.0
 11
20.60109999999999
 21
124.64203
 31
0.0
  0
LINE
  5
FD
330
1E
100
AcDbEntity
  8
0
100
AcDbLine
 10
16.1397
 20
120.54203
 30
0.0
 11
16.1397
 21
119.81203
 31
0.0
  0
LINE
  5
FE
330
1E
100
AcDbEntity
  8
0
100
AcDbLine
 10
15.3299
 20
129.94603
 30
0.0
 11
15.3299
 21
129.21603
 31
0.0
  0
LINE
  5
FF
330
1E
100
AcDbEntity
  8
0
100
AcDbLine
 10
15.3299
 20
129.94603
 30
0.0
 11
15.3299
 21
130.296654230276
 31
0.0
  0
LINE
  5
100
330
1E
100
AcDbEntity
  8
0
100
AcDbLine
 10
16.7883
 20
133.25103
 30
0.0
 11
21.38689999999999
 21
135.29503
 31
0.0
  0
LINE
  5
101
330
1E
100
AcDbEntity
  8
0
100
AcDbLine
 10
20.27819999999999
 20
134.8022315830909
 30
0.0
 11
20.27819999999999
 21
133.31503
 31
0.0
  0
LINE
  5
102
330
1E
100
AcDbEntity
  8
0
100
AcDbLine
 10
20.27819999999999
 20
133.31503
 30
0.0
 11
20.27819999999999
 21
134.8022315830909
 31
0.0
  0
LINE
  5
103
330
1E
100
AcDbEntity
  8
0
100
AcDbLine
 10
20.27819999999999
 20
133.31503
 30
0.0
 11
20.27819999999999
 21
132.58503
 31
0.0
  0
LINE
  5
104
330
1E
100
AcDbEntity
  8
0
100
AcDbLine
 10
20.27819999999999
 20
133.31503
 30
0.0
 11
21.738
 21
133.31503
 31
0.0
  0
LINE
  5
105
330
1E
100
AcDbEntity
  8
0
100
AcDbLine
 10
20.60109999999999
 20
106.05103
 30
0.0
 11
20.60109999999999
 21
105.32103
 31
0.0
  0
LINE
  5
106
330
1E
100
AcDbEntity
  8
0
100
AcDbLine
 10
20.60109999999999
 20
105.32103
 30
0.0
 11
20.60109999999999
 21
106.05103
 31
0.0
  0
LINE
  5
107
330
1E
100
AcDbEntity
  8
0
100
AcDbLine
 10
20.60109999999999
 20
124.64203
 30
0.0
 11
20.60109999999999
 21
125.37203
 31
0.0
  0
LINE
  5
108
330
1E
100
AcDbEntity
  8
0
100
AcDbLine
 10
20.60109999999999
 20
126.420257703005
 30
0.0
 11
20.60109999999999
 21
125.37203
 31
0.0
  0
LINE
  5
109
330
1E
100
AcDbEntity
  8
0
100
AcDbLine
 10
20.60109999999999
 20
125.37203
 30
0.0
 11
20.60109999999999
 21
124.64203
 31
0.0
  0
LINE
  5
10A
330
1E
100
AcDbEntity
  8
0
100
AcDbLine
 10
20.60109999999999
 20
125.37203
 30
0.0
 11
20.60109999999999
 21
126.420257703005
 31
0.0
  0
LINE
  5
10B
330
1E
100
AcDbEntity
  8
0
100
AcDbLine
 10
20.27819999999999
 20
132.58503
 30
0.0
 11
20.27819999999999
 21
133.31503
 31
0.0
  0
LINE
  5
10C
330
1E
100
AcDbEntity
  8
0
100
AcDbLine
 10
20.27819999999999
 20
132.58503
 30
0.0
 11
21.738
 21
132.58503
 31
0.0
  0
LINE
  5
10D
330
1E
100
AcDbEntity
  8
0
100
AcDbLine
 10
20.073
 20
136.17103
 30
0.0
 11
25.47449999999999
 21
137.99603
 31
0.0
  0
LINE
  5
10E
330
1E
100
AcDbEntity
  8
0
100
AcDbLine
 10
19.635
 20
137.32903
 30
0.0
 11
25.1095
 21
139.15403
 31
0.0
  0
LINE
  5
10F
330
1E
100
AcDbEntity
  8
0
100
AcDbLine
 10
16.7883
 20
100.04003
 30
0.0
 11
20.27819999999999
 21
98.48882841690951
 31
0.0
  0
LINE
  5
110
330
1E
100
AcDbEntity
  8
0
100
AcDbLine
 10
21.738
 20
98.97433000000001
 30
0.0
 11
21.738
 21
98.24433
 31
0.0
  0
LINE
  5
111
330
1E
100
AcDbEntity
  8
0
100
AcDbLine
 10
21.738
 20
98.24433
 30
0.0
 11
21.738
 21
98.97433000000001
 31
0.0
  0
LINE
  5
112
330
1E
100
AcDbEntity
  8
0
100
AcDbLine
 10
21.738
 20
132.58503
 30
0.0
 11
21.738
 21
133.31503
 31
0.0
  0
LINE
  5
113
330
1E
100
AcDbEntity
  8
0
100
AcDbLine
 10
21.8978
 20
115.356555116595
 30
0.0
 11
21.8978
 21
114.54903
 31
0.0
  0
LINE
  5
114
330
1E
100
AcDbEntity
  8
0
100
AcDbLine
 10
21.8978
 20
115.7733278769919
 30
0.0
 11
21.8978
 21
115.27903
 31
0.0
  0
LINE
  5
115
330
1E
100
AcDbEntity
  8
0
100
AcDbLine
 10
21.8978
 20
115.27903
 30
0.0
 11
21.8978
 21
114.54903
 31
0.0
  0
LINE
  5
116
330
1E
100
AcDbEntity
  8
0
100
AcDbLine
 10
21.8978
 20
115.27903
 30
0.0
 11
21.8978
 21
115.7733278769919
 31
0.0
  0
LINE
  5
117
330
1E
100
AcDbEntity
  8
0
100
AcDbLine
 10
21.8978
 20
115.27903
 30
0.0
 11
23.3577
 21
115.27903
 31
0.0
  0
LINE
  5
118
330
1E
100
AcDbEntity
  8
0
100
AcDbLine
 10
23.3577
 20
115.27903
 30
0.0
 11
23.3577
 21
115.771412928488
 31
0.0
  0
LINE
  5
119
330
1E
100
AcDbEntity
  8
0
100
AcDbLine
 10
23.3577
 20
115.27903
 30
0.0
 11
23.3577
 21
114.54903
 31
0.0
  0
LINE
  5
11A
330
1E
100
AcDbEntity
  8
0
100
AcDbLine
 10
24.0879
 20
110.191757898821
 30
0.0
 11
24.0879
 21
110.0840299999999
 31
0.0
  0
LINE
  5
11B
330
1E
100
AcDbEntity
  8
0
100
AcDbLine
 10
24.0879
 20
111.799511992904
 30
0.0
 11
24.0879
 21
110.81303
 31
0.0
  0
LINE
  5
11C
330
1E
100
AcDbEntity
  8
0
100
AcDbLine
 10
24.0879
 20
110.81303
 30
0.0
 11
24.0879
 21
110.0840299999999
 31
0.0
  0
LINE
  5
11D
330
1E
100
AcDbEntity
  8
0
100
AcDbLine
 10
24.0879
 20
110.81303
 30
0.0
 11
24.0879
 21
111.799511992904
 31
0.0
  0
LINE
  5
11E
330
1E
100
AcDbEntity
  8
0
100
AcDbLine
 10
24.0879
 20
110.81303
 30
0.0
 11
25.5478
 21
110.81303
 31
0.0
  0
LINE
  5
11F
330
1E
100
AcDbEntity
  8
0
100
AcDbLine
 10
24.0879
 20
110.0840299999999
 30
0.0
 11
24.0879
 21
110.191757898821
 31
0.0
  0
LINE
  5
120
330
1E
100
AcDbEntity
  8
0
100
AcDbLine
 10
24.0879
 20
110.0840299999999
 30
0.0
 11
24.0879
 21
110.81303
 31
0.0
  0
LINE
  5
121
330
1E
100
AcDbEntity
  8
0
100
AcDbLine
 10
24.0879
 20
110.0840299999999
 30
0.0
 11
25.5478
 21
110.0840299999999
 31
0.0
  0
LINE
  5
122
330
1E
100
AcDbEntity
  8
0
100
AcDbLine
 10
23.3577
 20
114.54903
 30
0.0
 11
23.3577
 21
115.27903
 31
0.0
  0
LINE
  5
123
330
1E
100
AcDbEntity
  8
0
100
AcDbLine
 10
23.3577
 20
115.771412928488
 30
0.0
 11
23.3577
 21
115.27903
 31
0.0
  0
LINE
  5
124
330
1E
100
AcDbEntity
  8
0
100
AcDbLine
 10
21.8978
 20
114.54903
 30
0.0
 11
21.8978
 21
115.356555116595
 31
0.0
  0
LINE
  5
125
330
1E
100
AcDbEntity
  8
0
100
AcDbLine
 10
21.8978
 20
114.54903
 30
0.0
 11
21.8978
 21
115.27903
 31
0.0
  0
LINE
  5
126
330
1E
100
AcDbEntity
  8
0
100
AcDbLine
 10
21.8978
 20
114.54903
 30
0.0
 11
23.3577
 21
114.54903
 31
0.0
  0
LINE
  5
127
330
1E
100
AcDbEntity
  8
0
100
AcDbLine
 10
24.0879
 20
120.932604924227
 30
0.0
 11
24.0879
 21
119.74403
 31
0.0
  0
LINE
  5
128
330
1E
100
AcDbEntity
  8
0
100
AcDbLine
 10
24.0879
 20
119.74403
 30
0.0
 11
24.0879
 21
120.932604924227
 31
0.0
  0
LINE
  5
129
330
1E
100
AcDbEntity
  8
0
100
AcDbLine
 10
24.0879
 20
119.74403
 30
0.0
 11
24.0879
 21
119.01403
 31
0.0
  0
LINE
  5
12A
330
1E
100
AcDbEntity
  8
0
100
AcDbLine
 10
24.0879
 20
119.74403
 30
0.0
 11
25.5478
 21
119.74403
 31
0.0
  0
LINE
  5
12B
330
1E
100
AcDbEntity
  8
0
100
AcDbLine
 10
24.0879
 20
119.236881729746
 30
0.0
 11
24.0879
 21
119.01403
 31
0.0
  0
LINE
  5
12C
330
1E
100
AcDbEntity
  8
0
100
AcDbLine
 10
24.4948
 20
103.2105602116349
 30
0.0
 11
24.4948
 21
102.7220299999999
 31
0.0
  0
LINE
  5
12D
330
1E
100
AcDbEntity
  8
0
100
AcDbLine
 10
24.4948
 20
103.2105602116349
 30
0.0
 11
24.4948
 21
101.99203
 31
0.0
  0
LINE
  5
12E
330
1E
100
AcDbEntity
  8
0
100
AcDbLine
 10
24.4948
 20
102.7220299999999
 30
0.0
 11
24.4948
 21
101.99203
 31
0.0
  0
LINE
  5
12F
330
1E
100
AcDbEntity
  8
0
100
AcDbLine
 10
24.4948
 20
102.7220299999999
 30
0.0
 11
24.4948
 21
103.2105602116349
 31
0.0
  0
LINE
  5
130
330
1E
100
AcDbEntity
  8
0
100
AcDbLine
 10
24.4948
 20
102.7220299999999
 30
0.0
 11
25.9547
 21
102.7220299999999
 31
0.0
  0
LINE
  5
131
330
1E
100
AcDbEntity
  8
0
100
AcDbLine
 10
24.4948
 20
101.99203
 30
0.0
 11
24.4948
 21
103.2105602116349
 31
0.0
  0
LINE
  5
132
330
1E
100
AcDbEntity
  8
0
100
AcDbLine
 10
24.4948
 20
101.99203
 30
0.0
 11
24.4948
 21
102.7220299999999
 31
0.0
  0
LINE
  5
133
330
1E
100
AcDbEntity
  8
0
100
AcDbLine
 10
24.4948
 20
101.99203
 30
0.0
 11
25.9547
 21
101.99203
 31
0.0
  0
LINE
  5
134
330
1E
100
AcDbEntity
  8
0
100
AcDbLine
 10
24.0879
 20
119.01403
 30
0.0
 11
24.0879
 21
119.74403
 31
0.0
  0
LINE
  5
135
330
1E
100
AcDbEntity
  8
0
100
AcDbLine
 10
24.0879
 20
119.01403
 30
0.0
 11
24.0879
 21
119.236881729746
 31
0.0
  0
LINE
  5
136
330
1E
100
AcDbEntity
  8
0
100
AcDbLine
 10
24.0879
 20
119.01403
 30
0.0
 11
25.5478
 21
119.01403
 31
0.0
  0
LINE
  5
137
330
1E
100
AcDbEntity
  8
0
100
AcDbLine
 10
24.4948
 20
128.70103
 30
0.0
 11
24.4948
 21
127.97103
 31
0.0
  0
LINE
  5
138
330
1E
100
AcDbEntity
  8
0
100
AcDbLine
 10
24.4948
 20
128.70103
 30
0.0
 11
25.9547
 21
128.70103
 31
0.0
  0
LINE
  5
139
330
1E
100
AcDbEntity
  8
0
100
AcDbLine
 10
24.4948
 20
128.715848116757
 30
0.0
 11
24.4948
 21
127.97103
 31
0.0
  0
LINE
  5
13A
330
1E
100
AcDbEntity
  8
0
100
AcDbLine
 10
24.4948
 20
127.97103
 30
0.0
 11
24.4948
 21
128.70103
 31
0.0
  0
LINE
  5
13B
330
1E
100
AcDbEntity
  8
0
100
AcDbLine
 10
24.4948
 20
127.97103
 30
0.0
 11
24.4948
 21
128.715848116757
 31
0.0
  0
LINE
  5
13C
330
1E
100
AcDbEntity
  8
0
100
AcDbLine
 10
24.4948
 20
127.97103
 30
0.0
 11
25.9547
 21
127.97103
 31
0.0
  0
LINE
  5
13D
330
1E
100
AcDbEntity
  8
0
100
AcDbLine
 10
21.738
 20
133.31503
 30
0.0
 11
21.738
 21
132.58503
 31
0.0
  0
LINE
  5
13E
330
1E
100
AcDbEntity
  8
0
100
AcDbLine
 10
21.38689999999999
 20
135.29503
 30
0.0
 11
26.5693
 21
137.04703
 31
0.0
  0
LINE
  5
13F
330
1E
100
AcDbEntity
  8
0
100
AcDbLine
 10
25.47449999999999
 20
137.99603
 30
0.0
 11
31.16789999999999
 21
139.34603
 31
0.0
  0
LINE
  5
140
330
1E
100
AcDbEntity
  8
0
100
AcDbLine
 10
25.1095
 20
139.15403
 30
0.0
 11
30.8759
 21
140.57703
 31
0.0
  0
LINE
  5
141
330
1E
100
AcDbEntity
  8
0
100
AcDbLine
 10
20.828273590998
 20
98.24433
 30
0.0
 11
21.38689999999999
 21
97.99603000000001
 31
0.0
  0
LINE
  5
142
330
1E
100
AcDbEntity
  8
0
100
AcDbLine
 10
21.38689999999999
 20
97.99603000000001
 30
0.0
 11
26.5576
 21
96.24808516170109
 31
0.0
  0
LINE
  5
143
330
1E
100
AcDbEntity
  8
0
100
AcDbLine
 10
15.1825
 20
99.23693
 30
0.0
 11
20.073
 21
97.12013
 31
0.0
  0
LINE
  5
144
330
1E
100
AcDbEntity
  8
0
100
AcDbLine
 10
20.073
 20
97.12013
 30
0.0
 11
25.47449999999999
 21
95.29523000000001
 31
0.0
  0
LINE
  5
145
330
1E
100
AcDbEntity
  8
0
100
AcDbLine
 10
34.489
 20
94.14203
 30
0.0
 11
35.7533
 21
94.50703
 31
0.0
  0
LINE
  5
146
330
1E
100
AcDbEntity
  8
0
100
AcDbLine
 10
27.82189999999999
 20
95.84293
 30
0.0
 11
28.5518
 21
96.47503
 31
0.0
  0
LINE
  5
147
330
1E
100
AcDbEntity
  8
0
100
AcDbLine
 10
25.5478
 20
110.81303
 30
0.0
 11
25.5478
 21
111.86843492805
 31
0.0
  0
LINE
  5
148
330
1E
100
AcDbEntity
  8
0
100
AcDbLine
 10
25.5478
 20
110.81303
 30
0.0
 11
25.5478
 21
110.0840299999999
 31
0.0
  0
LINE
  5
149
330
1E
100
AcDbEntity
  8
0
100
AcDbLine
 10
25.5478
 20
110.0840299999999
 30
0.0
 11
25.5478
 21
110.81303
 31
0.0
  0
LINE
  5
14A
330
1E
100
AcDbEntity
  8
0
100
AcDbLine
 10
25.5478
 20
111.86843492805
 30
0.0
 11
25.5478
 21
110.81303
 31
0.0
  0
LINE
  5
14B
330
1E
100
AcDbEntity
  8
0
100
AcDbLine
 10
25.9547
 20
102.7220299999999
 30
0.0
 11
25.9547
 21
103.811177490032
 31
0.0
  0
LINE
  5
14C
330
1E
100
AcDbEntity
  8
0
100
AcDbLine
 10
25.9547
 20
102.7220299999999
 30
0.0
 11
25.9547
 21
101.99203
 31
0.0
  0
LINE
  5
14D
330
1E
100
AcDbEntity
  8
0
100
AcDbLine
 10
25.9547
 20
101.99203
 30
0.0
 11
25.9547
 21
102.7220299999999
 31
0.0
  0
LINE
  5
14E
330
1E
100
AcDbEntity
  8
0
100
AcDbLine
 10
25.9547
 20
103.811177490032
 30
0.0
 11
25.9547
 21
102.7220299999999
 31
0.0
  0
LINE
  5
14F
330
1E
100
AcDbEntity
  8
0
100
AcDbLine
 10
25.5478
 20
119.01403
 30
0.0
 11
25.5478
 21
119.74403
 31
0.0
  0
LINE
  5
150
330
1E
100
AcDbEntity
  8
0
100
AcDbLine
 10
25.5478
 20
120.564176145749
 30
0.0
 11
25.5478
 21
119.74403
 31
0.0
  0
LINE
  5
151
330
1E
100
AcDbEntity
  8
0
100
AcDbLine
 10
25.5478
 20
119.74403
 30
0.0
 11
25.5478
 21
119.01403
 31
0.0
  0
LINE
  5
152
330
1E
100
AcDbEntity
  8
0
100
AcDbLine
 10
25.5478
 20
119.74403
 30
0.0
 11
25.5478
 21
120.564176145749
 31
0.0
  0
LINE
  5
153
330
1E
100
AcDbEntity
  8
0
100
AcDbLine
 10
26.5576
 20
96.20783000000001
 30
0.0
 11
27.82189999999999
 21
95.84293
 31
0.0
  0
LINE
  5
154
330
1E
100
AcDbEntity
  8
0
100
AcDbLine
 10
26.5576
 20
96.20783000000001
 30
0.0
 11
27.2876
 21
96.84003
 31
0.0
  0
LINE
  5
155
330
1E
100
AcDbEntity
  8
0
100
AcDbLine
 10
25.9547
 20
127.97103
 30
0.0
 11
25.9547
 21
128.70103
 31
0.0
  0
LINE
  5
156
330
1E
100
AcDbEntity
  8
0
100
AcDbLine
 10
25.9547
 20
128.70103
 30
0.0
 11
25.9547
 21
127.97103
 31
0.0
  0
LINE
  5
157
330
1E
100
AcDbEntity
  8
0
100
AcDbLine
 10
27.2876
 20
96.84003
 30
0.0
 11
28.5518
 21
96.47503
 31
0.0
  0
LINE
  5
158
330
1E
100
AcDbEntity
  8
0
100
AcDbLine
 10
28.5518
 20
96.47503
 30
0.0
 11
28.5518
 21
97.0214067241379
 31
0.0
  0
LINE
  5
159
330
1E
100
AcDbEntity
  8
0
100
AcDbLine
 10
28.5518
 20
97.0214067241379
 30
0.0
 11
28.5518
 21
96.47503
 31
0.0
  0
LINE
  5
15A
330
1E
100
AcDbEntity
  8
0
100
AcDbLine
 10
29.3604
 20
105.5780299999999
 30
0.0
 11
29.3604
 21
106.3080299999999
 31
0.0
  0
LINE
  5
15B
330
1E
100
AcDbEntity
  8
0
100
AcDbLine
 10
29.3604
 20
105.5780299999999
 30
0.0
 11
30.8203
 21
105.5780299999999
 31
0.0
  0
LINE
  5
15C
330
1E
100
AcDbEntity
  8
0
100
AcDbLine
 10
29.3604
 20
107.2141306135969
 30
0.0
 11
29.3604
 21
106.3080299999999
 31
0.0
  0
LINE
  5
15D
330
1E
100
AcDbEntity
  8
0
100
AcDbLine
 10
29.3604
 20
106.3080299999999
 30
0.0
 11
29.3604
 21
105.5780299999999
 31
0.0
  0
LINE
  5
15E
330
1E
100
AcDbEntity
  8
0
100
AcDbLine
 10
29.3604
 20
106.3080299999999
 30
0.0
 11
29.3604
 21
107.2141306135969
 31
0.0
  0
LINE
  5
15F
330
1E
100
AcDbEntity
  8
0
100
AcDbLine
 10
29.3604
 20
106.3080299999999
 30
0.0
 11
30.8203
 21
106.3080299999999
 31
0.0
  0
LINE
  5
160
330
1E
100
AcDbEntity
  8
0
100
AcDbLine
 10
29.3604
 20
124.24903
 30
0.0
 11
29.3604
 21
123.5190299999999
 31
0.0
  0
LINE
  5
161
330
1E
100
AcDbEntity
  8
0
100
AcDbLine
 10
29.3604
 20
124.24903
 30
0.0
 11
30.8203
 21
124.24903
 31
0.0
  0
LINE
  5
162
330
1E
100
AcDbEntity
  8
0
100
AcDbLine
 10
29.3604
 20
123.778082785566
 30
0.0
 11
29.3604
 21
123.5190299999999
 31
0.0
  0
LINE
  5
163
330
1E
100
AcDbEntity
  8
0
100
AcDbLine
 10
30.8203
 20
106.3080299999999
 30
0.0
 11
30.8203
 21
105.5780299999999
 31
0.0
  0
LINE
  5
164
330
1E
100
AcDbEntity
  8
0
100
AcDbLine
 10
30.8203
 20
105.5780299999999
 30
0.0
 11
30.8203
 21
106.3080299999999
 31
0.0
  0
LINE
  5
165
330
1E
100
AcDbEntity
  8
0
100
AcDbLine
 10
30.6569
 20
114.6306017256119
 30
0.0
 11
30.6569
 21
114.11603
 31
0.0
  0
LINE
  5
166
330
1E
100
AcDbEntity
  8
0
100
AcDbLine
 10
30.6569
 20
115.761838579479
 30
0.0
 11
30.6569
 21
114.84503
 31
0.0
  0
LINE
  5
167
330
1E
100
AcDbEntity
  8
0
100
AcDbLine
 10
30.6569
 20
114.84503
 30
0.0
 11
30.6569
 21
114.11603
 31
0.0
  0
LINE
  5
168
330
1E
100
AcDbEntity
  8
0
100
AcDbLine
 10
30.6569
 20
114.84503
 30
0.0
 11
30.6569
 21
115.761838579479
 31
0.0
  0
LINE
  5
169
330
1E
100
AcDbEntity
  8
0
100
AcDbLine
 10
30.6569
 20
114.84503
 30
0.0
 11
32.11679999999999
 21
114.84503
 31
0.0
  0
LINE
  5
16A
330
1E
100
AcDbEntity
  8
0
100
AcDbLine
 10
30.6569
 20
114.11603
 30
0.0
 11
30.6569
 21
114.6306017256119
 31
0.0
  0
LINE
  5
16B
330
1E
100
AcDbEntity
  8
0
100
AcDbLine
 10
30.6569
 20
114.11603
 30
0.0
 11
30.6569
 21
114.84503
 31
0.0
  0
LINE
  5
16C
330
1E
100
AcDbEntity
  8
0
100
AcDbLine
 10
30.6569
 20
114.11603
 30
0.0
 11
32.11679999999999
 21
114.11603
 31
0.0
  0
LINE
  5
16D
330
1E
100
AcDbEntity
  8
0
100
AcDbLine
 10
30.8203
 20
123.5190299999999
 30
0.0
 11
30.8203
 21
124.24903
 31
0.0
  0
LINE
  5
16E
330
1E
100
AcDbEntity
  8
0
100
AcDbLine
 10
30.8203
 20
125.1134577726779
 30
0.0
 11
30.8203
 21
124.24903
 31
0.0
  0
LINE
  5
16F
330
1E
100
AcDbEntity
  8
0
100
AcDbLine
 10
30.8203
 20
124.24903
 30
0.0
 11
30.8203
 21
123.5190299999999
 31
0.0
  0
LINE
  5
170
330
1E
100
AcDbEntity
  8
0
100
AcDbLine
 10
30.8203
 20
124.24903
 30
0.0
 11
30.8203
 21
125.1134577726779
 31
0.0
  0
LINE
  5
171
330
1E
100
AcDbEntity
  8
0
100
AcDbLine
 10
29.3604
 20
123.5190299999999
 30
0.0
 11
29.3604
 21
124.24903
 31
0.0
  0
LINE
  5
172
330
1E
100
AcDbEntity
  8
0
100
AcDbLine
 10
29.3604
 20
123.5190299999999
 30
0.0
 11
29.3604
 21
123.778082785566
 31
0.0
  0
LINE
  5
173
330
1E
100
AcDbEntity
  8
0
100
AcDbLine
 10
29.3604
 20
123.5190299999999
 30
0.0
 11
30.8203
 21
123.5190299999999
 31
0.0
  0
LINE
  5
174
330
1E
100
AcDbEntity
  8
0
100
AcDbLine
 10
28.5518
 20
135.08403
 30
0.0
 11
28.5518
 21
135.9497264119289
 31
0.0
  0
LINE
  5
175
330
1E
100
AcDbEntity
  8
0
100
AcDbLine
 10
27.2876
 20
134.71903
 30
0.0
 11
28.5518
 21
135.08403
 31
0.0
  0
LINE
  5
176
330
1E
100
AcDbEntity
  8
0
100
AcDbLine
 10
27.82189999999999
 20
136.353722320596
 30
0.0
 11
27.82189999999999
 21
135.71603
 31
0.0
  0
LINE
  5
177
330
1E
100
AcDbEntity
  8
0
100
AcDbLine
 10
28.5518
 20
135.9497264119289
 30
0.0
 11
28.5518
 21
135.08403
 31
0.0
  0
LINE
  5
178
330
1E
100
AcDbEntity
  8
0
100
AcDbLine
 10
27.82189999999999
 20
135.71603
 30
0.0
 11
27.82189999999999
 21
136.353722320596
 31
0.0
  0
LINE
  5
179
330
1E
100
AcDbEntity
  8
0
100
AcDbLine
 10
27.82189999999999
 20
135.71603
 30
0.0
 11
28.5518
 21
135.08403
 31
0.0
  0
LINE
  5
17A
330
1E
100
AcDbEntity
  8
0
100
AcDbLine
 10
26.5576
 20
135.35103
 30
0.0
 11
27.82189999999999
 21
135.71603
 31
0.0
  0
LINE
  5
17B
330
1E
100
AcDbEntity
  8
0
100
AcDbLine
 10
26.5576
 20
135.35103
 30
0.0
 11
27.2876
 21
134.71903
 31
0.0
  0
LINE
  5
17C
330
1E
100
AcDbEntity
  8
0
100
AcDbLine
 10
26.5693
 20
137.04703
 30
0.0
 11
32.0438
 21
138.3610299999999
 31
0.0
  0
LINE
  5
17D
330
1E
100
AcDbEntity
  8
0
100
AcDbLine
 10
31.6671
 20
100.2000299999999
 30
0.0
 11
31.6671
 21
100.9015748280439
 31
0.0
  0
LINE
  5
17E
330
1E
100
AcDbEntity
  8
0
100
AcDbLine
 10
31.6671
 20
100.2000299999999
 30
0.0
 11
32.93139999999999
 21
99.83503
 31
0.0
  0
LINE
  5
17F
330
1E
100
AcDbEntity
  8
0
100
AcDbLine
 10
31.6671
 20
100.9015748280439
 30
0.0
 11
31.6671
 21
100.2000299999999
 31
0.0
  0
LINE
  5
180
330
1E
100
AcDbEntity
  8
0
100
AcDbLine
 10
30.9372
 20
100.69527950597
 30
0.0
 11
30.9372
 21
99.56803
 31
0.0
  0
LINE
  5
181
330
1E
100
AcDbEntity
  8
0
100
AcDbLine
 10
30.9372
 20
99.56803
 30
0.0
 11
32.2015
 21
99.20273000000001
 31
0.0
  0
LINE
  5
182
330
1E
100
AcDbEntity
  8
0
100
AcDbLine
 10
30.9372
 20
99.56803
 30
0.0
 11
30.9372
 21
100.69527950597
 31
0.0
  0
LINE
  5
183
330
1E
100
AcDbEntity
  8
0
100
AcDbLine
 10
30.9372
 20
99.56803
 30
0.0
 11
31.6671
 21
100.2000299999999
 31
0.0
  0
LINE
  5
184
330
1E
100
AcDbEntity
  8
0
100
AcDbLine
 10
31.6671
 20
130.49303
 30
0.0
 11
32.93139999999999
 21
130.85803
 31
0.0
  0
LINE
  5
185
330
1E
100
AcDbEntity
  8
0
100
AcDbLine
 10
30.9372
 20
131.2223668206049
 30
0.0
 11
30.9372
 21
131.12603
 31
0.0
  0
LINE
  5
186
330
1E
100
AcDbEntity
  8
0
100
AcDbLine
 10
30.9372
 20
131.12603
 30
0.0
 11
32.2015
 21
131.49003
 31
0.0
  0
LINE
  5
187
330
1E
100
AcDbEntity
  8
0
100
AcDbLine
 10
30.9372
 20
131.12603
 30
0.0
 11
31.6671
 21
130.49303
 31
0.0
  0
LINE
  5
188
330
1E
100
AcDbEntity
  8
0
100
AcDbLine
 10
30.9372
 20
131.12603
 30
0.0
 11
30.9372
 21
131.2223668206049
 31
0.0
  0
LINE
  5
189
330
1E
100
AcDbEntity
  8
0
100
AcDbLine
 10
32.0438
 20
138.3610299999999
 30
0.0
 11
38.6131
 21
139.34603
 31
0.0
  0
LINE
  5
18A
330
1E
100
AcDbEntity
  8
0
100
AcDbLine
 10
31.16789999999999
 20
139.34603
 30
0.0
 11
37.5912
 21
140.40503
 31
0.0
  0
LINE
  5
18B
330
1E
100
AcDbEntity
  8
0
100
AcDbLine
 10
30.8759
 20
140.57703
 30
0.0
 11
37.0803
 21
141.5990299999999
 31
0.0
  0
LINE
  5
18C
330
1E
100
AcDbEntity
  8
0
100
AcDbLine
 10
27.9128537171738
 20
95.9216967415065
 30
0.0
 11
32.0438
 21
94.93033
 31
0.0
  0
LINE
  5
18D
330
1E
100
AcDbEntity
  8
0
100
AcDbLine
 10
33.75909999999999
 20
95.80977624738478
 30
0.0
 11
33.75909999999999
 21
94.77422999999999
 31
0.0
  0
LINE
  5
18E
330
1E
100
AcDbEntity
  8
0
100
AcDbLine
 10
33.75909999999999
 20
94.77422999999999
 30
0.0
 11
35.0233
 21
95.13913
 31
0.0
  0
LINE
  5
18F
330
1E
100
AcDbEntity
  8
0
100
AcDbLine
 10
33.75909999999999
 20
94.77422999999999
 30
0.0
 11
34.489
 21
94.14203
 31
0.0
  0
LINE
  5
190
330
1E
100
AcDbEntity
  8
0
100
AcDbLine
 10
33.75909999999999
 20
94.77422999999999
 30
0.0
 11
33.75909999999999
 21
95.80977624738478
 31
0.0
  0
LINE
  5
191
330
1E
100
AcDbEntity
  8
0
100
AcDbLine
 10
32.2015
 20
99.20273000000001
 30
0.0
 11
32.93139999999999
 21
99.83503
 31
0.0
  0
LINE
  5
192
330
1E
100
AcDbEntity
  8
0
100
AcDbLine
 10
33.82039999999999
 20
109.8942662905699
 30
0.0
 11
33.82039999999999
 21
109.36603
 31
0.0
  0
LINE
  5
193
330
1E
100
AcDbEntity
  8
0
100
AcDbLine
 10
32.11679999999999
 20
114.84503
 30
0.0
 11
32.11679999999999
 21
115.759923630976
 31
0.0
  0
LINE
  5
194
330
1E
100
AcDbEntity
  8
0
100
AcDbLine
 10
32.11679999999999
 20
114.84503
 30
0.0
 11
32.11679999999999
 21
114.11603
 31
0.0
  0
LINE
  5
195
330
1E
100
AcDbEntity
  8
0
100
AcDbLine
 10
32.11679999999999
 20
114.11603
 30
0.0
 11
32.11679999999999
 21
114.84503
 31
0.0
  0
LINE
  5
196
330
1E
100
AcDbEntity
  8
0
100
AcDbLine
 10
32.11679999999999
 20
115.759923630976
 30
0.0
 11
32.11679999999999
 21
114.84503
 31
0.0
  0
LINE
  5
197
330
1E
100
AcDbEntity
  8
0
100
AcDbLine
 10
33.82039999999999
 20
110.5166680305929
 30
0.0
 11
33.82039999999999
 21
110.09603
 31
0.0
  0
LINE
  5
198
330
1E
100
AcDbEntity
  8
0
100
AcDbLine
 10
33.82039999999999
 20
110.09603
 30
0.0
 11
33.82039999999999
 21
109.36603
 31
0.0
  0
LINE
  5
199
330
1E
100
AcDbEntity
  8
0
100
AcDbLine
 10
33.82039999999999
 20
110.09603
 30
0.0
 11
33.82039999999999
 21
110.5166680305929
 31
0.0
  0
LINE
  5
19A
330
1E
100
AcDbEntity
  8
0
100
AcDbLine
 10
33.82039999999999
 20
110.09603
 30
0.0
 11
35.28029999999999
 21
110.09603
 31
0.0
  0
LINE
  5
19B
330
1E
100
AcDbEntity
  8
0
100
AcDbLine
 10
33.82039999999999
 20
109.36603
 30
0.0
 11
33.82039999999999
 21
109.8942662905699
 31
0.0
  0
LINE
  5
19C
330
1E
100
AcDbEntity
  8
0
100
AcDbLine
 10
33.82039999999999
 20
109.36603
 30
0.0
 11
33.82039999999999
 21
110.09603
 31
0.0
  0
LINE
  5
19D
330
1E
100
AcDbEntity
  8
0
100
AcDbLine
 10
33.82039999999999
 20
109.36603
 30
0.0
 11
35.28029999999999
 21
109.36603
 31
0.0
  0
LINE
  5
19E
330
1E
100
AcDbEntity
  8
0
100
AcDbLine
 10
33.82039999999999
 20
119.59503
 30
0.0
 11
33.82039999999999
 21
120.494236736116
 31
0.0
  0
LINE
  5
19F
330
1E
100
AcDbEntity
  8
0
100
AcDbLine
 10
33.82039999999999
 20
119.59503
 30
0.0
 11
33.82039999999999
 21
118.86503
 31
0.0
  0
LINE
  5
1A0
330
1E
100
AcDbEntity
  8
0
100
AcDbLine
 10
33.82039999999999
 20
119.59503
 30
0.0
 11
35.28029999999999
 21
119.59503
 31
0.0
  0
LINE
  5
1A1
330
1E
100
AcDbEntity
  8
0
100
AcDbLine
 10
33.75909999999999
 20
137.1660163531609
 30
0.0
 11
33.75909999999999
 21
136.78503
 31
0.0
  0
LINE
  5
1A2
330
1E
100
AcDbEntity
  8
0
100
AcDbLine
 10
33.75909999999999
 20
136.78503
 30
0.0
 11
35.0233
 21
136.42003
 31
0.0
  0
LINE
  5
1A3
330
1E
100
AcDbEntity
  8
0
100
AcDbLine
 10
33.75909999999999
 20
136.78503
 30
0.0
 11
34.489
 21
137.41703
 31
0.0
  0
LINE
  5
1A4
330
1E
100
AcDbEntity
  8
0
100
AcDbLine
 10
33.75909999999999
 20
136.78503
 30
0.0
 11
33.75909999999999
 21
137.1660163531609
 31
0.0
  0
LINE
  5
1A5
330
1E
100
AcDbEntity
  8
0
100
AcDbLine
 10
32.2015
 20
131.49003
 30
0.0
 11
32.93139999999999
 21
130.85803
 31
0.0
  0
LINE
  5
1A6
330
1E
100
AcDbEntity
  8
0
100
AcDbLine
 10
33.82039999999999
 20
120.494236736116
 30
0.0
 11
33.82039999999999
 21
119.59503
 31
0.0
  0
LINE
  5
1A7
330
1E
100
AcDbEntity
  8
0
100
AcDbLine
 10
33.82039999999999
 20
119.808954055434
 30
0.0
 11
33.82039999999999
 21
118.86503
 31
0.0
  0
LINE
  5
1A8
330
1E
100
AcDbEntity
  8
0
100
AcDbLine
 10
35.0233
 20
136.42003
 30
0.0
 11
35.7533
 21
137.05203
 31
0.0
  0
LINE
  5
1A9
330
1E
100
AcDbEntity
  8
0
100
AcDbLine
 10
34.489
 20
138.727662974594
 30
0.0
 11
34.489
 21
137.41703
 31
0.0
  0
LINE
  5
1AA
330
1E
100
AcDbEntity
  8
0
100
AcDbLine
 10
34.489
 20
137.41703
 30
0.0
 11
34.489
 21
138.727662974594
 31
0.0
  0
LINE
  5
1AB
330
1E
100
AcDbEntity
  8
0
100
AcDbLine
 10
34.489
 20
137.41703
 30
0.0
 11
35.7533
 21
137.05203
 31
0.0
  0
LINE
  5
1AC
330
1E
100
AcDbEntity
  8
0
100
AcDbLine
 10
33.82039999999999
 20
118.86503
 30
0.0
 11
33.82039999999999
 21
119.59503
 31
0.0
  0
LINE
  5
1AD
330
1E
100
AcDbEntity
  8
0
100
AcDbLine
 10
33.82039999999999
 20
118.86503
 30
0.0
 11
33.82039999999999
 21
119.808954055434
 31
0.0
  0
LINE
  5
1AE
330
1E
100
AcDbEntity
  8
0
100
AcDbLine
 10
33.82039999999999
 20
118.86503
 30
0.0
 11
35.28029999999999
 21
118.86503
 31
0.0
  0
LINE
  5
1AF
330
1E
100
AcDbEntity
  8
0
100
AcDbLine
 10
35.0233
 20
96.45794038540371
 30
0.0
 11
35.0233
 21
95.13913
 31
0.0
  0
LINE
  5
1B0
330
1E
100
AcDbEntity
  8
0
100
AcDbLine
 10
35.28029999999999
 20
110.09603
 30
0.0
 11
35.28029999999999
 21
110.867340900012
 31
0.0
  0
LINE
  5
1B1
330
1E
100
AcDbEntity
  8
0
100
AcDbLine
 10
35.28029999999999
 20
110.09603
 30
0.0
 11
35.28029999999999
 21
109.36603
 31
0.0
  0
LINE
  5
1B2
330
1E
100
AcDbEntity
  8
0
100
AcDbLine
 10
35.28029999999999
 20
109.36603
 30
0.0
 11
35.28029999999999
 21
110.09603
 31
0.0
  0
LINE
  5
1B3
330
1E
100
AcDbEntity
  8
0
100
AcDbLine
 10
35.28029999999999
 20
110.867340900012
 30
0.0
 11
35.28029999999999
 21
110.09603
 31
0.0
  0
LINE
  5
1B4
330
1E
100
AcDbEntity
  8
0
100
AcDbLine
 10
36.58099999999999
 20
102.56203
 30
0.0
 11
37.311
 21
103.19503
 31
0.0
  0
LINE
  5
1B5
330
1E
100
AcDbEntity
  8
0
100
AcDbLine
 10
37.311
 20
103.19503
 30
0.0
 11
37.311
 21
103.937767729904
 31
0.0
  0
LINE
  5
1B6
330
1E
100
AcDbEntity
  8
0
100
AcDbLine
 10
37.311
 20
103.937767729904
 30
0.0
 11
37.311
 21
103.19503
 31
0.0
  0
LINE
  5
1B7
330
1E
100
AcDbEntity
  8
0
100
AcDbLine
 10
36.0467
 20
103.56003
 30
0.0
 11
37.311
 21
103.19503
 31
0.0
  0
LINE
  5
1B8
330
1E
100
AcDbEntity
  8
0
100
AcDbLine
 10
35.3168
 20
102.92703
 30
0.0
 11
36.58099999999999
 21
102.56203
 31
0.0
  0
LINE
  5
1B9
330
1E
100
AcDbEntity
  8
0
100
AcDbLine
 10
35.3168
 20
102.92703
 30
0.0
 11
36.0467
 21
103.56003
 31
0.0
  0
LINE
  5
1BA
330
1E
100
AcDbEntity
  8
0
100
AcDbLine
 10
35.28029999999999
 20
118.86503
 30
0.0
 11
35.28029999999999
 21
119.59503
 31
0.0
  0
LINE
  5
1BB
330
1E
100
AcDbEntity
  8
0
100
AcDbLine
 10
37.311
 20
126.63303
 30
0.0
 11
37.311
 21
127.045832496832
 31
0.0
  0
LINE
  5
1BC
330
1E
100
AcDbEntity
  8
0
100
AcDbLine
 10
36.0467
 20
126.26803
 30
0.0
 11
37.311
 21
126.63303
 31
0.0
  0
LINE
  5
1BD
330
1E
100
AcDbEntity
  8
0
100
AcDbLine
 10
36.58099999999999
 20
127.6315176699659
 30
0.0
 11
36.58099999999999
 21
127.26503
 31
0.0
  0
LINE
  5
1BE
330
1E
100
AcDbEntity
  8
0
100
AcDbLine
 10
37.311
 20
127.045832496832
 30
0.0
 11
37.311
 21
126.63303
 31
0.0
  0
LINE
  5
1BF
330
1E
100
AcDbEntity
  8
0
100
AcDbLine
 10
36.58099999999999
 20
127.26503
 30
0.0
 11
36.58099999999999
 21
127.6315176699659
 31
0.0
  0
LINE
  5
1C0
330
1E
100
AcDbEntity
  8
0
100
AcDbLine
 10
36.58099999999999
 20
127.26503
 30
0.0
 11
37.311
 21
126.63303
 31
0.0
  0
LINE
  5
1C1
330
1E
100
AcDbEntity
  8
0
100
AcDbLine
 10
35.3168
 20
126.90003
 30
0.0
 11
36.58099999999999
 21
127.26503
 31
0.0
  0
LINE
  5
1C2
330
1E
100
AcDbEntity
  8
0
100
AcDbLine
 10
35.3168
 20
126.90003
 30
0.0
 11
36.0467
 21
126.26803
 31
0.0
  0
LINE
  5
1C3
330
1E
100
AcDbEntity
  8
0
100
AcDbLine
 10
35.28029999999999
 20
120.079948315595
 30
0.0
 11
35.28029999999999
 21
119.59503
 31
0.0
  0
LINE
  5
1C4
330
1E
100
AcDbEntity
  8
0
100
AcDbLine
 10
35.28029999999999
 20
119.59503
 30
0.0
 11
35.28029999999999
 21
118.86503
 31
0.0
  0
LINE
  5
1C5
330
1E
100
AcDbEntity
  8
0
100
AcDbLine
 10
35.28029999999999
 20
119.59503
 30
0.0
 11
35.28029999999999
 21
120.079948315595
 31
0.0
  0
LINE
  5
1C6
330
1E
100
AcDbEntity
  8
0
100
AcDbLine
 10
35.0233
 20
95.13913
 30
0.0
 11
35.7533
 21
94.50703
 31
0.0
  0
LINE
  5
1C7
330
1E
100
AcDbEntity
  8
0
100
AcDbLine
 10
35.0233
 20
95.13913
 30
0.0
 11
35.0233
 21
96.45794038540371
 31
0.0
  0
LINE
  5
1C8
330
1E
100
AcDbEntity
  8
0
100
AcDbLine
 10
37.5912
 20
140.40503
 30
0.0
 11
43.64959999999999
 21
141.02503
 31
0.0
  0
LINE
  5
1C9
330
1E
100
AcDbEntity
  8
0
100
AcDbLine
 10
32.0438
 20
94.93033
 30
0.0
 11
33.9004069491346
 21
94.6518375445364
 31
0.0
  0
LINE
  5
1CA
330
1E
100
AcDbEntity
  8
0
100
AcDbLine
 10
35.449838840051
 20
94.41942158160141
 30
0.0
 11
38.6131
 21
93.94493
 31
0.0
  0
LINE
  5
1CB
330
1E
100
AcDbEntity
  8
0
100
AcDbLine
 10
25.47449999999999
 20
95.29523000000001
 30
0.0
 11
31.16789999999999
 21
93.94493
 31
0.0
  0
LINE
  5
1CC
330
1E
100
AcDbEntity
  8
0
100
AcDbLine
 10
31.16789999999999
 20
93.94493
 30
0.0
 11
37.5912
 21
92.88653000000001
 31
0.0
  0
LINE
  5
1CD
330
1E
100
AcDbEntity
  8
0
100
AcDbLine
 10
43.5285
 20
93.05183000000001
 30
0.0
 11
44.7928
 21
93.41683000000001
 31
0.0
  0
LINE
  5
1CE
330
1E
100
AcDbEntity
  8
0
100
AcDbLine
 10
49.0
 20
92.9733493499622
 30
0.0
 11
49.0
 21
89.48553000000002
 31
0.0
  0
LINE
  5
1CF
330
1E
100
AcDbEntity
  8
0
100
AcDbLine
 10
41.36
 20
92.50059253796379
 30
0.0
 11
41.36
 21
84.05362999999999
 31
0.0
  0
LINE
  5
1D0
330
1E
100
AcDbEntity
  8
0
100
AcDbLine
 10
38.4090049720509
 20
111.6794734403669
 30
0.0
 11
38.74309999999999
 21
111.08903
 31
0.0
  0
LINE
  5
1D1
330
1E
100
AcDbEntity
  8
0
100
AcDbLine
 10
38.6131
 20
139.34603
 30
0.0
 11
43.7956
 21
139.9670299999999
 31
0.0
  0
LINE
  5
1D2
330
1E
100
AcDbEntity
  8
0
100
AcDbLine
 10
38.89229999999999
 20
98.44160361115541
 30
0.0
 11
38.89229999999999
 21
98.25753
 31
0.0
  0
LINE
  5
1D3
330
1E
100
AcDbEntity
  8
0
100
AcDbLine
 10
39.6963
 20
107.449041803643
 30
0.0
 11
39.6963
 21
106.2870299999999
 31
0.0
  0
LINE
  5
1D4
330
1E
100
AcDbEntity
  8
0
100
AcDbLine
 10
39.6963
 20
106.2870299999999
 30
0.0
 11
40.9606
 21
105.92203
 31
0.0
  0
LINE
  5
1D5
330
1E
100
AcDbEntity
  8
0
100
AcDbLine
 10
39.6963
 20
106.2870299999999
 30
0.0
 11
39.6963
 21
107.449041803643
 31
0.0
  0
LINE
  5
1D6
330
1E
100
AcDbEntity
  8
0
100
AcDbLine
 10
39.6963
 20
106.2870299999999
 30
0.0
 11
40.42629999999999
 21
106.91903
 31
0.0
  0
LINE
  5
1D7
330
1E
100
AcDbEntity
  8
0
100
AcDbLine
 10
38.89229999999999
 20
98.25753
 30
0.0
 11
40.15659999999999
 21
98.62253
 31
0.0
  0
LINE
  5
1D8
330
1E
100
AcDbEntity
  8
0
100
AcDbLine
 10
38.89229999999999
 20
98.25753
 30
0.0
 11
39.6223
 21
97.62543
 31
0.0
  0
LINE
  5
1D9
330
1E
100
AcDbEntity
  8
0
100
AcDbLine
 10
38.89229999999999
 20
98.25753
 30
0.0
 11
38.89229999999999
 21
98.44160361115541
 31
0.0
  0
LINE
  5
1DA
330
1E
100
AcDbEntity
  8
0
100
AcDbLine
 10
39.6223
 20
97.62543
 30
0.0
 11
40.8865
 21
97.99033000000001
 31
0.0
  0
LINE
  5
1DB
330
1E
100
AcDbEntity
  8
0
100
AcDbLine
 10
40.8865
 20
97.99033000000001
 30
0.0
 11
40.8865
 21
98.58716041309541
 31
0.0
  0
LINE
  5
1DC
330
1E
100
AcDbEntity
  8
0
100
AcDbLine
 10
40.15659999999999
 20
99.0898190198702
 30
0.0
 11
40.15659999999999
 21
98.62253
 31
0.0
  0
LINE
  5
1DD
330
1E
100
AcDbEntity
  8
0
100
AcDbLine
 10
40.9606
 20
105.92203
 30
0.0
 11
41.6905
 21
106.55403
 31
0.0
  0
LINE
  5
1DE
330
1E
100
AcDbEntity
  8
0
100
AcDbLine
 10
40.42629999999999
 20
106.91903
 30
0.0
 11
40.42629999999999
 21
107.803024902153
 31
0.0
  0
LINE
  5
1DF
330
1E
100
AcDbEntity
  8
0
100
AcDbLine
 10
40.42629999999999
 20
106.91903
 30
0.0
 11
41.6905
 21
106.55403
 31
0.0
  0
LINE
  5
1E0
330
1E
100
AcDbEntity
  8
0
100
AcDbLine
 10
40.42629999999999
 20
107.803024902153
 30
0.0
 11
40.42629999999999
 21
106.91903
 31
0.0
  0
LINE
  5
1E1
330
1E
100
AcDbEntity
  8
0
100
AcDbLine
 10
40.15659999999999
 20
98.62253
 30
0.0
 11
40.8865
 21
97.99033000000001
 31
0.0
  0
LINE
  5
1E2
330
1E
100
AcDbEntity
  8
0
100
AcDbLine
 10
40.15659999999999
 20
98.62253
 30
0.0
 11
40.15659999999999
 21
99.0898190198702
 31
0.0
  0
LINE
  5
1E3
330
1E
100
AcDbEntity
  8
0
100
AcDbLine
 10
40.8865
 20
98.58716041309541
 30
0.0
 11
40.8865
 21
97.99033000000001
 31
0.0
  0
LINE
  5
1E4
330
1E
100
AcDbEntity
  8
0
100
AcDbLine
 10
41.6905
 20
106.55403
 30
0.0
 11
41.6905
 21
106.801985029626
 31
0.0
  0
LINE
  5
1E5
330
1E
100
AcDbEntity
  8
0
100
AcDbLine
 10
41.6905
 20
106.801985029626
 30
0.0
 11
41.6905
 21
106.55403
 31
0.0
  0
LINE
  5
1E6
330
1E
100
AcDbEntity
  8
0
100
AcDbLine
 10
41.87119
 20
110.1720299999999
 30
0.0
 11
42.50404
 21
110.30403
 31
0.0
  0
LINE
  5
1E7
330
1E
100
AcDbEntity
  8
0
100
AcDbLine
 10
41.22332
 20
110.13303
 30
0.0
 11
41.87119
 21
110.1720299999999
 31
0.0
  0
LINE
  5
1E8
330
1E
100
AcDbEntity
  8
0
100
AcDbLine
 10
40.56801
 20
110.1890299999999
 30
0.0
 11
41.22332
 21
110.13303
 31
0.0
  0
LINE
  5
1E9
330
1E
100
AcDbEntity
  8
0
100
AcDbLine
 10
39.9444
 20
110.30403
 30
0.0
 11
40.56801
 21
110.1890299999999
 31
0.0
  0
LINE
  5
1EA
330
1E
100
AcDbEntity
  8
0
100
AcDbLine
 10
39.42309999999999
 20
110.50003
 30
0.0
 11
39.9444
 21
110.30403
 31
0.0
  0
LINE
  5
1EB
330
1E
100
AcDbEntity
  8
0
100
AcDbLine
 10
43.4199
 20
102.2838370628019
 30
0.0
 11
43.4199
 21
101.94103
 31
0.0
  0
LINE
  5
1EC
330
1E
100
AcDbEntity
  8
0
100
AcDbLine
 10
43.4199
 20
101.94103
 30
0.0
 11
44.6842
 21
102.30603
 31
0.0
  0
LINE
  5
1ED
330
1E
100
AcDbEntity
  8
0
100
AcDbLine
 10
43.4199
 20
101.94103
 30
0.0
 11
44.14979999999999
 21
101.3090299999999
 31
0.0
  0
LINE
  5
1EE
330
1E
100
AcDbEntity
  8
0
100
AcDbLine
 10
43.4199
 20
101.94103
 30
0.0
 11
43.4199
 21
102.2838370628019
 31
0.0
  0
LINE
  5
1EF
330
1E
100
AcDbEntity
  8
0
100
AcDbLine
 10
42.7986
 20
93.68393000000001
 30
0.0
 11
44.0629
 21
94.04892999999999
 31
0.0
  0
LINE
  5
1F0
330
1E
100
AcDbEntity
  8
0
100
AcDbLine
 10
42.7986
 20
93.68393000000001
 30
0.0
 11
43.5285
 21
93.05183000000001
 31
0.0
  0
LINE
  5
1F1
330
1E
100
AcDbEntity
  8
0
100
AcDbLine
 10
42.50404
 20
110.30403
 30
0.0
 11
43.04884
 21
110.51203
 31
0.0
  0
LINE
  5
1F2
330
1E
100
AcDbEntity
  8
0
100
AcDbLine
 10
39.0065
 20
110.7720299999999
 30
0.0
 11
39.42309999999999
 21
110.50003
 31
0.0
  0
LINE
  5
1F3
330
1E
100
AcDbEntity
  8
0
100
AcDbLine
 10
43.04884
 20
110.51203
 30
0.0
 11
43.44011
 21
110.77303
 31
0.0
  0
LINE
  5
1F4
330
1E
100
AcDbEntity
  8
0
100
AcDbLine
 10
43.44011
 20
110.77303
 30
0.0
 11
43.6715
 21
111.08403
 31
0.0
  0
LINE
  5
1F5
330
1E
100
AcDbEntity
  8
0
100
AcDbLine
 10
38.6644
 20
111.41303
 30
0.0
 11
38.74309999999999
 21
111.08903
 31
0.0
  0
LINE
  5
1F6
330
1E
100
AcDbEntity
  8
0
100
AcDbLine
 10
38.6644
 20
111.41303
 30
0.0
 11
38.77599999999999
 21
111.74103
 31
0.0
  0
LINE
  5
1F7
330
1E
100
AcDbEntity
  8
0
100
AcDbLine
 10
39.00739999999999
 20
112.05203
 30
0.0
 11
39.3993
 21
112.3130299999999
 31
0.0
  0
LINE
  5
1F8
330
1E
100
AcDbEntity
  8
0
100
AcDbLine
 10
38.77599999999999
 20
111.74103
 30
0.0
 11
39.00739999999999
 21
112.05203
 31
0.0
  0
LINE
  5
1F9
330
1E
100
AcDbEntity
  8
0
100
AcDbLine
 10
38.74309999999999
 20
111.08903
 30
0.0
 11
39.0065
 21
110.7720299999999
 31
0.0
  0
LINE
  5
1FA
330
1E
100
AcDbEntity
  8
0
100
AcDbLine
 10
43.6715
 20
111.08403
 30
0.0
 11
44.2025311787462
 21
112.015007352477
 31
0.0
  0
LINE
  5
1FB
330
1E
100
AcDbEntity
  8
0
100
AcDbLine
 10
43.6715
 20
111.08403
 30
0.0
 11
43.78293
 21
111.4120299999999
 31
0.0
  0
LINE
  5
1FC
330
1E
100
AcDbEntity
  8
0
100
AcDbLine
 10
43.70430999999999
 20
111.73603
 30
0.0
 11
43.78293
 21
111.4120299999999
 31
0.0
  0
LINE
  5
1FD
330
1E
100
AcDbEntity
  8
0
100
AcDbLine
 10
38.89229999999999
 20
133.589823237115
 30
0.0
 11
38.89229999999999
 21
132.43603
 31
0.0
  0
LINE
  5
1FE
330
1E
100
AcDbEntity
  8
0
100
AcDbLine
 10
38.89229999999999
 20
132.43603
 30
0.0
 11
40.15659999999999
 21
132.07103
 31
0.0
  0
LINE
  5
1FF
330
1E
100
AcDbEntity
  8
0
100
AcDbLine
 10
38.89229999999999
 20
132.43603
 30
0.0
 11
39.6223
 21
133.06803
 31
0.0
  0
LINE
  5
200
330
1E
100
AcDbEntity
  8
0
100
AcDbLine
 10
38.89229999999999
 20
132.43603
 30
0.0
 11
38.89229999999999
 21
133.589823237115
 31
0.0
  0
LINE
  5
201
330
1E
100
AcDbEntity
  8
0
100
AcDbLine
 10
39.9441
 20
112.52103
 30
0.0
 11
40.57692
 21
112.6530299999999
 31
0.0
  0
LINE
  5
202
330
1E
100
AcDbEntity
  8
0
100
AcDbLine
 10
39.6223
 20
133.06803
 30
0.0
 11
40.8865
 21
132.70303
 31
0.0
  0
LINE
  5
203
330
1E
100
AcDbEntity
  8
0
100
AcDbLine
 10
39.6963
 20
122.8717317362959
 30
0.0
 11
39.6963
 21
122.67403
 31
0.0
  0
LINE
  5
204
330
1E
100
AcDbEntity
  8
0
100
AcDbLine
 10
40.42629999999999
 20
122.04203
 30
0.0
 11
41.6905
 21
122.40703
 31
0.0
  0
LINE
  5
205
330
1E
100
AcDbEntity
  8
0
100
AcDbLine
 10
40.8865
 20
132.70303
 30
0.0
 11
40.8865
 21
133.320737390755
 31
0.0
  0
LINE
  5
206
330
1E
100
AcDbEntity
  8
0
100
AcDbLine
 10
40.15659999999999
 20
132.07103
 30
0.0
 11
40.8865
 21
132.70303
 31
0.0
  0
LINE
  5
207
330
1E
100
AcDbEntity
  8
0
100
AcDbLine
 10
40.8865
 20
133.320737390755
 30
0.0
 11
40.8865
 21
132.70303
 31
0.0
  0
LINE
  5
208
330
1E
100
AcDbEntity
  8
0
100
AcDbLine
 10
40.9606
 20
124.117727554543
 30
0.0
 11
40.9606
 21
123.03903
 31
0.0
  0
LINE
  5
209
330
1E
100
AcDbEntity
  8
0
100
AcDbLine
 10
40.9606
 20
123.03903
 30
0.0
 11
40.9606
 21
124.117727554543
 31
0.0
  0
LINE
  5
20A
330
1E
100
AcDbEntity
  8
0
100
AcDbLine
 10
40.9606
 20
123.03903
 30
0.0
 11
41.6905
 21
122.40703
 31
0.0
  0
LINE
  5
20B
330
1E
100
AcDbEntity
  8
0
100
AcDbLine
 10
39.6963
 20
122.67403
 30
0.0
 11
40.9606
 21
123.03903
 31
0.0
  0
LINE
  5
20C
330
1E
100
AcDbEntity
  8
0
100
AcDbLine
 10
39.6963
 20
122.67403
 30
0.0
 11
40.42629999999999
 21
122.04203
 31
0.0
  0
LINE
  5
20D
330
1E
100
AcDbEntity
  8
0
100
AcDbLine
 10
39.6963
 20
122.67403
 30
0.0
 11
39.6963
 21
122.8717317362959
 31
0.0
  0
LINE
  5
20E
330
1E
100
AcDbEntity
  8
0
100
AcDbLine
 10
40.57692
 20
112.6530299999999
 30
0.0
 11
41.2241
 21
112.69203
 31
0.0
  0
LINE
  5
20F
330
1E
100
AcDbEntity
  8
0
100
AcDbLine
 10
41.6905
 20
122.40703
 30
0.0
 11
41.6905
 21
123.5321226122549
 31
0.0
  0
LINE
  5
210
330
1E
100
AcDbEntity
  8
0
100
AcDbLine
 10
41.6905
 20
123.5321226122549
 30
0.0
 11
41.6905
 21
122.40703
 31
0.0
  0
LINE
  5
211
330
1E
100
AcDbEntity
  8
0
100
AcDbLine
 10
41.2241
 20
112.69203
 30
0.0
 11
41.87948
 21
112.6360299999999
 31
0.0
  0
LINE
  5
212
330
1E
100
AcDbEntity
  8
0
100
AcDbLine
 10
41.87948
 20
112.6360299999999
 30
0.0
 11
42.50295
 21
112.52103
 31
0.0
  0
LINE
  5
213
330
1E
100
AcDbEntity
  8
0
100
AcDbLine
 10
43.4199
 20
128.7804595541659
 30
0.0
 11
43.4199
 21
127.88703
 31
0.0
  0
LINE
  5
214
330
1E
100
AcDbEntity
  8
0
100
AcDbLine
 10
43.4199
 20
127.88703
 30
0.0
 11
44.6842
 21
127.5220299999999
 31
0.0
  0
LINE
  5
215
330
1E
100
AcDbEntity
  8
0
100
AcDbLine
 10
43.4199
 20
127.88703
 30
0.0
 11
44.14979999999999
 21
128.51903
 31
0.0
  0
LINE
  5
216
330
1E
100
AcDbEntity
  8
0
100
AcDbLine
 10
43.4199
 20
127.88703
 30
0.0
 11
43.4199
 21
128.7804595541659
 31
0.0
  0
LINE
  5
217
330
1E
100
AcDbEntity
  8
0
100
AcDbLine
 10
42.7986
 20
137.87503
 30
0.0
 11
44.0629
 21
137.5100299999999
 31
0.0
  0
LINE
  5
218
330
1E
100
AcDbEntity
  8
0
100
AcDbLine
 10
42.7986
 20
137.87503
 30
0.0
 11
43.5285
 21
138.50703
 31
0.0
  0
LINE
  5
219
330
1E
100
AcDbEntity
  8
0
100
AcDbLine
 10
43.5285
 20
139.935024384949
 30
0.0
 11
43.5285
 21
138.50703
 31
0.0
  0
LINE
  5
21A
330
1E
100
AcDbEntity
  8
0
100
AcDbLine
 10
43.5285
 20
138.50703
 30
0.0
 11
43.5285
 21
139.935024384949
 31
0.0
  0
LINE
  5
21B
330
1E
100
AcDbEntity
  8
0
100
AcDbLine
 10
43.5285
 20
138.50703
 30
0.0
 11
44.7928
 21
138.14203
 31
0.0
  0
LINE
  5
21C
330
1E
100
AcDbEntity
  8
0
100
AcDbLine
 10
42.50295
 20
112.52103
 30
0.0
 11
43.02432
 21
112.32503
 31
0.0
  0
LINE
  5
21D
330
1E
100
AcDbEntity
  8
0
100
AcDbLine
 10
43.02432
 20
112.32503
 30
0.0
 11
43.44088
 21
112.05303
 31
0.0
  0
LINE
  5
21E
330
1E
100
AcDbEntity
  8
0
100
AcDbLine
 10
39.3993
 20
112.3130299999999
 30
0.0
 11
39.9441
 21
112.52103
 31
0.0
  0
LINE
  5
21F
330
1E
100
AcDbEntity
  8
0
100
AcDbLine
 10
43.44088
 20
112.05303
 30
0.0
 11
43.70430999999999
 21
111.73603
 31
0.0
  0
LINE
  5
220
330
1E
100
AcDbEntity
  8
0
100
AcDbLine
 10
44.0629
 20
94.1739645558014
 30
0.0
 11
44.0629
 21
94.04892999999999
 31
0.0
  0
LINE
  5
221
330
1E
100
AcDbEntity
  8
0
100
AcDbLine
 10
44.0629
 20
94.04892999999999
 30
0.0
 11
44.7928
 21
93.41683000000001
 31
0.0
  0
LINE
  5
222
330
1E
100
AcDbEntity
  8
0
100
AcDbLine
 10
44.0629
 20
94.04892999999999
 30
0.0
 11
44.0629
 21
94.1739645558014
 31
0.0
  0
LINE
  5
223
330
1E
100
AcDbEntity
  8
0
100
AcDbLine
 10
44.7928
 20
93.41683000000001
 30
0.0
 11
44.7928
 21
94.2645566778415
 31
0.0
  0
LINE
  5
224
330
1E
100
AcDbEntity
  8
0
100
AcDbLine
 10
48.0642
 20
96.97143
 30
0.0
 11
49.3285
 21
97.33643
 31
0.0
  0
LINE
  5
225
330
1E
100
AcDbEntity
  8
0
100
AcDbLine
 10
44.7928
 20
94.2645566778415
 30
0.0
 11
44.7928
 21
93.41683000000001
 31
0.0
  0
LINE
  5
226
330
1E
100
AcDbEntity
  8
0
100
AcDbLine
 10
44.0
 20
114.91403
 30
0.0
 11
44.0
 21
114.38203
 31
0.0
  0
LINE
  5
227
330
1E
100
AcDbEntity
  8
0
100
AcDbLine
 10
44.0
 20
114.38203
 30
0.0
 11
44.216
 21
115.15003
 31
0.0
  0
LINE
  5
228
330
1E
100
AcDbEntity
  8
0
100
AcDbLine
 10
44.0
 20
114.38203
 30
0.0
 11
44.216
 21
113.61403
 31
0.0
  0
LINE
  5
229
330
1E
100
AcDbEntity
  8
0
100
AcDbLine
 10
44.0
 20
114.38203
 30
0.0
 11
44.0
 21
114.91403
 31
0.0
  0
LINE
  5
22A
330
1E
100
AcDbEntity
  8
0
100
AcDbLine
 10
48.464
 20
111.49003
 30
0.0
 11
50.0
 21
111.3820299999999
 31
0.0
  0
LINE
  5
22B
330
1E
100
AcDbEntity
  8
0
100
AcDbLine
 10
47.02399999999999
 20
111.7780299999999
 30
0.0
 11
48.464
 21
111.49003
 31
0.0
  0
LINE
  5
22C
330
1E
100
AcDbEntity
  8
0
100
AcDbLine
 10
45.75199999999999
 20
112.25803
 30
0.0
 11
47.02399999999999
 21
111.7780299999999
 31
0.0
  0
LINE
  5
22D
330
1E
100
AcDbEntity
  8
0
100
AcDbLine
 10
44.792
 20
112.89403
 30
0.0
 11
45.75199999999999
 21
112.25803
 31
0.0
  0
LINE
  5
22E
330
1E
100
AcDbEntity
  8
0
100
AcDbLine
 10
44.216
 20
113.61403
 30
0.0
 11
44.792
 21
112.89403
 31
0.0
  0
LINE
  5
22F
330
1E
100
AcDbEntity
  8
0
100
AcDbLine
 10
48.464
 20
117.27403
 30
0.0
 11
50.0
 21
117.38203
 31
0.0
  0
LINE
  5
230
330
1E
100
AcDbEntity
  8
0
100
AcDbLine
 10
47.02399999999999
 20
116.98603
 30
0.0
 11
48.464
 21
117.27403
 31
0.0
  0
LINE
  5
231
330
1E
100
AcDbEntity
  8
0
100
AcDbLine
 10
45.75199999999999
 20
116.50603
 30
0.0
 11
47.02399999999999
 21
116.98603
 31
0.0
  0
LINE
  5
232
330
1E
100
AcDbEntity
  8
0
100
AcDbLine
 10
44.792
 20
115.87003
 30
0.0
 11
45.75199999999999
 21
116.50603
 31
0.0
  0
LINE
  5
233
330
1E
100
AcDbEntity
  8
0
100
AcDbLine
 10
44.216
 20
115.15003
 30
0.0
 11
44.792
 21
115.87003
 31
0.0
  0
LINE
  5
234
330
1E
100
AcDbEntity
  8
0
100
AcDbLine
 10
48.5018
 20
105.55003
 30
0.0
 11
49.7661
 21
105.9150299999999
 31
0.0
  0
LINE
  5
235
330
1E
100
AcDbEntity
  8
0
100
AcDbLine
 10
48.5018
 20
105.55003
 30
0.0
 11
49.23169999999999
 21
104.91703
 31
0.0
  0
LINE
  5
236
330
1E
100
AcDbEntity
  8
0
100
AcDbLine
 10
44.6842
 20
102.30603
 30
0.0
 11
45.41409999999999
 21
101.67303
 31
0.0
  0
LINE
  5
237
330
1E
100
AcDbEntity
  8
0
100
AcDbLine
 10
44.14979999999999
 20
101.3090299999999
 30
0.0
 11
45.41409999999999
 21
101.67303
 31
0.0
  0
LINE
  5
238
330
1E
100
AcDbEntity
  8
0
100
AcDbLine
 10
47.3343
 20
97.60363000000001
 30
0.0
 11
48.5986
 21
97.96853
 31
0.0
  0
LINE
  5
239
330
1E
100
AcDbEntity
  8
0
100
AcDbLine
 10
47.3343
 20
97.60363000000001
 30
0.0
 11
48.0642
 21
96.97143
 31
0.0
  0
LINE
  5
23A
330
1E
100
AcDbEntity
  8
0
100
AcDbLine
 10
49.23169999999999
 20
104.91703
 30
0.0
 11
50.496
 21
105.28203
 31
0.0
  0
LINE
  5
23B
330
1E
100
AcDbEntity
  8
0
100
AcDbLine
 10
48.5986
 20
97.96853
 30
0.0
 11
49.3285
 21
97.33643
 31
0.0
  0
LINE
  5
23C
330
1E
100
AcDbEntity
  8
0
100
AcDbLine
 10
44.6842
 20
127.5220299999999
 30
0.0
 11
45.41409999999999
 21
128.15403
 31
0.0
  0
LINE
  5
23D
330
1E
100
AcDbEntity
  8
0
100
AcDbLine
 10
44.14979999999999
 20
128.51903
 30
0.0
 11
45.41409999999999
 21
128.15403
 31
0.0
  0
LINE
  5
23E
330
1E
100
AcDbEntity
  8
0
100
AcDbLine
 10
44.7928
 20
138.14203
 30
0.0
 11
44.7928
 21
138.748415726259
 31
0.0
  0
LINE
  5
23F
330
1E
100
AcDbEntity
  8
0
100
AcDbLine
 10
44.0629
 20
137.5100299999999
 30
0.0
 11
44.7928
 21
138.14203
 31
0.0
  0
LINE
  5
240
330
1E
100
AcDbEntity
  8
0
100
AcDbLine
 10
44.7928
 20
138.748415726259
 30
0.0
 11
44.7928
 21
138.14203
 31
0.0
  0
LINE
  5
241
330
1E
100
AcDbEntity
  8
0
100
AcDbLine
 10
47.3343
 20
133.09003
 30
0.0
 11
48.5986
 21
132.7250299999999
 31
0.0
  0
LINE
  5
242
330
1E
100
AcDbEntity
  8
0
100
AcDbLine
 10
47.3343
 20
133.09003
 30
0.0
 11
48.0642
 21
133.72203
 31
0.0
  0
LINE
  5
243
330
1E
100
AcDbEntity
  8
0
100
AcDbLine
 10
47.43502999999999
 20
119.01703
 30
0.0
 11
47.52309
 21
118.67703
 31
0.0
  0
LINE
  5
244
330
1E
100
AcDbEntity
  8
0
100
AcDbLine
 10
47.43502999999999
 20
119.01703
 30
0.0
 11
47.52311999999999
 21
119.35703
 31
0.0
  0
LINE
  5
245
330
1E
100
AcDbEntity
  8
0
100
AcDbLine
 10
47.52311999999999
 20
119.35703
 30
0.0
 11
47.77904999999999
 21
119.65703
 31
0.0
  0
LINE
  5
246
330
1E
100
AcDbEntity
  8
0
100
AcDbLine
 10
48.0642
 20
134.7506472393789
 30
0.0
 11
48.0642
 21
133.72203
 31
0.0
  0
LINE
  5
247
330
1E
100
AcDbEntity
  8
0
100
AcDbLine
 10
48.0642
 20
133.72203
 30
0.0
 11
48.0642
 21
134.7506472393789
 31
0.0
  0
LINE
  5
248
330
1E
100
AcDbEntity
  8
0
100
AcDbLine
 10
48.0642
 20
133.72203
 30
0.0
 11
49.3285
 21
133.35703
 31
0.0
  0
LINE
  5
249
330
1E
100
AcDbEntity
  8
0
100
AcDbLine
 10
47.77904999999999
 20
119.65703
 30
0.0
 11
48.20299
 21
119.9130299999999
 31
0.0
  0
LINE
  5
24A
330
1E
100
AcDbEntity
  8
0
100
AcDbLine
 10
47.52309
 20
118.67703
 30
0.0
 11
47.77900999999999
 21
118.37703
 31
0.0
  0
LINE
  5
24B
330
1E
100
AcDbEntity
  8
0
100
AcDbLine
 10
47.77900999999999
 20
118.37703
 30
0.0
 11
48.20295
 21
118.12103
 31
0.0
  0
LINE
  5
24C
330
1E
100
AcDbEntity
  8
0
100
AcDbLine
 10
48.20299
 20
119.9130299999999
 30
0.0
 11
48.71496
 21
120.12503
 31
0.0
  0
LINE
  5
24D
330
1E
100
AcDbEntity
  8
0
100
AcDbLine
 10
48.5018
 20
123.41103
 30
0.0
 11
49.7661
 21
123.04603
 31
0.0
  0
LINE
  5
24E
330
1E
100
AcDbEntity
  8
0
100
AcDbLine
 10
48.5018
 20
123.41103
 30
0.0
 11
49.23169999999999
 21
124.04403
 31
0.0
  0
LINE
  5
24F
330
1E
100
AcDbEntity
  8
0
100
AcDbLine
 10
49.23169999999999
 20
124.04403
 30
0.0
 11
50.496
 21
123.67903
 31
0.0
  0
LINE
  5
250
330
1E
100
AcDbEntity
  8
0
100
AcDbLine
 10
48.5986
 20
132.7250299999999
 30
0.0
 11
49.3285
 21
133.35703
 31
0.0
  0
LINE
  5
251
330
1E
100
AcDbEntity
  8
0
100
AcDbLine
 10
48.71496
 20
120.12503
 30
0.0
 11
49.31505399999999
 21
120.25303
 31
0.0
  0
LINE
  5
252
330
1E
100
AcDbEntity
  8
0
100
AcDbLine
 10
48.20295
 20
118.12103
 30
0.0
 11
48.71499
 21
117.90903
 31
0.0
  0
LINE
  5
253
330
1E
100
AcDbEntity
  8
0
100
AcDbLine
 10
48.71499
 20
117.90903
 30
0.0
 11
49.315034
 21
117.7810299999999
 31
0.0
  0
LINE
  5
254
330
1E
100
AcDbEntity
  8
0
100
AcDbLine
 10
49.3285
 20
97.33643
 30
0.0
 11
49.3285
 21
98.5406623463993
 31
0.0
  0
LINE
  5
255
330
1E
100
AcDbEntity
  8
0
100
AcDbLine
 10
49.7661
 20
105.9150299999999
 30
0.0
 11
50.496
 21
105.28203
 31
0.0
  0
LINE
  5
256
330
1E
100
AcDbEntity
  8
0
100
AcDbLine
 10
49.3285
 20
98.5406623463993
 30
0.0
 11
49.3285
 21
97.33643
 31
0.0
  0
LINE
  5
257
330
1E
100
AcDbEntity
  8
0
100
AcDbLine
 10
50.0
 20
111.3820299999999
 30
0.0
 11
51.536
 21
111.49003
 31
0.0
  0
LINE
  5
258
330
1E
100
AcDbEntity
  8
0
100
AcDbLine
 10
50.0
 20
117.38203
 30
0.0
 11
51.536
 21
117.27403
 31
0.0
  0
LINE
  5
259
330
1E
100
AcDbEntity
  8
0
100
AcDbLine
 10
49.994964
 20
117.7370299999999
 30
0.0
 11
50.67501400000001
 21
117.7810299999999
 31
0.0
  0
LINE
  5
25A
330
1E
100
AcDbEntity
  8
0
100
AcDbLine
 10
49.7661
 20
123.04603
 30
0.0
 11
50.496
 21
123.67903
 31
0.0
  0
LINE
  5
25B
330
1E
100
AcDbEntity
  8
0
100
AcDbLine
 10
49.994964
 20
120.29703
 30
0.0
 11
50.67499399999999
 21
120.25303
 31
0.0
  0
LINE
  5
25C
330
1E
100
AcDbEntity
  8
0
100
AcDbLine
 10
49.31505399999999
 20
120.25303
 30
0.0
 11
49.994964
 21
120.29703
 31
0.0
  0
LINE
  5
25D
330
1E
100
AcDbEntity
  8
0
100
AcDbLine
 10
49.315034
 20
117.7810299999999
 30
0.0
 11
49.994964
 21
117.7370299999999
 31
0.0
  0
LINE
  5
25E
330
1E
100
AcDbEntity
  8
0
100
AcDbLine
 10
49.0
 20
97.241592936012
 30
0.0
 11
49.0
 21
90.81283
 31
0.0
  0
LINE
  5
25F
330
1E
100
AcDbEntity
  8
0
100
AcDbLine
 10
43.7956
 20
139.9670299999999
 30
0.0
 11
50.0
 21
140.18603
 31
0.0
  0
LINE
  5
260
330
1E
100
AcDbEntity
  8
0
100
AcDbLine
 10
43.64959999999999
 20
141.02503
 30
0.0
 11
50.0
 21
141.28103
 31
0.0
  0
LINE
  5
261
330
1E
100
AcDbEntity
  8
0
100
AcDbLine
 10
38.6131
 20
93.94493
 30
0.0
 11
43.12036876320889
 21
93.40527534152029
 31
0.0
  0
LINE
  5
262
330
1E
100
AcDbEntity
  8
0
100
AcDbLine
 10
44.39900059616629
 20
93.3031411742472
 30
0.0
 11
49.0
 21
93.1408114131907
 31
0.0
  0
LINE
  5
263
330
1E
100
AcDbEntity
  8
0
100
AcDbLine
 10
37.5912
 20
92.88653000000001
 30
0.0
 11
43.64959999999999
 21
92.26613
 31
0.0
  0
LINE
  5
264
330
1E
100
AcDbEntity
  8
0
100
AcDbLine
 10
43.64959999999999
 20
92.26613
 30
0.0
 11
49.0
 21
92.050863686067
 31
0.0
  0
LINE
  5
265
330
1E
100
AcDbEntity
  8
0
100
AcDbLine
 10
50.0
 20
140.18603
 30
0.0
 11
56.2044
 21
139.9670299999999
 31
0.0
  0
LINE
  5
266
330
1E
100
AcDbEntity
  8
0
100
AcDbLine
 10
6.7153
 20
148.14303
 30
0.0
 11
10.36499999999999
 21
150.88103
 31
0.0
  0
LINE
  5
267
330
1E
100
AcDbEntity
  8
0
100
AcDbLine
 10
3.868599999999999
 20
145.26003
 30
0.0
 11
6.7153
 21
148.14303
 31
0.0
  0
LINE
  5
268
330
1E
100
AcDbEntity
  8
0
100
AcDbLine
 10
1.824799999999999
 20
142.15803
 30
0.0
 11
3.868599999999999
 21
145.26003
 31
0.0
  0
LINE
  5
269
330
1E
100
AcDbEntity
  8
0
100
AcDbLine
 10
37.0803
 20
141.5990299999999
 30
0.0
 11
43.5766
 21
142.25603
 31
0.0
  0
LINE
  5
26A
330
1E
100
AcDbEntity
  8
0
100
AcDbLine
 10
43.5766
 20
142.25603
 30
0.0
 11
50.0
 21
142.51203
 31
0.0
  0
LINE
  5
26B
330
1E
100
AcDbEntity
  8
0
100
AcDbLine
 10
10.36499999999999
 20
150.88103
 30
0.0
 11
14.6715
 21
153.36203
 31
0.0
  0
LINE
  5
26C
330
1E
100
AcDbEntity
  8
0
100
AcDbLine
 10
14.6715
 20
153.36203
 30
0.0
 11
19.635
 21
155.51603
 31
0.0
  0
LINE
  5
26D
330
1E
100
AcDbEntity
  8
0
100
AcDbLine
 10
19.635
 20
155.51603
 30
0.0
 11
25.1095
 21
157.34103
 31
0.0
  0
LINE
  5
26E
330
1E
100
AcDbEntity
  8
0
100
AcDbLine
 10
15.1825
 20
153.9730299999999
 30
0.0
 11
20.073
 21
156.09003
 31
0.0
  0
LINE
  5
26F
330
1E
100
AcDbEntity
  8
0
100
AcDbLine
 10
25.1095
 20
157.34103
 30
0.0
 11
30.8759
 21
158.7640299999999
 31
0.0
  0
LINE
  5
270
330
1E
100
AcDbEntity
  8
0
100
AcDbLine
 10
20.073
 20
156.09003
 30
0.0
 11
25.47449999999999
 21
157.91503
 31
0.0
  0
LINE
  5
271
330
1E
100
AcDbEntity
  8
0
100
AcDbLine
 10
30.8759
 20
158.7640299999999
 30
0.0
 11
37.0803
 21
159.78603
 31
0.0
  0
LINE
  5
272
330
1E
100
AcDbEntity
  8
0
100
AcDbLine
 10
25.47449999999999
 20
157.91503
 30
0.0
 11
31.16789999999999
 21
159.26503
 31
0.0
  0
LINE
  5
273
330
1E
100
AcDbEntity
  8
0
100
AcDbLine
 10
37.0803
 20
159.78603
 30
0.0
 11
43.5766
 21
160.4430299999999
 31
0.0
  0
LINE
  5
274
330
1E
100
AcDbEntity
  8
0
100
AcDbLine
 10
31.16789999999999
 20
159.26503
 30
0.0
 11
37.5912
 21
160.32303
 31
0.0
  0
LINE
  5
275
330
1E
100
AcDbEntity
  8
0
100
AcDbLine
 10
43.5766
 20
160.4430299999999
 30
0.0
 11
50.0
 21
160.69803
 31
0.0
  0
LINE
  5
276
330
1E
100
AcDbEntity
  8
0
100
AcDbLine
 10
37.5912
 20
160.32303
 30
0.0
 11
43.64959999999999
 21
160.9440299999999
 31
0.0
  0
LINE
  5
277
330
1E
100
AcDbEntity
  8
0
100
AcDbLine
 10
10.9489
 20
151.52803
 30
0.0
 11
15.1825
 21
153.9730299999999
 31
0.0
  0
LINE
  5
278
330
1E
100
AcDbEntity
  8
0
100
AcDbLine
 10
7.29929999999999
 20
148.82703
 30
0.0
 11
10.9489
 21
151.52803
 31
0.0
  0
LINE
  5
279
330
1E
100
AcDbEntity
  8
0
100
AcDbLine
 10
50.0
 20
141.28103
 30
0.0
 11
56.3504
 21
141.02503
 31
0.0
  0
LINE
  5
27A
330
1E
100
AcDbEntity
  8
0
100
AcDbLine
 10
50.0
 20
142.51203
 30
0.0
 11
56.4234
 21
142.25603
 31
0.0
  0
LINE
  5
27B
330
1E
100
AcDbEntity
  8
0
100
AcDbLine
 10
43.64959999999999
 20
160.9440299999999
 30
0.0
 11
50.0
 21
161.1990299999999
 31
0.0
  0
LINE
  5
27C
330
1E
100
AcDbEntity
  8
0
100
AcDbLine
 10
50.0
 20
160.69803
 30
0.0
 11
56.4234
 21
160.4430299999999
 31
0.0
  0
LINE
  5
27D
330
1E
100
AcDbEntity
  8
0
100
AcDbLine
 10
52.88
 20
0.0369500000000064
 30
0.0
 11
55.472
 21
0.6269000000000061
 31
0.0
  0
LINE
  5
27E
330
1E
100
AcDbEntity
  8
0
100
AcDbLine
 10
52.88
 20
0.0369500000000064
 30
0.0
 11
55.472
 21
0.6269000000000061
 31
0.0
  0
LINE
  5
27F
330
1E
100
AcDbEntity
  8
0
100
AcDbLine
 10
53.07199999999999
 20
0.361770000000005
 30
0.0
 11
55.952
 21
1.03620000000001
 31
0.0
  0
LINE
  5
280
330
1E
100
AcDbEntity
  8
0
100
AcDbLine
 10
53.07199999999999
 20
0.361770000000005
 30
0.0
 11
55.952
 21
1.03620000000001
 31
0.0
  0
LINE
  5
281
330
1E
100
AcDbEntity
  8
0
100
AcDbLine
 10
55.472
 20
0.6269000000000061
 30
0.0
 11
57.776
 21
1.70628
 31
0.0
  0
LINE
  5
282
330
1E
100
AcDbEntity
  8
0
100
AcDbLine
 10
55.952
 20
1.03620000000001
 30
0.0
 11
58.448
 21
2.149090000000009
 31
0.0
  0
LINE
  5
283
330
1E
100
AcDbEntity
  8
0
100
AcDbLine
 10
53.07199999999999
 20
72.81713
 30
0.0
 11
55.952
 21
73.99993000000001
 31
0.0
  0
LINE
  5
284
330
1E
100
AcDbEntity
  8
0
100
AcDbLine
 10
55.952
 20
73.99993000000001
 30
0.0
 11
58.448
 21
75.85863
 31
0.0
  0
LINE
  5
285
330
1E
100
AcDbEntity
  8
0
100
AcDbLine
 10
52.208
 20
76.02763
 30
0.0
 11
54.32
 21
76.78793
 31
0.0
  0
LINE
  5
286
330
1E
100
AcDbEntity
  8
0
100
AcDbLine
 10
51.0
 20
87.65703
 30
0.0
 11
51.0
 21
88.07043
 31
0.0
  0
LINE
  5
287
330
1E
100
AcDbEntity
  8
0
100
AcDbLine
 10
51.0
 20
88.07043
 30
0.0
 11
51.0
 21
87.65703
 31
0.0
  0
LINE
  5
288
330
1E
100
AcDbEntity
  8
0
100
AcDbLine
 10
51.0
 20
88.07043
 30
0.0
 11
51.0
 21
88.78023
 31
0.0
  0
LINE
  5
289
330
1E
100
AcDbEntity
  8
0
100
AcDbLine
 10
51.0
 20
88.78023
 30
0.0
 11
51.0
 21
88.07043
 31
0.0
  0
LINE
  5
28A
330
1E
100
AcDbEntity
  8
0
100
AcDbLine
 10
51.0
 20
88.78023
 30
0.0
 11
51.0
 21
90.87033000000001
 31
0.0
  0
LINE
  5
28B
330
1E
100
AcDbEntity
  8
0
100
AcDbLine
 10
51.0
 20
90.87033000000001
 30
0.0
 11
51.0
 21
88.78023
 31
0.0
  0
LINE
  5
28C
330
1E
100
AcDbEntity
  8
0
100
AcDbLine
 10
51.0
 20
90.87033000000001
 30
0.0
 11
51.0
 21
97.29023000000001
 31
0.0
  0
LINE
  5
28D
330
1E
100
AcDbEntity
  8
0
100
AcDbLine
 10
54.32
 20
76.78793
 30
0.0
 11
56.14399999999999
 21
78.13973
 31
0.0
  0
LINE
  5
28E
330
1E
100
AcDbEntity
  8
0
100
AcDbLine
 10
56.14399999999999
 20
78.13973
 30
0.0
 11
57.488
 21
79.91393000000001
 31
0.0
  0
LINE
  5
28F
330
1E
100
AcDbEntity
  8
0
100
AcDbLine
 10
52.9521
 20
93.00912999999999
 30
0.0
 11
54.2164
 21
93.37403
 31
0.0
  0
LINE
  5
290
330
1E
100
AcDbEntity
  8
0
100
AcDbLine
 10
50.67501400000001
 20
117.7810299999999
 30
0.0
 11
51.27494999999999
 21
117.90903
 31
0.0
  0
LINE
  5
291
330
1E
100
AcDbEntity
  8
0
100
AcDbLine
 10
50.67499399999999
 20
120.25303
 30
0.0
 11
51.27498
 21
120.12503
 31
0.0
  0
LINE
  5
292
330
1E
100
AcDbEntity
  8
0
100
AcDbLine
 10
51.536
 20
111.49003
 30
0.0
 11
52.976
 21
111.7780299999999
 31
0.0
  0
LINE
  5
293
330
1E
100
AcDbEntity
  8
0
100
AcDbLine
 10
51.536
 20
117.27403
 30
0.0
 11
52.976
 21
116.98603
 31
0.0
  0
LINE
  5
294
330
1E
100
AcDbEntity
  8
0
100
AcDbLine
 10
51.27494999999999
 20
117.90903
 30
0.0
 11
51.78699
 21
118.12103
 31
0.0
  0
LINE
  5
295
330
1E
100
AcDbEntity
  8
0
100
AcDbLine
 10
52.2222
 20
93.64123000000001
 30
0.0
 11
53.4864
 21
94.00623000000001
 31
0.0
  0
LINE
  5
296
330
1E
100
AcDbEntity
  8
0
100
AcDbLine
 10
52.2222
 20
93.64123000000001
 30
0.0
 11
52.9521
 21
93.00912999999999
 31
0.0
  0
LINE
  5
297
330
1E
100
AcDbEntity
  8
0
100
AcDbLine
 10
52.21103
 20
118.37703
 30
0.0
 11
52.46694
 21
118.67703
 31
0.0
  0
LINE
  5
298
330
1E
100
AcDbEntity
  8
0
100
AcDbLine
 10
51.78699
 20
118.12103
 30
0.0
 11
52.21103
 21
118.37703
 31
0.0
  0
LINE
  5
299
330
1E
100
AcDbEntity
  8
0
100
AcDbLine
 10
52.976
 20
111.7780299999999
 30
0.0
 11
54.24800000000001
 21
112.25803
 31
0.0
  0
LINE
  5
29A
330
1E
100
AcDbEntity
  8
0
100
AcDbLine
 10
52.976
 20
116.98603
 30
0.0
 11
54.24800000000001
 21
116.50603
 31
0.0
  0
LINE
  5
29B
330
1E
100
AcDbEntity
  8
0
100
AcDbLine
 10
53.4864
 20
94.00623000000001
 30
0.0
 11
54.2164
 21
93.37403
 31
0.0
  0
LINE
  5
29C
330
1E
100
AcDbEntity
  8
0
100
AcDbLine
 10
52.46694
 20
118.67703
 30
0.0
 11
52.55491
 21
119.01703
 31
0.0
  0
LINE
  5
29D
330
1E
100
AcDbEntity
  8
0
100
AcDbLine
 10
52.46691
 20
119.35703
 30
0.0
 11
52.55491
 21
119.01703
 31
0.0
  0
LINE
  5
29E
330
1E
100
AcDbEntity
  8
0
100
AcDbLine
 10
52.21099
 20
119.65703
 30
0.0
 11
52.46691
 21
119.35703
 31
0.0
  0
LINE
  5
29F
330
1E
100
AcDbEntity
  8
0
100
AcDbLine
 10
51.78695
 20
119.9130299999999
 30
0.0
 11
52.21099
 21
119.65703
 31
0.0
  0
LINE
  5
2A0
330
1E
100
AcDbEntity
  8
0
100
AcDbLine
 10
52.9521
 20
140.0818281593709
 30
0.0
 11
52.9521
 21
138.5500299999999
 31
0.0
  0
LINE
  5
2A1
330
1E
100
AcDbEntity
  8
0
100
AcDbLine
 10
52.2222
 20
137.91803
 30
0.0
 11
53.4864
 21
137.55303
 31
0.0
  0
LINE
  5
2A2
330
1E
100
AcDbEntity
  8
0
100
AcDbLine
 10
52.2222
 20
137.91803
 30
0.0
 11
52.9521
 21
138.5500299999999
 31
0.0
  0
LINE
  5
2A3
330
1E
100
AcDbEntity
  8
0
100
AcDbLine
 10
53.4864
 20
137.55303
 30
0.0
 11
54.2164
 21
138.18503
 31
0.0
  0
LINE
  5
2A4
330
1E
100
AcDbEntity
  8
0
100
AcDbLine
 10
52.9521
 20
138.5500299999999
 30
0.0
 11
52.9521
 21
140.0818281593709
 31
0.0
  0
LINE
  5
2A5
330
1E
100
AcDbEntity
  8
0
100
AcDbLine
 10
52.9521
 20
138.5500299999999
 30
0.0
 11
54.2164
 21
138.18503
 31
0.0
  0
LINE
  5
2A6
330
1E
100
AcDbEntity
  8
0
100
AcDbLine
 10
51.27498
 20
120.12503
 30
0.0
 11
51.78695
 21
119.9130299999999
 31
0.0
  0
LINE
  5
2A7
330
1E
100
AcDbEntity
  8
0
100
AcDbLine
 10
51.0
 20
97.29023000000001
 30
0.0
 11
51.0
 21
90.87033000000001
 31
0.0
  0
LINE
  5
2A8
330
1E
100
AcDbEntity
  8
0
100
AcDbLine
 10
51.0
 20
93.1408114131907
 30
0.0
 11
52.7295809900065
 21
93.20183347474571
 31
0.0
  0
LINE
  5
2A9
330
1E
100
AcDbEntity
  8
0
100
AcDbLine
 10
54.24800000000001
 20
112.25803
 30
0.0
 11
55.208
 21
112.89403
 31
0.0
  0
LINE
  5
2AA
330
1E
100
AcDbEntity
  8
0
100
AcDbLine
 10
54.24800000000001
 20
116.50603
 30
0.0
 11
55.208
 21
115.87003
 31
0.0
  0
LINE
  5
2AB
330
1E
100
AcDbEntity
  8
0
100
AcDbLine
 10
53.8602
 20
127.91703
 30
0.0
 11
55.1245
 21
127.5520299999999
 31
0.0
  0
LINE
  5
2AC
330
1E
100
AcDbEntity
  8
0
100
AcDbLine
 10
53.8602
 20
127.91703
 30
0.0
 11
54.5901
 21
128.54903
 31
0.0
  0
LINE
  5
2AD
330
1E
100
AcDbEntity
  8
0
100
AcDbLine
 10
55.1245
 20
127.5520299999999
 30
0.0
 11
55.8544
 21
128.18403
 31
0.0
  0
LINE
  5
2AE
330
1E
100
AcDbEntity
  8
0
100
AcDbLine
 10
54.5901
 20
128.54903
 30
0.0
 11
55.8544
 21
128.18403
 31
0.0
  0
LINE
  5
2AF
330
1E
100
AcDbEntity
  8
0
100
AcDbLine
 10
53.8602
 20
101.91003
 30
0.0
 11
55.1245
 21
102.27503
 31
0.0
  0
LINE
  5
2B0
330
1E
100
AcDbEntity
  8
0
100
AcDbLine
 10
53.8602
 20
101.91003
 30
0.0
 11
54.5901
 21
101.2780299999999
 31
0.0
  0
LINE
  5
2B1
330
1E
100
AcDbEntity
  8
0
100
AcDbLine
 10
55.208
 20
112.89403
 30
0.0
 11
55.784
 21
113.61403
 31
0.0
  0
LINE
  5
2B2
330
1E
100
AcDbEntity
  8
0
100
AcDbLine
 10
55.784
 20
113.61403
 30
0.0
 11
56.0
 21
114.38203
 31
0.0
  0
LINE
  5
2B3
330
1E
100
AcDbEntity
  8
0
100
AcDbLine
 10
55.208
 20
115.87003
 30
0.0
 11
55.784
 21
115.15003
 31
0.0
  0
LINE
  5
2B4
330
1E
100
AcDbEntity
  8
0
100
AcDbLine
 10
55.784
 20
115.15003
 30
0.0
 11
56.0
 21
114.38203
 31
0.0
  0
LINE
  5
2B5
330
1E
100
AcDbEntity
  8
0
100
AcDbLine
 10
55.1245
 20
102.27503
 30
0.0
 11
55.8544
 21
101.64303
 31
0.0
  0
LINE
  5
2B6
330
1E
100
AcDbEntity
  8
0
100
AcDbLine
 10
54.5901
 20
101.2780299999999
 30
0.0
 11
55.8544
 21
101.64303
 31
0.0
  0
LINE
  5
2B7
330
1E
100
AcDbEntity
  8
0
100
AcDbLine
 10
56.0
 20
114.91403
 30
0.0
 11
56.0
 21
114.38203
 31
0.0
  0
LINE
  5
2B8
330
1E
100
AcDbEntity
  8
0
100
AcDbLine
 10
56.0
 20
114.38203
 30
0.0
 11
56.0
 21
114.91403
 31
0.0
  0
LINE
  5
2B9
330
1E
100
AcDbEntity
  8
0
100
AcDbLine
 10
55.80816498955019
 20
112.0096587365399
 30
0.0
 11
56.33353
 21
111.08903
 31
0.0
  0
LINE
  5
2BA
330
1E
100
AcDbEntity
  8
0
100
AcDbLine
 10
56.2044
 20
93.32443000000001
 30
0.0
 11
61.3869
 21
93.94493
 31
0.0
  0
LINE
  5
2BB
330
1E
100
AcDbEntity
  8
0
100
AcDbLine
 10
53.74375073618871
 20
93.2376148166063
 30
0.0
 11
56.2044
 21
93.32443000000001
 31
0.0
  0
LINE
  5
2BC
330
1E
100
AcDbEntity
  8
0
100
AcDbLine
 10
51.0
 20
92.050863686067
 30
0.0
 11
56.3504
 21
92.26613
 31
0.0
  0
LINE
  5
2BD
330
1E
100
AcDbEntity
  8
0
100
AcDbLine
 10
56.22209
 20
111.41703
 30
0.0
 11
56.30066
 21
111.74003
 31
0.0
  0
LINE
  5
2BE
330
1E
100
AcDbEntity
  8
0
100
AcDbLine
 10
56.22209
 20
111.41703
 30
0.0
 11
56.33353
 21
111.08903
 31
0.0
  0
LINE
  5
2BF
330
1E
100
AcDbEntity
  8
0
100
AcDbLine
 10
56.33353
 20
111.08903
 30
0.0
 11
56.56486999999999
 21
110.77703
 31
0.0
  0
LINE
  5
2C0
330
1E
100
AcDbEntity
  8
0
100
AcDbLine
 10
56.30066
 20
111.74003
 30
0.0
 11
56.56416
 21
112.05703
 31
0.0
  0
LINE
  5
2C1
330
1E
100
AcDbEntity
  8
0
100
AcDbLine
 10
56.3504
 20
92.26613
 30
0.0
 11
62.4088
 21
92.88653000000001
 31
0.0
  0
LINE
  5
2C2
330
1E
100
AcDbEntity
  8
0
100
AcDbLine
 10
56.2044
 20
139.9670299999999
 30
0.0
 11
61.3869
 21
139.34603
 31
0.0
  0
LINE
  5
2C3
330
1E
100
AcDbEntity
  8
0
100
AcDbLine
 10
56.3504
 20
141.02503
 30
0.0
 11
62.4088
 21
140.40503
 31
0.0
  0
LINE
  5
2C4
330
1E
100
AcDbEntity
  8
0
100
AcDbLine
 10
57.776
 20
1.70628
 30
0.0
 11
58.448
 21
2.149090000000009
 31
0.0
  0
LINE
  5
2C5
330
1E
100
AcDbEntity
  8
0
100
AcDbLine
 10
58.448
 20
2.149090000000009
 30
0.0
 11
60.368
 21
3.531460000000009
 31
0.0
  0
LINE
  5
2C6
330
1E
100
AcDbEntity
  8
0
100
AcDbLine
 10
58.448
 20
75.85863
 30
0.0
 11
60.368
 21
78.30873000000001
 31
0.0
  0
LINE
  5
2C7
330
1E
100
AcDbEntity
  8
0
100
AcDbLine
 10
57.488
 20
79.91393000000001
 30
0.0
 11
58.352
 21
81.94163000000001
 31
0.0
  0
LINE
  5
2C8
330
1E
100
AcDbEntity
  8
0
100
AcDbLine
 10
58.64
 20
92.08831999999999
 30
0.0
 11
60.368
 21
89.88323000000001
 31
0.0
  0
LINE
  5
2C9
330
1E
100
AcDbEntity
  8
0
100
AcDbLine
 10
58.64
 20
84.05362999999999
 30
0.0
 11
58.64
 21
92.50059253796379
 31
0.0
  0
LINE
  5
2CA
330
1E
100
AcDbEntity
  8
0
100
AcDbLine
 10
58.352
 20
81.94163000000001
 30
0.0
 11
58.64
 21
84.05362999999999
 31
0.0
  0
LINE
  5
2CB
330
1E
100
AcDbEntity
  8
0
100
AcDbLine
 10
60.368
 20
3.531460000000009
 30
0.0
 11
61.616
 21
5.2343
 31
0.0
  0
LINE
  5
2CC
330
1E
100
AcDbEntity
  8
0
100
AcDbLine
 10
60.368
 20
78.30873000000001
 30
0.0
 11
61.616
 21
81.09673
 31
0.0
  0
LINE
  5
2CD
330
1E
100
AcDbEntity
  8
0
100
AcDbLine
 10
60.368
 20
89.88323000000001
 30
0.0
 11
61.616
 21
87.09523
 31
0.0
  0
LINE
  5
2CE
330
1E
100
AcDbEntity
  8
0
100
AcDbLine
 10
58.64
 20
92.50059253796379
 30
0.0
 11
58.64
 21
84.05362999999999
 31
0.0
  0
LINE
  5
2CF
330
1E
100
AcDbEntity
  8
0
100
AcDbLine
 10
57.9315
 20
98.08703000000001
 30
0.0
 11
59.19579999999999
 21
98.45193000000001
 31
0.0
  0
LINE
  5
2D0
330
1E
100
AcDbEntity
  8
0
100
AcDbLine
 10
57.9315
 20
98.08703000000001
 30
0.0
 11
58.6614
 21
97.45483
 31
0.0
  0
LINE
  5
2D1
330
1E
100
AcDbEntity
  8
0
100
AcDbLine
 10
58.6614
 20
97.45483
 30
0.0
 11
59.9257
 21
97.81983000000002
 31
0.0
  0
LINE
  5
2D2
330
1E
100
AcDbEntity
  8
0
100
AcDbLine
 10
58.3095
 20
106.801985029626
 30
0.0
 11
58.3095
 21
106.55403
 31
0.0
  0
LINE
  5
2D3
330
1E
100
AcDbEntity
  8
0
100
AcDbLine
 10
58.3095
 20
106.55403
 30
0.0
 11
59.5737
 21
106.91903
 31
0.0
  0
LINE
  5
2D4
330
1E
100
AcDbEntity
  8
0
100
AcDbLine
 10
58.3095
 20
106.55403
 30
0.0
 11
59.0394
 21
105.92203
 31
0.0
  0
LINE
  5
2D5
330
1E
100
AcDbEntity
  8
0
100
AcDbLine
 10
58.3095
 20
106.55403
 30
0.0
 11
58.3095
 21
106.801985029626
 31
0.0
  0
LINE
  5
2D6
330
1E
100
AcDbEntity
  8
0
100
AcDbLine
 10
59.19579999999999
 20
99.42184804674971
 30
0.0
 11
59.19579999999999
 21
98.45193000000001
 31
0.0
  0
LINE
  5
2D7
330
1E
100
AcDbEntity
  8
0
100
AcDbLine
 10
59.19579999999999
 20
98.45193000000001
 30
0.0
 11
59.9257
 21
97.81983000000002
 31
0.0
  0
LINE
  5
2D8
330
1E
100
AcDbEntity
  8
0
100
AcDbLine
 10
59.19579999999999
 20
98.45193000000001
 30
0.0
 11
59.19579999999999
 21
99.42184804674971
 31
0.0
  0
LINE
  5
2D9
330
1E
100
AcDbEntity
  8
0
100
AcDbLine
 10
59.0394
 20
105.92203
 30
0.0
 11
60.3037
 21
106.2870299999999
 31
0.0
  0
LINE
  5
2DA
330
1E
100
AcDbEntity
  8
0
100
AcDbLine
 10
57.50099
 20
110.30803
 30
0.0
 11
58.13379000000001
 21
110.17703
 31
0.0
  0
LINE
  5
2DB
330
1E
100
AcDbEntity
  8
0
100
AcDbLine
 10
58.13379000000001
 20
110.17703
 30
0.0
 11
58.78165
 21
110.13703
 31
0.0
  0
LINE
  5
2DC
330
1E
100
AcDbEntity
  8
0
100
AcDbLine
 10
58.78165
 20
110.13703
 30
0.0
 11
59.43702
 21
110.19303
 31
0.0
  0
LINE
  5
2DD
330
1E
100
AcDbEntity
  8
0
100
AcDbLine
 10
59.9257
 20
97.81983000000002
 30
0.0
 11
59.9257
 21
99.04762323711508
 31
0.0
  0
LINE
  5
2DE
330
1E
100
AcDbEntity
  8
0
100
AcDbLine
 10
59.9257
 20
99.04762323711508
 30
0.0
 11
59.9257
 21
97.81983000000002
 31
0.0
  0
LINE
  5
2DF
330
1E
100
AcDbEntity
  8
0
100
AcDbLine
 10
59.5737
 20
106.91903
 30
0.0
 11
60.3037
 21
106.2870299999999
 31
0.0
  0
LINE
  5
2E0
330
1E
100
AcDbEntity
  8
0
100
AcDbLine
 10
59.5737
 20
106.91903
 30
0.0
 11
59.5737
 21
107.803024902153
 31
0.0
  0
LINE
  5
2E1
330
1E
100
AcDbEntity
  8
0
100
AcDbLine
 10
60.3037
 20
106.2870299999999
 30
0.0
 11
60.3037
 21
107.449041803643
 31
0.0
  0
LINE
  5
2E2
330
1E
100
AcDbEntity
  8
0
100
AcDbLine
 10
59.5737
 20
107.803024902153
 30
0.0
 11
59.5737
 21
106.91903
 31
0.0
  0
LINE
  5
2E3
330
1E
100
AcDbEntity
  8
0
100
AcDbLine
 10
60.3037
 20
107.449041803643
 30
0.0
 11
60.3037
 21
106.2870299999999
 31
0.0
  0
LINE
  5
2E4
330
1E
100
AcDbEntity
  8
0
100
AcDbLine
 10
59.43702
 20
110.19303
 30
0.0
 11
60.0606
 21
110.30903
 31
0.0
  0
LINE
  5
2E5
330
1E
100
AcDbEntity
  8
0
100
AcDbLine
 10
56.95614
 20
110.51703
 30
0.0
 11
57.50099
 21
110.30803
 31
0.0
  0
LINE
  5
2E6
330
1E
100
AcDbEntity
  8
0
100
AcDbLine
 10
56.56486999999999
 20
110.77703
 30
0.0
 11
56.95614
 21
110.51703
 31
0.0
  0
LINE
  5
2E7
330
1E
100
AcDbEntity
  8
0
100
AcDbLine
 10
60.0606
 20
110.30903
 30
0.0
 11
60.58189999999999
 21
110.5040299999999
 31
0.0
  0
LINE
  5
2E8
330
1E
100
AcDbEntity
  8
0
100
AcDbLine
 10
60.58189999999999
 20
110.5040299999999
 30
0.0
 11
60.99849999999999
 21
110.77703
 31
0.0
  0
LINE
  5
2E9
330
1E
100
AcDbEntity
  8
0
100
AcDbLine
 10
60.6057
 20
112.3170299999999
 30
0.0
 11
60.99759999999999
 21
112.05603
 31
0.0
  0
LINE
  5
2EA
330
1E
100
AcDbEntity
  8
0
100
AcDbLine
 10
60.99759999999999
 20
112.05603
 30
0.0
 11
61.229
 21
111.74503
 31
0.0
  0
LINE
  5
2EB
330
1E
100
AcDbEntity
  8
0
100
AcDbLine
 10
61.229
 20
111.74503
 30
0.0
 11
61.3406
 21
111.41703
 31
0.0
  0
LINE
  5
2EC
330
1E
100
AcDbEntity
  8
0
100
AcDbLine
 10
61.2618
 20
111.0930299999999
 30
0.0
 11
61.5934893847816
 21
111.679179019044
 31
0.0
  0
LINE
  5
2ED
330
1E
100
AcDbEntity
  8
0
100
AcDbLine
 10
61.2618
 20
111.0930299999999
 30
0.0
 11
61.5934893847816
 21
111.679179019044
 31
0.0
  0
LINE
  5
2EE
330
1E
100
AcDbEntity
  8
0
100
AcDbLine
 10
61.2618
 20
111.0930299999999
 30
0.0
 11
61.3406
 21
111.41703
 31
0.0
  0
LINE
  5
2EF
330
1E
100
AcDbEntity
  8
0
100
AcDbLine
 10
60.99849999999999
 20
110.77703
 30
0.0
 11
61.2618
 21
111.0930299999999
 31
0.0
  0
LINE
  5
2F0
330
1E
100
AcDbEntity
  8
0
100
AcDbLine
 10
60.0609
 20
112.52503
 30
0.0
 11
60.6057
 21
112.3170299999999
 31
0.0
  0
LINE
  5
2F1
330
1E
100
AcDbEntity
  8
0
100
AcDbLine
 10
57.9315
 20
132.6060299999999
 30
0.0
 11
59.19579999999999
 21
132.24103
 31
0.0
  0
LINE
  5
2F2
330
1E
100
AcDbEntity
  8
0
100
AcDbLine
 10
57.9315
 20
132.6060299999999
 30
0.0
 11
58.6614
 21
133.23803
 31
0.0
  0
LINE
  5
2F3
330
1E
100
AcDbEntity
  8
0
100
AcDbLine
 10
58.6614
 20
133.23803
 30
0.0
 11
59.9257
 21
132.8730299999999
 31
0.0
  0
LINE
  5
2F4
330
1E
100
AcDbEntity
  8
0
100
AcDbLine
 10
58.3095
 20
123.5321226122549
 30
0.0
 11
58.3095
 21
122.40703
 31
0.0
  0
LINE
  5
2F5
330
1E
100
AcDbEntity
  8
0
100
AcDbLine
 10
58.3095
 20
122.40703
 30
0.0
 11
59.5737
 21
122.04203
 31
0.0
  0
LINE
  5
2F6
330
1E
100
AcDbEntity
  8
0
100
AcDbLine
 10
58.3095
 20
122.40703
 30
0.0
 11
59.0394
 21
123.03903
 31
0.0
  0
LINE
  5
2F7
330
1E
100
AcDbEntity
  8
0
100
AcDbLine
 10
58.3095
 20
122.40703
 30
0.0
 11
58.3095
 21
123.5321226122549
 31
0.0
  0
LINE
  5
2F8
330
1E
100
AcDbEntity
  8
0
100
AcDbLine
 10
59.0394
 20
124.117727554543
 30
0.0
 11
59.0394
 21
123.03903
 31
0.0
  0
LINE
  5
2F9
330
1E
100
AcDbEntity
  8
0
100
AcDbLine
 10
60.3037
 20
122.67403
 30
0.0
 11
60.3037
 21
122.8717317362959
 31
0.0
  0
LINE
  5
2FA
330
1E
100
AcDbEntity
  8
0
100
AcDbLine
 10
59.5737
 20
122.04203
 30
0.0
 11
60.3037
 21
122.67403
 31
0.0
  0
LINE
  5
2FB
330
1E
100
AcDbEntity
  8
0
100
AcDbLine
 10
59.19579999999999
 20
132.24103
 30
0.0
 11
59.9257
 21
132.8730299999999
 31
0.0
  0
LINE
  5
2FC
330
1E
100
AcDbEntity
  8
0
100
AcDbLine
 10
60.3037
 20
122.8717317362959
 30
0.0
 11
60.3037
 21
122.67403
 31
0.0
  0
LINE
  5
2FD
330
1E
100
AcDbEntity
  8
0
100
AcDbLine
 10
59.0394
 20
123.03903
 30
0.0
 11
59.0394
 21
124.117727554543
 31
0.0
  0
LINE
  5
2FE
330
1E
100
AcDbEntity
  8
0
100
AcDbLine
 10
59.0394
 20
123.03903
 30
0.0
 11
60.3037
 21
122.67403
 31
0.0
  0
LINE
  5
2FF
330
1E
100
AcDbEntity
  8
0
100
AcDbLine
 10
59.42806
 20
112.65703
 30
0.0
 11
60.0609
 21
112.52503
 31
0.0
  0
LINE
  5
300
330
1E
100
AcDbEntity
  8
0
100
AcDbLine
 10
58.78088
 20
112.69603
 30
0.0
 11
59.42806
 21
112.65703
 31
0.0
  0
LINE
  5
301
330
1E
100
AcDbEntity
  8
0
100
AcDbLine
 10
58.12554999999999
 20
112.64103
 30
0.0
 11
58.78088
 21
112.69603
 31
0.0
  0
LINE
  5
302
330
1E
100
AcDbEntity
  8
0
100
AcDbLine
 10
57.50206999999999
 20
112.52503
 30
0.0
 11
58.12554999999999
 21
112.64103
 31
0.0
  0
LINE
  5
303
330
1E
100
AcDbEntity
  8
0
100
AcDbLine
 10
56.98064999999999
 20
112.32903
 30
0.0
 11
57.50206999999999
 21
112.52503
 31
0.0
  0
LINE
  5
304
330
1E
100
AcDbEntity
  8
0
100
AcDbLine
 10
56.56416
 20
112.05703
 30
0.0
 11
56.98064999999999
 21
112.32903
 31
0.0
  0
LINE
  5
305
330
1E
100
AcDbEntity
  8
0
100
AcDbLine
 10
61.3869
 20
93.94493
 30
0.0
 11
62.7847356032119
 21
94.15460640439698
 31
0.0
  0
LINE
  5
306
330
1E
100
AcDbEntity
  8
0
100
AcDbLine
 10
61.616
 20
5.2343
 30
0.0
 11
62.0
 21
7.02161
 31
0.0
  0
LINE
  5
307
330
1E
100
AcDbEntity
  8
0
100
AcDbLine
 10
61.616
 20
81.09673
 30
0.0
 11
62.0
 21
84.05362999999999
 31
0.0
  0
LINE
  5
308
330
1E
100
AcDbEntity
  8
0
100
AcDbLine
 10
62.0
 20
7.02161
 30
0.0
 11
62.0
 21
84.05362999999999
 31
0.0
  0
LINE
  5
309
330
1E
100
AcDbEntity
  8
0
100
AcDbLine
 10
62.0
 20
84.05362999999999
 30
0.0
 11
62.0
 21
7.021610000000009
 31
0.0
  0
LINE
  5
30A
330
1E
100
AcDbEntity
  8
0
100
AcDbLine
 10
61.616
 20
87.09523
 30
0.0
 11
62.0
 21
84.05362999999999
 31
0.0
  0
LINE
  5
30B
330
1E
100
AcDbEntity
  8
0
100
AcDbLine
 10
62.2515
 20
136.9430299999999
 30
0.0
 11
63.5158
 21
136.57803
 31
0.0
  0
LINE
  5
30C
330
1E
100
AcDbEntity
  8
0
100
AcDbLine
 10
62.2515
 20
136.9430299999999
 30
0.0
 11
62.98149999999999
 21
137.5750299999999
 31
0.0
  0
LINE
  5
30D
330
1E
100
AcDbEntity
  8
0
100
AcDbLine
 10
62.2515
 20
94.61633
 30
0.0
 11
63.5158
 21
94.98133000000001
 31
0.0
  0
LINE
  5
30E
330
1E
100
AcDbEntity
  8
0
100
AcDbLine
 10
62.2515
 20
94.61633
 30
0.0
 11
62.98149999999999
 21
93.98423000000001
 31
0.0
  0
LINE
  5
30F
330
1E
100
AcDbEntity
  8
0
100
AcDbLine
 10
62.4088
 20
92.88653000000001
 30
0.0
 11
68.8321
 21
93.94493
 31
0.0
  0
LINE
  5
310
330
1E
100
AcDbEntity
  8
0
100
AcDbLine
 10
61.3869
 20
139.34603
 30
0.0
 11
67.95619999999999
 21
138.3610299999999
 31
0.0
  0
LINE
  5
311
330
1E
100
AcDbEntity
  8
0
100
AcDbLine
 10
62.4088
 20
140.40503
 30
0.0
 11
68.8321
 21
139.34603
 31
0.0
  0
LINE
  5
312
330
1E
100
AcDbEntity
  8
0
100
AcDbLine
 10
56.4234
 20
142.25603
 30
0.0
 11
62.9197
 21
141.5990299999999
 31
0.0
  0
LINE
  5
313
330
1E
100
AcDbEntity
  8
0
100
AcDbLine
 10
56.4234
 20
160.4430299999999
 30
0.0
 11
62.9197
 21
159.78603
 31
0.0
  0
LINE
  5
314
330
1E
100
AcDbEntity
  8
0
100
AcDbLine
 10
62.68899999999999
 20
127.045832496832
 30
0.0
 11
62.68899999999999
 21
126.63303
 31
0.0
  0
LINE
  5
315
330
1E
100
AcDbEntity
  8
0
100
AcDbLine
 10
62.68899999999999
 20
126.63303
 30
0.0
 11
63.9533
 21
126.26803
 31
0.0
  0
LINE
  5
316
330
1E
100
AcDbEntity
  8
0
100
AcDbLine
 10
62.68899999999999
 20
126.63303
 30
0.0
 11
63.41899999999999
 21
127.26503
 31
0.0
  0
LINE
  5
317
330
1E
100
AcDbEntity
  8
0
100
AcDbLine
 10
62.68899999999999
 20
126.63303
 30
0.0
 11
62.68899999999999
 21
127.045832496832
 31
0.0
  0
LINE
  5
318
330
1E
100
AcDbEntity
  8
0
100
AcDbLine
 10
62.68899999999999
 20
103.937767729904
 30
0.0
 11
62.68899999999999
 21
103.19503
 31
0.0
  0
LINE
  5
319
330
1E
100
AcDbEntity
  8
0
100
AcDbLine
 10
62.68899999999999
 20
103.19503
 30
0.0
 11
63.9533
 21
103.56003
 31
0.0
  0
LINE
  5
31A
330
1E
100
AcDbEntity
  8
0
100
AcDbLine
 10
62.68899999999999
 20
103.19503
 30
0.0
 11
63.41899999999999
 21
102.56203
 31
0.0
  0
LINE
  5
31B
330
1E
100
AcDbEntity
  8
0
100
AcDbLine
 10
62.68899999999999
 20
103.19503
 30
0.0
 11
62.68899999999999
 21
103.937767729904
 31
0.0
  0
LINE
  5
31C
330
1E
100
AcDbEntity
  8
0
100
AcDbLine
 10
62.98149999999999
 20
93.98423000000001
 30
0.0
 11
64.2457
 21
94.34912999999999
 31
0.0
  0
LINE
  5
31D
330
1E
100
AcDbEntity
  8
0
100
AcDbLine
 10
63.5158
 20
94.98133000000001
 30
0.0
 11
64.2457
 21
94.34912999999999
 31
0.0
  0
LINE
  5
31E
330
1E
100
AcDbEntity
  8
0
100
AcDbLine
 10
63.9533
 20
126.26803
 30
0.0
 11
64.6832
 21
126.90003
 31
0.0
  0
LINE
  5
31F
330
1E
100
AcDbEntity
  8
0
100
AcDbLine
 10
62.98149999999999
 20
137.5750299999999
 30
0.0
 11
62.98149999999999
 21
139.1069358803829
 31
0.0
  0
LINE
  5
320
330
1E
100
AcDbEntity
  8
0
100
AcDbLine
 10
62.98149999999999
 20
137.5750299999999
 30
0.0
 11
64.2457
 21
137.21003
 31
0.0
  0
LINE
  5
321
330
1E
100
AcDbEntity
  8
0
100
AcDbLine
 10
63.5158
 20
136.57803
 30
0.0
 11
64.2457
 21
137.21003
 31
0.0
  0
LINE
  5
322
330
1E
100
AcDbEntity
  8
0
100
AcDbLine
 10
63.41899999999999
 20
127.6315176699659
 30
0.0
 11
63.41899999999999
 21
127.26503
 31
0.0
  0
LINE
  5
323
330
1E
100
AcDbEntity
  8
0
100
AcDbLine
 10
63.41899999999999
 20
127.26503
 30
0.0
 11
63.41899999999999
 21
127.6315176699659
 31
0.0
  0
LINE
  5
324
330
1E
100
AcDbEntity
  8
0
100
AcDbLine
 10
63.41899999999999
 20
127.26503
 30
0.0
 11
64.6832
 21
126.90003
 31
0.0
  0
LINE
  5
325
330
1E
100
AcDbEntity
  8
0
100
AcDbLine
 10
64.7197
 20
110.172707012427
 30
0.0
 11
64.7197
 21
109.36603
 31
0.0
  0
LINE
  5
326
330
1E
100
AcDbEntity
  8
0
100
AcDbLine
 10
64.7197
 20
109.36603
 30
0.0
 11
64.7197
 21
110.09603
 31
0.0
  0
LINE
  5
327
330
1E
100
AcDbEntity
  8
0
100
AcDbLine
 10
64.7197
 20
109.36603
 30
0.0
 11
66.1796
 21
109.36603
 31
0.0
  0
LINE
  5
328
330
1E
100
AcDbEntity
  8
0
100
AcDbLine
 10
64.7197
 20
109.36603
 30
0.0
 11
64.7197
 21
110.172707012427
 31
0.0
  0
LINE
  5
329
330
1E
100
AcDbEntity
  8
0
100
AcDbLine
 10
64.7197
 20
110.867340900012
 30
0.0
 11
64.7197
 21
110.09603
 31
0.0
  0
LINE
  5
32A
330
1E
100
AcDbEntity
  8
0
100
AcDbLine
 10
64.7197
 20
110.09603
 30
0.0
 11
66.1796
 21
110.09603
 31
0.0
  0
LINE
  5
32B
330
1E
100
AcDbEntity
  8
0
100
AcDbLine
 10
64.7197
 20
110.09603
 30
0.0
 11
64.7197
 21
110.867340900012
 31
0.0
  0
LINE
  5
32C
330
1E
100
AcDbEntity
  8
0
100
AcDbLine
 10
64.7197
 20
110.09603
 30
0.0
 11
64.7197
 21
109.36603
 31
0.0
  0
LINE
  5
32D
330
1E
100
AcDbEntity
  8
0
100
AcDbLine
 10
64.7197
 20
119.59503
 30
0.0
 11
64.7197
 21
118.86503
 31
0.0
  0
LINE
  5
32E
330
1E
100
AcDbEntity
  8
0
100
AcDbLine
 10
64.7197
 20
119.59503
 30
0.0
 11
66.1796
 21
119.59503
 31
0.0
  0
LINE
  5
32F
330
1E
100
AcDbEntity
  8
0
100
AcDbLine
 10
64.7197
 20
119.59503
 30
0.0
 11
64.7197
 21
120.079948315595
 31
0.0
  0
LINE
  5
330
330
1E
100
AcDbEntity
  8
0
100
AcDbLine
 10
64.7197
 20
119.315135909127
 30
0.0
 11
64.7197
 21
118.86503
 31
0.0
  0
LINE
  5
331
330
1E
100
AcDbEntity
  8
0
100
AcDbLine
 10
66.1796
 20
109.36603
 30
0.0
 11
66.1796
 21
110.09603
 31
0.0
  0
LINE
  5
332
330
1E
100
AcDbEntity
  8
0
100
AcDbLine
 10
66.1796
 20
110.5166680305929
 30
0.0
 11
66.1796
 21
110.09603
 31
0.0
  0
LINE
  5
333
330
1E
100
AcDbEntity
  8
0
100
AcDbLine
 10
66.1796
 20
110.09603
 30
0.0
 11
66.1796
 21
109.36603
 31
0.0
  0
LINE
  5
334
330
1E
100
AcDbEntity
  8
0
100
AcDbLine
 10
66.1796
 20
110.09603
 30
0.0
 11
66.1796
 21
110.5166680305929
 31
0.0
  0
LINE
  5
335
330
1E
100
AcDbEntity
  8
0
100
AcDbLine
 10
64.7197
 20
118.86503
 30
0.0
 11
66.1796
 21
118.86503
 31
0.0
  0
LINE
  5
336
330
1E
100
AcDbEntity
  8
0
100
AcDbLine
 10
64.7197
 20
118.86503
 30
0.0
 11
64.7197
 21
119.315135909127
 31
0.0
  0
LINE
  5
337
330
1E
100
AcDbEntity
  8
0
100
AcDbLine
 10
64.7197
 20
118.86503
 30
0.0
 11
64.7197
 21
119.59503
 31
0.0
  0
LINE
  5
338
330
1E
100
AcDbEntity
  8
0
100
AcDbLine
 10
66.1796
 20
120.494236736116
 30
0.0
 11
66.1796
 21
119.59503
 31
0.0
  0
LINE
  5
339
330
1E
100
AcDbEntity
  8
0
100
AcDbLine
 10
64.7197
 20
120.079948315595
 30
0.0
 11
64.7197
 21
119.59503
 31
0.0
  0
LINE
  5
33A
330
1E
100
AcDbEntity
  8
0
100
AcDbLine
 10
66.1796
 20
119.59503
 30
0.0
 11
66.1796
 21
120.494236736116
 31
0.0
  0
LINE
  5
33B
330
1E
100
AcDbEntity
  8
0
100
AcDbLine
 10
66.1796
 20
119.59503
 30
0.0
 11
66.1796
 21
118.86503
 31
0.0
  0
LINE
  5
33C
330
1E
100
AcDbEntity
  8
0
100
AcDbLine
 10
66.1796
 20
118.86503
 30
0.0
 11
66.1796
 21
119.59503
 31
0.0
  0
LINE
  5
33D
330
1E
100
AcDbEntity
  8
0
100
AcDbLine
 10
67.0686
 20
130.85803
 30
0.0
 11
68.33289999999999
 21
130.49303
 31
0.0
  0
LINE
  5
33E
330
1E
100
AcDbEntity
  8
0
100
AcDbLine
 10
67.0686
 20
130.85803
 30
0.0
 11
67.7985
 21
131.49003
 31
0.0
  0
LINE
  5
33F
330
1E
100
AcDbEntity
  8
0
100
AcDbLine
 10
63.9533
 20
103.56003
 30
0.0
 11
64.6832
 21
102.92703
 31
0.0
  0
LINE
  5
340
330
1E
100
AcDbEntity
  8
0
100
AcDbLine
 10
63.41899999999999
 20
102.56203
 30
0.0
 11
64.6832
 21
102.92703
 31
0.0
  0
LINE
  5
341
330
1E
100
AcDbEntity
  8
0
100
AcDbLine
 10
67.8832
 20
114.509605349786
 30
0.0
 11
67.8832
 21
114.11603
 31
0.0
  0
LINE
  5
342
330
1E
100
AcDbEntity
  8
0
100
AcDbLine
 10
67.8832
 20
114.11603
 30
0.0
 11
67.8832
 21
114.84503
 31
0.0
  0
LINE
  5
343
330
1E
100
AcDbEntity
  8
0
100
AcDbLine
 10
67.8832
 20
114.11603
 30
0.0
 11
69.3431
 21
114.11603
 31
0.0
  0
LINE
  5
344
330
1E
100
AcDbEntity
  8
0
100
AcDbLine
 10
67.8832
 20
114.11603
 30
0.0
 11
67.8832
 21
114.509605349786
 31
0.0
  0
LINE
  5
345
330
1E
100
AcDbEntity
  8
0
100
AcDbLine
 10
67.7985
 20
131.49003
 30
0.0
 11
69.06279999999999
 21
131.12603
 31
0.0
  0
LINE
  5
346
330
1E
100
AcDbEntity
  8
0
100
AcDbLine
 10
67.8832
 20
115.759923630976
 30
0.0
 11
67.8832
 21
114.84503
 31
0.0
  0
LINE
  5
347
330
1E
100
AcDbEntity
  8
0
100
AcDbLine
 10
67.8832
 20
114.84503
 30
0.0
 11
69.3431
 21
114.84503
 31
0.0
  0
LINE
  5
348
330
1E
100
AcDbEntity
  8
0
100
AcDbLine
 10
67.8832
 20
114.84503
 30
0.0
 11
67.8832
 21
115.759923630976
 31
0.0
  0
LINE
  5
349
330
1E
100
AcDbEntity
  8
0
100
AcDbLine
 10
67.8832
 20
114.84503
 30
0.0
 11
67.8832
 21
114.11603
 31
0.0
  0
LINE
  5
34A
330
1E
100
AcDbEntity
  8
0
100
AcDbLine
 10
67.0686
 20
99.83503
 30
0.0
 11
68.33289999999999
 21
100.2000299999999
 31
0.0
  0
LINE
  5
34B
330
1E
100
AcDbEntity
  8
0
100
AcDbLine
 10
67.0686
 20
99.83503
 30
0.0
 11
67.7985
 21
99.20273000000001
 31
0.0
  0
LINE
  5
34C
330
1E
100
AcDbEntity
  8
0
100
AcDbLine
 10
67.7985
 20
99.20273000000001
 30
0.0
 11
69.06279999999999
 21
99.56803
 31
0.0
  0
LINE
  5
34D
330
1E
100
AcDbEntity
  8
0
100
AcDbLine
 10
68.33289999999999
 20
130.49303
 30
0.0
 11
69.06279999999999
 21
131.12603
 31
0.0
  0
LINE
  5
34E
330
1E
100
AcDbEntity
  8
0
100
AcDbLine
 10
68.33289999999999
 20
100.9015748280439
 30
0.0
 11
68.33289999999999
 21
100.2000299999999
 31
0.0
  0
LINE
  5
34F
330
1E
100
AcDbEntity
  8
0
100
AcDbLine
 10
68.33289999999999
 20
100.2000299999999
 30
0.0
 11
69.06279999999999
 21
99.56803
 31
0.0
  0
LINE
  5
350
330
1E
100
AcDbEntity
  8
0
100
AcDbLine
 10
68.33289999999999
 20
100.2000299999999
 30
0.0
 11
68.33289999999999
 21
100.9015748280439
 31
0.0
  0
LINE
  5
351
330
1E
100
AcDbEntity
  8
0
100
AcDbLine
 10
67.95619999999999
 20
94.93033
 30
0.0
 11
72.08714628282621
 21
95.9216967415065
 31
0.0
  0
LINE
  5
352
330
1E
100
AcDbEntity
  8
0
100
AcDbLine
 10
64.2457
 20
94.37375217587868
 30
0.0
 11
67.95619999999999
 21
94.93033
 31
0.0
  0
LINE
  5
353
330
1E
100
AcDbEntity
  8
0
100
AcDbLine
 10
68.8321
 20
93.94493
 30
0.0
 11
74.52549999999999
 21
95.29523000000001
 31
0.0
  0
LINE
  5
354
330
1E
100
AcDbEntity
  8
0
100
AcDbLine
 10
62.98149999999999
 20
139.1069358803829
 30
0.0
 11
62.98149999999999
 21
137.5750299999999
 31
0.0
  0
LINE
  5
355
330
1E
100
AcDbEntity
  8
0
100
AcDbLine
 10
67.95619999999999
 20
138.3610299999999
 30
0.0
 11
73.4307
 21
137.04703
 31
0.0
  0
LINE
  5
356
330
1E
100
AcDbEntity
  8
0
100
AcDbLine
 10
69.06279999999999
 20
99.56803
 30
0.0
 11
69.06279999999999
 21
100.69527950597
 31
0.0
  0
LINE
  5
357
330
1E
100
AcDbEntity
  8
0
100
AcDbLine
 10
69.1797
 20
105.933576023533
 30
0.0
 11
69.1797
 21
105.5780299999999
 31
0.0
  0
LINE
  5
358
330
1E
100
AcDbEntity
  8
0
100
AcDbLine
 10
69.1797
 20
105.5780299999999
 30
0.0
 11
69.1797
 21
106.3080299999999
 31
0.0
  0
LINE
  5
359
330
1E
100
AcDbEntity
  8
0
100
AcDbLine
 10
69.1797
 20
105.5780299999999
 30
0.0
 11
70.6396
 21
105.5780299999999
 31
0.0
  0
LINE
  5
35A
330
1E
100
AcDbEntity
  8
0
100
AcDbLine
 10
69.1797
 20
105.5780299999999
 30
0.0
 11
69.1797
 21
105.933576023533
 31
0.0
  0
LINE
  5
35B
330
1E
100
AcDbEntity
  8
0
100
AcDbLine
 10
69.1797
 20
106.3080299999999
 30
0.0
 11
70.6396
 21
106.3080299999999
 31
0.0
  0
LINE
  5
35C
330
1E
100
AcDbEntity
  8
0
100
AcDbLine
 10
69.1797
 20
106.3080299999999
 30
0.0
 11
69.1797
 21
105.5780299999999
 31
0.0
  0
LINE
  5
35D
330
1E
100
AcDbEntity
  8
0
100
AcDbLine
 10
69.3431
 20
114.11603
 30
0.0
 11
69.3431
 21
114.84503
 31
0.0
  0
LINE
  5
35E
330
1E
100
AcDbEntity
  8
0
100
AcDbLine
 10
69.06279999999999
 20
131.12603
 30
0.0
 11
69.06279999999999
 21
131.2223668206049
 31
0.0
  0
LINE
  5
35F
330
1E
100
AcDbEntity
  8
0
100
AcDbLine
 10
69.1797
 20
125.1134577726779
 30
0.0
 11
69.1797
 21
124.24903
 31
0.0
  0
LINE
  5
360
330
1E
100
AcDbEntity
  8
0
100
AcDbLine
 10
69.1797
 20
124.24903
 30
0.0
 11
69.1797
 21
123.5190299999999
 31
0.0
  0
LINE
  5
361
330
1E
100
AcDbEntity
  8
0
100
AcDbLine
 10
69.1797
 20
124.24903
 30
0.0
 11
70.6396
 21
124.24903
 31
0.0
  0
LINE
  5
362
330
1E
100
AcDbEntity
  8
0
100
AcDbLine
 10
69.1797
 20
124.24903
 30
0.0
 11
69.1797
 21
125.1134577726779
 31
0.0
  0
LINE
  5
363
330
1E
100
AcDbEntity
  8
0
100
AcDbLine
 10
69.1797
 20
123.5190299999999
 30
0.0
 11
70.6396
 21
123.5190299999999
 31
0.0
  0
LINE
  5
364
330
1E
100
AcDbEntity
  8
0
100
AcDbLine
 10
69.1797
 20
123.5190299999999
 30
0.0
 11
69.1797
 21
124.24903
 31
0.0
  0
LINE
  5
365
330
1E
100
AcDbEntity
  8
0
100
AcDbLine
 10
69.06279999999999
 20
131.2223668206049
 30
0.0
 11
69.06279999999999
 21
131.12603
 31
0.0
  0
LINE
  5
366
330
1E
100
AcDbEntity
  8
0
100
AcDbLine
 10
69.3431
 20
115.761838579479
 30
0.0
 11
69.3431
 21
114.84503
 31
0.0
  0
LINE
  5
367
330
1E
100
AcDbEntity
  8
0
100
AcDbLine
 10
70.6396
 20
105.5780299999999
 30
0.0
 11
70.6396
 21
106.3080299999999
 31
0.0
  0
LINE
  5
368
330
1E
100
AcDbEntity
  8
0
100
AcDbLine
 10
70.6396
 20
107.2141306135969
 30
0.0
 11
70.6396
 21
106.3080299999999
 31
0.0
  0
LINE
  5
369
330
1E
100
AcDbEntity
  8
0
100
AcDbLine
 10
70.6396
 20
106.3080299999999
 30
0.0
 11
70.6396
 21
105.5780299999999
 31
0.0
  0
LINE
  5
36A
330
1E
100
AcDbEntity
  8
0
100
AcDbLine
 10
70.6396
 20
106.3080299999999
 30
0.0
 11
70.6396
 21
107.2141306135969
 31
0.0
  0
LINE
  5
36B
330
1E
100
AcDbEntity
  8
0
100
AcDbLine
 10
70.6396
 20
124.24903
 30
0.0
 11
70.6396
 21
123.5190299999999
 31
0.0
  0
LINE
  5
36C
330
1E
100
AcDbEntity
  8
0
100
AcDbLine
 10
70.6396
 20
123.5190299999999
 30
0.0
 11
70.6396
 21
124.24903
 31
0.0
  0
LINE
  5
36D
330
1E
100
AcDbEntity
  8
0
100
AcDbLine
 10
71.4482
 20
135.9497264119289
 30
0.0
 11
71.4482
 21
135.08403
 31
0.0
  0
LINE
  5
36E
330
1E
100
AcDbEntity
  8
0
100
AcDbLine
 10
71.4482
 20
135.08403
 30
0.0
 11
72.7124
 21
134.71903
 31
0.0
  0
LINE
  5
36F
330
1E
100
AcDbEntity
  8
0
100
AcDbLine
 10
71.4482
 20
135.08403
 30
0.0
 11
72.1781
 21
135.71603
 31
0.0
  0
LINE
  5
370
330
1E
100
AcDbEntity
  8
0
100
AcDbLine
 10
71.4482
 20
135.08403
 30
0.0
 11
71.4482
 21
135.9497264119289
 31
0.0
  0
LINE
  5
371
330
1E
100
AcDbEntity
  8
0
100
AcDbLine
 10
69.3431
 20
114.84503
 30
0.0
 11
69.3431
 21
114.11603
 31
0.0
  0
LINE
  5
372
330
1E
100
AcDbEntity
  8
0
100
AcDbLine
 10
69.3431
 20
114.84503
 30
0.0
 11
69.3431
 21
115.761838579479
 31
0.0
  0
LINE
  5
373
330
1E
100
AcDbEntity
  8
0
100
AcDbLine
 10
69.06279999999999
 20
100.69527950597
 30
0.0
 11
69.06279999999999
 21
99.56803
 31
0.0
  0
LINE
  5
374
330
1E
100
AcDbEntity
  8
0
100
AcDbLine
 10
72.7124
 20
134.71903
 30
0.0
 11
73.4424
 21
135.35103
 31
0.0
  0
LINE
  5
375
330
1E
100
AcDbEntity
  8
0
100
AcDbLine
 10
72.1781
 20
136.353722320596
 30
0.0
 11
72.1781
 21
135.71603
 31
0.0
  0
LINE
  5
376
330
1E
100
AcDbEntity
  8
0
100
AcDbLine
 10
72.1781
 20
135.71603
 30
0.0
 11
72.1781
 21
136.353722320596
 31
0.0
  0
LINE
  5
377
330
1E
100
AcDbEntity
  8
0
100
AcDbLine
 10
72.1781
 20
135.71603
 30
0.0
 11
73.4424
 21
135.35103
 31
0.0
  0
LINE
  5
378
330
1E
100
AcDbEntity
  8
0
100
AcDbLine
 10
71.4482
 20
97.0214067241379
 30
0.0
 11
71.4482
 21
96.47503
 31
0.0
  0
LINE
  5
379
330
1E
100
AcDbEntity
  8
0
100
AcDbLine
 10
71.4482
 20
96.47503
 30
0.0
 11
72.7124
 21
96.84003
 31
0.0
  0
LINE
  5
37A
330
1E
100
AcDbEntity
  8
0
100
AcDbLine
 10
71.4482
 20
96.47503
 30
0.0
 11
72.1781
 21
95.84293
 31
0.0
  0
LINE
  5
37B
330
1E
100
AcDbEntity
  8
0
100
AcDbLine
 10
71.4482
 20
96.47503
 30
0.0
 11
71.4482
 21
97.0214067241379
 31
0.0
  0
LINE
  5
37C
330
1E
100
AcDbEntity
  8
0
100
AcDbLine
 10
72.7124
 20
96.84003
 30
0.0
 11
73.4424
 21
96.20783000000001
 31
0.0
  0
LINE
  5
37D
330
1E
100
AcDbEntity
  8
0
100
AcDbLine
 10
72.1781
 20
95.84293
 30
0.0
 11
73.4424
 21
96.20783000000001
 31
0.0
  0
LINE
  5
37E
330
1E
100
AcDbEntity
  8
0
100
AcDbLine
 10
74.0453
 20
101.99203
 30
0.0
 11
74.0453
 21
102.7220299999999
 31
0.0
  0
LINE
  5
37F
330
1E
100
AcDbEntity
  8
0
100
AcDbLine
 10
74.0453
 20
101.99203
 30
0.0
 11
75.5052
 21
101.99203
 31
0.0
  0
LINE
  5
380
330
1E
100
AcDbEntity
  8
0
100
AcDbLine
 10
74.0453
 20
103.811177490032
 30
0.0
 11
74.0453
 21
102.7220299999999
 31
0.0
  0
LINE
  5
381
330
1E
100
AcDbEntity
  8
0
100
AcDbLine
 10
74.4522
 20
110.426437223448
 30
0.0
 11
74.4522
 21
110.0840299999999
 31
0.0
  0
LINE
  5
382
330
1E
100
AcDbEntity
  8
0
100
AcDbLine
 10
74.4522
 20
110.0840299999999
 30
0.0
 11
74.4522
 21
110.81303
 31
0.0
  0
LINE
  5
383
330
1E
100
AcDbEntity
  8
0
100
AcDbLine
 10
74.4522
 20
110.0840299999999
 30
0.0
 11
75.9121
 21
110.0840299999999
 31
0.0
  0
LINE
  5
384
330
1E
100
AcDbEntity
  8
0
100
AcDbLine
 10
74.4522
 20
110.0840299999999
 30
0.0
 11
74.4522
 21
110.426437223448
 31
0.0
  0
LINE
  5
385
330
1E
100
AcDbEntity
  8
0
100
AcDbLine
 10
74.4522
 20
111.86843492805
 30
0.0
 11
74.4522
 21
110.81303
 31
0.0
  0
LINE
  5
386
330
1E
100
AcDbEntity
  8
0
100
AcDbLine
 10
74.4522
 20
110.81303
 30
0.0
 11
75.9121
 21
110.81303
 31
0.0
  0
LINE
  5
387
330
1E
100
AcDbEntity
  8
0
100
AcDbLine
 10
74.4522
 20
110.81303
 30
0.0
 11
74.4522
 21
111.86843492805
 31
0.0
  0
LINE
  5
388
330
1E
100
AcDbEntity
  8
0
100
AcDbLine
 10
74.4522
 20
110.81303
 30
0.0
 11
74.4522
 21
110.0840299999999
 31
0.0
  0
LINE
  5
389
330
1E
100
AcDbEntity
  8
0
100
AcDbLine
 10
74.0453
 20
102.7220299999999
 30
0.0
 11
75.5052
 21
102.7220299999999
 31
0.0
  0
LINE
  5
38A
330
1E
100
AcDbEntity
  8
0
100
AcDbLine
 10
74.0453
 20
102.7220299999999
 30
0.0
 11
74.0453
 21
103.811177490032
 31
0.0
  0
LINE
  5
38B
330
1E
100
AcDbEntity
  8
0
100
AcDbLine
 10
74.0453
 20
102.7220299999999
 30
0.0
 11
74.0453
 21
101.99203
 31
0.0
  0
LINE
  5
38C
330
1E
100
AcDbEntity
  8
0
100
AcDbLine
 10
74.0453
 20
128.70103
 30
0.0
 11
74.0453
 21
127.97103
 31
0.0
  0
LINE
  5
38D
330
1E
100
AcDbEntity
  8
0
100
AcDbLine
 10
74.0453
 20
128.70103
 30
0.0
 11
75.5052
 21
128.70103
 31
0.0
  0
LINE
  5
38E
330
1E
100
AcDbEntity
  8
0
100
AcDbLine
 10
74.0453
 20
127.97103
 30
0.0
 11
75.5052
 21
127.97103
 31
0.0
  0
LINE
  5
38F
330
1E
100
AcDbEntity
  8
0
100
AcDbLine
 10
74.0453
 20
127.97103
 30
0.0
 11
74.0453
 21
128.70103
 31
0.0
  0
LINE
  5
390
330
1E
100
AcDbEntity
  8
0
100
AcDbLine
 10
74.4522
 20
120.564176145749
 30
0.0
 11
74.4522
 21
119.74403
 31
0.0
  0
LINE
  5
391
330
1E
100
AcDbEntity
  8
0
100
AcDbLine
 10
74.4522
 20
119.74403
 30
0.0
 11
74.4522
 21
119.01403
 31
0.0
  0
LINE
  5
392
330
1E
100
AcDbEntity
  8
0
100
AcDbLine
 10
74.4522
 20
119.74403
 30
0.0
 11
75.9121
 21
119.74403
 31
0.0
  0
LINE
  5
393
330
1E
100
AcDbEntity
  8
0
100
AcDbLine
 10
74.4522
 20
119.74403
 30
0.0
 11
74.4522
 21
120.564176145749
 31
0.0
  0
LINE
  5
394
330
1E
100
AcDbEntity
  8
0
100
AcDbLine
 10
74.4522
 20
119.01403
 30
0.0
 11
75.9121
 21
119.01403
 31
0.0
  0
LINE
  5
395
330
1E
100
AcDbEntity
  8
0
100
AcDbLine
 10
74.4522
 20
119.01403
 30
0.0
 11
74.4522
 21
119.74403
 31
0.0
  0
LINE
  5
396
330
1E
100
AcDbEntity
  8
0
100
AcDbLine
 10
73.4424
 20
96.24808516170109
 30
0.0
 11
78.6131
 21
97.99603000000001
 31
0.0
  0
LINE
  5
397
330
1E
100
AcDbEntity
  8
0
100
AcDbLine
 10
74.52549999999999
 20
95.29523000000001
 30
0.0
 11
79.92699999999999
 21
97.12013
 31
0.0
  0
LINE
  5
398
330
1E
100
AcDbEntity
  8
0
100
AcDbLine
 10
73.4307
 20
137.04703
 30
0.0
 11
78.6131
 21
135.29503
 31
0.0
  0
LINE
  5
399
330
1E
100
AcDbEntity
  8
0
100
AcDbLine
 10
74.52549999999999
 20
137.99603
 30
0.0
 11
79.92699999999999
 21
136.17103
 31
0.0
  0
LINE
  5
39A
330
1E
100
AcDbEntity
  8
0
100
AcDbLine
 10
68.8321
 20
139.34603
 30
0.0
 11
74.52549999999999
 21
137.99603
 31
0.0
  0
LINE
  5
39B
330
1E
100
AcDbEntity
  8
0
100
AcDbLine
 10
69.1241
 20
140.57703
 30
0.0
 11
74.8905
 21
139.15403
 31
0.0
  0
LINE
  5
39C
330
1E
100
AcDbEntity
  8
0
100
AcDbLine
 10
62.9197
 20
141.5990299999999
 30
0.0
 11
69.1241
 21
140.57703
 31
0.0
  0
LINE
  5
39D
330
1E
100
AcDbEntity
  8
0
100
AcDbLine
 10
69.1241
 20
158.7640299999999
 30
0.0
 11
74.8905
 21
157.34103
 31
0.0
  0
LINE
  5
39E
330
1E
100
AcDbEntity
  8
0
100
AcDbLine
 10
75.5052
 20
101.99203
 30
0.0
 11
75.5052
 21
102.7220299999999
 31
0.0
  0
LINE
  5
39F
330
1E
100
AcDbEntity
  8
0
100
AcDbLine
 10
75.5052
 20
103.2105602116349
 30
0.0
 11
75.5052
 21
102.7220299999999
 31
0.0
  0
LINE
  5
3A0
330
1E
100
AcDbEntity
  8
0
100
AcDbLine
 10
75.9121
 20
110.0840299999999
 30
0.0
 11
75.9121
 21
110.81303
 31
0.0
  0
LINE
  5
3A1
330
1E
100
AcDbEntity
  8
0
100
AcDbLine
 10
75.9121
 20
111.799511992904
 30
0.0
 11
75.9121
 21
110.81303
 31
0.0
  0
LINE
  5
3A2
330
1E
100
AcDbEntity
  8
0
100
AcDbLine
 10
75.9121
 20
110.81303
 30
0.0
 11
75.9121
 21
110.0840299999999
 31
0.0
  0
LINE
  5
3A3
330
1E
100
AcDbEntity
  8
0
100
AcDbLine
 10
75.9121
 20
110.81303
 30
0.0
 11
75.9121
 21
111.799511992904
 31
0.0
  0
LINE
  5
3A4
330
1E
100
AcDbEntity
  8
0
100
AcDbLine
 10
75.5052
 20
102.7220299999999
 30
0.0
 11
75.5052
 21
101.99203
 31
0.0
  0
LINE
  5
3A5
330
1E
100
AcDbEntity
  8
0
100
AcDbLine
 10
75.5052
 20
102.7220299999999
 30
0.0
 11
75.5052
 21
103.2105602116349
 31
0.0
  0
LINE
  5
3A6
330
1E
100
AcDbEntity
  8
0
100
AcDbLine
 10
76.6423
 20
115.23555874077
 30
0.0
 11
76.6423
 21
114.54903
 31
0.0
  0
LINE
  5
3A7
330
1E
100
AcDbEntity
  8
0
100
AcDbLine
 10
76.6423
 20
114.54903
 30
0.0
 11
76.6423
 21
115.27903
 31
0.0
  0
LINE
  5
3A8
330
1E
100
AcDbEntity
  8
0
100
AcDbLine
 10
76.6423
 20
114.54903
 30
0.0
 11
78.1022
 21
114.54903
 31
0.0
  0
LINE
  5
3A9
330
1E
100
AcDbEntity
  8
0
100
AcDbLine
 10
76.6423
 20
114.54903
 30
0.0
 11
76.6423
 21
115.23555874077
 31
0.0
  0
LINE
  5
3AA
330
1E
100
AcDbEntity
  8
0
100
AcDbLine
 10
76.6423
 20
115.771412928488
 30
0.0
 11
76.6423
 21
115.27903
 31
0.0
  0
LINE
  5
3AB
330
1E
100
AcDbEntity
  8
0
100
AcDbLine
 10
78.1022
 20
114.54903
 30
0.0
 11
78.1022
 21
115.27903
 31
0.0
  0
LINE
  5
3AC
330
1E
100
AcDbEntity
  8
0
100
AcDbLine
 10
76.6423
 20
115.27903
 30
0.0
 11
78.1022
 21
115.27903
 31
0.0
  0
LINE
  5
3AD
330
1E
100
AcDbEntity
  8
0
100
AcDbLine
 10
76.6423
 20
115.27903
 30
0.0
 11
76.6423
 21
115.771412928488
 31
0.0
  0
LINE
  5
3AE
330
1E
100
AcDbEntity
  8
0
100
AcDbLine
 10
76.6423
 20
115.27903
 30
0.0
 11
76.6423
 21
114.54903
 31
0.0
  0
LINE
  5
3AF
330
1E
100
AcDbEntity
  8
0
100
AcDbLine
 10
75.5052
 20
128.70103
 30
0.0
 11
75.5052
 21
127.97103
 31
0.0
  0
LINE
  5
3B0
330
1E
100
AcDbEntity
  8
0
100
AcDbLine
 10
75.5052
 20
127.97103
 30
0.0
 11
75.5052
 21
128.70103
 31
0.0
  0
LINE
  5
3B1
330
1E
100
AcDbEntity
  8
0
100
AcDbLine
 10
75.9121
 20
120.932604924227
 30
0.0
 11
75.9121
 21
119.74403
 31
0.0
  0
LINE
  5
3B2
330
1E
100
AcDbEntity
  8
0
100
AcDbLine
 10
75.9121
 20
119.74403
 30
0.0
 11
75.9121
 21
120.932604924227
 31
0.0
  0
LINE
  5
3B3
330
1E
100
AcDbEntity
  8
0
100
AcDbLine
 10
75.9121
 20
119.74403
 30
0.0
 11
75.9121
 21
119.01403
 31
0.0
  0
LINE
  5
3B4
330
1E
100
AcDbEntity
  8
0
100
AcDbLine
 10
75.9121
 20
119.01403
 30
0.0
 11
75.9121
 21
119.74403
 31
0.0
  0
LINE
  5
3B5
330
1E
100
AcDbEntity
  8
0
100
AcDbLine
 10
78.1022
 20
115.7733278769919
 30
0.0
 11
78.1022
 21
115.27903
 31
0.0
  0
LINE
  5
3B6
330
1E
100
AcDbEntity
  8
0
100
AcDbLine
 10
78.262
 20
98.24433
 30
0.0
 11
78.262
 21
98.97433000000001
 31
0.0
  0
LINE
  5
3B7
330
1E
100
AcDbEntity
  8
0
100
AcDbLine
 10
78.262
 20
98.24433
 30
0.0
 11
79.7218
 21
98.24433
 31
0.0
  0
LINE
  5
3B8
330
1E
100
AcDbEntity
  8
0
100
AcDbLine
 10
78.262
 20
98.97433000000001
 30
0.0
 11
79.7218
 21
98.97433000000001
 31
0.0
  0
LINE
  5
3B9
330
1E
100
AcDbEntity
  8
0
100
AcDbLine
 10
78.262
 20
98.97433000000001
 30
0.0
 11
78.262
 21
98.24433
 31
0.0
  0
LINE
  5
3BA
330
1E
100
AcDbEntity
  8
0
100
AcDbLine
 10
78.262
 20
133.31503
 30
0.0
 11
78.262
 21
132.58503
 31
0.0
  0
LINE
  5
3BB
330
1E
100
AcDbEntity
  8
0
100
AcDbLine
 10
78.262
 20
133.31503
 30
0.0
 11
79.7218
 21
133.31503
 31
0.0
  0
LINE
  5
3BC
330
1E
100
AcDbEntity
  8
0
100
AcDbLine
 10
78.262
 20
132.58503
 30
0.0
 11
79.7218
 21
132.58503
 31
0.0
  0
LINE
  5
3BD
330
1E
100
AcDbEntity
  8
0
100
AcDbLine
 10
78.262
 20
132.58503
 30
0.0
 11
78.262
 21
133.31503
 31
0.0
  0
LINE
  5
3BE
330
1E
100
AcDbEntity
  8
0
100
AcDbLine
 10
78.1022
 20
115.27903
 30
0.0
 11
78.1022
 21
114.54903
 31
0.0
  0
LINE
  5
3BF
330
1E
100
AcDbEntity
  8
0
100
AcDbLine
 10
78.1022
 20
115.27903
 30
0.0
 11
78.1022
 21
115.7733278769919
 31
0.0
  0
LINE
  5
3C0
330
1E
100
AcDbEntity
  8
0
100
AcDbLine
 10
78.6131
 20
97.99603000000001
 30
0.0
 11
79.1717264090019
 21
98.24433
 31
0.0
  0
LINE
  5
3C1
330
1E
100
AcDbEntity
  8
0
100
AcDbLine
 10
79.3989
 20
105.511005525799
 30
0.0
 11
79.3989
 21
105.32103
 31
0.0
  0
LINE
  5
3C2
330
1E
100
AcDbEntity
  8
0
100
AcDbLine
 10
79.3989
 20
105.32103
 30
0.0
 11
79.3989
 21
106.05103
 31
0.0
  0
LINE
  5
3C3
330
1E
100
AcDbEntity
  8
0
100
AcDbLine
 10
79.3989
 20
105.32103
 30
0.0
 11
80.85880000000001
 21
105.32103
 31
0.0
  0
LINE
  5
3C4
330
1E
100
AcDbEntity
  8
0
100
AcDbLine
 10
79.3989
 20
105.32103
 30
0.0
 11
79.3989
 21
105.511005525799
 31
0.0
  0
LINE
  5
3C5
330
1E
100
AcDbEntity
  8
0
100
AcDbLine
 10
79.3989
 20
106.05103
 30
0.0
 11
80.85880000000001
 21
106.05103
 31
0.0
  0
LINE
  5
3C6
330
1E
100
AcDbEntity
  8
0
100
AcDbLine
 10
79.3989
 20
106.05103
 30
0.0
 11
79.3989
 21
105.32103
 31
0.0
  0
LINE
  5
3C7
330
1E
100
AcDbEntity
  8
0
100
AcDbLine
 10
79.7218
 20
98.24433
 30
0.0
 11
79.7218
 21
98.97433000000001
 31
0.0
  0
LINE
  5
3C8
330
1E
100
AcDbEntity
  8
0
100
AcDbLine
 10
79.7218
 20
98.97433000000001
 30
0.0
 11
79.7218
 21
98.24433
 31
0.0
  0
LINE
  5
3C9
330
1E
100
AcDbEntity
  8
0
100
AcDbLine
 10
79.3989
 20
126.420257703005
 30
0.0
 11
79.3989
 21
125.37203
 31
0.0
  0
LINE
  5
3CA
330
1E
100
AcDbEntity
  8
0
100
AcDbLine
 10
79.7218
 20
134.8022315830909
 30
0.0
 11
79.7218
 21
133.31503
 31
0.0
  0
LINE
  5
3CB
330
1E
100
AcDbEntity
  8
0
100
AcDbLine
 10
79.7218
 20
133.31503
 30
0.0
 11
79.7218
 21
134.8022315830909
 31
0.0
  0
LINE
  5
3CC
330
1E
100
AcDbEntity
  8
0
100
AcDbLine
 10
79.7218
 20
133.31503
 30
0.0
 11
79.7218
 21
132.58503
 31
0.0
  0
LINE
  5
3CD
330
1E
100
AcDbEntity
  8
0
100
AcDbLine
 10
79.7218
 20
132.58503
 30
0.0
 11
79.7218
 21
133.31503
 31
0.0
  0
LINE
  5
3CE
330
1E
100
AcDbEntity
  8
0
100
AcDbLine
 10
79.3989
 20
125.37203
 30
0.0
 11
79.3989
 21
124.64203
 31
0.0
  0
LINE
  5
3CF
330
1E
100
AcDbEntity
  8
0
100
AcDbLine
 10
79.3989
 20
125.37203
 30
0.0
 11
80.85880000000001
 21
125.37203
 31
0.0
  0
LINE
  5
3D0
330
1E
100
AcDbEntity
  8
0
100
AcDbLine
 10
79.3989
 20
125.37203
 30
0.0
 11
79.3989
 21
126.420257703005
 31
0.0
  0
LINE
  5
3D1
330
1E
100
AcDbEntity
  8
0
100
AcDbLine
 10
79.3989
 20
124.64203
 30
0.0
 11
80.85880000000001
 21
124.64203
 31
0.0
  0
LINE
  5
3D2
330
1E
100
AcDbEntity
  8
0
100
AcDbLine
 10
79.3989
 20
124.64203
 30
0.0
 11
79.3989
 21
125.37203
 31
0.0
  0
LINE
  5
3D3
330
1E
100
AcDbEntity
  8
0
100
AcDbLine
 10
79.7218
 20
98.48882841690951
 30
0.0
 11
83.2117
 21
100.04003
 31
0.0
  0
LINE
  5
3D4
330
1E
100
AcDbEntity
  8
0
100
AcDbLine
 10
79.92699999999999
 20
97.12013
 30
0.0
 11
84.81749999999999
 21
99.23693
 31
0.0
  0
LINE
  5
3D5
330
1E
100
AcDbEntity
  8
0
100
AcDbLine
 10
78.6131
 20
135.29503
 30
0.0
 11
83.2117
 21
133.25103
 31
0.0
  0
LINE
  5
3D6
330
1E
100
AcDbEntity
  8
0
100
AcDbLine
 10
79.92699999999999
 20
136.17103
 30
0.0
 11
84.81749999999999
 21
134.05403
 31
0.0
  0
LINE
  5
3D7
330
1E
100
AcDbEntity
  8
0
100
AcDbLine
 10
80.365
 20
137.32903
 30
0.0
 11
85.32850000000001
 21
135.17603
 31
0.0
  0
LINE
  5
3D8
330
1E
100
AcDbEntity
  8
0
100
AcDbLine
 10
74.8905
 20
139.15403
 30
0.0
 11
80.365
 21
137.32903
 31
0.0
  0
LINE
  5
3D9
330
1E
100
AcDbEntity
  8
0
100
AcDbLine
 10
84.6701
 20
101.61303
 30
0.0
 11
84.6701
 21
102.34303
 31
0.0
  0
LINE
  5
3DA
330
1E
100
AcDbEntity
  8
0
100
AcDbLine
 10
84.6701
 20
101.61303
 30
0.0
 11
86.12990000000001
 21
101.61303
 31
0.0
  0
LINE
  5
3DB
330
1E
100
AcDbEntity
  8
0
100
AcDbLine
 10
84.6701
 20
101.61303
 30
0.0
 11
84.6701
 21
102.6660543571809
 31
0.0
  0
LINE
  5
3DC
330
1E
100
AcDbEntity
  8
0
100
AcDbLine
 10
83.2117
 20
100.04003
 30
0.0
 11
86.00847894736842
 21
101.61303
 31
0.0
  0
LINE
  5
3DD
330
1E
100
AcDbEntity
  8
0
100
AcDbLine
 10
86.12990000000001
 20
101.61303
 30
0.0
 11
86.12990000000001
 21
102.34303
 31
0.0
  0
LINE
  5
3DE
330
1E
100
AcDbEntity
  8
0
100
AcDbLine
 10
86.12990000000001
 20
101.6813211733049
 30
0.0
 11
87.29930000000001
 21
102.33903
 31
0.0
  0
LINE
  5
3DF
330
1E
100
AcDbEntity
  8
0
100
AcDbLine
 10
84.81749999999999
 20
99.23693
 30
0.0
 11
89.0511
 21
101.68203
 31
0.0
  0
LINE
  5
3E0
330
1E
100
AcDbEntity
  8
0
100
AcDbLine
 10
84.6701
 20
102.6660543571809
 30
0.0
 11
84.6701
 21
101.61303
 31
0.0
  0
LINE
  5
3E1
330
1E
100
AcDbEntity
  8
0
100
AcDbLine
 10
84.6701
 20
102.34303
 30
0.0
 11
86.12990000000001
 21
102.34303
 31
0.0
  0
LINE
  5
3E2
330
1E
100
AcDbEntity
  8
0
100
AcDbLine
 10
84.6701
 20
102.34303
 30
0.0
 11
84.6701
 21
103.133617611936
 31
0.0
  0
LINE
  5
3E3
330
1E
100
AcDbEntity
  8
0
100
AcDbLine
 10
84.6701
 20
102.34303
 30
0.0
 11
84.6701
 21
101.61303
 31
0.0
  0
LINE
  5
3E4
330
1E
100
AcDbEntity
  8
0
100
AcDbLine
 10
80.85880000000001
 20
105.32103
 30
0.0
 11
80.85880000000001
 21
106.05103
 31
0.0
  0
LINE
  5
3E5
330
1E
100
AcDbEntity
  8
0
100
AcDbLine
 10
80.85880000000001
 20
107.0478513271559
 30
0.0
 11
80.85880000000001
 21
106.05103
 31
0.0
  0
LINE
  5
3E6
330
1E
100
AcDbEntity
  8
0
100
AcDbLine
 10
80.85880000000001
 20
106.05103
 30
0.0
 11
80.85880000000001
 21
105.32103
 31
0.0
  0
LINE
  5
3E7
330
1E
100
AcDbEntity
  8
0
100
AcDbLine
 10
80.85880000000001
 20
106.05103
 30
0.0
 11
80.85880000000001
 21
107.0478513271559
 31
0.0
  0
LINE
  5
3E8
330
1E
100
AcDbEntity
  8
0
100
AcDbLine
 10
84.6701
 20
103.133617611936
 30
0.0
 11
84.6701
 21
102.34303
 31
0.0
  0
LINE
  5
3E9
330
1E
100
AcDbEntity
  8
0
100
AcDbLine
 10
86.12990000000001
 20
102.692441970713
 30
0.0
 11
86.12990000000001
 21
102.34303
 31
0.0
  0
LINE
  5
3EA
330
1E
100
AcDbEntity
  8
0
100
AcDbLine
 10
89.45590000000001
 20
105.67303
 30
0.0
 11
89.45590000000001
 21
106.4030299999999
 31
0.0
  0
LINE
  5
3EB
330
1E
100
AcDbEntity
  8
0
100
AcDbLine
 10
89.45590000000001
 20
105.67303
 30
0.0
 11
90.9157
 21
105.67303
 31
0.0
  0
LINE
  5
3EC
330
1E
100
AcDbEntity
  8
0
100
AcDbLine
 10
89.45590000000001
 20
106.4030299999999
 30
0.0
 11
90.9157
 21
106.4030299999999
 31
0.0
  0
LINE
  5
3ED
330
1E
100
AcDbEntity
  8
0
100
AcDbLine
 10
89.45590000000001
 20
106.4030299999999
 30
0.0
 11
89.45590000000001
 21
107.6211611922349
 31
0.0
  0
LINE
  5
3EE
330
1E
100
AcDbEntity
  8
0
100
AcDbLine
 10
89.45590000000001
 20
106.4030299999999
 30
0.0
 11
89.45590000000001
 21
105.67303
 31
0.0
  0
LINE
  5
3EF
330
1E
100
AcDbEntity
  8
0
100
AcDbLine
 10
86.12990000000001
 20
102.34303
 30
0.0
 11
86.12990000000001
 21
101.61303
 31
0.0
  0
LINE
  5
3F0
330
1E
100
AcDbEntity
  8
0
100
AcDbLine
 10
86.12990000000001
 20
102.34303
 30
0.0
 11
86.12990000000001
 21
102.692441970713
 31
0.0
  0
LINE
  5
3F1
330
1E
100
AcDbEntity
  8
0
100
AcDbLine
 10
87.29930000000001
 20
102.33903
 30
0.0
 11
90.80289999999999
 21
104.93003
 31
0.0
  0
LINE
  5
3F2
330
1E
100
AcDbEntity
  8
0
100
AcDbLine
 10
90.9157
 20
105.67303
 30
0.0
 11
90.9157
 21
106.4030299999999
 31
0.0
  0
LINE
  5
3F3
330
1E
100
AcDbEntity
  8
0
100
AcDbLine
 10
90.9157
 20
106.4030299999999
 30
0.0
 11
90.9157
 21
105.67303
 31
0.0
  0
LINE
  5
3F4
330
1E
100
AcDbEntity
  8
0
100
AcDbLine
 10
90.9157
 20
106.4030299999999
 30
0.0
 11
90.9157
 21
107.638374406881
 31
0.0
  0
LINE
  5
3F5
330
1E
100
AcDbEntity
  8
0
100
AcDbLine
 10
90.80289999999999
 20
104.93003
 30
0.0
 11
93.4307
 21
107.66803
 31
0.0
  0
LINE
  5
3F6
330
1E
100
AcDbEntity
  8
0
100
AcDbLine
 10
89.0511
 20
101.68203
 30
0.0
 11
92.7007
 21
104.3830299999999
 31
0.0
  0
LINE
  5
3F7
330
1E
100
AcDbEntity
  8
0
100
AcDbLine
 10
92.7007
 20
104.3830299999999
 30
0.0
 11
95.4015
 21
107.2300299999999
 31
0.0
  0
LINE
  5
3F8
330
1E
100
AcDbEntity
  8
0
100
AcDbLine
 10
89.45590000000001
 20
107.6211611922349
 30
0.0
 11
89.45590000000001
 21
106.4030299999999
 31
0.0
  0
LINE
  5
3F9
330
1E
100
AcDbEntity
  8
0
100
AcDbLine
 10
90.9157
 20
107.638374406881
 30
0.0
 11
90.9157
 21
106.4030299999999
 31
0.0
  0
LINE
  5
3FA
330
1E
100
AcDbEntity
  8
0
100
AcDbLine
 10
83.86029999999999
 20
110.15103
 30
0.0
 11
83.86029999999999
 21
110.88103
 31
0.0
  0
LINE
  5
3FB
330
1E
100
AcDbEntity
  8
0
100
AcDbLine
 10
83.86029999999999
 20
110.15103
 30
0.0
 11
85.32009999999999
 21
110.15103
 31
0.0
  0
LINE
  5
3FC
330
1E
100
AcDbEntity
  8
0
100
AcDbLine
 10
85.32009999999999
 20
110.15103
 30
0.0
 11
85.32009999999999
 21
110.88103
 31
0.0
  0
LINE
  5
3FD
330
1E
100
AcDbEntity
  8
0
100
AcDbLine
 10
83.86029999999999
 20
110.88103
 30
0.0
 11
85.32009999999999
 21
110.88103
 31
0.0
  0
LINE
  5
3FE
330
1E
100
AcDbEntity
  8
0
100
AcDbLine
 10
83.86029999999999
 20
110.88103
 30
0.0
 11
83.86029999999999
 21
111.434148149083
 31
0.0
  0
LINE
  5
3FF
330
1E
100
AcDbEntity
  8
0
100
AcDbLine
 10
83.86029999999999
 20
110.88103
 30
0.0
 11
83.86029999999999
 21
110.15103
 31
0.0
  0
LINE
  5
400
330
1E
100
AcDbEntity
  8
0
100
AcDbLine
 10
83.86029999999999
 20
111.434148149083
 30
0.0
 11
83.86029999999999
 21
110.88103
 31
0.0
  0
LINE
  5
401
330
1E
100
AcDbEntity
  8
0
100
AcDbLine
 10
85.32009999999999
 20
111.3731669622019
 30
0.0
 11
85.32009999999999
 21
110.88103
 31
0.0
  0
LINE
  5
402
330
1E
100
AcDbEntity
  8
0
100
AcDbLine
 10
85.32009999999999
 20
110.88103
 30
0.0
 11
85.32009999999999
 21
110.15103
 31
0.0
  0
LINE
  5
403
330
1E
100
AcDbEntity
  8
0
100
AcDbLine
 10
85.32009999999999
 20
110.88103
 30
0.0
 11
85.32009999999999
 21
111.3731669622019
 31
0.0
  0
LINE
  5
404
330
1E
100
AcDbEntity
  8
0
100
AcDbLine
 10
85.4015
 20
114.98203
 30
0.0
 11
85.4015
 21
115.71203
 31
0.0
  0
LINE
  5
405
330
1E
100
AcDbEntity
  8
0
100
AcDbLine
 10
85.4015
 20
114.98203
 30
0.0
 11
86.8613
 21
114.98203
 31
0.0
  0
LINE
  5
406
330
1E
100
AcDbEntity
  8
0
100
AcDbLine
 10
85.4015
 20
114.98203
 30
0.0
 11
85.4015
 21
115.916768156699
 31
0.0
  0
LINE
  5
407
330
1E
100
AcDbEntity
  8
0
100
AcDbLine
 10
85.4015
 20
115.916768156699
 30
0.0
 11
85.4015
 21
115.71203
 31
0.0
  0
LINE
  5
408
330
1E
100
AcDbEntity
  8
0
100
AcDbLine
 10
85.4015
 20
115.916768156699
 30
0.0
 11
85.4015
 21
114.98203
 31
0.0
  0
LINE
  5
409
330
1E
100
AcDbEntity
  8
0
100
AcDbLine
 10
86.8613
 20
114.98203
 30
0.0
 11
86.8613
 21
115.71203
 31
0.0
  0
LINE
  5
40A
330
1E
100
AcDbEntity
  8
0
100
AcDbLine
 10
85.4015
 20
115.71203
 30
0.0
 11
86.8613
 21
115.71203
 31
0.0
  0
LINE
  5
40B
330
1E
100
AcDbEntity
  8
0
100
AcDbLine
 10
85.4015
 20
115.71203
 30
0.0
 11
85.4015
 21
115.916768156699
 31
0.0
  0
LINE
  5
40C
330
1E
100
AcDbEntity
  8
0
100
AcDbLine
 10
85.4015
 20
115.71203
 30
0.0
 11
85.4015
 21
114.98203
 31
0.0
  0
LINE
  5
40D
330
1E
100
AcDbEntity
  8
0
100
AcDbLine
 10
86.8613
 20
116.0079227649509
 30
0.0
 11
86.8613
 21
115.71203
 31
0.0
  0
LINE
  5
40E
330
1E
100
AcDbEntity
  8
0
100
AcDbLine
 10
92.78159999999999
 20
111.0614728082679
 30
0.0
 11
92.78159999999999
 21
110.50303
 31
0.0
  0
LINE
  5
40F
330
1E
100
AcDbEntity
  8
0
100
AcDbLine
 10
92.78159999999999
 20
110.50303
 30
0.0
 11
92.78159999999999
 21
111.2330299999999
 31
0.0
  0
LINE
  5
410
330
1E
100
AcDbEntity
  8
0
100
AcDbLine
 10
92.78159999999999
 20
110.50303
 30
0.0
 11
94.2415
 21
110.50303
 31
0.0
  0
LINE
  5
411
330
1E
100
AcDbEntity
  8
0
100
AcDbLine
 10
92.78159999999999
 20
110.50303
 30
0.0
 11
92.78159999999999
 21
111.0614728082679
 31
0.0
  0
LINE
  5
412
330
1E
100
AcDbEntity
  8
0
100
AcDbLine
 10
92.78159999999999
 20
111.2330299999999
 30
0.0
 11
94.2415
 21
111.2330299999999
 31
0.0
  0
LINE
  5
413
330
1E
100
AcDbEntity
  8
0
100
AcDbLine
 10
92.78159999999999
 20
111.2330299999999
 30
0.0
 11
92.78159999999999
 21
110.50303
 31
0.0
  0
LINE
  5
414
330
1E
100
AcDbEntity
  8
0
100
AcDbLine
 10
86.8613
 20
115.71203
 30
0.0
 11
86.8613
 21
114.98203
 31
0.0
  0
LINE
  5
415
330
1E
100
AcDbEntity
  8
0
100
AcDbLine
 10
86.8613
 20
115.71203
 30
0.0
 11
86.8613
 21
116.0079227649509
 31
0.0
  0
LINE
  5
416
330
1E
100
AcDbEntity
  8
0
100
AcDbLine
 10
94.16059999999999
 20
116.026545540692
 30
0.0
 11
94.16059999999999
 21
115.4150299999999
 31
0.0
  0
LINE
  5
417
330
1E
100
AcDbEntity
  8
0
100
AcDbLine
 10
94.16059999999999
 20
115.4150299999999
 30
0.0
 11
94.16059999999999
 21
116.14503
 31
0.0
  0
LINE
  5
418
330
1E
100
AcDbEntity
  8
0
100
AcDbLine
 10
94.16059999999999
 20
115.4150299999999
 30
0.0
 11
95.62040000000001
 21
115.4150299999999
 31
0.0
  0
LINE
  5
419
330
1E
100
AcDbEntity
  8
0
100
AcDbLine
 10
94.16059999999999
 20
115.4150299999999
 30
0.0
 11
94.16059999999999
 21
116.026545540692
 31
0.0
  0
LINE
  5
41A
330
1E
100
AcDbEntity
  8
0
100
AcDbLine
 10
83.86029999999999
 20
120.54203
 30
0.0
 11
83.86029999999999
 21
119.81203
 31
0.0
  0
LINE
  5
41B
330
1E
100
AcDbEntity
  8
0
100
AcDbLine
 10
83.86029999999999
 20
120.54203
 30
0.0
 11
85.32009999999999
 21
120.54203
 31
0.0
  0
LINE
  5
41C
330
1E
100
AcDbEntity
  8
0
100
AcDbLine
 10
83.86029999999999
 20
120.361308775538
 30
0.0
 11
83.86029999999999
 21
119.81203
 31
0.0
  0
LINE
  5
41D
330
1E
100
AcDbEntity
  8
0
100
AcDbLine
 10
83.86029999999999
 20
119.81203
 30
0.0
 11
85.32009999999999
 21
119.81203
 31
0.0
  0
LINE
  5
41E
330
1E
100
AcDbEntity
  8
0
100
AcDbLine
 10
83.86029999999999
 20
119.81203
 30
0.0
 11
83.86029999999999
 21
120.361308775538
 31
0.0
  0
LINE
  5
41F
330
1E
100
AcDbEntity
  8
0
100
AcDbLine
 10
83.86029999999999
 20
119.81203
 30
0.0
 11
83.86029999999999
 21
120.54203
 31
0.0
  0
LINE
  5
420
330
1E
100
AcDbEntity
  8
0
100
AcDbLine
 10
85.32009999999999
 20
120.611462784087
 30
0.0
 11
85.32009999999999
 21
120.54203
 31
0.0
  0
LINE
  5
421
330
1E
100
AcDbEntity
  8
0
100
AcDbLine
 10
85.32009999999999
 20
120.54203
 30
0.0
 11
85.32009999999999
 21
120.611462784087
 31
0.0
  0
LINE
  5
422
330
1E
100
AcDbEntity
  8
0
100
AcDbLine
 10
85.32009999999999
 20
120.54203
 30
0.0
 11
85.32009999999999
 21
119.81203
 31
0.0
  0
LINE
  5
423
330
1E
100
AcDbEntity
  8
0
100
AcDbLine
 10
85.32009999999999
 20
119.81203
 30
0.0
 11
85.32009999999999
 21
120.54203
 31
0.0
  0
LINE
  5
424
330
1E
100
AcDbEntity
  8
0
100
AcDbLine
 10
92.78159999999999
 20
121.890079125224
 30
0.0
 11
92.78159999999999
 21
121.05603
 31
0.0
  0
LINE
  5
425
330
1E
100
AcDbEntity
  8
0
100
AcDbLine
 10
92.78159999999999
 20
121.05603
 30
0.0
 11
92.78159999999999
 21
120.3260299999999
 31
0.0
  0
LINE
  5
426
330
1E
100
AcDbEntity
  8
0
100
AcDbLine
 10
92.78159999999999
 20
121.05603
 30
0.0
 11
94.2415
 21
121.05603
 31
0.0
  0
LINE
  5
427
330
1E
100
AcDbEntity
  8
0
100
AcDbLine
 10
92.78159999999999
 20
121.05603
 30
0.0
 11
92.78159999999999
 21
121.890079125224
 31
0.0
  0
LINE
  5
428
330
1E
100
AcDbEntity
  8
0
100
AcDbLine
 10
92.78159999999999
 20
120.3260299999999
 30
0.0
 11
94.2415
 21
120.3260299999999
 31
0.0
  0
LINE
  5
429
330
1E
100
AcDbEntity
  8
0
100
AcDbLine
 10
92.78159999999999
 20
120.3260299999999
 30
0.0
 11
92.78159999999999
 21
121.05603
 31
0.0
  0
LINE
  5
42A
330
1E
100
AcDbEntity
  8
0
100
AcDbLine
 10
94.16059999999999
 20
116.910028840771
 30
0.0
 11
94.16059999999999
 21
116.14503
 31
0.0
  0
LINE
  5
42B
330
1E
100
AcDbEntity
  8
0
100
AcDbLine
 10
94.2415
 20
110.50303
 30
0.0
 11
94.2415
 21
111.2330299999999
 31
0.0
  0
LINE
  5
42C
330
1E
100
AcDbEntity
  8
0
100
AcDbLine
 10
94.2415
 20
111.2330299999999
 30
0.0
 11
94.2415
 21
110.50303
 31
0.0
  0
LINE
  5
42D
330
1E
100
AcDbEntity
  8
0
100
AcDbLine
 10
94.2415
 20
122.140250269957
 30
0.0
 11
94.2415
 21
121.05603
 31
0.0
  0
LINE
  5
42E
330
1E
100
AcDbEntity
  8
0
100
AcDbLine
 10
94.2415
 20
121.05603
 30
0.0
 11
94.2415
 21
122.140250269957
 31
0.0
  0
LINE
  5
42F
330
1E
100
AcDbEntity
  8
0
100
AcDbLine
 10
94.2415
 20
121.05603
 30
0.0
 11
94.2415
 21
120.3260299999999
 31
0.0
  0
LINE
  5
430
330
1E
100
AcDbEntity
  8
0
100
AcDbLine
 10
94.2415
 20
120.3260299999999
 30
0.0
 11
94.2415
 21
121.05603
 31
0.0
  0
LINE
  5
431
330
1E
100
AcDbEntity
  8
0
100
AcDbLine
 10
94.16059999999999
 20
116.14503
 30
0.0
 11
95.62040000000001
 21
116.14503
 31
0.0
  0
LINE
  5
432
330
1E
100
AcDbEntity
  8
0
100
AcDbLine
 10
94.16059999999999
 20
116.14503
 30
0.0
 11
94.16059999999999
 21
116.910028840771
 31
0.0
  0
LINE
  5
433
330
1E
100
AcDbEntity
  8
0
100
AcDbLine
 10
94.16059999999999
 20
116.14503
 30
0.0
 11
94.16059999999999
 21
115.4150299999999
 31
0.0
  0
LINE
  5
434
330
1E
100
AcDbEntity
  8
0
100
AcDbLine
 10
93.4307
 20
107.66803
 30
0.0
 11
95.4015
 21
110.95203
 31
0.0
  0
LINE
  5
435
330
1E
100
AcDbEntity
  8
0
100
AcDbLine
 10
95.62040000000001
 20
115.4150299999999
 30
0.0
 11
95.62040000000001
 21
116.14503
 31
0.0
  0
LINE
  5
436
330
1E
100
AcDbEntity
  8
0
100
AcDbLine
 10
95.62040000000001
 20
116.778033941378
 30
0.0
 11
95.62040000000001
 21
116.14503
 31
0.0
  0
LINE
  5
437
330
1E
100
AcDbEntity
  8
0
100
AcDbLine
 10
95.62040000000001
 20
116.14503
 30
0.0
 11
95.62040000000001
 21
115.4150299999999
 31
0.0
  0
LINE
  5
438
330
1E
100
AcDbEntity
  8
0
100
AcDbLine
 10
95.62040000000001
 20
116.14503
 30
0.0
 11
95.62040000000001
 21
116.778033941378
 31
0.0
  0
LINE
  5
439
330
1E
100
AcDbEntity
  8
0
100
AcDbLine
 10
95.4015
 20
110.95203
 30
0.0
 11
96.64230000000001
 21
113.54303
 31
0.0
  0
LINE
  5
43A
330
1E
100
AcDbEntity
  8
0
100
AcDbLine
 10
95.4015
 20
107.2300299999999
 30
0.0
 11
97.5182
 21
110.44103
 31
0.0
  0
LINE
  5
43B
330
1E
100
AcDbEntity
  8
0
100
AcDbLine
 10
95.4015
 20
107.2300299999999
 30
0.0
 11
96.13140000000001
 21
107.95003
 31
0.0
  0
LINE
  5
43C
330
1E
100
AcDbEntity
  8
0
100
AcDbLine
 10
96.64230000000001
 20
113.54303
 30
0.0
 11
97.0803
 21
116.64603
 31
0.0
  0
LINE
  5
43D
330
1E
100
AcDbEntity
  8
0
100
AcDbLine
 10
96.13140000000001
 20
107.95003
 30
0.0
 11
98.17520000000001
 21
111.05203
 31
0.0
  0
LINE
  5
43E
330
1E
100
AcDbEntity
  8
0
100
AcDbLine
 10
95.4015
 20
122.33903
 30
0.0
 11
96.64230000000001
 21
119.74803
 31
0.0
  0
LINE
  5
43F
330
1E
100
AcDbEntity
  8
0
100
AcDbLine
 10
97.5182
 20
110.44103
 30
0.0
 11
98.75910000000001
 21
113.47003
 31
0.0
  0
LINE
  5
440
330
1E
100
AcDbEntity
  8
0
100
AcDbLine
 10
98.75910000000001
 20
113.47003
 30
0.0
 11
99.2701
 21
116.64603
 31
0.0
  0
LINE
  5
441
330
1E
100
AcDbEntity
  8
0
100
AcDbLine
 10
98.17520000000001
 20
111.05203
 30
0.0
 11
99.48909999999999
 21
114.30003
 31
0.0
  0
LINE
  5
442
330
1E
100
AcDbEntity
  8
0
100
AcDbLine
 10
96.64230000000001
 20
119.74803
 30
0.0
 11
97.0803
 21
116.64603
 31
0.0
  0
LINE
  5
443
330
1E
100
AcDbEntity
  8
0
100
AcDbLine
 10
97.5182
 20
122.85003
 30
0.0
 11
98.75910000000001
 21
119.82103
 31
0.0
  0
LINE
  5
444
330
1E
100
AcDbEntity
  8
0
100
AcDbLine
 10
99.48909999999999
 20
114.30003
 30
0.0
 11
100.0
 21
117.51203
 31
0.0
  0
LINE
  5
445
330
1E
100
AcDbEntity
  8
0
100
AcDbLine
 10
98.75910000000001
 20
119.82103
 30
0.0
 11
99.2701
 21
116.64603
 31
0.0
  0
LINE
  5
446
330
1E
100
AcDbEntity
  8
0
100
AcDbLine
 10
80.85880000000001
 20
124.64203
 30
0.0
 11
80.85880000000001
 21
125.37203
 31
0.0
  0
LINE
  5
447
330
1E
100
AcDbEntity
  8
0
100
AcDbLine
 10
80.85880000000001
 20
125.37203
 30
0.0
 11
80.85880000000001
 21
126.6687085515129
 31
0.0
  0
LINE
  5
448
330
1E
100
AcDbEntity
  8
0
100
AcDbLine
 10
80.85880000000001
 20
125.37203
 30
0.0
 11
80.85880000000001
 21
124.64203
 31
0.0
  0
LINE
  5
449
330
1E
100
AcDbEntity
  8
0
100
AcDbLine
 10
80.85880000000001
 20
126.6687085515129
 30
0.0
 11
80.85880000000001
 21
125.37203
 31
0.0
  0
LINE
  5
44A
330
1E
100
AcDbEntity
  8
0
100
AcDbLine
 10
89.45590000000001
 20
125.88703
 30
0.0
 11
89.45590000000001
 21
125.15703
 31
0.0
  0
LINE
  5
44B
330
1E
100
AcDbEntity
  8
0
100
AcDbLine
 10
89.45590000000001
 20
125.88703
 30
0.0
 11
90.9157
 21
125.88703
 31
0.0
  0
LINE
  5
44C
330
1E
100
AcDbEntity
  8
0
100
AcDbLine
 10
90.9157
 20
125.88703
 30
0.0
 11
90.9157
 21
125.15703
 31
0.0
  0
LINE
  5
44D
330
1E
100
AcDbEntity
  8
0
100
AcDbLine
 10
89.45590000000001
 20
125.15703
 30
0.0
 11
90.9157
 21
125.15703
 31
0.0
  0
LINE
  5
44E
330
1E
100
AcDbEntity
  8
0
100
AcDbLine
 10
89.45590000000001
 20
125.15703
 30
0.0
 11
89.45590000000001
 21
125.88703
 31
0.0
  0
LINE
  5
44F
330
1E
100
AcDbEntity
  8
0
100
AcDbLine
 10
90.9157
 20
125.15703
 30
0.0
 11
90.9157
 21
125.88703
 31
0.0
  0
LINE
  5
450
330
1E
100
AcDbEntity
  8
0
100
AcDbLine
 10
90.80289999999999
 20
128.36103
 30
0.0
 11
93.4307
 21
125.6240299999999
 31
0.0
  0
LINE
  5
451
330
1E
100
AcDbEntity
  8
0
100
AcDbLine
 10
93.4307
 20
125.6240299999999
 30
0.0
 11
95.4015
 21
122.33903
 31
0.0
  0
LINE
  5
452
330
1E
100
AcDbEntity
  8
0
100
AcDbLine
 10
84.6701
 20
129.94603
 30
0.0
 11
84.6701
 21
129.21603
 31
0.0
  0
LINE
  5
453
330
1E
100
AcDbEntity
  8
0
100
AcDbLine
 10
84.6701
 20
129.94603
 30
0.0
 11
86.12990000000001
 21
129.94603
 31
0.0
  0
LINE
  5
454
330
1E
100
AcDbEntity
  8
0
100
AcDbLine
 10
84.6701
 20
129.94603
 30
0.0
 11
84.6701
 21
130.296654230276
 31
0.0
  0
LINE
  5
455
330
1E
100
AcDbEntity
  8
0
100
AcDbLine
 10
84.6701
 20
129.744285455049
 30
0.0
 11
84.6701
 21
129.21603
 31
0.0
  0
LINE
  5
456
330
1E
100
AcDbEntity
  8
0
100
AcDbLine
 10
84.6701
 20
129.21603
 30
0.0
 11
86.12990000000001
 21
129.21603
 31
0.0
  0
LINE
  5
457
330
1E
100
AcDbEntity
  8
0
100
AcDbLine
 10
84.6701
 20
129.21603
 30
0.0
 11
84.6701
 21
129.744285455049
 31
0.0
  0
LINE
  5
458
330
1E
100
AcDbEntity
  8
0
100
AcDbLine
 10
84.6701
 20
129.21603
 30
0.0
 11
84.6701
 21
129.94603
 31
0.0
  0
LINE
  5
459
330
1E
100
AcDbEntity
  8
0
100
AcDbLine
 10
86.12990000000001
 20
129.94603
 30
0.0
 11
86.12990000000001
 21
130.660535847742
 31
0.0
  0
LINE
  5
45A
330
1E
100
AcDbEntity
  8
0
100
AcDbLine
 10
86.12990000000001
 20
129.94603
 30
0.0
 11
86.12990000000001
 21
129.21603
 31
0.0
  0
LINE
  5
45B
330
1E
100
AcDbEntity
  8
0
100
AcDbLine
 10
86.12990000000001
 20
129.21603
 30
0.0
 11
86.12990000000001
 21
129.94603
 31
0.0
  0
LINE
  5
45C
330
1E
100
AcDbEntity
  8
0
100
AcDbLine
 10
92.7007
 20
128.9080299999999
 30
0.0
 11
95.4015
 21
126.06203
 31
0.0
  0
LINE
  5
45D
330
1E
100
AcDbEntity
  8
0
100
AcDbLine
 10
95.4015
 20
126.06203
 30
0.0
 11
97.5182
 21
122.85003
 31
0.0
  0
LINE
  5
45E
330
1E
100
AcDbEntity
  8
0
100
AcDbLine
 10
86.12990000000001
 20
130.660535847742
 30
0.0
 11
86.12990000000001
 21
129.94603
 31
0.0
  0
LINE
  5
45F
330
1E
100
AcDbEntity
  8
0
100
AcDbLine
 10
84.6701
 20
130.296654230276
 30
0.0
 11
84.6701
 21
129.94603
 31
0.0
  0
LINE
  5
460
330
1E
100
AcDbEntity
  8
0
100
AcDbLine
 10
83.2117
 20
133.25103
 30
0.0
 11
87.29930000000001
 21
130.95203
 31
0.0
  0
LINE
  5
461
330
1E
100
AcDbEntity
  8
0
100
AcDbLine
 10
87.29930000000001
 20
130.95203
 30
0.0
 11
90.80289999999999
 21
128.36103
 31
0.0
  0
LINE
  5
462
330
1E
100
AcDbEntity
  8
0
100
AcDbLine
 10
84.81749999999999
 20
134.05403
 30
0.0
 11
89.0511
 21
131.60903
 31
0.0
  0
LINE
  5
463
330
1E
100
AcDbEntity
  8
0
100
AcDbLine
 10
89.0511
 20
131.60903
 30
0.0
 11
92.7007
 21
128.9080299999999
 31
0.0
  0
LINE
  5
464
330
1E
100
AcDbEntity
  8
0
100
AcDbLine
 10
85.32850000000001
 20
135.17603
 30
0.0
 11
89.63500000000001
 21
132.6940299999999
 31
0.0
  0
LINE
  5
465
330
1E
100
AcDbEntity
  8
0
100
AcDbLine
 10
89.63500000000001
 20
132.6940299999999
 30
0.0
 11
93.28470000000001
 21
129.95703
 31
0.0
  0
LINE
  5
466
330
1E
100
AcDbEntity
  8
0
100
AcDbLine
 10
93.28470000000001
 20
129.95703
 30
0.0
 11
96.13140000000001
 21
127.07403
 31
0.0
  0
LINE
  5
467
330
1E
100
AcDbEntity
  8
0
100
AcDbLine
 10
96.13140000000001
 20
127.07403
 30
0.0
 11
98.17520000000001
 21
123.97103
 31
0.0
  0
LINE
  5
468
330
1E
100
AcDbEntity
  8
0
100
AcDbLine
 10
98.17520000000001
 20
123.97103
 30
0.0
 11
99.48909999999999
 21
120.72303
 31
0.0
  0
LINE
  5
469
330
1E
100
AcDbEntity
  8
0
100
AcDbLine
 10
99.48909999999999
 20
120.72303
 30
0.0
 11
100.0
 21
117.51203
 31
0.0
  0
LINE
  5
46A
330
1E
100
AcDbEntity
  8
0
100
AcDbLine
 10
89.63500000000001
 20
150.88103
 30
0.0
 11
93.28470000000001
 21
148.14303
 31
0.0
  0
LINE
  5
46B
330
1E
100
AcDbEntity
  8
0
100
AcDbLine
 10
93.28470000000001
 20
148.14303
 30
0.0
 11
96.13140000000001
 21
145.26003
 31
0.0
  0
LINE
  5
46C
330
1E
100
AcDbEntity
  8
0
100
AcDbLine
 10
96.13140000000001
 20
145.26003
 30
0.0
 11
98.17520000000001
 21
142.15803
 31
0.0
  0
LINE
  5
46D
330
1E
100
AcDbEntity
  8
0
100
AcDbLine
 10
98.17520000000001
 20
142.15803
 30
0.0
 11
99.48909999999999
 21
138.91003
 31
0.0
  0
LINE
  5
46E
330
1E
100
AcDbEntity
  8
0
100
AcDbLine
 10
100.0
 20
135.69803
 30
0.0
 11
100.0
 21
117.51203
 31
0.0
  0
LINE
  5
46F
330
1E
100
AcDbEntity
  8
0
100
AcDbLine
 10
100.0
 20
117.51203
 30
0.0
 11
100.0
 21
135.69803
 31
0.0
  0
LINE
  5
470
330
1E
100
AcDbEntity
  8
0
100
AcDbLine
 10
99.48909999999999
 20
138.91003
 30
0.0
 11
100.0
 21
135.69803
 31
0.0
  0
LINE
  5
471
330
1E
100
AcDbEntity
  8
0
100
AcDbLine
 10
85.32850000000001
 20
153.36203
 30
0.0
 11
89.63500000000001
 21
150.88103
 31
0.0
  0
LINE
  5
472
330
1E
100
AcDbEntity
  8
0
100
AcDbLine
 10
84.81749999999999
 20
153.9730299999999
 30
0.0
 11
89.0511
 21
151.52803
 31
0.0
  0
LINE
  5
473
330
1E
100
AcDbEntity
  8
0
100
AcDbLine
 10
89.0511
 20
151.52803
 30
0.0
 11
92.7007
 21
148.82703
 31
0.0
  0
LINE
  5
474
330
1E
100
AcDbEntity
  8
0
100
AcDbLine
 10
80.365
 20
155.51603
 30
0.0
 11
85.32850000000001
 21
153.36203
 31
0.0
  0
LINE
  5
475
330
1E
100
AcDbEntity
  8
0
100
AcDbLine
 10
74.8905
 20
157.34103
 30
0.0
 11
80.365
 21
155.51603
 31
0.0
  0
LINE
  5
476
330
1E
100
AcDbEntity
  8
0
100
AcDbLine
 10
79.92699999999999
 20
156.09003
 30
0.0
 11
84.81749999999999
 21
153.9730299999999
 31
0.0
  0
LINE
  5
477
330
1E
100
AcDbEntity
  8
0
100
AcDbLine
 10
74.52549999999999
 20
157.91503
 30
0.0
 11
79.92699999999999
 21
156.09003
 31
0.0
  0
LINE
  5
478
330
1E
100
AcDbEntity
  8
0
100
AcDbLine
 10
62.9197
 20
159.78603
 30
0.0
 11
69.1241
 21
158.7640299999999
 31
0.0
  0
LINE
  5
479
330
1E
100
AcDbEntity
  8
0
100
AcDbLine
 10
68.8321
 20
159.26503
 30
0.0
 11
74.52549999999999
 21
157.91503
 31
0.0
  0
LINE
  5
47A
330
1E
100
AcDbEntity
  8
0
100
AcDbLine
 10
62.4088
 20
160.32303
 30
0.0
 11
68.8321
 21
159.26503
 31
0.0
  0
LINE
  5
47B
330
1E
100
AcDbEntity
  8
0
100
AcDbLine
 10
56.3504
 20
160.9440299999999
 30
0.0
 11
62.4088
 21
160.32303
 31
0.0
  0
LINE
  5
47C
330
1E
100
AcDbEntity
  8
0
100
AcDbLine
 10
50.0
 20
161.1990299999999
 30
0.0
 11
56.3504
 21
160.9440299999999
 31
0.0
  0
ENDSEC
  0
SECTION
  2
OBJECTS
  0
DICTIONARY
  5
C
330
0
100
AcDbDictionary
281
     1
  3
ACAD_GROUP
350
D
  3
ACAD_LAYOUT
350
19
  3
ACAD_MLINESTYLE
350
16
  3
ACAD_PLOTSETTINGS
350
18
  3
ACAD_PLOTSTYLENAME
350
E
  3
AcDbVariableDictionary
350
481
  0
DICTIONARY
  5
D
102
{ACAD_REACTORS
330
C
102
}
330
C
100
AcDbDictionary
281
     1
  0
DICTIONARY
  5
19
102
{ACAD_REACTORS
330
C
102
}
330
C
100
AcDbDictionary
281
     1
  3
Layout1
350
1D
  3
Model
350
21
  0
DICTIONARY
  5
16
102
{ACAD_REACTORS
330
C
102
}
330
C
100
AcDbDictionary
281
     1
  3
Standard
350
17
  0
DICTIONARY
  5
18
102
{ACAD_REACTORS
330
C
102
}
330
C
100
AcDbDictionary
281
     1
  0
ACDBDICTIONARYWDFLT
  5
E
102
{ACAD_REACTORS
330
C
102
}
330
C
100
AcDbDictionary
281
     1
  3
Normal
350
F
100
AcDbDictionaryWithDefault
340
F
  0
DICTIONARY
  5
481
102
{ACAD_REACTORS
330
C
102
}
330
C
100
AcDbDictionary
281
     1
  3
DIMASSOC
350
482
  0
LAYOUT
  5
1D
102
{ACAD_REACTORS
330
19
102
}
330
19
100
AcDbPlotSettings
  1

  2
hp deskjet 980c series
  4

  6

 40
0.0
 41
0.0
 42
0.0
 43
0.0
 44
0.0
 45
0.0
 46
0.0
 47
0.0
 48
0.0
 49
0.0
140
0.0
141
0.0
142
1.0
143
1.0
 70
   688
 72
     0
 73
     0
 74
     5
  7

 75
    16
147
1.0
148
0.0
149
0.0
100
AcDbLayout
  1
Layout1
 70
     1
 71
     1
 10
0.0
 20
0.0
 11
12.0
 21
9.0
 12
0.0
 22
0.0
 32
0.0
 14
1.000000000000000E+20
 24
1.000000000000000E+20
 34
1.000000000000000E+20
 15
-1.000000000000000E+20
 25
-1.000000000000000E+20
 35
-1.000000000000000E+20
146
0.0
 13
0.0
 23
0.0
 33
0.0
 16
1.0
 26
0.0
 36
0.0
 17
0.0
 27
1.0
 37
0.0
 76
     0
330
1A
  0
LAYOUT
  5
21
102
{ACAD_REACTORS
330
19
102
}
330
19
100
AcDbPlotSettings
  1

  2
hp deskjet 980c series
  4

  6

 40
0.0
 41
0.0
 42
0.0
 43
0.0
 44
0.0
 45
0.0
 46
0.0
 47
0.0
 48
0.0
 49
0.0
140
0.0
141
0.0
142
1.0
143
1.0
 70
  1712
 72
     0
 73
     0
 74
     0
  7

 75
     0
147
1.0
148
0.0
149
0.0
100
AcDbLayout
  1
Model
 70
     1
 71
     0
 10
0.0
 20
0.0
 11
12.0
 21
9.0
 12
0.0
 22
0.0
 32
0.0
 14
0.0
 24
0.0
 34
0.0
 15
0.0
 25
0.0
 35
0.0
146
0.0
 13
0.0
 23
0.0
 33
0.0
 16
1.0
 26
0.0
 36
0.0
 17
0.0
 27
1.0
 37
0.0
 76
     0
330
1E
  0
MLINESTYLE
  5
17
102
{ACAD_REACTORS
330
16
102
}
330
16
100
AcDbMlineStyle
  2
STANDARD
 70
     0
  3

 62
   256
 51
90.0
 52
90.0
 71
     2
 49
0.5
 62
   256
  6
BYLAYER
 49
-0.5
 62
   256
  6
BYLAYER
  0
ACDBPLACEHOLDER
  5
F
102
{ACAD_REACTORS
330
E
102
}
330
E
  0
DICTIONARYVAR
  5
482
102
{ACAD_REACTORS
330
481
102
}
330
481
100
DictionaryVariables
280
     0
  1
1
  0
ENDSEC
  0
EOF
