  0
SECTION
  2
HEADER
  9
$ACADVER
  1
AC1015
  9
$ACADMAINTVER
 70
    13
  9
$DWGCODEPAGE
  3
ANSI_1252
  9
$INSBASE
 10
0.0
 20
0.0
 30
0.0
  9
$EXTMIN
 10
-0.0000000000000009
 20
-0.0000000000000426
 30
0.0
  9
$EXTMAX
 10
45.0
 20
967.0
 30
0.0
  9
$LIMMIN
 10
0.0
 20
0.0
  9
$LIMMAX
 10
12.0
 20
9.0
  9
$ORTHOMODE
 70
     0
  9
$REGENMODE
 70
     1
  9
$FILLMODE
 70
     1
  9
$QTEXTMODE
 70
     0
  9
$MIRRTEXT
 70
     1
  9
$LTSCALE
 40
1.0
  9
$ATTMODE
 70
     1
  9
$TEXTSIZE
 40
0.2
  9
$TRACEWID
 40
0.05
  9
$TEXTSTYLE
  7
Standard
  9
$CLAYER
  8
0
  9
$CELTYPE
  6
Continuous
  9
$CECOLOR
 62
   256
  9
$CELTSCALE
 40
1.0
  9
$DISPSILH
 70
     0
  9
$DIMSCALE
 40
1.0
  9
$DIMASZ
 40
0.18
  9
$DIMEXO
 40
0.0625
  9
$DIMDLI
 40
0.38
  9
$DIMRND
 40
0.0
  9
$DIMDLE
 40
0.0
  9
$DIMEXE
 40
0.18
  9
$DIMTP
 40
0.0
  9
$DIMTM
 40
0.0
  9
$DIMTXT
 40
0.18
  9
$DIMCEN
 40
0.09
  9
$DIMTSZ
 40
0.0
  9
$DIMTOL
 70
     0
  9
$DIMLIM
 70
     0
  9
$DIMTIH
 70
     1
  9
$DIMTOH
 70
     1
  9
$DIMSE1
 70
     0
  9
$DIMSE2
 70
     0
  9
$DIMTAD
 70
     0
  9
$DIMZIN
 70
     0
  9
$DIMBLK
  1

  9
$DIMASO
 70
     1
  9
$DIMSHO
 70
     1
  9
$DIMPOST
  1

  9
$DIMAPOST
  1

  9
$DIMALT
 70
     0
  9
$DIMALTD
 70
     2
  9
$DIMALTF
 40
25.4
  9
$DIMLFAC
 40
1.0
  9
$DIMTOFL
 70
     0
  9
$DIMTVP
 40
0.0
  9
$DIMTIX
 70
     0
  9
$DIMSOXD
 70
     0
  9
$DIMSAH
 70
     0
  9
$DIMBLK1
  1

  9
$DIMBLK2
  1

  9
$DIMSTYLE
  2
Standard
  9
$DIMCLRD
 70
     0
  9
$DIMCLRE
 70
     0
  9
$DIMCLRT
 70
     0
  9
$DIMTFAC
 40
1.0
  9
$DIMGAP
 40
0.09
  9
$DIMJUST
 70
     0
  9
$DIMSD1
 70
     0
  9
$DIMSD2
 70
     0
  9
$DIMTOLJ
 70
     1
  9
$DIMTZIN
 70
     0
  9
$DIMALTZ
 70
     0
  9
$DIMALTTZ
 70
     0
  9
$DIMUPT
 70
     0
  9
$DIMDEC
 70
     4
  9
$DIMTDEC
 70
     4
  9
$DIMALTU
 70
     2
  9
$DIMALTTD
 70
     2
  9
$DIMTXSTY
  7
Standard
  9
$DIMAUNIT
 70
     0
  9
$DIMADEC
 70
     0
  9
$DIMALTRND
 40
0.0
  9
$DIMAZIN
 70
     0
  9
$DIMDSEP
 70
    46
  9
$DIMATFIT
 70
     3
  9
$DIMFRAC
 70
     0
  9
$DIMLDRBLK
  1

  9
$DIMLUNIT
 70
     2
  9
$DIMLWD
 70
    -2
  9
$DIMLWE
 70
    -2
  9
$DIMTMOVE
 70
     0
  9
$LUNITS
 70
     2
  9
$LUPREC
 70
     4
  9
$SKETCHINC
 40
0.1
  9
$FILLETRAD
 40
0.0
  9
$AUNITS
 70
     0
  9
$AUPREC
 70
     0
  9
$MENU
  1
.
  9
$ELEVATION
 40
0.0
  9
$PELEVATION
 40
0.0
  9
$THICKNESS
 40
0.0
  9
$LIMCHECK
 70
     0
  9
$CHAMFERA
 40
0.0
  9
$CHAMFERB
 40
0.0
  9
$CHAMFERC
 40
0.0
  9
$CHAMFERD
 40
0.0
  9
$SKPOLY
 70
     0
  9
$TDCREATE
 40
2454740.468732095
  9
$TDUCREATE
 40
2454740.385398761
  9
$TDUPDATE
 40
2454740.470085358
  9
$TDUUPDATE
 40
2454740.386752026
  9
$TDINDWG
 40
0.0013532639
  9
$TDUSRTIMER
 40
0.0013532639
  9
$USRTIMER
 70
     1
  9
$ANGBASE
 50
0.0
  9
$ANGDIR
 70
     0
  9
$PDMODE
 70
     0
  9
$PDSIZE
 40
0.0
  9
$PLINEWID
 40
0.0
  9
$SPLFRAME
 70
     0
  9
$SPLINETYPE
 70
     6
  9
$SPLINESEGS
 70
     8
  9
$HANDSEED
  5
1AC
  9
$SURFTAB1
 70
     6
  9
$SURFTAB2
 70
     6
  9
$SURFTYPE
 70
     6
  9
$SURFU
 70
     6
  9
$SURFV
 70
     6
  9
$UCSBASE
  2

  9
$UCSNAME
  2

  9
$UCSORG
 10
0.0
 20
0.0
 30
0.0
  9
$UCSXDIR
 10
1.0
 20
0.0
 30
0.0
  9
$UCSYDIR
 10
0.0
 20
1.0
 30
0.0
  9
$UCSORTHOREF
  2

  9
$UCSORTHOVIEW
 70
     1
  9
$UCSORGTOP
 10
0.0
 20
0.0
 30
0.0
  9
$UCSORGBOTTOM
 10
0.0
 20
0.0
 30
0.0
  9
$UCSORGLEFT
 10
0.0
 20
0.0
 30
0.0
  9
$UCSORGRIGHT
 10
0.0
 20
0.0
 30
0.0
  9
$UCSORGFRONT
 10
0.0
 20
0.0
 30
0.0
  9
$UCSORGBACK
 10
0.0
 20
0.0
 30
0.0
  9
$PUCSBASE
  2

  9
$PUCSNAME
  2

  9
$PUCSORG
 10
0.0
 20
0.0
 30
0.0
  9
$PUCSXDIR
 10
1.0
 20
0.0
 30
0.0
  9
$PUCSYDIR
 10
0.0
 20
1.0
 30
0.0
  9
$PUCSORTHOREF
  2

  9
$PUCSORTHOVIEW
 70
     0
  9
$PUCSORGTOP
 10
0.0
 20
0.0
 30
0.0
  9
$PUCSORGBOTTOM
 10
0.0
 20
0.0
 30
0.0
  9
$PUCSORGLEFT
 10
0.0
 20
0.0
 30
0.0
  9
$PUCSORGRIGHT
 10
0.0
 20
0.0
 30
0.0
  9
$PUCSORGFRONT
 10
0.0
 20
0.0
 30
0.0
  9
$PUCSORGBACK
 10
0.0
 20
0.0
 30
0.0
  9
$USERI1
 70
     0
  9
$USERI2
 70
     0
  9
$USERI3
 70
     0
  9
$USERI4
 70
     0
  9
$USERI5
 70
     0
  9
$USERR1
 40
0.0
  9
$USERR2
 40
0.0
  9
$USERR3
 40
0.0
  9
$USERR4
 40
0.0
  9
$USERR5
 40
0.0
  9
$WORLDVIEW
 70
     1
  9
$SHADEDGE
 70
     3
  9
$SHADEDIF
 70
    70
  9
$TILEMODE
 70
     1
  9
$MAXACTVP
 70
    64
  9
$PINSBASE
 10
0.0
 20
0.0
 30
0.0
  9
$PLIMCHECK
 70
     0
  9
$PEXTMIN
 10
1.000000000000000E+20
 20
1.000000000000000E+20
 30
1.000000000000000E+20
  9
$PEXTMAX
 10
-1.000000000000000E+20
 20
-1.000000000000000E+20
 30
-1.000000000000000E+20
  9
$PLIMMIN
 10
0.0
 20
0.0
  9
$PLIMMAX
 10
12.0
 20
9.0
  9
$UNITMODE
 70
     0
  9
$VISRETAIN
 70
     1
  9
$PLINEGEN
 70
     0
  9
$PSLTSCALE
 70
     1
  9
$TREEDEPTH
 70
  3020
  9
$CMLSTYLE
  2
Standard
  9
$CMLJUST
 70
     0
  9
$CMLSCALE
 40
1.0
  9
$PROXYGRAPHICS
 70
     1
  9
$MEASUREMENT
 70
     0
  9
$CELWEIGHT
370
    -1
  9
$ENDCAPS
280
     0
  9
$JOINSTYLE
280
     0
  9
$LWDISPLAY
290
     0
  9
$INSUNITS
 70
     0
  9
$HYPERLINKBASE
  1

  9
$STYLESHEET
  1

  9
$XEDIT
290
     1
  9
$CEPSNTYPE
380
     0
  9
$PSTYLEMODE
290
     1
  9
$FINGERPRINTGUID
  2
{1280CD99-56A2-471A-8999-858CB4C2657B}
  9
$VERSIONGUID
  2
{5039B165-FFAF-4AF2-B352-7E535C564789}
  9
$EXTNAMES
290
     1
  9
$PSVPSCALE
 40
0.0
  9
$OLESTARTUP
290
     0
  0
ENDSEC
  0
SECTION
  2
CLASSES
  0
CLASS
  1
ACDBDICTIONARYWDFLT
  2
AcDbDictionaryWithDefault
  3
AutoCAD 2000
 90
        0
280
     0
281
     0
  0
CLASS
  1
ACDBPLACEHOLDER
  2
AcDbPlaceHolder
  3
AutoCAD 2000
 90
        0
280
     0
281
     0
  0
CLASS
  1
LAYOUT
  2
AcDbLayout
  3
AutoCAD 2000
 90
        0
280
     0
281
     0
  0
CLASS
  1
DICTIONARYVAR
  2
AcDbDictionaryVar
  3
AutoCAD 2000
 90
        0
280
     0
281
     0
  0
ENDSEC
  0
SECTION
  2
TABLES
  0
TABLE
  2
VPORT
  5
8
330
0
100
AcDbSymbolTable
 70
     2
  0
VPORT
  5
1AB
330
8
100
AcDbSymbolTableRecord
100
AcDbViewportTableRecord
  2
*Active
 70
     0
 10
0.0
 20
0.0
 11
1.0
 21
1.0
 12
22.5
 22
483.4999999999999
 13
0.0
 23
0.0
 14
1.0
 24
1.0
 15
0.0
 25
0.0
 16
0.0
 26
0.0
 36
1.0
 17
0.0
 27
0.0
 37
0.0
 40
974.4194373401533
 41
2.078104993597951
 42
50.0
 43
0.0
 44
0.0
 50
0.0
 51
0.0
 71
     0
 72
   100
 73
     1
 74
     3
 75
     0
 76
     0
 77
     0
 78
     0
281
     0
 65
     1
110
0.0
120
0.0
130
0.0
111
1.0
121
0.0
131
0.0
112
0.0
122
1.0
132
0.0
 79
     1
146
0.0
  0
ENDTAB
  0
TABLE
  2
LTYPE
  5
5
330
0
100
AcDbSymbolTable
 70
     1
  0
LTYPE
  5
13
330
5
100
AcDbSymbolTableRecord
100
AcDbLinetypeTableRecord
  2
ByBlock
 70
     0
  3

 72
    65
 73
     0
 40
0.0
  0
LTYPE
  5
14
330
5
100
AcDbSymbolTableRecord
100
AcDbLinetypeTableRecord
  2
ByLayer
 70
     0
  3

 72
    65
 73
     0
 40
0.0
  0
LTYPE
  5
15
330
5
100
AcDbSymbolTableRecord
100
AcDbLinetypeTableRecord
  2
Continuous
 70
     0
  3
Solid line
 72
    65
 73
     0
 40
0.0
  0
ENDTAB
  0
TABLE
  2
LAYER
  5
2
330
0
100
AcDbSymbolTable
 70
     1
  0
LAYER
  5
10
330
2
100
AcDbSymbolTableRecord
100
AcDbLayerTableRecord
  2
0
 70
     0
 62
     7
  6
Continuous
370
    -3
390
F
  0
ENDTAB
  0
TABLE
  2
STYLE
  5
3
330
0
100
AcDbSymbolTable
 70
     1
  0
STYLE
  5
11
330
3
100
AcDbSymbolTableRecord
100
AcDbTextStyleTableRecord
  2
Standard
 70
     0
 40
0.0
 41
1.0
 50
0.0
 71
     0
 42
0.2
  3
txt
  4

  0
ENDTAB
  0
TABLE
  2
VIEW
  5
6
330
0
100
AcDbSymbolTable
 70
     0
  0
ENDTAB
  0
TABLE
  2
UCS
  5
7
330
0
100
AcDbSymbolTable
 70
     0
  0
ENDTAB
  0
TABLE
  2
APPID
  5
9
330
0
100
AcDbSymbolTable
 70
     1
  0
APPID
  5
12
330
9
100
AcDbSymbolTableRecord
100
AcDbRegAppTableRecord
  2
ACAD
 70
     0
  0
ENDTAB
  0
TABLE
  2
DIMSTYLE
  5
A
330
0
100
AcDbSymbolTable
 70
     1
100
AcDbDimStyleTable
 71
     0
  0
DIMSTYLE
105
1A5
330
A
100
AcDbSymbolTableRecord
100
AcDbDimStyleTableRecord
  2
Standard
 70
     0
340
11
  0
ENDTAB
  0
TABLE
  2
BLOCK_RECORD
  5
1
330
0
100
AcDbSymbolTable
 70
     0
  0
BLOCK_RECORD
  5
1E
330
1
100
AcDbSymbolTableRecord
100
AcDbBlockTableRecord
  2
*Model_Space
340
21
  0
BLOCK_RECORD
  5
1A
330
1
100
AcDbSymbolTableRecord
100
AcDbBlockTableRecord
  2
*Paper_Space
340
1D
  0
ENDTAB
  0
ENDSEC
  0
SECTION
  2
BLOCKS
  0
BLOCK
  5
1F
330
1E
100
AcDbEntity
  8
0
100
AcDbBlockBegin
  2
*Model_Space
 70
     0
 10
0.0
 20
0.0
 30
0.0
  3
*Model_Space
  1

  0
ENDBLK
  5
20
330
1E
100
AcDbEntity
  8
0
100
AcDbBlockEnd
  0
BLOCK
  5
1B
330
1A
100
AcDbEntity
 67
     1
  8
0
100
AcDbBlockBegin
  2
*Paper_Space
 70
     0
 10
0.0
 20
0.0
 30
0.0
  3
*Paper_Space
  1

  0
ENDBLK
  5
1C
330
1A
100
AcDbEntity
 67
     1
  8
0
100
AcDbBlockEnd
  0
ENDSEC
  0
SECTION
  2
ENTITIES
  0
LINE
  5
22
330
1E
100
AcDbEntity
  8
0
100
AcDbLine
 10
0.2999999999999989
 20
0.299999999999959
 30
0.0
 11
0.499999999999999
 21
0.299999999999959
 31
0.0
  0
LINE
  5
23
330
1E
100
AcDbEntity
  8
0
100
AcDbLine
 10
0.9999999999999989
 20
0.299999999999959
 30
0.0
 11
14.0
 21
0.299999999999959
 31
0.0
  0
LINE
  5
24
330
1E
100
AcDbEntity
  8
0
100
AcDbLine
 10
0.9999999999999989
 20
-0.0000000000000417
 30
0.0
 11
5.0
 21
-0.0000000000000417
 31
0.0
  0
LINE
  5
25
330
1E
100
AcDbEntity
  8
0
100
AcDbLine
 10
9.0
 20
-0.0000000000000426
 30
0.0
 11
14.0
 21
-0.0000000000000426
 31
0.0
  0
LINE
  5
26
330
1E
100
AcDbEntity
  8
0
100
AcDbLine
 10
5.0
 20
-0.0000000000000417
 30
0.0
 11
7.53508
 21
-0.0000000000000418
 31
0.0
  0
LINE
  5
27
330
1E
100
AcDbEntity
  8
0
100
AcDbLine
 10
7.53508
 20
-0.0000000000000418
 30
0.0
 11
9.0
 21
-0.000000000000042
 31
0.0
  0
LINE
  5
28
330
1E
100
AcDbEntity
  8
0
100
AcDbLine
 10
0.9999999999999989
 20
0.299999999999959
 30
0.0
 11
14.0
 21
0.299999999999959
 31
0.0
  0
LINE
  5
29
330
1E
100
AcDbEntity
  8
0
100
AcDbLine
 10
0.499999999999999
 20
0.299999999999959
 30
0.0
 11
0.9999999999999989
 21
0.299999999999959
 31
0.0
  0
LINE
  5
2A
330
1E
100
AcDbEntity
  8
0
100
AcDbLine
 10
0.2999999999999989
 20
0.299999999999958
 30
0.0
 11
0.9999999999999989
 21
-0.0000000000000417
 31
0.0
  0
LINE
  5
2B
330
1E
100
AcDbEntity
  8
0
100
AcDbLine
 10
-0.0000000000000009
 20
0.9999999999999591
 30
0.0
 11
-0.0000000000000009
 21
24.5
 31
0.0
  0
LINE
  5
2C
330
1E
100
AcDbEntity
  8
0
100
AcDbLine
 10
-0.0000000000000009
 20
483.4999999999999
 30
0.0
 11
-0.0000000000000009
 21
25.5
 31
0.0
  0
LINE
  5
2D
330
1E
100
AcDbEntity
  8
0
100
AcDbLine
 10
-0.0000000000000009
 20
483.4999999999999
 30
0.0
 11
-0.0000000000000009
 21
941.5
 31
0.0
  0
LINE
  5
2E
330
1E
100
AcDbEntity
  8
0
100
AcDbLine
 10
-0.0000000000000009
 20
25.5
 30
0.0
 11
-0.0000000000000009
 21
483.4999999999999
 31
0.0
  0
LINE
  5
2F
330
1E
100
AcDbEntity
  8
0
100
AcDbLine
 10
-0.0000000000000009
 20
25.5
 30
0.0
 11
0.2999999999999989
 21
25.5
 31
0.0
  0
LINE
  5
30
330
1E
100
AcDbEntity
  8
0
100
AcDbLine
 10
-0.0000000000000009
 20
25.5
 30
0.0
 11
0.499999999999999
 21
25.0
 31
0.0
  0
LINE
  5
31
330
1E
100
AcDbEntity
  8
0
100
AcDbLine
 10
-0.0000000000000009
 20
24.5
 30
0.0
 11
-0.0000000000000009
 21
0.999999999999958
 31
0.0
  0
LINE
  5
32
330
1E
100
AcDbEntity
  8
0
100
AcDbLine
 10
-0.0000000000000009
 20
24.5
 30
0.0
 11
0.2999999999999989
 21
24.5
 31
0.0
  0
LINE
  5
33
330
1E
100
AcDbEntity
  8
0
100
AcDbLine
 10
-0.0000000000000009
 20
24.5
 30
0.0
 11
0.499999999999999
 21
25.0
 31
0.0
  0
LINE
  5
34
330
1E
100
AcDbEntity
  8
0
100
AcDbLine
 10
0.2999999999999989
 20
25.5
 30
0.0
 11
0.2999999999999989
 21
483.4999999999999
 31
0.0
  0
LINE
  5
35
330
1E
100
AcDbEntity
  8
0
100
AcDbLine
 10
0.2999999999999989
 20
25.5
 30
0.0
 11
0.9999999999999989
 21
25.5
 31
0.0
  0
LINE
  5
36
330
1E
100
AcDbEntity
  8
0
100
AcDbLine
 10
0.2999999999999989
 20
483.4999999999999
 30
0.0
 11
0.2999999999999989
 21
25.5
 31
0.0
  0
LINE
  5
37
330
1E
100
AcDbEntity
  8
0
100
AcDbLine
 10
0.2999999999999989
 20
483.4999999999999
 30
0.0
 11
0.2999999999999989
 21
941.5
 31
0.0
  0
LINE
  5
38
330
1E
100
AcDbEntity
  8
0
100
AcDbLine
 10
0.4999999999999981
 20
25.0
 30
0.0
 11
0.6499999999999991
 21
25.0
 31
0.0
  0
LINE
  5
39
330
1E
100
AcDbEntity
  8
0
100
AcDbLine
 10
0.9999999999999989
 20
25.0
 30
0.0
 11
14.0
 21
25.0
 31
0.0
  0
LINE
  5
3A
330
1E
100
AcDbEntity
  8
0
100
AcDbLine
 10
0.9999999999999989
 20
25.0
 30
0.0
 11
14.0
 21
25.0
 31
0.0
  0
LINE
  5
3B
330
1E
100
AcDbEntity
  8
0
100
AcDbLine
 10
0.9999999999999989
 20
25.5
 30
0.0
 11
14.0
 21
25.5
 31
0.0
  0
LINE
  5
3C
330
1E
100
AcDbEntity
  8
0
100
AcDbLine
 10
0.9999999999999989
 20
25.5
 30
0.0
 11
14.0
 21
25.5
 31
0.0
  0
LINE
  5
3D
330
1E
100
AcDbEntity
  8
0
100
AcDbLine
 10
0.6499999999999991
 20
25.0
 30
0.0
 11
0.9999999999999989
 21
25.0
 31
0.0
  0
LINE
  5
3E
330
1E
100
AcDbEntity
  8
0
100
AcDbLine
 10
0.499999999999999
 20
25.0
 30
0.0
 11
0.6499999999999991
 21
25.0
 31
0.0
  0
LINE
  5
3F
330
1E
100
AcDbEntity
  8
0
100
AcDbLine
 10
0.9999999999999989
 20
24.5
 30
0.0
 11
14.0
 21
24.5
 31
0.0
  0
LINE
  5
40
330
1E
100
AcDbEntity
  8
0
100
AcDbLine
 10
0.2999999999999989
 20
24.5
 30
0.0
 11
0.2999999999999989
 21
0.999999999999958
 31
0.0
  0
LINE
  5
41
330
1E
100
AcDbEntity
  8
0
100
AcDbLine
 10
0.2999999999999989
 20
24.5
 30
0.0
 11
0.9999999999999989
 21
24.5
 31
0.0
  0
LINE
  5
42
330
1E
100
AcDbEntity
  8
0
100
AcDbLine
 10
0.2999999999999989
 20
0.9999999999999591
 30
0.0
 11
0.2999999999999989
 21
24.5
 31
0.0
  0
LINE
  5
43
330
1E
100
AcDbEntity
  8
0
100
AcDbLine
 10
0.2999999999999989
 20
0.9999999999999591
 30
0.0
 11
0.499999999999999
 21
0.299999999999959
 31
0.0
  0
LINE
  5
44
330
1E
100
AcDbEntity
  8
0
100
AcDbLine
 10
-0.0000000000000009
 20
24.5
 30
0.0
 11
-0.0000000000000009
 21
0.999999999999958
 31
0.0
  0
LINE
  5
45
330
1E
100
AcDbEntity
  8
0
100
AcDbLine
 10
-0.0000000000000009
 20
0.999999999999958
 30
0.0
 11
-0.0000000000000009
 21
24.5
 31
0.0
  0
LINE
  5
46
330
1E
100
AcDbEntity
  8
0
100
AcDbLine
 10
-0.0000000000000009
 20
0.999999999999958
 30
0.0
 11
0.2999999999999989
 21
0.299999999999958
 31
0.0
  0
LINE
  5
47
330
1E
100
AcDbEntity
  8
0
100
AcDbLine
 10
11.21599999999999
 20
690.728
 30
0.0
 11
13.296
 21
689.35
 31
0.0
  0
LINE
  5
48
330
1E
100
AcDbEntity
  8
0
100
AcDbLine
 10
11.21599999999999
 20
735.7610000000001
 30
0.0
 11
13.296
 21
734.383
 31
0.0
  0
LINE
  5
49
330
1E
100
AcDbEntity
  8
0
100
AcDbLine
 10
9.967999999999999
 20
692.288
 30
0.0
 11
11.21599999999999
 21
690.728
 31
0.0
  0
LINE
  5
4A
330
1E
100
AcDbEntity
  8
0
100
AcDbLine
 10
9.967999999999999
 20
737.321
 30
0.0
 11
11.21599999999999
 21
735.7610000000001
 31
0.0
  0
LINE
  5
4B
330
1E
100
AcDbEntity
  8
0
100
AcDbLine
 10
9.5
 20
693.9519999999999
 30
0.0
 11
9.967999999999999
 21
692.288
 31
0.0
  0
LINE
  5
4C
330
1E
100
AcDbEntity
  8
0
100
AcDbLine
 10
9.5
 20
693.9519999999999
 30
0.0
 11
9.5
 21
738.985
 31
0.0
  0
LINE
  5
4D
330
1E
100
AcDbEntity
  8
0
100
AcDbLine
 10
9.5
 20
738.985
 30
0.0
 11
9.967999999999999
 21
737.321
 31
0.0
  0
LINE
  5
4E
330
1E
100
AcDbEntity
  8
0
100
AcDbLine
 10
9.5
 20
738.985
 30
0.0
 11
9.5
 21
693.9519999999999
 31
0.0
  0
LINE
  5
4F
330
1E
100
AcDbEntity
  8
0
100
AcDbLine
 10
9.5
 20
738.985
 30
0.0
 11
9.967999999999999
 21
740.6489999999998
 31
0.0
  0
LINE
  5
50
330
1E
100
AcDbEntity
  8
0
100
AcDbLine
 10
13.0
 20
654.4999999999999
 30
0.0
 11
13.0
 21
654.9680000000001
 31
0.0
  0
LINE
  5
51
330
1E
100
AcDbEntity
  8
0
100
AcDbLine
 10
13.0
 20
654.9680000000001
 30
0.0
 11
13.0
 21
654.4999999999999
 31
0.0
  0
LINE
  5
52
330
1E
100
AcDbEntity
  8
0
100
AcDbLine
 10
13.0
 20
654.9680000000001
 30
0.0
 11
13.0
 21
656.216
 31
0.0
  0
LINE
  5
53
330
1E
100
AcDbEntity
  8
0
100
AcDbLine
 10
13.0
 20
655.4999999999999
 30
0.0
 11
13.0
 21
654.3999999999999
 31
0.0
  0
LINE
  5
54
330
1E
100
AcDbEntity
  8
0
100
AcDbLine
 10
13.0
 20
655.4999999999999
 30
0.0
 11
13.0
 21
656.0369999999998
 31
0.0
  0
LINE
  5
55
330
1E
100
AcDbEntity
  8
0
100
AcDbLine
 10
13.0
 20
654.3999999999999
 30
0.0
 11
13.0
 21
654.0
 31
0.0
  0
LINE
  5
56
330
1E
100
AcDbEntity
  8
0
100
AcDbLine
 10
13.0
 20
654.3999999999999
 30
0.0
 11
13.0
 21
655.4999999999999
 31
0.0
  0
LINE
  5
57
330
1E
100
AcDbEntity
  8
0
100
AcDbLine
 10
13.0
 20
656.216
 30
0.0
 11
13.0
 21
654.9680000000001
 31
0.0
  0
LINE
  5
58
330
1E
100
AcDbEntity
  8
0
100
AcDbLine
 10
13.0
 20
656.216
 30
0.0
 11
13.0
 21
658.296
 31
0.0
  0
LINE
  5
59
330
1E
100
AcDbEntity
  8
0
100
AcDbLine
 10
13.0
 20
658.296
 30
0.0
 11
13.0
 21
656.216
 31
0.0
  0
LINE
  5
5A
330
1E
100
AcDbEntity
  8
0
100
AcDbLine
 10
13.0
 20
658.296
 30
0.0
 11
13.0
 21
661.052
 31
0.0
  0
LINE
  5
5B
330
1E
100
AcDbEntity
  8
0
100
AcDbLine
 10
13.0
 20
656.0369999999998
 30
0.0
 11
13.0
 21
633.0
 31
0.0
  0
LINE
  5
5D
330
1E
100
AcDbEntity
  8
0
100
AcDbLine
 10
13.0
 20
656.0369999999998
 30
0.0
 11
13.0
 21
655.4999999999999
 31
0.0
  0
LINE
  5
5E
330
1E
100
AcDbEntity
  8
0
100
AcDbLine
 10
13.0
 20
661.052
 30
0.0
 11
13.0
 21
658.296
 31
0.0
  0
LINE
  5
5F
330
1E
100
AcDbEntity
  8
0
100
AcDbLine
 10
13.0
 20
661.052
 30
0.0
 11
13.0
 21
664.172
 31
0.0
  0
LINE
  5
60
330
1E
100
AcDbEntity
  8
0
100
AcDbLine
 10
12.5777
 20
674.6419999999999
 30
0.0
 11
12.7741
 21
671.4089999999999
 31
0.0
  0
LINE
  5
63
330
1E
100
AcDbEntity
  8
0
100
AcDbLine
 10
12.7741
 20
671.4089999999999
 30
0.0
 11
13.0
 21
669.6979999999999
 31
0.0
  0
LINE
  5
65
330
1E
100
AcDbEntity
  8
0
100
AcDbLine
 10
13.0
 20
668.5679999999999
 30
0.0
 11
13.0
 21
669.6979999999999
 31
0.0
  0
LINE
  5
67
330
1E
100
AcDbEntity
  8
0
100
AcDbLine
 10
13.0
 20
668.5679999999999
 30
0.0
 11
13.0
 21
667.4999999999999
 31
0.0
  0
LINE
  5
68
330
1E
100
AcDbEntity
  8
0
100
AcDbLine
 10
13.0
 20
664.172
 30
0.0
 11
13.0
 21
661.052
 31
0.0
  0
LINE
  5
69
330
1E
100
AcDbEntity
  8
0
100
AcDbLine
 10
13.0
 20
664.172
 30
0.0
 11
13.0
 21
667.4999999999999
 31
0.0
  0
LINE
  5
6A
330
1E
100
AcDbEntity
  8
0
100
AcDbLine
 10
13.0
 20
669.6979999999999
 30
0.0
 11
13.0
 21
667.4999999999999
 31
0.0
  0
LINE
  5
6B
330
1E
100
AcDbEntity
  8
0
100
AcDbLine
 10
13.0
 20
669.6979999999999
 30
0.0
 11
13.0
 21
668.5679999999999
 31
0.0
  0
LINE
  5
6C
330
1E
100
AcDbEntity
  8
0
100
AcDbLine
 10
13.0
 20
664.1519999999999
 30
0.0
 11
13.0
 21
667.4999999999999
 31
0.0
  0
LINE
  5
6D
330
1E
100
AcDbEntity
  8
0
100
AcDbLine
 10
13.0
 20
664.1519999999999
 30
0.0
 11
13.0
 21
660.883
 31
0.0
  0
LINE
  5
6E
330
1E
100
AcDbEntity
  8
0
100
AcDbLine
 10
13.0
 20
667.4999999999999
 30
0.0
 11
13.0
 21
633.0
 31
0.0
  0
LINE
  5
6F
330
1E
100
AcDbEntity
  8
0
100
AcDbLine
 10
13.0
 20
667.4999999999999
 30
0.0
 11
13.0
 21
669.6979999999999
 31
0.0
  0
LINE
  5
70
330
1E
100
AcDbEntity
  8
0
100
AcDbLine
 10
13.0
 20
667.4999999999999
 30
0.0
 11
13.0
 21
664.1519999999999
 31
0.0
  0
LINE
  5
71
330
1E
100
AcDbEntity
  8
0
100
AcDbLine
 10
13.0
 20
667.4999999999999
 30
0.0
 11
13.0
 21
664.172
 31
0.0
  0
LINE
  5
72
330
1E
100
AcDbEntity
  8
0
100
AcDbLine
 10
13.0
 20
667.4999999999999
 30
0.0
 11
13.0
 21
668.5679999999999
 31
0.0
  0
LINE
  5
73
330
1E
100
AcDbEntity
  8
0
100
AcDbLine
 10
13.0
 20
660.883
 30
0.0
 11
13.0
 21
664.1519999999999
 31
0.0
  0
LINE
  5
74
330
1E
100
AcDbEntity
  8
0
100
AcDbLine
 10
13.0
 20
660.883
 30
0.0
 11
13.0
 21
657.97
 31
0.0
  0
LINE
  5
75
330
1E
100
AcDbEntity
  8
0
100
AcDbLine
 10
13.0
 20
657.97
 30
0.0
 11
13.0
 21
660.883
 31
0.0
  0
LINE
  5
76
330
1E
100
AcDbEntity
  8
0
100
AcDbLine
 10
13.0
 20
657.97
 30
0.0
 11
13.0
 21
655.71
 31
0.0
  0
LINE
  5
77
330
1E
100
AcDbEntity
  8
0
100
AcDbLine
 10
13.0
 20
655.71
 30
0.0
 11
13.0
 21
657.97
 31
0.0
  0
LINE
  5
78
330
1E
100
AcDbEntity
  8
0
100
AcDbLine
 10
13.0
 20
655.71
 30
0.0
 11
13.0
 21
654.462
 31
0.0
  0
LINE
  5
79
330
1E
100
AcDbEntity
  8
0
100
AcDbLine
 10
13.0
 20
654.462
 30
0.0
 11
13.0
 21
655.71
 31
0.0
  0
LINE
  5
7A
330
1E
100
AcDbEntity
  8
0
100
AcDbLine
 10
13.0
 20
654.462
 30
0.0
 11
13.0
 21
654.0
 31
0.0
  0
LINE
  5
7B
330
1E
100
AcDbEntity
  8
0
100
AcDbLine
 10
13.0
 20
654.0
 30
0.0
 11
13.0
 21
654.462
 31
0.0
  0
LINE
  5
7C
330
1E
100
AcDbEntity
  8
0
100
AcDbLine
 10
13.0
 20
654.0
 30
0.0
 11
13.0
 21
654.3999999999999
 31
0.0
  0
LINE
  5
7D
330
1E
100
AcDbEntity
  8
0
100
AcDbLine
 10
13.296
 20
689.35
 30
0.0
 11
13.296
 21
734.383
 31
0.0
  0
LINE
  5
7E
330
1E
100
AcDbEntity
  8
0
100
AcDbLine
 10
13.296
 20
689.35
 30
0.0
 11
14.712
 21
690.0579999999999
 31
0.0
  0
LINE
  5
80
330
1E
100
AcDbEntity
  8
0
100
AcDbLine
 10
13.4
 20
633.0
 30
0.0
 11
14.50596187038749
 21
633.0
 31
0.0
  0
LINE
  5
81
330
1E
100
AcDbEntity
  8
0
100
AcDbLine
 10
13.0
 20
633.0
 30
0.0
 11
13.5
 21
632.5
 31
0.0
  0
LINE
  5
82
330
1E
100
AcDbEntity
  8
0
100
AcDbLine
 10
13.0
 20
633.0
 30
0.0
 11
13.4
 21
633.0
 31
0.0
  0
LINE
  5
83
330
1E
100
AcDbEntity
  8
0
100
AcDbLine
 10
13.0
 20
633.0
 30
0.0
 11
13.0
 21
656.0369999999998
 31
0.0
  0
LINE
  5
84
330
1E
100
AcDbEntity
  8
0
100
AcDbLine
 10
13.0
 20
633.0
 30
0.0
 11
13.0
 21
667.4999999999999
 31
0.0
  0
LINE
  5
85
330
1E
100
AcDbEntity
  8
0
100
AcDbLine
 10
13.5
 20
632.5
 30
0.0
 11
13.75
 21
632.5
 31
0.0
  0
LINE
  5
86
330
1E
100
AcDbEntity
  8
0
100
AcDbLine
 10
13.5
 20
632.5
 30
0.0
 11
14.5
 21
632.5
 31
0.0
  0
LINE
  5
87
330
1E
100
AcDbEntity
  8
0
100
AcDbLine
 10
13.75
 20
632.5
 30
0.0
 11
14.50680673065289
 21
632.5
 31
0.0
  0
LINE
  5
88
330
1E
100
AcDbEntity
  8
0
100
AcDbLine
 10
13.6898
 20
36.4841
 30
0.0
 11
14.57559999999999
 21
561.829
 31
0.0
  0
LINE
  5
89
330
1E
100
AcDbEntity
  8
0
100
AcDbLine
 10
13.6898
 20
36.4841
 30
0.0
 11
13.9529
 21
36.613
 31
0.0
  0
LINE
  5
8A
330
1E
100
AcDbEntity
  8
0
100
AcDbLine
 10
13.6898
 20
36.4841
 30
0.0
 11
14.57559999999999
 21
561.829
 31
0.0
  0
LINE
  5
8B
330
1E
100
AcDbEntity
  8
0
100
AcDbLine
 10
14.0
 20
-0.0000000000000426
 30
0.0
 11
22.5
 21
-0.0000000000000426
 31
0.0
  0
LINE
  5
8C
330
1E
100
AcDbEntity
  8
0
100
AcDbLine
 10
14.0
 20
-0.0000000000000418
 30
0.0
 11
22.5
 21
-0.0000000000000418
 31
0.0
  0
LINE
  5
8D
330
1E
100
AcDbEntity
  8
0
100
AcDbLine
 10
14.0
 20
-0.0000000000000412
 30
0.0
 11
14.0
 21
0.299999999999959
 31
0.0
  0
LINE
  5
8E
330
1E
100
AcDbEntity
  8
0
100
AcDbLine
 10
14.0
 20
25.5
 30
0.0
 11
14.0
 21
25.0
 31
0.0
  0
LINE
  5
8F
330
1E
100
AcDbEntity
  8
0
100
AcDbLine
 10
14.0
 20
25.5
 30
0.0
 11
14.0
 21
36.6361287002096
 31
0.0
  0
LINE
  5
90
330
1E
100
AcDbEntity
  8
0
100
AcDbLine
 10
14.0
 20
36.6361287002096
 30
0.0
 11
14.0
 21
25.5
 31
0.0
  0
LINE
  5
91
330
1E
100
AcDbEntity
  8
0
100
AcDbLine
 10
14.0
 20
24.5
 30
0.0
 11
14.0
 21
0.999999999999958
 31
0.0
  0
LINE
  5
92
330
1E
100
AcDbEntity
  8
0
100
AcDbLine
 10
14.0
 20
24.5
 30
0.0
 11
14.0
 21
25.0
 31
0.0
  0
LINE
  5
93
330
1E
100
AcDbEntity
  8
0
100
AcDbLine
 10
14.0
 20
25.0
 30
0.0
 11
14.0
 21
24.5
 31
0.0
  0
LINE
  5
94
330
1E
100
AcDbEntity
  8
0
100
AcDbLine
 10
14.0
 20
25.0
 30
0.0
 11
22.5
 21
25.0
 31
0.0
  0
LINE
  5
95
330
1E
100
AcDbEntity
  8
0
100
AcDbLine
 10
14.0
 20
25.0
 30
0.0
 11
14.0
 21
25.5
 31
0.0
  0
LINE
  5
96
330
1E
100
AcDbEntity
  8
0
100
AcDbLine
 10
14.0
 20
0.299999999999959
 30
0.0
 11
14.0
 21
0.9999999999999591
 31
0.0
  0
LINE
  5
97
330
1E
100
AcDbEntity
  8
0
100
AcDbLine
 10
14.0
 20
0.299999999999959
 30
0.0
 11
14.0
 21
-0.0000000000000413
 31
0.0
  0
LINE
  5
98
330
1E
100
AcDbEntity
  8
0
100
AcDbLine
 10
14.0
 20
0.9999999999999591
 30
0.0
 11
14.0
 21
24.5
 31
0.0
  0
LINE
  5
99
330
1E
100
AcDbEntity
  8
0
100
AcDbLine
 10
14.0
 20
0.9999999999999591
 30
0.0
 11
14.0
 21
0.299999999999959
 31
0.0
  0
LINE
  5
9A
330
1E
100
AcDbEntity
  8
0
100
AcDbLine
 10
14.0
 20
632.5
 30
0.0
 11
14.0
 21
483.4999999999999
 31
0.0
  0
LINE
  5
9B
330
1E
100
AcDbEntity
  8
0
100
AcDbLine
 10
14.0
 20
220.455637570558
 30
0.0
 11
14.0
 21
483.4999999999999
 31
0.0
  0
LINE
  5
9C
330
1E
100
AcDbEntity
  8
0
100
AcDbLine
 10
14.0
 20
483.4999999999999
 30
0.0
 11
14.0
 21
220.455637570558
 31
0.0
  0
LINE
  5
9D
330
1E
100
AcDbEntity
  8
0
100
AcDbLine
 10
14.0
 20
483.4999999999999
 30
0.0
 11
14.0
 21
632.5
 31
0.0
  0
LINE
  5
9E
330
1E
100
AcDbEntity
  8
0
100
AcDbLine
 10
14.399190095176
 20
36.8321530746891
 30
0.0
 11
14.72579999999999
 21
36.9924
 31
0.0
  0
LINE
  5
9F
330
1E
100
AcDbEntity
  8
0
100
AcDbLine
 10
13.9529
 20
36.613
 30
0.0
 11
15.3839
 21
37.3157
 31
0.0
  0
LINE
  5
A0
330
1E
100
AcDbEntity
  8
0
100
AcDbLine
 10
11.6218937150555
 20
690.4590954137759
 30
0.0
 11
12.5777
 21
674.6419999999999
 31
0.0
  0
LINE
  5
A1
330
1E
100
AcDbEntity
  8
0
100
AcDbLine
 10
13.296
 20
734.383
 30
0.0
 11
13.296
 21
689.35
 31
0.0
  0
LINE
  5
A2
330
1E
100
AcDbEntity
  8
0
100
AcDbLine
 10
13.296
 20
734.383
 30
0.0
 11
14.712
 21
735.0909999999999
 31
0.0
  0
LINE
  5
A3
330
1E
100
AcDbEntity
  8
0
100
AcDbLine
 10
14.3684582236799
 20
689.88622911184
 30
0.0
 11
14.4358
 21
667.721
 31
0.0
  0
LINE
  5
A4
330
1E
100
AcDbEntity
  8
0
100
AcDbLine
 10
14.55969999999999
 20
594.831
 30
0.0
 11
14.57559999999999
 21
561.829
 31
0.0
  0
LINE
  5
A5
330
1E
100
AcDbEntity
  8
0
100
AcDbLine
 10
14.5316
 20
617.827
 30
0.0
 11
14.55969999999999
 21
594.831
 31
0.0
  0
LINE
  5
A6
330
1E
100
AcDbEntity
  8
0
100
AcDbLine
 10
14.4897
 20
642.6239999999999
 30
0.0
 11
14.5316
 21
617.827
 31
0.0
  0
LINE
  5
A7
330
1E
100
AcDbEntity
  8
0
100
AcDbLine
 10
14.712
 20
690.0579999999999
 30
0.0
 11
14.712
 21
735.0909999999999
 31
0.0
  0
LINE
  5
A8
330
1E
100
AcDbEntity
  8
0
100
AcDbLine
 10
14.712
 20
735.0909999999999
 30
0.0
 11
14.712
 21
690.0579999999999
 31
0.0
  0
LINE
  5
A9
330
1E
100
AcDbEntity
  8
0
100
AcDbLine
 10
14.4358
 20
667.721
 30
0.0
 11
14.4897
 21
642.6239999999999
 31
0.0
  0
LINE
  5
AA
330
1E
100
AcDbEntity
  8
0
100
AcDbLine
 10
14.4
 20
734.9479999999999
 30
0.0
 11
16.8
 21
733.998
 31
0.0
  0
LINE
  5
AB
330
1E
100
AcDbEntity
  8
0
100
AcDbLine
 10
12.952
 20
736.258
 30
0.0
 11
14.712
 21
735.0909999999999
 31
0.0
  0
LINE
  5
AC
330
1E
100
AcDbEntity
  8
0
100
AcDbLine
 10
11.89599999999999
 20
737.5779999999999
 30
0.0
 11
12.952
 21
736.258
 31
0.0
  0
LINE
  5
AD
330
1E
100
AcDbEntity
  8
0
100
AcDbLine
 10
11.5
 20
738.985
 30
0.0
 11
11.89599999999999
 21
737.5779999999999
 31
0.0
  0
LINE
  5
AE
330
1E
100
AcDbEntity
  8
0
100
AcDbLine
 10
11.5
 20
738.985
 30
0.0
 11
11.89599999999999
 21
740.393
 31
0.0
  0
LINE
  5
AF
330
1E
100
AcDbEntity
  8
0
100
AcDbLine
 10
12.5
 20
736.148
 30
0.0
 11
14.4
 21
734.9479999999999
 31
0.0
  0
LINE
  5
B0
330
1E
100
AcDbEntity
  8
0
100
AcDbLine
 10
11.4
 20
737.498
 30
0.0
 11
12.5
 21
736.148
 31
0.0
  0
LINE
  5
B1
330
1E
100
AcDbEntity
  8
0
100
AcDbLine
 10
0.2999999999999989
 20
941.5
 30
0.0
 11
0.2999999999999989
 21
483.4999999999999
 31
0.0
  0
LINE
  5
B2
330
1E
100
AcDbEntity
  8
0
100
AcDbLine
 10
0.2999999999999989
 20
941.5
 30
0.0
 11
0.9999999999999989
 21
941.5
 31
0.0
  0
LINE
  5
B3
330
1E
100
AcDbEntity
  8
0
100
AcDbLine
 10
0.2999999999999989
 20
941.5
 30
0.0
 11
0.6499999999999991
 21
942.0
 31
0.0
  0
LINE
  5
B4
330
1E
100
AcDbEntity
  8
0
100
AcDbLine
 10
-0.0000000000000009
 20
941.5
 30
0.0
 11
-0.0000000000000009
 21
483.4999999999999
 31
0.0
  0
LINE
  5
B5
330
1E
100
AcDbEntity
  8
0
100
AcDbLine
 10
-0.0000000000000009
 20
941.5
 30
0.0
 11
0.2999999999999989
 21
941.5
 31
0.0
  0
LINE
  5
B6
330
1E
100
AcDbEntity
  8
0
100
AcDbLine
 10
-0.0000000000000009
 20
941.5
 30
0.0
 11
0.499999999999999
 21
942.0
 31
0.0
  0
LINE
  5
B7
330
1E
100
AcDbEntity
  8
0
100
AcDbLine
 10
0.9999999999999989
 20
941.5
 30
0.0
 11
14.0
 21
941.5
 31
0.0
  0
LINE
  5
B8
330
1E
100
AcDbEntity
  8
0
100
AcDbLine
 10
0.9999999999999989
 20
941.5
 30
0.0
 11
14.0
 21
941.5
 31
0.0
  0
LINE
  5
B9
330
1E
100
AcDbEntity
  8
0
100
AcDbLine
 10
0.9999999999999989
 20
942.0
 30
0.0
 11
22.5
 21
942.0
 31
0.0
  0
LINE
  5
BA
330
1E
100
AcDbEntity
  8
0
100
AcDbLine
 10
0.9999999999999989
 20
942.0
 30
0.0
 11
14.0
 21
942.0
 31
0.0
  0
LINE
  5
BB
330
1E
100
AcDbEntity
  8
0
100
AcDbLine
 10
0.9999999999999989
 20
942.0
 30
0.0
 11
22.5
 21
942.0
 31
0.0
  0
LINE
  5
BC
330
1E
100
AcDbEntity
  8
0
100
AcDbLine
 10
0.9999999999999989
 20
942.0
 30
0.0
 11
14.0
 21
942.0
 31
0.0
  0
LINE
  5
BD
330
1E
100
AcDbEntity
  8
0
100
AcDbLine
 10
0.9999999999999989
 20
942.5
 30
0.0
 11
22.5
 21
942.5
 31
0.0
  0
LINE
  5
BE
330
1E
100
AcDbEntity
  8
0
100
AcDbLine
 10
0.6499999999999991
 20
942.0
 30
0.0
 11
0.9999999999999989
 21
942.0
 31
0.0
  0
LINE
  5
BF
330
1E
100
AcDbEntity
  8
0
100
AcDbLine
 10
0.499999999999999
 20
942.0
 30
0.0
 11
0.6499999999999991
 21
942.0
 31
0.0
  0
LINE
  5
C0
330
1E
100
AcDbEntity
  8
0
100
AcDbLine
 10
0.9999999999999989
 20
942.5
 30
0.0
 11
22.5
 21
942.5
 31
0.0
  0
LINE
  5
C1
330
1E
100
AcDbEntity
  8
0
100
AcDbLine
 10
0.2999999999999989
 20
942.5
 30
0.0
 11
0.2999999999999989
 21
966.0
 31
0.0
  0
LINE
  5
C2
330
1E
100
AcDbEntity
  8
0
100
AcDbLine
 10
0.2999999999999989
 20
942.5
 30
0.0
 11
0.9999999999999989
 21
942.5
 31
0.0
  0
LINE
  5
C3
330
1E
100
AcDbEntity
  8
0
100
AcDbLine
 10
0.9999999999999989
 20
966.6999999999999
 30
0.0
 11
22.5
 21
966.6999999999999
 31
0.0
  0
LINE
  5
C4
330
1E
100
AcDbEntity
  8
0
100
AcDbLine
 10
0.9999999999999989
 20
966.6999999999999
 30
0.0
 11
22.5
 21
966.6999999999999
 31
0.0
  0
LINE
  5
C5
330
1E
100
AcDbEntity
  8
0
100
AcDbLine
 10
0.9999999999999989
 20
967.0
 30
0.0
 11
22.5
 21
967.0
 31
0.0
  0
LINE
  5
C6
330
1E
100
AcDbEntity
  8
0
100
AcDbLine
 10
0.9999999999999989
 20
967.0
 30
0.0
 11
22.5
 21
967.0
 31
0.0
  0
LINE
  5
C7
330
1E
100
AcDbEntity
  8
0
100
AcDbLine
 10
0.499999999999999
 20
966.6999999999999
 30
0.0
 11
0.9999999999999989
 21
966.6999999999999
 31
0.0
  0
LINE
  5
C8
330
1E
100
AcDbEntity
  8
0
100
AcDbLine
 10
0.2999999999999989
 20
966.6999999999999
 30
0.0
 11
0.499999999999999
 21
966.6999999999999
 31
0.0
  0
LINE
  5
C9
330
1E
100
AcDbEntity
  8
0
100
AcDbLine
 10
0.2999999999999989
 20
966.0
 30
0.0
 11
0.2999999999999989
 21
942.5
 31
0.0
  0
LINE
  5
CA
330
1E
100
AcDbEntity
  8
0
100
AcDbLine
 10
0.2999999999999989
 20
966.0
 30
0.0
 11
0.499999999999999
 21
966.6999999999999
 31
0.0
  0
LINE
  5
CB
330
1E
100
AcDbEntity
  8
0
100
AcDbLine
 10
-0.0000000000000009
 20
966.0
 30
0.0
 11
-0.0000000000000009
 21
942.5
 31
0.0
  0
LINE
  5
CC
330
1E
100
AcDbEntity
  8
0
100
AcDbLine
 10
-0.0000000000000009
 20
942.5
 30
0.0
 11
-0.0000000000000009
 21
966.0
 31
0.0
  0
LINE
  5
CD
330
1E
100
AcDbEntity
  8
0
100
AcDbLine
 10
-0.0000000000000009
 20
942.5
 30
0.0
 11
0.2999999999999989
 21
942.5
 31
0.0
  0
LINE
  5
CE
330
1E
100
AcDbEntity
  8
0
100
AcDbLine
 10
-0.0000000000000009
 20
942.5
 30
0.0
 11
0.499999999999999
 21
942.0
 31
0.0
  0
LINE
  5
CF
330
1E
100
AcDbEntity
  8
0
100
AcDbLine
 10
11.21599999999999
 20
742.2089999999999
 30
0.0
 11
13.296
 21
743.588
 31
0.0
  0
LINE
  5
D0
330
1E
100
AcDbEntity
  8
0
100
AcDbLine
 10
9.967999999999999
 20
740.6489999999998
 30
0.0
 11
11.21599999999999
 21
742.2089999999999
 31
0.0
  0
LINE
  5
D1
330
1E
100
AcDbEntity
  8
0
100
AcDbLine
 10
12.952
 20
741.7139999999999
 30
0.0
 11
14.712
 21
742.8799999999999
 31
0.0
  0
LINE
  5
D2
330
1E
100
AcDbEntity
  8
0
100
AcDbLine
 10
11.89599999999999
 20
740.393
 30
0.0
 11
12.952
 21
741.7139999999999
 31
0.0
  0
LINE
  5
D3
330
1E
100
AcDbEntity
  8
0
100
AcDbLine
 10
14.0
 20
743.853660377359
 30
0.0
 11
14.0
 21
941.5
 31
0.0
  0
LINE
  5
D4
330
1E
100
AcDbEntity
  8
0
100
AcDbLine
 10
14.0
 20
942.0
 30
0.0
 11
14.0
 21
941.5
 31
0.0
  0
LINE
  5
D5
330
1E
100
AcDbEntity
  8
0
100
AcDbLine
 10
14.0
 20
942.0
 30
0.0
 11
22.5
 21
942.0
 31
0.0
  0
LINE
  5
D6
330
1E
100
AcDbEntity
  8
0
100
AcDbLine
 10
14.0
 20
941.5
 30
0.0
 11
14.0
 21
743.8536603773579
 31
0.0
  0
LINE
  5
D7
330
1E
100
AcDbEntity
  8
0
100
AcDbLine
 10
14.0
 20
941.5
 30
0.0
 11
14.0
 21
942.0
 31
0.0
  0
LINE
  5
D8
330
1E
100
AcDbEntity
  8
0
100
AcDbLine
 10
13.296
 20
743.588
 30
0.0
 11
16.05199999999999
 21
744.628
 31
0.0
  0
LINE
  5
D9
330
1E
100
AcDbEntity
  8
0
100
AcDbLine
 10
14.712
 20
742.8799999999999
 30
0.0
 11
17.044
 21
743.7599999999999
 31
0.0
  0
LINE
  5
DA
330
1E
100
AcDbEntity
  8
0
100
AcDbLine
 10
14.4
 20
743.048
 30
0.0
 11
16.8
 21
743.998
 31
0.0
  0
LINE
  5
DB
330
1E
100
AcDbEntity
  8
0
100
AcDbLine
 10
12.5
 20
741.8489999999999
 30
0.0
 11
14.4
 21
743.048
 31
0.0
  0
LINE
  5
DC
330
1E
100
AcDbEntity
  8
0
100
AcDbLine
 10
11.4
 20
740.4980000000001
 30
0.0
 11
12.5
 21
741.8489999999999
 31
0.0
  0
LINE
  5
DD
330
1E
100
AcDbEntity
  8
0
100
AcDbLine
 10
11.0
 20
738.998
 30
0.0
 11
11.4
 21
737.498
 31
0.0
  0
LINE
  5
DE
330
1E
100
AcDbEntity
  8
0
100
AcDbLine
 10
11.0
 20
738.998
 30
0.0
 11
11.4
 21
740.4980000000001
 31
0.0
  0
LINE
  5
DF
330
1E
100
AcDbEntity
  8
0
100
AcDbLine
 10
14.72579999999999
 20
36.9924
 30
0.0
 11
16.66369999999999
 21
37.9434
 31
0.0
  0
LINE
  5
E0
330
1E
100
AcDbEntity
  8
0
100
AcDbLine
 10
16.66369999999999
 20
37.9434
 30
0.0
 11
17.1200751491624
 21
38.1674932804057
 31
0.0
  0
LINE
  5
E1
330
1E
100
AcDbEntity
  8
0
100
AcDbLine
 10
15.3839
 20
37.3157
 30
0.0
 11
17.7813
 21
38.4919
 31
0.0
  0
LINE
  5
E3
330
1E
100
AcDbEntity
  8
0
100
AcDbLine
 10
20.69389999999999
 20
39.9216
 30
0.0
 11
23.8436
 21
41.46659999999999
 31
0.0
  0
LINE
  5
E4
330
1E
100
AcDbEntity
  8
0
100
AcDbLine
 10
20.6991302135575
 20
39.9241655395581
 30
0.0
 11
22.6053
 21
40.859
 31
0.0
  0
LINE
  5
E5
330
1E
100
AcDbEntity
  8
0
100
AcDbLine
 10
17.7813
 20
38.4919
 30
0.0
 11
20.69389999999999
 21
39.9216
 31
0.0
  0
LINE
  5
EA
330
1E
100
AcDbEntity
  8
0
100
AcDbLine
 10
22.5
 20
-0.0000000000000426
 30
0.0
 11
31.0
 21
-0.0000000000000426
 31
0.0
  0
LINE
  5
EB
330
1E
100
AcDbEntity
  8
0
100
AcDbLine
 10
22.5
 20
25.0
 30
0.0
 11
31.0
 21
25.0
 31
0.0
  0
LINE
  5
EC
330
1E
100
AcDbEntity
  8
0
100
AcDbLine
 10
22.5
 20
-0.0000000000000418
 30
0.0
 11
31.0
 21
-0.0000000000000418
 31
0.0
  0
LINE
  5
ED
330
1E
100
AcDbEntity
  8
0
100
AcDbLine
 10
22.6053
 20
40.859
 30
0.0
 11
23.6396540402746
 21
41.3665598349761
 31
0.0
  0
LINE
  5
EE
330
1E
100
AcDbEntity
  8
0
100
AcDbLine
 10
24.2996628473587
 20
41.6904276289448
 30
0.0
 11
25.5146
 21
42.2866
 31
0.0
  0
LINE
  5
EF
330
1E
100
AcDbEntity
  8
0
100
AcDbLine
 10
23.8436
 20
41.46659999999999
 30
0.0
 11
26.6426
 21
42.8403
 31
0.0
  0
LINE
  5
F4
330
1E
100
AcDbEntity
  8
0
100
AcDbLine
 10
22.5
 20
708.0169999999999
 30
0.0
 11
25.1
 21
708.2169999999999
 31
0.0
  0
LINE
  5
F5
330
1E
100
AcDbEntity
  8
0
100
AcDbLine
 10
25.5146
 20
42.2866
 30
0.0
 11
27.91059999999999
 21
43.46269999999999
 31
0.0
  0
LINE
  5
F6
330
1E
100
AcDbEntity
  8
0
100
AcDbLine
 10
27.91059999999999
 20
43.46269999999999
 30
0.0
 11
29.3453
 21
44.16649999999999
 31
0.0
  0
LINE
  5
F7
330
1E
100
AcDbEntity
  8
0
100
AcDbLine
 10
29.61199999999999
 20
44.2976
 30
0.0
 11
30.5758
 21
561.8279999999999
 31
0.0
  0
LINE
  5
F8
330
1E
100
AcDbEntity
  8
0
100
AcDbLine
 10
29.3453
 20
44.16649999999999
 30
0.0
 11
29.61199999999999
 21
44.2976
 31
0.0
  0
LINE
  5
FA
330
1E
100
AcDbEntity
  8
0
100
AcDbLine
 10
29.61199999999999
 20
44.2976
 30
0.0
 11
30.5758
 21
561.8279999999999
 31
0.0
  0
LINE
  5
FB
330
1E
100
AcDbEntity
  8
0
100
AcDbLine
 10
28.5819
 20
43.7924
 30
0.0
 11
29.61199999999999
 21
44.2976
 31
0.0
  0
LINE
  5
FC
330
1E
100
AcDbEntity
  8
0
100
AcDbLine
 10
26.6426
 20
42.8403
 30
0.0
 11
28.5819
 21
43.7924
 31
0.0
  0
LINE
  5
FD
330
1E
100
AcDbEntity
  8
0
100
AcDbLine
 10
30.5063541638101
 20
632.5
 30
0.0
 11
31.5
 21
632.5
 31
0.0
  0
LINE
  5
FE
330
1E
100
AcDbEntity
  8
0
100
AcDbLine
 10
30.5063541638101
 20
632.5
 30
0.0
 11
31.25
 21
632.5
 31
0.0
  0
LINE
  5
FF
330
1E
100
AcDbEntity
  8
0
100
AcDbLine
 10
30.50552745090129
 20
633.0
 30
0.0
 11
31.6
 21
633.0
 31
0.0
  0
LINE
  5
100
330
1E
100
AcDbEntity
  8
0
100
AcDbLine
 10
31.0
 20
-0.0000000000000418
 30
0.0
 11
31.0
 21
25.0
 31
0.0
  0
LINE
  5
101
330
1E
100
AcDbEntity
  8
0
100
AcDbLine
 10
31.0
 20
-0.0000000000000412
 30
0.0
 11
31.0
 21
0.299999999999959
 31
0.0
  0
LINE
  5
102
330
1E
100
AcDbEntity
  8
0
100
AcDbLine
 10
31.0
 20
-0.0000000000000426
 30
0.0
 11
36.0
 21
-0.0000000000000426
 31
0.0
  0
LINE
  5
103
330
1E
100
AcDbEntity
  8
0
100
AcDbLine
 10
40.0
 20
-0.0000000000000417
 30
0.0
 11
44.0
 21
-0.0000000000000417
 31
0.0
  0
LINE
  5
104
330
1E
100
AcDbEntity
  8
0
100
AcDbLine
 10
37.4649
 20
-0.0000000000000418
 30
0.0
 11
40.0
 21
-0.0000000000000417
 31
0.0
  0
LINE
  5
105
330
1E
100
AcDbEntity
  8
0
100
AcDbLine
 10
36.0
 20
-0.000000000000042
 30
0.0
 11
37.4649
 21
-0.0000000000000418
 31
0.0
  0
LINE
  5
106
330
1E
100
AcDbEntity
  8
0
100
AcDbLine
 10
31.0
 20
0.299999999999959
 30
0.0
 11
44.0
 21
0.299999999999959
 31
0.0
  0
LINE
  5
107
330
1E
100
AcDbEntity
  8
0
100
AcDbLine
 10
31.0
 20
0.299999999999959
 30
0.0
 11
31.0
 21
-0.0000000000000413
 31
0.0
  0
LINE
  5
108
330
1E
100
AcDbEntity
  8
0
100
AcDbLine
 10
31.0
 20
0.299999999999959
 30
0.0
 11
31.0
 21
0.9999999999999591
 31
0.0
  0
LINE
  5
109
330
1E
100
AcDbEntity
  8
0
100
AcDbLine
 10
44.0
 20
0.299999999999959
 30
0.0
 11
44.5
 21
0.299999999999959
 31
0.0
  0
LINE
  5
10A
330
1E
100
AcDbEntity
  8
0
100
AcDbLine
 10
44.5
 20
0.299999999999959
 30
0.0
 11
44.7
 21
0.9999999999999591
 31
0.0
  0
LINE
  5
10B
330
1E
100
AcDbEntity
  8
0
100
AcDbLine
 10
44.5
 20
0.299999999999959
 30
0.0
 11
44.7
 21
0.299999999999959
 31
0.0
  0
LINE
  5
10C
330
1E
100
AcDbEntity
  8
0
100
AcDbLine
 10
31.0
 20
0.9999999999999591
 30
0.0
 11
31.0
 21
0.299999999999959
 31
0.0
  0
LINE
  5
10D
330
1E
100
AcDbEntity
  8
0
100
AcDbLine
 10
31.0
 20
0.9999999999999591
 30
0.0
 11
31.0
 21
24.5
 31
0.0
  0
LINE
  5
10E
330
1E
100
AcDbEntity
  8
0
100
AcDbLine
 10
44.7
 20
0.299999999999958
 30
0.0
 11
45.0
 21
0.999999999999958
 31
0.0
  0
LINE
  5
10F
330
1E
100
AcDbEntity
  8
0
100
AcDbLine
 10
31.0
 20
24.5
 30
0.0
 11
31.0
 21
0.999999999999958
 31
0.0
  0
LINE
  5
110
330
1E
100
AcDbEntity
  8
0
100
AcDbLine
 10
31.0
 20
24.5
 30
0.0
 11
44.0
 21
24.5
 31
0.0
  0
LINE
  5
111
330
1E
100
AcDbEntity
  8
0
100
AcDbLine
 10
31.0
 20
24.5
 30
0.0
 11
31.0
 21
25.0
 31
0.0
  0
LINE
  5
112
330
1E
100
AcDbEntity
  8
0
100
AcDbLine
 10
44.7
 20
0.9999999999999591
 30
0.0
 11
44.7
 21
24.5
 31
0.0
  0
LINE
  5
113
330
1E
100
AcDbEntity
  8
0
100
AcDbLine
 10
44.0
 20
24.5
 30
0.0
 11
44.7
 21
24.5
 31
0.0
  0
LINE
  5
114
330
1E
100
AcDbEntity
  8
0
100
AcDbLine
 10
44.7
 20
24.5
 30
0.0
 11
44.7
 21
0.999999999999958
 31
0.0
  0
LINE
  5
115
330
1E
100
AcDbEntity
  8
0
100
AcDbLine
 10
44.7
 20
24.5
 30
0.0
 11
45.0
 21
24.5
 31
0.0
  0
LINE
  5
116
330
1E
100
AcDbEntity
  8
0
100
AcDbLine
 10
31.0
 20
25.0
 30
0.0
 11
31.0
 21
24.5
 31
0.0
  0
LINE
  5
117
330
1E
100
AcDbEntity
  8
0
100
AcDbLine
 10
31.0
 20
25.0
 30
0.0
 11
44.0
 21
25.0
 31
0.0
  0
LINE
  5
118
330
1E
100
AcDbEntity
  8
0
100
AcDbLine
 10
31.0
 20
25.0
 30
0.0
 11
31.0
 21
-0.0000000000000403
 31
0.0
  0
LINE
  5
119
330
1E
100
AcDbEntity
  8
0
100
AcDbLine
 10
31.0
 20
25.0
 30
0.0
 11
31.0
 21
25.5
 31
0.0
  0
LINE
  5
11A
330
1E
100
AcDbEntity
  8
0
100
AcDbLine
 10
31.0
 20
25.0
 30
0.0
 11
31.0
 21
483.4999999999999
 31
0.0
  0
LINE
  5
11B
330
1E
100
AcDbEntity
  8
0
100
AcDbLine
 10
44.0
 20
25.0
 30
0.0
 11
44.35
 21
25.0
 31
0.0
  0
LINE
  5
11C
330
1E
100
AcDbEntity
  8
0
100
AcDbLine
 10
31.0
 20
483.4999999999999
 30
0.0
 11
31.0
 21
25.5
 31
0.0
  0
LINE
  5
11D
330
1E
100
AcDbEntity
  8
0
100
AcDbLine
 10
31.0
 20
483.4999999999999
 30
0.0
 11
31.0
 21
25.0
 31
0.0
  0
LINE
  5
11E
330
1E
100
AcDbEntity
  8
0
100
AcDbLine
 10
31.0
 20
483.4999999999999
 30
0.0
 11
31.0
 21
632.5
 31
0.0
  0
LINE
  5
11F
330
1E
100
AcDbEntity
  8
0
100
AcDbLine
 10
31.0
 20
25.5
 30
0.0
 11
44.0
 21
25.5
 31
0.0
  0
LINE
  5
120
330
1E
100
AcDbEntity
  8
0
100
AcDbLine
 10
31.0
 20
25.5
 30
0.0
 11
31.0
 21
25.0
 31
0.0
  0
LINE
  5
121
330
1E
100
AcDbEntity
  8
0
100
AcDbLine
 10
31.0
 20
25.5
 30
0.0
 11
31.0
 21
483.4999999999999
 31
0.0
  0
LINE
  5
122
330
1E
100
AcDbEntity
  8
0
100
AcDbLine
 10
44.0
 20
25.5
 30
0.0
 11
44.7
 21
25.5
 31
0.0
  0
LINE
  5
123
330
1E
100
AcDbEntity
  8
0
100
AcDbLine
 10
44.35
 20
25.0
 30
0.0
 11
44.5
 21
25.0
 31
0.0
  0
LINE
  5
124
330
1E
100
AcDbEntity
  8
0
100
AcDbLine
 10
44.7
 20
25.5
 30
0.0
 11
45.0
 21
25.5
 31
0.0
  0
LINE
  5
125
330
1E
100
AcDbEntity
  8
0
100
AcDbLine
 10
44.7
 20
25.5
 30
0.0
 11
44.7
 21
483.4999999999999
 31
0.0
  0
LINE
  5
126
330
1E
100
AcDbEntity
  8
0
100
AcDbLine
 10
45.0
 20
483.4999999999999
 30
0.0
 11
45.0
 21
941.5
 31
0.0
  0
LINE
  5
127
330
1E
100
AcDbEntity
  8
0
100
AcDbLine
 10
44.7
 20
483.4999999999999
 30
0.0
 11
44.7
 21
25.5
 31
0.0
  0
LINE
  5
128
330
1E
100
AcDbEntity
  8
0
100
AcDbLine
 10
44.7
 20
483.4999999999999
 30
0.0
 11
44.7
 21
941.5
 31
0.0
  0
LINE
  5
129
330
1E
100
AcDbEntity
  8
0
100
AcDbLine
 10
45.0
 20
25.5
 30
0.0
 11
45.0
 21
483.4999999999999
 31
0.0
  0
LINE
  5
12A
330
1E
100
AcDbEntity
  8
0
100
AcDbLine
 10
44.5
 20
25.0
 30
0.0
 11
45.0
 21
24.5
 31
0.0
  0
LINE
  5
12B
330
1E
100
AcDbEntity
  8
0
100
AcDbLine
 10
44.5
 20
25.0
 30
0.0
 11
45.0
 21
24.5
 31
0.0
  0
LINE
  5
12C
330
1E
100
AcDbEntity
  8
0
100
AcDbLine
 10
44.5
 20
25.0
 30
0.0
 11
45.0
 21
25.5
 31
0.0
  0
LINE
  5
12D
330
1E
100
AcDbEntity
  8
0
100
AcDbLine
 10
45.0
 20
24.5
 30
0.0
 11
45.0
 21
0.999999999999958
 31
0.0
  0
LINE
  5
12E
330
1E
100
AcDbEntity
  8
0
100
AcDbLine
 10
45.0
 20
0.9999999999999591
 30
0.0
 11
45.0
 21
24.5
 31
0.0
  0
LINE
  5
12F
330
1E
100
AcDbEntity
  8
0
100
AcDbLine
 10
31.0
 20
632.5
 30
0.0
 11
31.0
 21
483.4999999999999
 31
0.0
  0
LINE
  5
130
330
1E
100
AcDbEntity
  8
0
100
AcDbLine
 10
31.25
 20
632.5
 30
0.0
 11
31.5
 21
632.5
 31
0.0
  0
LINE
  5
131
330
1E
100
AcDbEntity
  8
0
100
AcDbLine
 10
31.6
 20
633.0
 30
0.0
 11
32.0
 21
633.0
 31
0.0
  0
LINE
  5
132
330
1E
100
AcDbEntity
  8
0
100
AcDbLine
 10
32.0
 20
633.0
 30
0.0
 11
32.0
 21
656.0369999999998
 31
0.0
  0
LINE
  5
133
330
1E
100
AcDbEntity
  8
0
100
AcDbLine
 10
30.5596
 20
594.829
 30
0.0
 11
30.5758
 21
561.8279999999999
 31
0.0
  0
LINE
  5
134
330
1E
100
AcDbEntity
  8
0
100
AcDbLine
 10
30.5306
 20
617.836
 30
0.0
 11
30.5596
 21
594.829
 31
0.0
  0
LINE
  5
135
330
1E
100
AcDbEntity
  8
0
100
AcDbLine
 10
32.0
 20
656.216
 30
0.0
 11
32.0
 21
658.296
 31
0.0
  0
LINE
  5
136
330
1E
100
AcDbEntity
  8
0
100
AcDbLine
 10
32.0
 20
656.216
 30
0.0
 11
32.0
 21
656.0369999999998
 31
0.0
  0
LINE
  5
137
330
1E
100
AcDbEntity
  8
0
100
AcDbLine
 10
32.0
 20
656.0369999999998
 30
0.0
 11
32.0
 21
633.0
 31
0.0
  0
LINE
  5
138
330
1E
100
AcDbEntity
  8
0
100
AcDbLine
 10
32.0
 20
656.0369999999998
 30
0.0
 11
32.0
 21
656.216
 31
0.0
  0
LINE
  5
139
330
1E
100
AcDbEntity
  8
0
100
AcDbLine
 10
32.0
 20
658.296
 30
0.0
 11
32.0
 21
661.052
 31
0.0
  0
LINE
  5
13A
330
1E
100
AcDbEntity
  8
0
100
AcDbLine
 10
32.0
 20
658.296
 30
0.0
 11
32.0
 21
656.216
 31
0.0
  0
LINE
  5
13C
330
1E
100
AcDbEntity
  8
0
100
AcDbLine
 10
31.704
 20
689.35
 30
0.0
 11
31.704
 21
734.383
 31
0.0
  0
LINE
  5
13D
330
1E
100
AcDbEntity
  8
0
100
AcDbLine
 10
31.704
 20
689.35
 30
0.0
 11
33.784
 21
690.728
 31
0.0
  0
LINE
  5
13E
330
1E
100
AcDbEntity
  8
0
100
AcDbLine
 10
32.0
 20
669.6979999999999
 30
0.0
 11
32.2871
 21
671.4089999999999
 31
0.0
  0
LINE
  5
13F
330
1E
100
AcDbEntity
  8
0
100
AcDbLine
 10
32.0
 20
668.5679999999999
 30
0.0
 11
32.0
 21
667.4999999999999
 31
0.0
  0
LINE
  5
140
330
1E
100
AcDbEntity
  8
0
100
AcDbLine
 10
32.0
 20
668.5679999999999
 30
0.0
 11
32.0
 21
669.6979999999999
 31
0.0
  0
LINE
  5
141
330
1E
100
AcDbEntity
  8
0
100
AcDbLine
 10
32.0
 20
667.4999999999999
 30
0.0
 11
32.0
 21
664.172
 31
0.0
  0
LINE
  5
142
330
1E
100
AcDbEntity
  8
0
100
AcDbLine
 10
32.0
 20
667.4999999999999
 30
0.0
 11
32.0
 21
668.5679999999999
 31
0.0
  0
LINE
  5
143
330
1E
100
AcDbEntity
  8
0
100
AcDbLine
 10
32.0
 20
661.052
 30
0.0
 11
32.0
 21
664.172
 31
0.0
  0
LINE
  5
144
330
1E
100
AcDbEntity
  8
0
100
AcDbLine
 10
32.0
 20
661.052
 30
0.0
 11
32.0
 21
658.296
 31
0.0
  0
LINE
  5
145
330
1E
100
AcDbEntity
  8
0
100
AcDbLine
 10
32.2871
 20
671.4089999999999
 30
0.0
 11
32.4834
 21
674.6419999999999
 31
0.0
  0
LINE
  5
147
330
1E
100
AcDbEntity
  8
0
100
AcDbLine
 10
32.4834
 20
674.6419999999999
 30
0.0
 11
33.3970429864501
 21
690.4716409785229
 31
0.0
  0
LINE
  5
148
330
1E
100
AcDbEntity
  8
0
100
AcDbLine
 10
32.0
 20
664.172
 30
0.0
 11
32.0
 21
667.4999999999999
 31
0.0
  0
LINE
  5
149
330
1E
100
AcDbEntity
  8
0
100
AcDbLine
 10
32.0
 20
664.172
 30
0.0
 11
32.0
 21
661.052
 31
0.0
  0
LINE
  5
14C
330
1E
100
AcDbEntity
  8
0
100
AcDbLine
 10
30.4896
 20
642.633
 30
0.0
 11
30.5306
 21
617.836
 31
0.0
  0
LINE
  5
14D
330
1E
100
AcDbEntity
  8
0
100
AcDbLine
 10
30.4347
 20
667.73
 30
0.0
 11
30.4896
 21
642.633
 31
0.0
  0
LINE
  5
14E
330
1E
100
AcDbEntity
  8
0
100
AcDbLine
 10
30.288
 20
690.0579999999999
 30
0.0
 11
30.288
 21
735.0909999999999
 31
0.0
  0
LINE
  5
14F
330
1E
100
AcDbEntity
  8
0
100
AcDbLine
 10
30.288
 20
690.0579999999999
 30
0.0
 11
31.704
 21
689.35
 31
0.0
  0
LINE
  5
150
330
1E
100
AcDbEntity
  8
0
100
AcDbLine
 10
33.784
 20
690.728
 30
0.0
 11
35.03199999999999
 21
692.288
 31
0.0
  0
LINE
  5
151
330
1E
100
AcDbEntity
  8
0
100
AcDbLine
 10
35.5
 20
693.9519999999999
 30
0.0
 11
35.5
 21
738.985
 31
0.0
  0
LINE
  5
152
330
1E
100
AcDbEntity
  8
0
100
AcDbLine
 10
35.03199999999999
 20
692.288
 30
0.0
 11
35.5
 21
693.9519999999999
 31
0.0
  0
LINE
  5
153
330
1E
100
AcDbEntity
  8
0
100
AcDbLine
 10
30.36724426684819
 20
690.0183778665759
 30
0.0
 11
30.4347
 21
667.73
 31
0.0
  0
LINE
  5
154
330
1E
100
AcDbEntity
  8
0
100
AcDbLine
 10
25.1
 20
708.2169999999999
 30
0.0
 11
27.5
 21
708.6669999999998
 31
0.0
  0
LINE
  5
155
330
1E
100
AcDbEntity
  8
0
100
AcDbLine
 10
27.5
 20
708.6669999999998
 30
0.0
 11
29.6
 21
709.4669999999999
 31
0.0
  0
LINE
  5
156
330
1E
100
AcDbEntity
  8
0
100
AcDbLine
 10
29.6
 20
709.4669999999999
 30
0.0
 11
30.288
 21
709.9185
 31
0.0
  0
LINE
  5
157
330
1E
100
AcDbEntity
  8
0
100
AcDbLine
 10
19.9
 20
708.2169999999999
 30
0.0
 11
22.5
 21
708.0169999999999
 31
0.0
  0
LINE
  5
158
330
1E
100
AcDbEntity
  8
0
100
AcDbLine
 10
17.5
 20
708.6669999999998
 30
0.0
 11
19.9
 21
708.2169999999999
 31
0.0
  0
LINE
  5
159
330
1E
100
AcDbEntity
  8
0
100
AcDbLine
 10
16.05199999999999
 20
744.628
 30
0.0
 11
19.172
 21
745.2519999999999
 31
0.0
  0
LINE
  5
15A
330
1E
100
AcDbEntity
  8
0
100
AcDbLine
 10
16.8
 20
743.998
 30
0.0
 11
19.5
 21
744.5479999999999
 31
0.0
  0
LINE
  5
15B
330
1E
100
AcDbEntity
  8
0
100
AcDbLine
 10
22.5
 20
733.248
 30
0.0
 11
25.5
 21
733.448
 31
0.0
  0
LINE
  5
15C
330
1E
100
AcDbEntity
  8
0
100
AcDbLine
 10
30.288
 20
735.0909999999999
 30
0.0
 11
30.288
 21
690.0579999999999
 31
0.0
  0
LINE
  5
15D
330
1E
100
AcDbEntity
  8
0
100
AcDbLine
 10
25.5
 20
733.448
 30
0.0
 11
28.2
 21
733.998
 31
0.0
  0
LINE
  5
15E
330
1E
100
AcDbEntity
  8
0
100
AcDbLine
 10
30.288
 20
735.0909999999999
 30
0.0
 11
32.048
 21
736.258
 31
0.0
  0
LINE
  5
15F
330
1E
100
AcDbEntity
  8
0
100
AcDbLine
 10
30.288
 20
735.0909999999999
 30
0.0
 11
31.704
 21
734.383
 31
0.0
  0
LINE
  5
160
330
1E
100
AcDbEntity
  8
0
100
AcDbLine
 10
28.2
 20
733.998
 30
0.0
 11
30.6
 21
734.9479999999999
 31
0.0
  0
LINE
  5
161
330
1E
100
AcDbEntity
  8
0
100
AcDbLine
 10
31.704
 20
734.383
 30
0.0
 11
33.784
 21
735.7610000000001
 31
0.0
  0
LINE
  5
162
330
1E
100
AcDbEntity
  8
0
100
AcDbLine
 10
31.704
 20
734.383
 30
0.0
 11
31.704
 21
689.35
 31
0.0
  0
LINE
  5
163
330
1E
100
AcDbEntity
  8
0
100
AcDbLine
 10
30.6
 20
734.9479999999999
 30
0.0
 11
32.5
 21
736.148
 31
0.0
  0
LINE
  5
164
330
1E
100
AcDbEntity
  8
0
100
AcDbLine
 10
19.172
 20
745.2519999999999
 30
0.0
 11
22.5
 21
745.485
 31
0.0
  0
LINE
  5
165
330
1E
100
AcDbEntity
  8
0
100
AcDbLine
 10
17.044
 20
743.7599999999999
 30
0.0
 11
19.684
 21
744.2869999999999
 31
0.0
  0
LINE
  5
166
330
1E
100
AcDbEntity
  8
0
100
AcDbLine
 10
33.104
 20
740.393
 30
0.0
 11
33.5
 21
738.985
 31
0.0
  0
LINE
  5
167
330
1E
100
AcDbEntity
  8
0
100
AcDbLine
 10
32.048
 20
736.258
 30
0.0
 11
33.104
 21
737.5779999999999
 31
0.0
  0
LINE
  5
168
330
1E
100
AcDbEntity
  8
0
100
AcDbLine
 10
33.104
 20
737.5779999999999
 30
0.0
 11
33.5
 21
738.985
 31
0.0
  0
LINE
  5
169
330
1E
100
AcDbEntity
  8
0
100
AcDbLine
 10
30.288
 20
742.8799999999999
 30
0.0
 11
32.048
 21
741.7139999999999
 31
0.0
  0
LINE
  5
16A
330
1E
100
AcDbEntity
  8
0
100
AcDbLine
 10
32.048
 20
741.7139999999999
 30
0.0
 11
33.104
 21
740.393
 31
0.0
  0
LINE
  5
16B
330
1E
100
AcDbEntity
  8
0
100
AcDbLine
 10
22.5
 20
744.485
 30
0.0
 11
25.316
 21
744.2869999999999
 31
0.0
  0
LINE
  5
16C
330
1E
100
AcDbEntity
  8
0
100
AcDbLine
 10
25.316
 20
744.2869999999999
 30
0.0
 11
27.956
 21
743.7599999999999
 31
0.0
  0
LINE
  5
16D
330
1E
100
AcDbEntity
  8
0
100
AcDbLine
 10
27.956
 20
743.7599999999999
 30
0.0
 11
30.288
 21
742.8799999999999
 31
0.0
  0
LINE
  5
16E
330
1E
100
AcDbEntity
  8
0
100
AcDbLine
 10
19.684
 20
744.2869999999999
 30
0.0
 11
22.5
 21
744.485
 31
0.0
  0
LINE
  5
16F
330
1E
100
AcDbEntity
  8
0
100
AcDbLine
 10
22.5
 20
942.0
 30
0.0
 11
44.0
 21
942.0
 31
0.0
  0
LINE
  5
170
330
1E
100
AcDbEntity
  8
0
100
AcDbLine
 10
22.5
 20
942.0
 30
0.0
 11
31.0
 21
942.0
 31
0.0
  0
LINE
  5
171
330
1E
100
AcDbEntity
  8
0
100
AcDbLine
 10
22.5
 20
966.6999999999999
 30
0.0
 11
44.0
 21
966.6999999999999
 31
0.0
  0
LINE
  5
172
330
1E
100
AcDbEntity
  8
0
100
AcDbLine
 10
22.5
 20
967.0
 30
0.0
 11
44.0
 21
967.0
 31
0.0
  0
LINE
  5
173
330
1E
100
AcDbEntity
  8
0
100
AcDbLine
 10
22.5
 20
942.5
 30
0.0
 11
44.0
 21
942.5
 31
0.0
  0
LINE
  5
174
330
1E
100
AcDbEntity
  8
0
100
AcDbLine
 10
22.5
 20
745.485
 30
0.0
 11
25.828
 21
745.2519999999999
 31
0.0
  0
LINE
  5
175
330
1E
100
AcDbEntity
  8
0
100
AcDbLine
 10
25.828
 20
745.2519999999999
 30
0.0
 11
28.948
 21
744.628
 31
0.0
  0
LINE
  5
176
330
1E
100
AcDbEntity
  8
0
100
AcDbLine
 10
22.5
 20
744.748
 30
0.0
 11
25.5
 21
744.5479999999999
 31
0.0
  0
LINE
  5
177
330
1E
100
AcDbEntity
  8
0
100
AcDbLine
 10
25.5
 20
744.5479999999999
 30
0.0
 11
28.2
 21
743.998
 31
0.0
  0
LINE
  5
178
330
1E
100
AcDbEntity
  8
0
100
AcDbLine
 10
31.0
 20
743.853660377359
 30
0.0
 11
31.0
 21
941.5
 31
0.0
  0
LINE
  5
179
330
1E
100
AcDbEntity
  8
0
100
AcDbLine
 10
31.0
 20
743.853660377359
 30
0.0
 11
31.0
 21
942.0
 31
0.0
  0
LINE
  5
17A
330
1E
100
AcDbEntity
  8
0
100
AcDbLine
 10
31.0
 20
942.0
 30
0.0
 11
31.0
 21
941.5
 31
0.0
  0
LINE
  5
17B
330
1E
100
AcDbEntity
  8
0
100
AcDbLine
 10
31.0
 20
942.0
 30
0.0
 11
44.0
 21
942.0
 31
0.0
  0
LINE
  5
17C
330
1E
100
AcDbEntity
  8
0
100
AcDbLine
 10
31.0
 20
942.0
 30
0.0
 11
31.0
 21
743.853660377359
 31
0.0
  0
LINE
  5
17D
330
1E
100
AcDbEntity
  8
0
100
AcDbLine
 10
31.0
 20
941.5
 30
0.0
 11
31.0
 21
743.8536603773579
 31
0.0
  0
LINE
  5
17E
330
1E
100
AcDbEntity
  8
0
100
AcDbLine
 10
31.0
 20
941.5
 30
0.0
 11
44.0
 21
941.5
 31
0.0
  0
LINE
  5
17F
330
1E
100
AcDbEntity
  8
0
100
AcDbLine
 10
31.0
 20
941.5
 30
0.0
 11
31.0
 21
942.0
 31
0.0
  0
LINE
  5
180
330
1E
100
AcDbEntity
  8
0
100
AcDbLine
 10
28.948
 20
744.628
 30
0.0
 11
31.704
 21
743.588
 31
0.0
  0
LINE
  5
181
330
1E
100
AcDbEntity
  8
0
100
AcDbLine
 10
31.704
 20
743.588
 30
0.0
 11
33.784
 21
742.2089999999999
 31
0.0
  0
LINE
  5
182
330
1E
100
AcDbEntity
  8
0
100
AcDbLine
 10
28.2
 20
743.998
 30
0.0
 11
30.6
 21
743.048
 31
0.0
  0
LINE
  5
183
330
1E
100
AcDbEntity
  8
0
100
AcDbLine
 10
30.6
 20
743.048
 30
0.0
 11
32.5
 21
741.8489999999999
 31
0.0
  0
LINE
  5
184
330
1E
100
AcDbEntity
  8
0
100
AcDbLine
 10
32.5
 20
741.8489999999999
 30
0.0
 11
33.6
 21
740.4980000000001
 31
0.0
  0
LINE
  5
185
330
1E
100
AcDbEntity
  8
0
100
AcDbLine
 10
33.6
 20
740.4980000000001
 30
0.0
 11
34.0
 21
738.998
 31
0.0
  0
LINE
  5
186
330
1E
100
AcDbEntity
  8
0
100
AcDbLine
 10
19.5
 20
744.5479999999999
 30
0.0
 11
22.5
 21
744.748
 31
0.0
  0
LINE
  5
187
330
1E
100
AcDbEntity
  8
0
100
AcDbLine
 10
32.5
 20
736.148
 30
0.0
 11
33.6
 21
737.498
 31
0.0
  0
LINE
  5
188
330
1E
100
AcDbEntity
  8
0
100
AcDbLine
 10
33.784
 20
735.7610000000001
 30
0.0
 11
35.03199999999999
 21
737.321
 31
0.0
  0
LINE
  5
189
330
1E
100
AcDbEntity
  8
0
100
AcDbLine
 10
35.5
 20
738.985
 30
0.0
 11
35.5
 21
693.9519999999999
 31
0.0
  0
LINE
  5
18A
330
1E
100
AcDbEntity
  8
0
100
AcDbLine
 10
35.03199999999999
 20
737.321
 30
0.0
 11
35.5
 21
738.985
 31
0.0
  0
LINE
  5
18B
330
1E
100
AcDbEntity
  8
0
100
AcDbLine
 10
33.784
 20
742.2089999999999
 30
0.0
 11
35.03199999999999
 21
740.6489999999998
 31
0.0
  0
LINE
  5
18C
330
1E
100
AcDbEntity
  8
0
100
AcDbLine
 10
44.0
 20
941.5
 30
0.0
 11
44.7
 21
941.5
 31
0.0
  0
LINE
  5
18D
330
1E
100
AcDbEntity
  8
0
100
AcDbLine
 10
44.0
 20
942.0
 30
0.0
 11
44.35
 21
942.0
 31
0.0
  0
LINE
  5
18E
330
1E
100
AcDbEntity
  8
0
100
AcDbLine
 10
44.0
 20
942.0
 30
0.0
 11
44.0
 21
942.5
 31
0.0
  0
LINE
  5
18F
330
1E
100
AcDbEntity
  8
0
100
AcDbLine
 10
44.5
 20
942.0
 30
0.0
 11
45.0
 21
941.5
 31
0.0
  0
LINE
  5
190
330
1E
100
AcDbEntity
  8
0
100
AcDbLine
 10
44.7
 20
941.5
 30
0.0
 11
44.7
 21
483.4999999999999
 31
0.0
  0
LINE
  5
191
330
1E
100
AcDbEntity
  8
0
100
AcDbLine
 10
44.7
 20
941.5
 30
0.0
 11
45.0
 21
941.5
 31
0.0
  0
LINE
  5
192
330
1E
100
AcDbEntity
  8
0
100
AcDbLine
 10
44.35
 20
942.0
 30
0.0
 11
44.5
 21
942.0
 31
0.0
  0
LINE
  5
193
330
1E
100
AcDbEntity
  8
0
100
AcDbLine
 10
44.35
 20
942.0
 30
0.0
 11
44.7
 21
942.5
 31
0.0
  0
LINE
  5
194
330
1E
100
AcDbEntity
  8
0
100
AcDbLine
 10
44.35
 20
942.0
 30
0.0
 11
44.7
 21
941.5
 31
0.0
  0
LINE
  5
195
330
1E
100
AcDbEntity
  8
0
100
AcDbLine
 10
44.0
 20
942.5
 30
0.0
 11
44.7
 21
942.5
 31
0.0
  0
LINE
  5
196
330
1E
100
AcDbEntity
  8
0
100
AcDbLine
 10
44.7
 20
966.0
 30
0.0
 11
44.7
 21
942.5
 31
0.0
  0
LINE
  5
197
330
1E
100
AcDbEntity
  8
0
100
AcDbLine
 10
45.0
 20
942.5
 30
0.0
 11
45.0
 21
966.0
 31
0.0
  0
LINE
  5
198
330
1E
100
AcDbEntity
  8
0
100
AcDbLine
 10
44.7
 20
942.5
 30
0.0
 11
45.0
 21
942.5
 31
0.0
  0
LINE
  5
199
330
1E
100
AcDbEntity
  8
0
100
AcDbLine
 10
44.7
 20
942.5
 30
0.0
 11
44.7
 21
966.0
 31
0.0
  0
LINE
  5
19A
330
1E
100
AcDbEntity
  8
0
100
AcDbLine
 10
44.0
 20
966.6999999999999
 30
0.0
 11
44.5
 21
966.6999999999999
 31
0.0
  0
LINE
  5
19B
330
1E
100
AcDbEntity
  8
0
100
AcDbLine
 10
44.7
 20
966.6999999999999
 30
0.0
 11
45.0
 21
966.0
 31
0.0
  0
LINE
  5
19C
330
1E
100
AcDbEntity
  8
0
100
AcDbLine
 10
44.5
 20
966.6999999999999
 30
0.0
 11
44.7
 21
966.6999999999999
 31
0.0
  0
LINE
  5
19D
330
1E
100
AcDbEntity
  8
0
100
AcDbLine
 10
44.5
 20
966.6999999999999
 30
0.0
 11
44.7
 21
966.0
 31
0.0
  0
LINE
  5
19E
330
1E
100
AcDbEntity
  8
0
100
AcDbLine
 10
45.0
 20
966.0
 30
0.0
 11
45.0
 21
942.5
 31
0.0
  0
LINE
  5
19F
330
1E
100
AcDbEntity
  8
0
100
AcDbLine
 10
35.03199999999999
 20
740.6489999999998
 30
0.0
 11
35.5
 21
738.985
 31
0.0
  0
LINE
  5
1A0
330
1E
100
AcDbEntity
  8
0
100
AcDbLine
 10
33.6
 20
737.498
 30
0.0
 11
34.0
 21
738.998
 31
0.0
  0
LINE
  5
1A1
330
1E
100
AcDbEntity
  8
0
100
AcDbLine
 10
19.5
 20
733.448
 30
0.0
 11
22.5
 21
733.248
 31
0.0
  0
LINE
  5
1A2
330
1E
100
AcDbEntity
  8
0
100
AcDbLine
 10
16.8
 20
733.998
 30
0.0
 11
19.5
 21
733.448
 31
0.0
  0
LINE
  5
1A3
330
1E
100
AcDbEntity
  8
0
100
AcDbLine
 10
15.4
 20
709.4669999999999
 30
0.0
 11
17.5
 21
708.6669999999998
 31
0.0
  0
LINE
  5
1A4
330
1E
100
AcDbEntity
  8
0
100
AcDbLine
 10
14.712
 20
709.9185
 30
0.0
 11
15.4
 21
709.4669999999999
 31
0.0
  0
ENDSEC
  0
SECTION
  2
OBJECTS
  0
DICTIONARY
  5
C
330
0
100
AcDbDictionary
281
     1
  3
ACAD_GROUP
350
D
  3
ACAD_LAYOUT
350
19
  3
ACAD_MLINESTYLE
350
16
  3
ACAD_PLOTSETTINGS
350
18
  3
ACAD_PLOTSTYLENAME
350
E
  3
AcDbVariableDictionary
350
1A9
  0
DICTIONARY
  5
D
102
{ACAD_REACTORS
330
C
102
}
330
C
100
AcDbDictionary
281
     1
  0
DICTIONARY
  5
19
102
{ACAD_REACTORS
330
C
102
}
330
C
100
AcDbDictionary
281
     1
  3
Layout1
350
1D
  3
Model
350
21
  0
DICTIONARY
  5
16
102
{ACAD_REACTORS
330
C
102
}
330
C
100
AcDbDictionary
281
     1
  3
Standard
350
17
  0
DICTIONARY
  5
18
102
{ACAD_REACTORS
330
C
102
}
330
C
100
AcDbDictionary
281
     1
  0
ACDBDICTIONARYWDFLT
  5
E
102
{ACAD_REACTORS
330
C
102
}
330
C
100
AcDbDictionary
281
     1
  3
Normal
350
F
100
AcDbDictionaryWithDefault
340
F
  0
DICTIONARY
  5
1A9
102
{ACAD_REACTORS
330
C
102
}
330
C
100
AcDbDictionary
281
     1
  3
DIMASSOC
350
1AA
  0
LAYOUT
  5
1D
102
{ACAD_REACTORS
330
19
102
}
330
19
100
AcDbPlotSettings
  1

  2
hp deskjet 980c series
  4

  6

 40
0.0
 41
0.0
 42
0.0
 43
0.0
 44
0.0
 45
0.0
 46
0.0
 47
0.0
 48
0.0
 49
0.0
140
0.0
141
0.0
142
1.0
143
1.0
 70
   688
 72
     0
 73
     0
 74
     5
  7

 75
    16
147
1.0
148
0.0
149
0.0
100
AcDbLayout
  1
Layout1
 70
     1
 71
     1
 10
0.0
 20
0.0
 11
12.0
 21
9.0
 12
0.0
 22
0.0
 32
0.0
 14
1.000000000000000E+20
 24
1.000000000000000E+20
 34
1.000000000000000E+20
 15
-1.000000000000000E+20
 25
-1.000000000000000E+20
 35
-1.000000000000000E+20
146
0.0
 13
0.0
 23
0.0
 33
0.0
 16
1.0
 26
0.0
 36
0.0
 17
0.0
 27
1.0
 37
0.0
 76
     0
330
1A
  0
LAYOUT
  5
21
102
{ACAD_REACTORS
330
19
102
}
330
19
100
AcDbPlotSettings
  1

  2
hp deskjet 980c series
  4

  6

 40
0.0
 41
0.0
 42
0.0
 43
0.0
 44
0.0
 45
0.0
 46
0.0
 47
0.0
 48
0.0
 49
0.0
140
0.0
141
0.0
142
1.0
143
1.0
 70
  1712
 72
     0
 73
     0
 74
     0
  7

 75
     0
147
1.0
148
0.0
149
0.0
100
AcDbLayout
  1
Model
 70
     1
 71
     0
 10
0.0
 20
0.0
 11
12.0
 21
9.0
 12
0.0
 22
0.0
 32
0.0
 14
0.0
 24
0.0
 34
0.0
 15
0.0
 25
0.0
 35
0.0
146
0.0
 13
0.0
 23
0.0
 33
0.0
 16
1.0
 26
0.0
 36
0.0
 17
0.0
 27
1.0
 37
0.0
 76
     0
330
1E
  0
MLINESTYLE
  5
17
102
{ACAD_REACTORS
330
16
102
}
330
16
100
AcDbMlineStyle
  2
STANDARD
 70
     0
  3

 62
   256
 51
90.0
 52
90.0
 71
     2
 49
0.5
 62
   256
  6
BYLAYER
 49
-0.5
 62
   256
  6
BYLAYER
  0
ACDBPLACEHOLDER
  5
F
102
{ACAD_REACTORS
330
E
102
}
330
E
  0
DICTIONARYVAR
  5
1AA
102
{ACAD_REACTORS
330
1A9
102
}
330
1A9
100
DictionaryVariables
280
     0
  1
1
  0
ENDSEC
  0
EOF
