  0
SECTION
  2
HEADER
  9
$ACADVER
  1
AC1015
  9
$ACADMAINTVER
 70
    13
  9
$DWGCODEPAGE
  3
ANSI_1252
  9
$INSBASE
 10
0.0
 20
0.0
 30
0.0
  9
$EXTMIN
 10
-0.0000000000000028
 20
-0.0000000000000025
 30
0.0
  9
$EXTMAX
 10
179.0
 20
120.0
 30
0.0
  9
$LIMMIN
 10
0.0
 20
0.0
  9
$LIMMAX
 10
12.0
 20
9.0
  9
$ORTHOMODE
 70
     0
  9
$REGENMODE
 70
     1
  9
$FILLMODE
 70
     1
  9
$QTEXTMODE
 70
     0
  9
$MIRRTEXT
 70
     1
  9
$LTSCALE
 40
1.0
  9
$ATTMODE
 70
     1
  9
$TEXTSIZE
 40
0.2
  9
$TRACEWID
 40
0.05
  9
$TEXTSTYLE
  7
Standard
  9
$CLAYER
  8
0
  9
$CELTYPE
  6
Continuous
  9
$CECOLOR
 62
   256
  9
$CELTSCALE
 40
1.0
  9
$DISPSILH
 70
     0
  9
$DIMSCALE
 40
1.0
  9
$DIMASZ
 40
0.18
  9
$DIMEXO
 40
0.0625
  9
$DIMDLI
 40
0.38
  9
$DIMRND
 40
0.0
  9
$DIMDLE
 40
0.0
  9
$DIMEXE
 40
0.18
  9
$DIMTP
 40
0.0
  9
$DIMTM
 40
0.0
  9
$DIMTXT
 40
0.18
  9
$DIMCEN
 40
0.09
  9
$DIMTSZ
 40
0.0
  9
$DIMTOL
 70
     0
  9
$DIMLIM
 70
     0
  9
$DIMTIH
 70
     1
  9
$DIMTOH
 70
     1
  9
$DIMSE1
 70
     0
  9
$DIMSE2
 70
     0
  9
$DIMTAD
 70
     0
  9
$DIMZIN
 70
     0
  9
$DIMBLK
  1

  9
$DIMASO
 70
     1
  9
$DIMSHO
 70
     1
  9
$DIMPOST
  1

  9
$DIMAPOST
  1

  9
$DIMALT
 70
     0
  9
$DIMALTD
 70
     2
  9
$DIMALTF
 40
25.4
  9
$DIMLFAC
 40
1.0
  9
$DIMTOFL
 70
     0
  9
$DIMTVP
 40
0.0
  9
$DIMTIX
 70
     0
  9
$DIMSOXD
 70
     0
  9
$DIMSAH
 70
     0
  9
$DIMBLK1
  1

  9
$DIMBLK2
  1

  9
$DIMSTYLE
  2
Standard
  9
$DIMCLRD
 70
     0
  9
$DIMCLRE
 70
     0
  9
$DIMCLRT
 70
     0
  9
$DIMTFAC
 40
1.0
  9
$DIMGAP
 40
0.09
  9
$DIMJUST
 70
     0
  9
$DIMSD1
 70
     0
  9
$DIMSD2
 70
     0
  9
$DIMTOLJ
 70
     1
  9
$DIMTZIN
 70
     0
  9
$DIMALTZ
 70
     0
  9
$DIMALTTZ
 70
     0
  9
$DIMUPT
 70
     0
  9
$DIMDEC
 70
     4
  9
$DIMTDEC
 70
     4
  9
$DIMALTU
 70
     2
  9
$DIMALTTD
 70
     2
  9
$DIMTXSTY
  7
Standard
  9
$DIMAUNIT
 70
     0
  9
$DIMADEC
 70
     0
  9
$DIMALTRND
 40
0.0
  9
$DIMAZIN
 70
     0
  9
$DIMDSEP
 70
    46
  9
$DIMATFIT
 70
     3
  9
$DIMFRAC
 70
     0
  9
$DIMLDRBLK
  1

  9
$DIMLUNIT
 70
     2
  9
$DIMLWD
 70
    -2
  9
$DIMLWE
 70
    -2
  9
$DIMTMOVE
 70
     0
  9
$LUNITS
 70
     2
  9
$LUPREC
 70
     4
  9
$SKETCHINC
 40
0.1
  9
$FILLETRAD
 40
0.0
  9
$AUNITS
 70
     0
  9
$AUPREC
 70
     0
  9
$MENU
  1
.
  9
$ELEVATION
 40
0.0
  9
$PELEVATION
 40
0.0
  9
$THICKNESS
 40
0.0
  9
$LIMCHECK
 70
     0
  9
$CHAMFERA
 40
0.0
  9
$CHAMFERB
 40
0.0
  9
$CHAMFERC
 40
0.0
  9
$CHAMFERD
 40
0.0
  9
$SKPOLY
 70
     0
  9
$TDCREATE
 40
2454737.936081446
  9
$TDUCREATE
 40
2454737.852748113
  9
$TDUPDATE
 40
2454737.936708252
  9
$TDUUPDATE
 40
2454737.853374918
  9
$TDINDWG
 40
0.0006269907
  9
$TDUSRTIMER
 40
0.0006269907
  9
$USRTIMER
 70
     1
  9
$ANGBASE
 50
0.0
  9
$ANGDIR
 70
     0
  9
$PDMODE
 70
     0
  9
$PDSIZE
 40
0.0
  9
$PLINEWID
 40
0.0
  9
$SPLFRAME
 70
     0
  9
$SPLINETYPE
 70
     6
  9
$SPLINESEGS
 70
     8
  9
$HANDSEED
  5
2E2
  9
$SURFTAB1
 70
     6
  9
$SURFTAB2
 70
     6
  9
$SURFTYPE
 70
     6
  9
$SURFU
 70
     6
  9
$SURFV
 70
     6
  9
$UCSBASE
  2

  9
$UCSNAME
  2

  9
$UCSORG
 10
0.0
 20
0.0
 30
0.0
  9
$UCSXDIR
 10
1.0
 20
0.0
 30
0.0
  9
$UCSYDIR
 10
0.0
 20
1.0
 30
0.0
  9
$UCSORTHOREF
  2

  9
$UCSORTHOVIEW
 70
     1
  9
$UCSORGTOP
 10
0.0
 20
0.0
 30
0.0
  9
$UCSORGBOTTOM
 10
0.0
 20
0.0
 30
0.0
  9
$UCSORGLEFT
 10
0.0
 20
0.0
 30
0.0
  9
$UCSORGRIGHT
 10
0.0
 20
0.0
 30
0.0
  9
$UCSORGFRONT
 10
0.0
 20
0.0
 30
0.0
  9
$UCSORGBACK
 10
0.0
 20
0.0
 30
0.0
  9
$PUCSBASE
  2

  9
$PUCSNAME
  2

  9
$PUCSORG
 10
0.0
 20
0.0
 30
0.0
  9
$PUCSXDIR
 10
1.0
 20
0.0
 30
0.0
  9
$PUCSYDIR
 10
0.0
 20
1.0
 30
0.0
  9
$PUCSORTHOREF
  2

  9
$PUCSORTHOVIEW
 70
     0
  9
$PUCSORGTOP
 10
0.0
 20
0.0
 30
0.0
  9
$PUCSORGBOTTOM
 10
0.0
 20
0.0
 30
0.0
  9
$PUCSORGLEFT
 10
0.0
 20
0.0
 30
0.0
  9
$PUCSORGRIGHT
 10
0.0
 20
0.0
 30
0.0
  9
$PUCSORGFRONT
 10
0.0
 20
0.0
 30
0.0
  9
$PUCSORGBACK
 10
0.0
 20
0.0
 30
0.0
  9
$USERI1
 70
     0
  9
$USERI2
 70
     0
  9
$USERI3
 70
     0
  9
$USERI4
 70
     0
  9
$USERI5
 70
     0
  9
$USERR1
 40
0.0
  9
$USERR2
 40
0.0
  9
$USERR3
 40
0.0
  9
$USERR4
 40
0.0
  9
$USERR5
 40
0.0
  9
$WORLDVIEW
 70
     1
  9
$SHADEDGE
 70
     3
  9
$SHADEDIF
 70
    70
  9
$TILEMODE
 70
     1
  9
$MAXACTVP
 70
    64
  9
$PINSBASE
 10
0.0
 20
0.0
 30
0.0
  9
$PLIMCHECK
 70
     0
  9
$PEXTMIN
 10
1.000000000000000E+20
 20
1.000000000000000E+20
 30
1.000000000000000E+20
  9
$PEXTMAX
 10
-1.000000000000000E+20
 20
-1.000000000000000E+20
 30
-1.000000000000000E+20
  9
$PLIMMIN
 10
0.0
 20
0.0
  9
$PLIMMAX
 10
12.0
 20
9.0
  9
$UNITMODE
 70
     0
  9
$VISRETAIN
 70
     1
  9
$PLINEGEN
 70
     0
  9
$PSLTSCALE
 70
     1
  9
$TREEDEPTH
 70
  3020
  9
$CMLSTYLE
  2
Standard
  9
$CMLJUST
 70
     0
  9
$CMLSCALE
 40
1.0
  9
$PROXYGRAPHICS
 70
     1
  9
$MEASUREMENT
 70
     0
  9
$CELWEIGHT
370
    -1
  9
$ENDCAPS
280
     0
  9
$JOINSTYLE
280
     0
  9
$LWDISPLAY
290
     0
  9
$INSUNITS
 70
     0
  9
$HYPERLINKBASE
  1

  9
$STYLESHEET
  1

  9
$XEDIT
290
     1
  9
$CEPSNTYPE
380
     0
  9
$PSTYLEMODE
290
     1
  9
$FINGERPRINTGUID
  2
{F7F0D327-2836-4D28-A218-00BB0B1E0962}
  9
$VERSIONGUID
  2
{0F779B79-319A-4CFE-8523-CB06D2B173B9}
  9
$EXTNAMES
290
     1
  9
$PSVPSCALE
 40
0.0
  9
$OLESTARTUP
290
     0
  0
ENDSEC
  0
SECTION
  2
CLASSES
  0
CLASS
  1
ACDBDICTIONARYWDFLT
  2
AcDbDictionaryWithDefault
  3
AutoCAD 2000
 90
        0
280
     0
281
     0
  0
CLASS
  1
ACDBPLACEHOLDER
  2
AcDbPlaceHolder
  3
AutoCAD 2000
 90
        0
280
     0
281
     0
  0
CLASS
  1
LAYOUT
  2
AcDbLayout
  3
AutoCAD 2000
 90
        0
280
     0
281
     0
  0
CLASS
  1
DICTIONARYVAR
  2
AcDbDictionaryVar
  3
AutoCAD 2000
 90
        0
280
     0
281
     0
  0
ENDSEC
  0
SECTION
  2
TABLES
  0
TABLE
  2
VPORT
  5
8
330
0
100
AcDbSymbolTable
 70
     2
  0
VPORT
  5
2E1
330
8
100
AcDbSymbolTableRecord
100
AcDbViewportTableRecord
  2
*Active
 70
     0
 10
0.0
 20
0.0
 11
1.0
 21
1.0
 12
89.50000000000001
 22
60.0
 13
0.0
 23
0.0
 14
1.0
 24
1.0
 15
0.0
 25
0.0
 16
0.0
 26
0.0
 36
1.0
 17
0.0
 27
0.0
 37
0.0
 40
120.9207161125319
 41
2.078104993597951
 42
50.0
 43
0.0
 44
0.0
 50
0.0
 51
0.0
 71
     0
 72
   100
 73
     1
 74
     3
 75
     0
 76
     0
 77
     0
 78
     0
281
     0
 65
     1
110
0.0
120
0.0
130
0.0
111
1.0
121
0.0
131
0.0
112
0.0
122
1.0
132
0.0
 79
     1
146
0.0
  0
ENDTAB
  0
TABLE
  2
LTYPE
  5
5
330
0
100
AcDbSymbolTable
 70
     1
  0
LTYPE
  5
13
330
5
100
AcDbSymbolTableRecord
100
AcDbLinetypeTableRecord
  2
ByBlock
 70
     0
  3

 72
    65
 73
     0
 40
0.0
  0
LTYPE
  5
14
330
5
100
AcDbSymbolTableRecord
100
AcDbLinetypeTableRecord
  2
ByLayer
 70
     0
  3

 72
    65
 73
     0
 40
0.0
  0
LTYPE
  5
15
330
5
100
AcDbSymbolTableRecord
100
AcDbLinetypeTableRecord
  2
Continuous
 70
     0
  3
Solid line
 72
    65
 73
     0
 40
0.0
  0
ENDTAB
  0
TABLE
  2
LAYER
  5
2
330
0
100
AcDbSymbolTable
 70
     1
  0
LAYER
  5
10
330
2
100
AcDbSymbolTableRecord
100
AcDbLayerTableRecord
  2
0
 70
     0
 62
     7
  6
Continuous
370
    -3
390
F
  0
ENDTAB
  0
TABLE
  2
STYLE
  5
3
330
0
100
AcDbSymbolTable
 70
     1
  0
STYLE
  5
11
330
3
100
AcDbSymbolTableRecord
100
AcDbTextStyleTableRecord
  2
Standard
 70
     0
 40
0.0
 41
1.0
 50
0.0
 71
     0
 42
0.2
  3
txt
  4

  0
ENDTAB
  0
TABLE
  2
VIEW
  5
6
330
0
100
AcDbSymbolTable
 70
     0
  0
ENDTAB
  0
TABLE
  2
UCS
  5
7
330
0
100
AcDbSymbolTable
 70
     0
  0
ENDTAB
  0
TABLE
  2
APPID
  5
9
330
0
100
AcDbSymbolTable
 70
     1
  0
APPID
  5
12
330
9
100
AcDbSymbolTableRecord
100
AcDbRegAppTableRecord
  2
ACAD
 70
     0
  0
ENDTAB
  0
TABLE
  2
DIMSTYLE
  5
A
330
0
100
AcDbSymbolTable
 70
     1
100
AcDbDimStyleTable
 71
     0
  0
DIMSTYLE
105
2DB
330
A
100
AcDbSymbolTableRecord
100
AcDbDimStyleTableRecord
  2
Standard
 70
     0
340
11
  0
ENDTAB
  0
TABLE
  2
BLOCK_RECORD
  5
1
330
0
100
AcDbSymbolTable
 70
     0
  0
BLOCK_RECORD
  5
1E
330
1
100
AcDbSymbolTableRecord
100
AcDbBlockTableRecord
  2
*Model_Space
340
21
  0
BLOCK_RECORD
  5
1A
330
1
100
AcDbSymbolTableRecord
100
AcDbBlockTableRecord
  2
*Paper_Space
340
1D
  0
ENDTAB
  0
ENDSEC
  0
SECTION
  2
BLOCKS
  0
BLOCK
  5
1F
330
1E
100
AcDbEntity
  8
0
100
AcDbBlockBegin
  2
*Model_Space
 70
     0
 10
0.0
 20
0.0
 30
0.0
  3
*Model_Space
  1

  0
ENDBLK
  5
20
330
1E
100
AcDbEntity
  8
0
100
AcDbBlockEnd
  0
BLOCK
  5
1B
330
1A
100
AcDbEntity
 67
     1
  8
0
100
AcDbBlockBegin
  2
*Paper_Space
 70
     0
 10
0.0
 20
0.0
 30
0.0
  3
*Paper_Space
  1

  0
ENDBLK
  5
1C
330
1A
100
AcDbEntity
 67
     1
  8
0
100
AcDbBlockEnd
  0
ENDSEC
  0
SECTION
  2
ENTITIES
  0
LINE
  5
22
330
1E
100
AcDbEntity
  8
0
100
AcDbLine
 10
20.3791
 20
0.0000000000000067
 30
0.0
 11
21.85249999999999
 21
0.0000000000000066
 31
0.0
  0
LINE
  5
23
330
1E
100
AcDbEntity
  8
0
100
AcDbLine
 10
21.85249999999999
 20
0.0000000000000066
 30
0.0
 11
21.85249999999999
 21
2.00000000000001
 31
0.0
  0
LINE
  5
24
330
1E
100
AcDbEntity
  8
0
100
AcDbLine
 10
21.85249999999999
 20
0.0000000000000066
 30
0.0
 11
22.6289
 21
0.0000000000000066
 31
0.0
  0
LINE
  5
25
330
1E
100
AcDbEntity
  8
0
100
AcDbLine
 10
10.8169
 20
0.0000000000000073
 30
0.0
 11
13.41499999999999
 21
0.0000000000000071
 31
0.0
  0
LINE
  5
26
330
1E
100
AcDbEntity
  8
0
100
AcDbLine
 10
10.8169
 20
0.0000000000000073
 30
0.0
 11
12.3169
 21
0.0000000000000072
 31
0.0
  0
LINE
  5
27
330
1E
100
AcDbEntity
  8
0
100
AcDbLine
 10
10.8169
 20
0.0000000000000073
 30
0.0
 11
10.8169
 21
2.00000000000001
 31
0.0
  0
LINE
  5
28
330
1E
100
AcDbEntity
  8
0
100
AcDbLine
 10
10.16259999999999
 20
0.0000000000000073
 30
0.0
 11
10.16259999999999
 21
2.00000000000001
 31
0.0
  0
LINE
  5
29
330
1E
100
AcDbEntity
  8
0
100
AcDbLine
 10
10.16259999999999
 20
0.0000000000000073
 30
0.0
 11
10.8169
 21
0.0000000000000073
 31
0.0
  0
LINE
  5
2A
330
1E
100
AcDbEntity
  8
0
100
AcDbLine
 10
8.041299999999999
 20
0.0000000000000074
 30
0.0
 11
10.16259999999999
 21
0.0000000000000073
 31
0.0
  0
LINE
  5
2B
330
1E
100
AcDbEntity
  8
0
100
AcDbLine
 10
8.041299999999999
 20
0.0000000000000074
 30
0.0
 11
8.041299999999999
 21
2.00000000000001
 31
0.0
  0
LINE
  5
2C
330
1E
100
AcDbEntity
  8
0
100
AcDbLine
 10
14.915
 20
0.000000000000007
 30
0.0
 11
14.915
 21
2.00000000000001
 31
0.0
  0
LINE
  5
2D
330
1E
100
AcDbEntity
  8
0
100
AcDbLine
 10
17.9408
 20
0.0000000000000068
 30
0.0
 11
20.0621
 21
0.0000000000000067
 31
0.0
  0
LINE
  5
2E
330
1E
100
AcDbEntity
  8
0
100
AcDbLine
 10
17.9408
 20
0.0000000000000068
 30
0.0
 11
17.9408
 21
2.00000000000001
 31
0.0
  0
LINE
  5
2F
330
1E
100
AcDbEntity
  8
0
100
AcDbLine
 10
17.9408
 20
0.0000000000000068
 30
0.0
 11
19.7312
 21
0.0000000000000067
 31
0.0
  0
LINE
  5
30
330
1E
100
AcDbEntity
  8
0
100
AcDbLine
 10
13.41499999999999
 20
0.0000000000000071
 30
0.0
 11
14.915
 21
0.000000000000007
 31
0.0
  0
LINE
  5
31
330
1E
100
AcDbEntity
  8
0
100
AcDbLine
 10
13.41499999999999
 20
0.0000000000000071
 30
0.0
 11
13.41499999999999
 21
2.00000000000001
 31
0.0
  0
LINE
  5
32
330
1E
100
AcDbEntity
  8
0
100
AcDbLine
 10
18.95469999999999
 20
0.0000000000000068
 30
0.0
 11
21.85249999999999
 21
0.0000000000000066
 31
0.0
  0
LINE
  5
33
330
1E
100
AcDbEntity
  8
0
100
AcDbLine
 10
18.95469999999999
 20
0.0000000000000068
 30
0.0
 11
19.7312
 21
0.0000000000000067
 31
0.0
  0
LINE
  5
34
330
1E
100
AcDbEntity
  8
0
100
AcDbLine
 10
18.95469999999999
 20
0.0000000000000068
 30
0.0
 11
18.95469999999999
 21
2.00000000000001
 31
0.0
  0
LINE
  5
35
330
1E
100
AcDbEntity
  8
0
100
AcDbLine
 10
19.7312
 20
0.0000000000000067
 30
0.0
 11
22.6289
 21
0.0000000000000066
 31
0.0
  0
LINE
  5
36
330
1E
100
AcDbEntity
  8
0
100
AcDbLine
 10
20.0621
 20
0.0000000000000067
 30
0.0
 11
22.6289
 21
0.0000000000000066
 31
0.0
  0
LINE
  5
37
330
1E
100
AcDbEntity
  8
0
100
AcDbLine
 10
45.89999999999999
 20
0.0000000000000051
 30
0.0
 11
45.89999999999999
 21
2.00000000000001
 31
0.0
  0
LINE
  5
38
330
1E
100
AcDbEntity
  8
0
100
AcDbLine
 10
45.89999999999999
 20
0.0000000000000051
 30
0.0
 11
48.9
 21
0.0000000000000049
 31
0.0
  0
LINE
  5
39
330
1E
100
AcDbEntity
  8
0
100
AcDbLine
 10
53.7204
 20
0.0000000000000047
 30
0.0
 11
53.7204
 21
2.0
 31
0.0
  0
LINE
  5
3A
330
1E
100
AcDbEntity
  8
0
100
AcDbLine
 10
53.7204
 20
0.0000000000000047
 30
0.0
 11
56.6182
 21
0.0000000000000045
 31
0.0
  0
LINE
  5
3B
330
1E
100
AcDbEntity
  8
0
100
AcDbLine
 10
51.6684
 20
0.0000000000000048
 30
0.0
 11
52.9
 21
0.0000000000000047
 31
0.0
  0
LINE
  5
3C
330
1E
100
AcDbEntity
  8
0
100
AcDbLine
 10
49.0656
 20
0.0000000000000049
 30
0.0
 11
49.7606
 21
0.0000000000000049
 31
0.0
  0
LINE
  5
3D
330
1E
100
AcDbEntity
  8
0
100
AcDbLine
 10
49.0656
 20
0.0000000000000049
 30
0.0
 11
50.56560000000001
 21
0.0000000000000048
 31
0.0
  0
LINE
  5
3E
330
1E
100
AcDbEntity
  8
0
100
AcDbLine
 10
48.9
 20
0.0000000000000049
 30
0.0
 11
51.6684
 21
0.0000000000000048
 31
0.0
  0
LINE
  5
3F
330
1E
100
AcDbEntity
  8
0
100
AcDbLine
 10
52.9
 20
0.0000000000000047
 30
0.0
 11
52.9
 21
2.0
 31
0.0
  0
LINE
  5
40
330
1E
100
AcDbEntity
  8
0
100
AcDbLine
 10
52.9
 20
0.0000000000000047
 30
0.0
 11
55.8417
 21
0.0000000000000045
 31
0.0
  0
LINE
  5
41
330
1E
100
AcDbEntity
  8
0
100
AcDbLine
 10
51.6684
 20
0.0000000000000048
 30
0.0
 11
51.6684
 21
2.0
 31
0.0
  0
LINE
  5
42
330
1E
100
AcDbEntity
  8
0
100
AcDbLine
 10
51.6684
 20
0.0000000000000048
 30
0.0
 11
51.8819
 21
0.0000000000000048
 31
0.0
  0
LINE
  5
43
330
1E
100
AcDbEntity
  8
0
100
AcDbLine
 10
48.7706
 20
0.000000000000005
 30
0.0
 11
48.7706
 21
2.00000000000001
 31
0.0
  0
LINE
  5
44
330
1E
100
AcDbEntity
  8
0
100
AcDbLine
 10
48.7706
 20
0.000000000000005
 30
0.0
 11
51.6684
 21
0.0000000000000048
 31
0.0
  0
LINE
  5
45
330
1E
100
AcDbEntity
  8
0
100
AcDbLine
 10
47.9942
 20
0.000000000000005
 30
0.0
 11
48.7706
 21
0.000000000000005
 31
0.0
  0
LINE
  5
46
330
1E
100
AcDbEntity
  8
0
100
AcDbLine
 10
47.9942
 20
0.000000000000005
 30
0.0
 11
47.9942
 21
2.00000000000001
 31
0.0
  0
LINE
  5
47
330
1E
100
AcDbEntity
  8
0
100
AcDbLine
 10
52.94389999999999
 20
0.0000000000000047
 30
0.0
 11
53.7204
 21
0.0000000000000047
 31
0.0
  0
LINE
  5
48
330
1E
100
AcDbEntity
  8
0
100
AcDbLine
 10
52.94389999999999
 20
0.0000000000000047
 30
0.0
 11
52.94389999999999
 21
2.0
 31
0.0
  0
LINE
  5
49
330
1E
100
AcDbEntity
  8
0
100
AcDbLine
 10
52.94389999999999
 20
0.0000000000000047
 30
0.0
 11
55.8417
 21
0.0000000000000045
 31
0.0
  0
LINE
  5
4A
330
1E
100
AcDbEntity
  8
0
100
AcDbLine
 10
47.57209999999999
 20
0.000000000000005
 30
0.0
 11
47.6393
 21
0.000000000000005
 31
0.0
  0
LINE
  5
4B
330
1E
100
AcDbEntity
  8
0
100
AcDbLine
 10
47.57209999999999
 20
0.000000000000005
 30
0.0
 11
48.34859999999999
 21
0.000000000000005
 31
0.0
  0
LINE
  5
4C
330
1E
100
AcDbEntity
  8
0
100
AcDbLine
 10
32.5394
 20
0.0000000000000059
 30
0.0
 11
34.0394
 21
0.0000000000000059
 31
0.0
  0
LINE
  5
4D
330
1E
100
AcDbEntity
  8
0
100
AcDbLine
 10
34.0394
 20
0.0000000000000059
 30
0.0
 11
34.9
 21
0.0000000000000058
 31
0.0
  0
LINE
  5
4E
330
1E
100
AcDbEntity
  8
0
100
AcDbLine
 10
34.9
 20
0.0000000000000058
 30
0.0
 11
34.9
 21
2.00000000000001
 31
0.0
  0
LINE
  5
4F
330
1E
100
AcDbEntity
  8
0
100
AcDbLine
 10
31.4413
 20
0.000000000000006
 30
0.0
 11
34.0394
 21
0.0000000000000059
 31
0.0
  0
LINE
  5
50
330
1E
100
AcDbEntity
  8
0
100
AcDbLine
 10
31.89999999999999
 20
0.000000000000006
 30
0.0
 11
31.89999999999999
 21
2.00000000000001
 31
0.0
  0
LINE
  5
51
330
1E
100
AcDbEntity
  8
0
100
AcDbLine
 10
31.89999999999999
 20
0.000000000000006
 30
0.0
 11
34.9
 21
0.0000000000000058
 31
0.0
  0
LINE
  5
52
330
1E
100
AcDbEntity
  8
0
100
AcDbLine
 10
32.0829
 20
0.000000000000006
 30
0.0
 11
34.9
 21
0.0000000000000058
 31
0.0
  0
LINE
  5
53
330
1E
100
AcDbEntity
  8
0
100
AcDbLine
 10
32.0829
 20
0.000000000000006
 30
0.0
 11
34.0394
 21
0.0000000000000059
 31
0.0
  0
LINE
  5
54
330
1E
100
AcDbEntity
  8
0
100
AcDbLine
 10
31.2021
 20
0.000000000000006
 30
0.0
 11
31.2021
 21
2.00000000000001
 31
0.0
  0
LINE
  5
55
330
1E
100
AcDbEntity
  8
0
100
AcDbLine
 10
31.2021
 20
0.000000000000006
 30
0.0
 11
32.5394
 21
0.0000000000000059
 31
0.0
  0
LINE
  5
56
330
1E
100
AcDbEntity
  8
0
100
AcDbLine
 10
29.9413
 20
0.0000000000000061
 30
0.0
 11
30.42569999999999
 21
0.0000000000000061
 31
0.0
  0
LINE
  5
57
330
1E
100
AcDbEntity
  8
0
100
AcDbLine
 10
29.9616
 20
0.0000000000000061
 30
0.0
 11
31.4413
 21
0.000000000000006
 31
0.0
  0
LINE
  5
58
330
1E
100
AcDbEntity
  8
0
100
AcDbLine
 10
30.42569999999999
 20
0.0000000000000061
 30
0.0
 11
30.42569999999999
 21
2.00000000000001
 31
0.0
  0
LINE
  5
59
330
1E
100
AcDbEntity
  8
0
100
AcDbLine
 10
30.42569999999999
 20
0.0000000000000061
 30
0.0
 11
31.2021
 21
0.000000000000006
 31
0.0
  0
LINE
  5
5A
330
1E
100
AcDbEntity
  8
0
100
AcDbLine
 10
39.77539999999999
 20
0.0000000000000055
 30
0.0
 11
41.0035
 21
0.0000000000000054
 31
0.0
  0
LINE
  5
5B
330
1E
100
AcDbEntity
  8
0
100
AcDbLine
 10
39.8611
 20
0.0000000000000055
 30
0.0
 11
41.0035
 21
0.0000000000000054
 31
0.0
  0
LINE
  5
5C
330
1E
100
AcDbEntity
  8
0
100
AcDbLine
 10
39.5035
 20
0.0000000000000055
 30
0.0
 11
41.0035
 21
0.0000000000000054
 31
0.0
  0
LINE
  5
5D
330
1E
100
AcDbEntity
  8
0
100
AcDbLine
 10
43.60149999999999
 20
0.0000000000000053
 30
0.0
 11
43.60149999999999
 21
2.00000000000001
 31
0.0
  0
LINE
  5
5E
330
1E
100
AcDbEntity
  8
0
100
AcDbLine
 10
42.1015
 20
0.0000000000000054
 30
0.0
 11
43.60149999999999
 21
0.0000000000000053
 31
0.0
  0
LINE
  5
5F
330
1E
100
AcDbEntity
  8
0
100
AcDbLine
 10
42.1015
 20
0.0000000000000054
 30
0.0
 11
42.1015
 21
2.00000000000001
 31
0.0
  0
LINE
  5
60
330
1E
100
AcDbEntity
  8
0
100
AcDbLine
 10
41.9
 20
0.0000000000000054
 30
0.0
 11
41.9
 21
2.00000000000001
 31
0.0
  0
LINE
  5
61
330
1E
100
AcDbEntity
  8
0
100
AcDbLine
 10
41.9
 20
0.0000000000000054
 30
0.0
 11
42.1015
 21
0.0000000000000054
 31
0.0
  0
LINE
  5
62
330
1E
100
AcDbEntity
  8
0
100
AcDbLine
 10
41.9
 20
0.0000000000000054
 30
0.0
 11
43.60149999999999
 21
0.0000000000000053
 31
0.0
  0
LINE
  5
63
330
1E
100
AcDbEntity
  8
0
100
AcDbLine
 10
38.9
 20
0.0000000000000056
 30
0.0
 11
41.9
 21
0.0000000000000054
 31
0.0
  0
LINE
  5
64
330
1E
100
AcDbEntity
  8
0
100
AcDbLine
 10
38.9
 20
0.0000000000000056
 30
0.0
 11
38.9
 21
2.00000000000001
 31
0.0
  0
LINE
  5
65
330
1E
100
AcDbEntity
  8
0
100
AcDbLine
 10
36.1011
 20
0.0000000000000057
 30
0.0
 11
36.1011
 21
2.00000000000001
 31
0.0
  0
LINE
  5
66
330
1E
100
AcDbEntity
  8
0
100
AcDbLine
 10
36.1011
 20
0.0000000000000057
 30
0.0
 11
37.7398
 21
0.0000000000000056
 31
0.0
  0
LINE
  5
67
330
1E
100
AcDbEntity
  8
0
100
AcDbLine
 10
36.1011
 20
0.0000000000000057
 30
0.0
 11
38.9
 21
0.0000000000000056
 31
0.0
  0
LINE
  5
68
330
1E
100
AcDbEntity
  8
0
100
AcDbLine
 10
44.6743
 20
0.0000000000000052
 30
0.0
 11
44.6743
 21
2.00000000000001
 31
0.0
  0
LINE
  5
69
330
1E
100
AcDbEntity
  8
0
100
AcDbLine
 10
44.6743
 20
0.0000000000000052
 30
0.0
 11
47.57209999999999
 21
0.000000000000005
 31
0.0
  0
LINE
  5
6A
330
1E
100
AcDbEntity
  8
0
100
AcDbLine
 10
44.6743
 20
0.0000000000000052
 30
0.0
 11
45.89999999999999
 21
0.0000000000000051
 31
0.0
  0
LINE
  5
6B
330
1E
100
AcDbEntity
  8
0
100
AcDbLine
 10
28.3044
 20
0.0000000000000062
 30
0.0
 11
29.9413
 21
0.0000000000000061
 31
0.0
  0
LINE
  5
6C
330
1E
100
AcDbEntity
  8
0
100
AcDbLine
 10
28.3044
 20
0.0000000000000062
 30
0.0
 11
30.42569999999999
 21
0.0000000000000061
 31
0.0
  0
LINE
  5
6D
330
1E
100
AcDbEntity
  8
0
100
AcDbLine
 10
24.4772
 20
0.0000000000000064
 30
0.0
 11
24.4772
 21
2.00000000000001
 31
0.0
  0
LINE
  5
6E
330
1E
100
AcDbEntity
  8
0
100
AcDbLine
 10
22.97719999999999
 20
0.0000000000000065
 30
0.0
 11
22.97719999999999
 21
2.00000000000001
 31
0.0
  0
LINE
  5
6F
330
1E
100
AcDbEntity
  8
0
100
AcDbLine
 10
22.97719999999999
 20
0.0000000000000065
 30
0.0
 11
24.4772
 21
0.0000000000000064
 31
0.0
  0
LINE
  5
70
330
1E
100
AcDbEntity
  8
0
100
AcDbLine
 10
22.6289
 20
0.0000000000000066
 30
0.0
 11
22.97719999999999
 21
0.0000000000000065
 31
0.0
  0
LINE
  5
71
330
1E
100
AcDbEntity
  8
0
100
AcDbLine
 10
22.6289
 20
0.0000000000000066
 30
0.0
 11
24.4772
 21
0.0000000000000064
 31
0.0
  0
LINE
  5
72
330
1E
100
AcDbEntity
  8
0
100
AcDbLine
 10
22.6289
 20
0.0000000000000066
 30
0.0
 11
22.6289
 21
2.00000000000001
 31
0.0
  0
LINE
  5
73
330
1E
100
AcDbEntity
  8
0
100
AcDbLine
 10
52.9
 20
2.0
 30
0.0
 11
52.9
 21
0.0000000000000046
 31
0.0
  0
LINE
  5
74
330
1E
100
AcDbEntity
  8
0
100
AcDbLine
 10
51.6684
 20
2.0
 30
0.0
 11
51.6684
 21
0.0000000000000046
 31
0.0
  0
LINE
  5
75
330
1E
100
AcDbEntity
  8
0
100
AcDbLine
 10
51.6684
 20
2.0
 30
0.0
 11
52.9
 21
2.0
 31
0.0
  0
LINE
  5
76
330
1E
100
AcDbEntity
  8
0
100
AcDbLine
 10
52.94389999999999
 20
2.0
 30
0.0
 11
53.7204
 21
2.0
 31
0.0
  0
LINE
  5
77
330
1E
100
AcDbEntity
  8
0
100
AcDbLine
 10
52.94389999999999
 20
2.0
 30
0.0
 11
52.94389999999999
 21
0.0000000000000046
 31
0.0
  0
LINE
  5
78
330
1E
100
AcDbEntity
  8
0
100
AcDbLine
 10
45.89999999999999
 20
2.00000000000001
 30
0.0
 11
45.89999999999999
 21
0.000000000000005
 31
0.0
  0
LINE
  5
79
330
1E
100
AcDbEntity
  8
0
100
AcDbLine
 10
47.9942
 20
2.00000000000001
 30
0.0
 11
47.9942
 21
0.000000000000005
 31
0.0
  0
LINE
  5
7A
330
1E
100
AcDbEntity
  8
0
100
AcDbLine
 10
48.7706
 20
2.00000000000001
 30
0.0
 11
48.7706
 21
0.000000000000005
 31
0.0
  0
LINE
  5
7B
330
1E
100
AcDbEntity
  8
0
100
AcDbLine
 10
53.7204
 20
2.0
 30
0.0
 11
53.7204
 21
0.0000000000000046
 31
0.0
  0
LINE
  5
7C
330
1E
100
AcDbEntity
  8
0
100
AcDbLine
 10
53.7204
 20
2.0
 30
0.0
 11
55.3
 21
2.0
 31
0.0
  0
LINE
  5
7D
330
1E
100
AcDbEntity
  8
0
100
AcDbLine
 10
44.6743
 20
2.00000000000001
 30
0.0
 11
44.6743
 21
0.000000000000005
 31
0.0
  0
LINE
  5
7E
330
1E
100
AcDbEntity
  8
0
100
AcDbLine
 10
44.6743
 20
2.00000000000001
 30
0.0
 11
44.9
 21
2.00000000000001
 31
0.0
  0
LINE
  5
7F
330
1E
100
AcDbEntity
  8
0
100
AcDbLine
 10
27.5279
 20
0.0000000000000063
 30
0.0
 11
28.3044
 21
0.0000000000000062
 31
0.0
  0
LINE
  5
80
330
1E
100
AcDbEntity
  8
0
100
AcDbLine
 10
27.5279
 20
0.0000000000000063
 30
0.0
 11
27.5279
 21
2.00000000000001
 31
0.0
  0
LINE
  5
81
330
1E
100
AcDbEntity
  8
0
100
AcDbLine
 10
27.5279
 20
0.0000000000000063
 30
0.0
 11
30.42569999999999
 21
0.0000000000000061
 31
0.0
  0
LINE
  5
82
330
1E
100
AcDbEntity
  8
0
100
AcDbLine
 10
22.18339999999999
 20
0.0000000000000066
 30
0.0
 11
22.6289
 21
0.0000000000000066
 31
0.0
  0
LINE
  5
83
330
1E
100
AcDbEntity
  8
0
100
AcDbLine
 10
44.9
 20
2.00000000000001
 30
0.0
 11
55.3
 21
2.0
 31
0.0
  0
LINE
  5
84
330
1E
100
AcDbEntity
  8
0
100
AcDbLine
 10
55.3
 20
2.0
 30
0.0
 11
66.4
 21
2.0
 31
0.0
  0
LINE
  5
85
330
1E
100
AcDbEntity
  8
0
100
AcDbLine
 10
31.89999999999999
 20
2.00000000000001
 30
0.0
 11
31.89999999999999
 21
0.0000000000000058
 31
0.0
  0
LINE
  5
86
330
1E
100
AcDbEntity
  8
0
100
AcDbLine
 10
31.89999999999999
 20
2.00000000000001
 30
0.0
 11
34.9
 21
2.00000000000001
 31
0.0
  0
LINE
  5
87
330
1E
100
AcDbEntity
  8
0
100
AcDbLine
 10
31.2021
 20
2.00000000000001
 30
0.0
 11
31.2021
 21
0.0000000000000058
 31
0.0
  0
LINE
  5
88
330
1E
100
AcDbEntity
  8
0
100
AcDbLine
 10
-0.0000000000000027
 20
2.00000000000001
 30
0.0
 11
-0.0000000000000021
 21
12.0
 31
0.0
  0
LINE
  5
89
330
1E
100
AcDbEntity
  8
0
100
AcDbLine
 10
-0.0000000000000028
 20
2.00000000000001
 30
0.0
 11
0.7999999999999971
 21
2.00000000000001
 31
0.0
  0
LINE
  5
8A
330
1E
100
AcDbEntity
  8
0
100
AcDbLine
 10
10.8169
 20
2.00000000000001
 30
0.0
 11
10.8169
 21
0.0000000000000071
 31
0.0
  0
LINE
  5
8B
330
1E
100
AcDbEntity
  8
0
100
AcDbLine
 10
10.8169
 20
2.00000000000001
 30
0.0
 11
11.9
 21
2.00000000000001
 31
0.0
  0
LINE
  5
8C
330
1E
100
AcDbEntity
  8
0
100
AcDbLine
 10
17.9408
 20
2.00000000000001
 30
0.0
 11
17.9408
 21
0.0000000000000067
 31
0.0
  0
LINE
  5
8D
330
1E
100
AcDbEntity
  8
0
100
AcDbLine
 10
17.9408
 20
2.00000000000001
 30
0.0
 11
18.6
 21
2.00000000000001
 31
0.0
  0
LINE
  5
8E
330
1E
100
AcDbEntity
  8
0
100
AcDbLine
 10
22.97719999999999
 20
2.00000000000001
 30
0.0
 11
22.97719999999999
 21
0.0000000000000067
 31
0.0
  0
LINE
  5
8F
330
1E
100
AcDbEntity
  8
0
100
AcDbLine
 10
24.4772
 20
2.00000000000001
 30
0.0
 11
24.4772
 21
0.0000000000000062
 31
0.0
  0
LINE
  5
90
330
1E
100
AcDbEntity
  8
0
100
AcDbLine
 10
21.85249999999999
 20
2.00000000000001
 30
0.0
 11
21.85249999999999
 21
0.0000000000000067
 31
0.0
  0
LINE
  5
91
330
1E
100
AcDbEntity
  8
0
100
AcDbLine
 10
22.6289
 20
2.00000000000001
 30
0.0
 11
22.6289
 21
0.0000000000000067
 31
0.0
  0
LINE
  5
92
330
1E
100
AcDbEntity
  8
0
100
AcDbLine
 10
18.95469999999999
 20
2.00000000000001
 30
0.0
 11
18.95469999999999
 21
0.0000000000000067
 31
0.0
  0
LINE
  5
93
330
1E
100
AcDbEntity
  8
0
100
AcDbLine
 10
13.41499999999999
 20
2.00000000000001
 30
0.0
 11
13.41499999999999
 21
0.0000000000000071
 31
0.0
  0
LINE
  5
94
330
1E
100
AcDbEntity
  8
0
100
AcDbLine
 10
18.6
 20
2.00000000000001
 30
0.0
 11
26.2
 21
2.00000000000001
 31
0.0
  0
LINE
  5
95
330
1E
100
AcDbEntity
  8
0
100
AcDbLine
 10
11.9
 20
2.00000000000001
 30
0.0
 11
18.6
 21
2.00000000000001
 31
0.0
  0
LINE
  5
96
330
1E
100
AcDbEntity
  8
0
100
AcDbLine
 10
10.16259999999999
 20
2.00000000000001
 30
0.0
 11
10.16259999999999
 21
0.0000000000000075
 31
0.0
  0
LINE
  5
97
330
1E
100
AcDbEntity
  8
0
100
AcDbLine
 10
8.041299999999999
 20
2.00000000000001
 30
0.0
 11
8.041299999999999
 21
0.0000000000000075
 31
0.0
  0
LINE
  5
98
330
1E
100
AcDbEntity
  8
0
100
AcDbLine
 10
6.9
 20
2.00000000000001
 30
0.0
 11
11.9
 21
2.00000000000001
 31
0.0
  0
LINE
  5
99
330
1E
100
AcDbEntity
  8
0
100
AcDbLine
 10
14.915
 20
2.00000000000001
 30
0.0
 11
17.9408
 21
2.00000000000001
 31
0.0
  0
LINE
  5
9A
330
1E
100
AcDbEntity
  8
0
100
AcDbLine
 10
14.915
 20
2.00000000000001
 30
0.0
 11
14.915
 21
0.0000000000000071
 31
0.0
  0
LINE
  5
9B
330
1E
100
AcDbEntity
  8
0
100
AcDbLine
 10
3.2
 20
2.00000000000001
 30
0.0
 11
6.9
 21
2.00000000000001
 31
0.0
  0
LINE
  5
9C
330
1E
100
AcDbEntity
  8
0
100
AcDbLine
 10
-0.0000000000000022
 20
12.0
 30
0.0
 11
0.799999999999998
 21
12.0
 31
0.0
  0
LINE
  5
9D
330
1E
100
AcDbEntity
  8
0
100
AcDbLine
 10
26.2
 20
12.0
 30
0.0
 11
35.1
 21
12.0
 31
0.0
  0
LINE
  5
9E
330
1E
100
AcDbEntity
  8
0
100
AcDbLine
 10
18.6
 20
12.0
 30
0.0
 11
26.2
 21
12.0
 31
0.0
  0
LINE
  5
9F
330
1E
100
AcDbEntity
  8
0
100
AcDbLine
 10
11.9
 20
12.0
 30
0.0
 11
18.6
 21
12.0
 31
0.0
  0
LINE
  5
A0
330
1E
100
AcDbEntity
  8
0
100
AcDbLine
 10
3.2
 20
12.0
 30
0.0
 11
6.9
 21
12.0
 31
0.0
  0
LINE
  5
A1
330
1E
100
AcDbEntity
  8
0
100
AcDbLine
 10
0.799999999999998
 20
12.0
 30
0.0
 11
3.2
 21
12.0
 31
0.0
  0
LINE
  5
A2
330
1E
100
AcDbEntity
  8
0
100
AcDbLine
 10
-0.0000000000000021
 20
12.0
 30
0.0
 11
0.799999999999998
 21
12.0
 31
0.0
  0
LINE
  5
A3
330
1E
100
AcDbEntity
  8
0
100
AcDbLine
 10
0.7999999999999971
 20
2.00000000000001
 30
0.0
 11
3.2
 21
2.00000000000001
 31
0.0
  0
LINE
  5
A4
330
1E
100
AcDbEntity
  8
0
100
AcDbLine
 10
-0.0000000000000027
 20
2.00000000000001
 30
0.0
 11
-0.0000000000000021
 21
12.0
 31
0.0
  0
LINE
  5
A5
330
1E
100
AcDbEntity
  8
0
100
AcDbLine
 10
-0.0000000000000027
 20
2.00000000000001
 30
0.0
 11
0.7999999999999971
 21
2.00000000000001
 31
0.0
  0
LINE
  5
A6
330
1E
100
AcDbEntity
  8
0
100
AcDbLine
 10
6.9
 20
12.0
 30
0.0
 11
11.9
 21
12.0
 31
0.0
  0
LINE
  5
A7
330
1E
100
AcDbEntity
  8
0
100
AcDbLine
 10
30.42569999999999
 20
2.00000000000001
 30
0.0
 11
30.42569999999999
 21
0.0000000000000062
 31
0.0
  0
LINE
  5
A8
330
1E
100
AcDbEntity
  8
0
100
AcDbLine
 10
30.42569999999999
 20
2.00000000000001
 30
0.0
 11
31.2021
 21
2.00000000000001
 31
0.0
  0
LINE
  5
A9
330
1E
100
AcDbEntity
  8
0
100
AcDbLine
 10
30.42569999999999
 20
2.00000000000001
 30
0.0
 11
31.89999999999999
 21
2.00000000000001
 31
0.0
  0
LINE
  5
AA
330
1E
100
AcDbEntity
  8
0
100
AcDbLine
 10
27.5279
 20
2.00000000000001
 30
0.0
 11
27.5279
 21
0.0000000000000062
 31
0.0
  0
LINE
  5
AB
330
1E
100
AcDbEntity
  8
0
100
AcDbLine
 10
26.2
 20
2.00000000000001
 30
0.0
 11
27.5279
 21
2.00000000000001
 31
0.0
  0
LINE
  5
AC
330
1E
100
AcDbEntity
  8
0
100
AcDbLine
 10
26.2
 20
2.00000000000001
 30
0.0
 11
35.1
 21
2.00000000000001
 31
0.0
  0
LINE
  5
AD
330
1E
100
AcDbEntity
  8
0
100
AcDbLine
 10
34.9
 20
2.00000000000001
 30
0.0
 11
35.1
 21
2.00000000000001
 31
0.0
  0
LINE
  5
AE
330
1E
100
AcDbEntity
  8
0
100
AcDbLine
 10
34.9
 20
2.00000000000001
 30
0.0
 11
34.9
 21
0.0000000000000058
 31
0.0
  0
LINE
  5
AF
330
1E
100
AcDbEntity
  8
0
100
AcDbLine
 10
42.1015
 20
2.00000000000001
 30
0.0
 11
42.1015
 21
0.0000000000000054
 31
0.0
  0
LINE
  5
B0
330
1E
100
AcDbEntity
  8
0
100
AcDbLine
 10
43.60149999999999
 20
2.00000000000001
 30
0.0
 11
43.60149999999999
 21
0.0000000000000054
 31
0.0
  0
LINE
  5
B1
330
1E
100
AcDbEntity
  8
0
100
AcDbLine
 10
41.9
 20
2.00000000000001
 30
0.0
 11
41.9
 21
0.0000000000000054
 31
0.0
  0
LINE
  5
B2
330
1E
100
AcDbEntity
  8
0
100
AcDbLine
 10
38.9
 20
2.00000000000001
 30
0.0
 11
38.9
 21
0.0000000000000054
 31
0.0
  0
LINE
  5
B3
330
1E
100
AcDbEntity
  8
0
100
AcDbLine
 10
36.1011
 20
2.00000000000001
 30
0.0
 11
36.1011
 21
0.0000000000000058
 31
0.0
  0
LINE
  5
B4
330
1E
100
AcDbEntity
  8
0
100
AcDbLine
 10
35.1
 20
12.0
 30
0.0
 11
44.9
 21
12.0
 31
0.0
  0
LINE
  5
B5
330
1E
100
AcDbEntity
  8
0
100
AcDbLine
 10
44.9
 20
12.0
 30
0.0
 11
55.3
 21
12.0
 31
0.0
  0
LINE
  5
B6
330
1E
100
AcDbEntity
  8
0
100
AcDbLine
 10
51.7
 20
14.0
 30
0.0
 11
57.0
 21
14.0
 31
0.0
  0
LINE
  5
B7
330
1E
100
AcDbEntity
  8
0
100
AcDbLine
 10
36.0
 20
12.0
 30
0.0
 11
36.0
 21
14.0
 31
0.0
  0
LINE
  5
B8
330
1E
100
AcDbEntity
  8
0
100
AcDbLine
 10
35.1
 20
2.00000000000001
 30
0.0
 11
36.1011
 21
2.00000000000001
 31
0.0
  0
LINE
  5
B9
330
1E
100
AcDbEntity
  8
0
100
AcDbLine
 10
35.1
 20
2.00000000000001
 30
0.0
 11
44.9
 21
2.00000000000001
 31
0.0
  0
LINE
  5
BA
330
1E
100
AcDbEntity
  8
0
100
AcDbLine
 10
43.60149999999999
 20
2.00000000000001
 30
0.0
 11
44.6743
 21
2.00000000000001
 31
0.0
  0
LINE
  5
BB
330
1E
100
AcDbEntity
  8
0
100
AcDbLine
 10
62.9
 20
0.0000000000000041
 30
0.0
 11
65.7412
 21
0.0000000000000039
 31
0.0
  0
LINE
  5
BC
330
1E
100
AcDbEntity
  8
0
100
AcDbLine
 10
63.6199
 20
0.000000000000004
 30
0.0
 11
63.6199
 21
2.0
 31
0.0
  0
LINE
  5
BD
330
1E
100
AcDbEntity
  8
0
100
AcDbLine
 10
63.6199
 20
0.000000000000004
 30
0.0
 11
66.5177
 21
0.0000000000000039
 31
0.0
  0
LINE
  5
BE
330
1E
100
AcDbEntity
  8
0
100
AcDbLine
 10
62.8434
 20
0.0000000000000041
 30
0.0
 11
63.6199
 21
0.000000000000004
 31
0.0
  0
LINE
  5
BF
330
1E
100
AcDbEntity
  8
0
100
AcDbLine
 10
62.8434
 20
0.0000000000000041
 30
0.0
 11
62.8434
 21
2.0
 31
0.0
  0
LINE
  5
C0
330
1E
100
AcDbEntity
  8
0
100
AcDbLine
 10
62.8434
 20
0.0000000000000041
 30
0.0
 11
65.7412
 21
0.0000000000000039
 31
0.0
  0
LINE
  5
C1
330
1E
100
AcDbEntity
  8
0
100
AcDbLine
 10
62.5972
 20
0.0000000000000041
 30
0.0
 11
65.495
 21
0.0000000000000039
 31
0.0
  0
LINE
  5
C2
330
1E
100
AcDbEntity
  8
0
100
AcDbLine
 10
65.7412
 20
0.0000000000000039
 30
0.0
 11
66.5177
 21
0.0000000000000039
 31
0.0
  0
LINE
  5
C3
330
1E
100
AcDbEntity
  8
0
100
AcDbLine
 10
64.7185
 20
0.000000000000004
 30
0.0
 11
65.495
 21
0.0000000000000039
 31
0.0
  0
LINE
  5
C4
330
1E
100
AcDbEntity
  8
0
100
AcDbLine
 10
64.7185
 20
0.000000000000004
 30
0.0
 11
65.7412
 21
0.0000000000000039
 31
0.0
  0
LINE
  5
C5
330
1E
100
AcDbEntity
  8
0
100
AcDbLine
 10
57.5388
 20
0.0000000000000044
 30
0.0
 11
57.8937
 21
0.0000000000000044
 31
0.0
  0
LINE
  5
C6
330
1E
100
AcDbEntity
  8
0
100
AcDbLine
 10
57.5388
 20
0.0000000000000044
 30
0.0
 11
57.5388
 21
2.0
 31
0.0
  0
LINE
  5
C7
330
1E
100
AcDbEntity
  8
0
100
AcDbLine
 10
56.9218
 20
0.0000000000000045
 30
0.0
 11
56.9218
 21
2.0
 31
0.0
  0
LINE
  5
C8
330
1E
100
AcDbEntity
  8
0
100
AcDbLine
 10
60.7915
 20
0.0000000000000042
 30
0.0
 11
61.5679
 21
0.0000000000000042
 31
0.0
  0
LINE
  5
C9
330
1E
100
AcDbEntity
  8
0
100
AcDbLine
 10
60.7915
 20
0.0000000000000042
 30
0.0
 11
61.2259
 21
0.0000000000000042
 31
0.0
  0
LINE
  5
CA
330
1E
100
AcDbEntity
  8
0
100
AcDbLine
 10
61.5679
 20
0.0000000000000042
 30
0.0
 11
61.5679
 21
2.0
 31
0.0
  0
LINE
  5
CB
330
1E
100
AcDbEntity
  8
0
100
AcDbLine
 10
61.5679
 20
0.0000000000000042
 30
0.0
 11
62.9
 21
0.0000000000000041
 31
0.0
  0
LINE
  5
CC
330
1E
100
AcDbEntity
  8
0
100
AcDbLine
 10
58.6701
 20
0.0000000000000043
 30
0.0
 11
58.6701
 21
2.0
 31
0.0
  0
LINE
  5
CD
330
1E
100
AcDbEntity
  8
0
100
AcDbLine
 10
58.6701
 20
0.0000000000000043
 30
0.0
 11
61.5679
 21
0.0000000000000042
 31
0.0
  0
LINE
  5
CE
330
1E
100
AcDbEntity
  8
0
100
AcDbLine
 10
58.6701
 20
0.0000000000000043
 30
0.0
 11
60.7915
 21
0.0000000000000042
 31
0.0
  0
LINE
  5
CF
330
1E
100
AcDbEntity
  8
0
100
AcDbLine
 10
57.8937
 20
0.0000000000000044
 30
0.0
 11
58.6701
 21
0.0000000000000043
 31
0.0
  0
LINE
  5
D0
330
1E
100
AcDbEntity
  8
0
100
AcDbLine
 10
57.8937
 20
0.0000000000000044
 30
0.0
 11
57.8937
 21
2.0
 31
0.0
  0
LINE
  5
D1
330
1E
100
AcDbEntity
  8
0
100
AcDbLine
 10
57.8937
 20
0.0000000000000044
 30
0.0
 11
58.6278
 21
0.0000000000000043
 31
0.0
  0
LINE
  5
D2
330
1E
100
AcDbEntity
  8
0
100
AcDbLine
 10
61.8208
 20
0.0000000000000042
 30
0.0
 11
62.5972
 21
0.0000000000000041
 31
0.0
  0
LINE
  5
D3
330
1E
100
AcDbEntity
  8
0
100
AcDbLine
 10
61.8208
 20
0.0000000000000042
 30
0.0
 11
64.7185
 21
0.000000000000004
 31
0.0
  0
LINE
  5
D4
330
1E
100
AcDbEntity
  8
0
100
AcDbLine
 10
56.6182
 20
0.0000000000000045
 30
0.0
 11
56.9218
 21
0.0000000000000045
 31
0.0
  0
LINE
  5
D5
330
1E
100
AcDbEntity
  8
0
100
AcDbLine
 10
56.6182
 20
0.0000000000000045
 30
0.0
 11
56.6182
 21
2.0
 31
0.0
  0
LINE
  5
D6
330
1E
100
AcDbEntity
  8
0
100
AcDbLine
 10
61.5679
 20
2.0
 30
0.0
 11
61.5679
 21
0.0000000000000042
 31
0.0
  0
LINE
  5
D7
330
1E
100
AcDbEntity
  8
0
100
AcDbLine
 10
58.6701
 20
2.0
 30
0.0
 11
58.6701
 21
0.0000000000000042
 31
0.0
  0
LINE
  5
D8
330
1E
100
AcDbEntity
  8
0
100
AcDbLine
 10
58.6701
 20
2.0
 30
0.0
 11
61.5679
 21
2.0
 31
0.0
  0
LINE
  5
D9
330
1E
100
AcDbEntity
  8
0
100
AcDbLine
 10
57.5388
 20
2.0
 30
0.0
 11
57.5388
 21
0.0000000000000046
 31
0.0
  0
LINE
  5
DA
330
1E
100
AcDbEntity
  8
0
100
AcDbLine
 10
57.5388
 20
2.0
 30
0.0
 11
57.8937
 21
2.0
 31
0.0
  0
LINE
  5
DB
330
1E
100
AcDbEntity
  8
0
100
AcDbLine
 10
56.9218
 20
2.0
 30
0.0
 11
56.9218
 21
0.0000000000000046
 31
0.0
  0
LINE
  5
DC
330
1E
100
AcDbEntity
  8
0
100
AcDbLine
 10
57.8937
 20
2.0
 30
0.0
 11
58.6701
 21
2.0
 31
0.0
  0
LINE
  5
DD
330
1E
100
AcDbEntity
  8
0
100
AcDbLine
 10
57.8937
 20
2.0
 30
0.0
 11
57.8937
 21
0.0000000000000046
 31
0.0
  0
LINE
  5
DE
330
1E
100
AcDbEntity
  8
0
100
AcDbLine
 10
57.8937
 20
2.0
 30
0.0
 11
58.6701
 21
2.0
 31
0.0
  0
LINE
  5
DF
330
1E
100
AcDbEntity
  8
0
100
AcDbLine
 10
56.6182
 20
2.0
 30
0.0
 11
56.6182
 21
0.0000000000000046
 31
0.0
  0
LINE
  5
E0
330
1E
100
AcDbEntity
  8
0
100
AcDbLine
 10
62.8434
 20
2.0
 30
0.0
 11
62.8434
 21
0.0000000000000042
 31
0.0
  0
LINE
  5
E1
330
1E
100
AcDbEntity
  8
0
100
AcDbLine
 10
63.6199
 20
2.0
 30
0.0
 11
63.6199
 21
0.0000000000000042
 31
0.0
  0
LINE
  5
E2
330
1E
100
AcDbEntity
  8
0
100
AcDbLine
 10
56.1453
 20
0.0000000000000045
 30
0.0
 11
56.9218
 21
0.0000000000000045
 31
0.0
  0
LINE
  5
E3
330
1E
100
AcDbEntity
  8
0
100
AcDbLine
 10
66.5177
 20
0.0000000000000039
 30
0.0
 11
66.5177
 21
2.0
 31
0.0
  0
LINE
  5
E4
330
1E
100
AcDbEntity
  8
0
100
AcDbLine
 10
66.4
 20
2.0
 30
0.0
 11
77.8
 21
2.0
 31
0.0
  0
LINE
  5
E5
330
1E
100
AcDbEntity
  8
0
100
AcDbLine
 10
66.4
 20
12.0
 30
0.0
 11
77.8
 21
12.0
 31
0.0
  0
LINE
  5
E6
330
1E
100
AcDbEntity
  8
0
100
AcDbLine
 10
66.90000000000001
 20
2.0
 30
0.0
 11
66.90000000000001
 21
0.0000000000000037
 31
0.0
  0
LINE
  5
E7
330
1E
100
AcDbEntity
  8
0
100
AcDbLine
 10
68.41689999999999
 20
0.0000000000000038
 30
0.0
 11
68.41689999999999
 21
2.0
 31
0.0
  0
LINE
  5
E8
330
1E
100
AcDbEntity
  8
0
100
AcDbLine
 10
68.41689999999999
 20
0.0000000000000038
 30
0.0
 11
71.015
 21
0.0000000000000036
 31
0.0
  0
LINE
  5
E9
330
1E
100
AcDbEntity
  8
0
100
AcDbLine
 10
66.9169
 20
2.0
 30
0.0
 11
66.9169
 21
0.0000000000000037
 31
0.0
  0
LINE
  5
EA
330
1E
100
AcDbEntity
  8
0
100
AcDbLine
 10
68.41689999999999
 20
2.0
 30
0.0
 11
68.41689999999999
 21
0.0000000000000037
 31
0.0
  0
LINE
  5
EB
330
1E
100
AcDbEntity
  8
0
100
AcDbLine
 10
66.9169
 20
0.0000000000000038
 30
0.0
 11
68.41689999999999
 21
0.0000000000000038
 31
0.0
  0
LINE
  5
EC
330
1E
100
AcDbEntity
  8
0
100
AcDbLine
 10
66.9169
 20
0.0000000000000038
 30
0.0
 11
66.9169
 21
2.0
 31
0.0
  0
LINE
  5
ED
330
1E
100
AcDbEntity
  8
0
100
AcDbLine
 10
66.90000000000001
 20
0.0000000000000038
 30
0.0
 11
66.90000000000001
 21
2.0
 31
0.0
  0
LINE
  5
EE
330
1E
100
AcDbEntity
  8
0
100
AcDbLine
 10
66.90000000000001
 20
0.0000000000000038
 30
0.0
 11
69.90000000000001
 21
0.0000000000000037
 31
0.0
  0
LINE
  5
EF
330
1E
100
AcDbEntity
  8
0
100
AcDbLine
 10
66.90000000000001
 20
0.0000000000000038
 30
0.0
 11
69.4791
 21
0.0000000000000037
 31
0.0
  0
LINE
  5
F0
330
1E
100
AcDbEntity
  8
0
100
AcDbLine
 10
69.515
 20
0.0000000000000037
 30
0.0
 11
70.691
 21
0.0000000000000036
 31
0.0
  0
LINE
  5
F1
330
1E
100
AcDbEntity
  8
0
100
AcDbLine
 10
69.515
 20
0.0000000000000037
 30
0.0
 11
71.015
 21
0.0000000000000036
 31
0.0
  0
LINE
  5
F2
330
1E
100
AcDbEntity
  8
0
100
AcDbLine
 10
66.5177
 20
2.0
 30
0.0
 11
66.90000000000001
 21
2.0
 31
0.0
  0
LINE
  5
F3
330
1E
100
AcDbEntity
  8
0
100
AcDbLine
 10
66.5177
 20
2.0
 30
0.0
 11
66.5177
 21
0.0000000000000037
 31
0.0
  0
LINE
  5
F4
330
1E
100
AcDbEntity
  8
0
100
AcDbLine
 10
57.0
 20
12.0
 30
0.0
 11
62.8
 21
12.0
 31
0.0
  0
LINE
  5
F5
330
1E
100
AcDbEntity
  8
0
100
AcDbLine
 10
57.0
 20
14.0
 30
0.0
 11
62.8
 21
14.0
 31
0.0
  0
LINE
  5
F6
330
1E
100
AcDbEntity
  8
0
100
AcDbLine
 10
62.8
 20
14.0
 30
0.0
 11
69.0
 21
14.0
 31
0.0
  0
LINE
  5
F7
330
1E
100
AcDbEntity
  8
0
100
AcDbLine
 10
58.0
 20
14.0
 30
0.0
 11
58.0
 21
15.0
 31
0.0
  0
LINE
  5
F8
330
1E
100
AcDbEntity
  8
0
100
AcDbLine
 10
62.8
 20
12.0
 30
0.0
 11
66.4
 21
12.0
 31
0.0
  0
LINE
  5
F9
330
1E
100
AcDbEntity
  8
0
100
AcDbLine
 10
55.3
 20
12.0
 30
0.0
 11
57.0
 21
12.0
 31
0.0
  0
LINE
  5
FA
330
1E
100
AcDbEntity
  8
0
100
AcDbLine
 10
55.3
 20
12.0
 30
0.0
 11
66.4
 21
12.0
 31
0.0
  0
LINE
  5
FB
330
1E
100
AcDbEntity
  8
0
100
AcDbLine
 10
47.09999999999999
 20
14.0
 30
0.0
 11
51.7
 21
14.0
 31
0.0
  0
LINE
  5
FC
330
1E
100
AcDbEntity
  8
0
100
AcDbLine
 10
43.1
 20
14.0
 30
0.0
 11
47.09999999999999
 21
14.0
 31
0.0
  0
LINE
  5
FD
330
1E
100
AcDbEntity
  8
0
100
AcDbLine
 10
40.1
 20
14.0
 30
0.0
 11
43.1
 21
14.0
 31
0.0
  0
LINE
  5
FE
330
1E
100
AcDbEntity
  8
0
100
AcDbLine
 10
37.9
 20
14.0
 30
0.0
 11
40.1
 21
14.0
 31
0.0
  0
LINE
  5
FF
330
1E
100
AcDbEntity
  8
0
100
AcDbLine
 10
36.5
 20
14.0
 30
0.0
 11
37.9
 21
14.0
 31
0.0
  0
LINE
  5
100
330
1E
100
AcDbEntity
  8
0
100
AcDbLine
 10
36.0
 20
14.0
 30
0.0
 11
36.5
 21
14.0
 31
0.0
  0
LINE
  5
101
330
1E
100
AcDbEntity
  8
0
100
AcDbLine
 10
36.0
 20
14.0
 30
0.0
 11
36.0
 21
12.0
 31
0.0
  0
LINE
  5
102
330
1E
100
AcDbEntity
  8
0
100
AcDbLine
 10
58.0
 20
15.0
 30
0.0
 11
58.3
 21
15.0
 31
0.0
  0
LINE
  5
103
330
1E
100
AcDbEntity
  8
0
100
AcDbLine
 10
58.0
 20
15.0
 30
0.0
 11
58.0
 21
14.0
 31
0.0
  0
LINE
  5
104
330
1E
100
AcDbEntity
  8
0
100
AcDbLine
 10
58.0
 20
120.0
 30
0.0
 11
58.3
 21
120.0
 31
0.0
  0
LINE
  5
105
330
1E
100
AcDbEntity
  8
0
100
AcDbLine
 10
58.0
 20
120.0
 30
0.0
 11
58.0
 21
117.0
 31
0.0
  0
LINE
  5
106
330
1E
100
AcDbEntity
  8
0
100
AcDbLine
 10
59.1
 20
15.0
 30
0.0
 11
60.4
 21
15.0
 31
0.0
  0
LINE
  5
107
330
1E
100
AcDbEntity
  8
0
100
AcDbLine
 10
58.3
 20
15.0
 30
0.0
 11
59.1
 21
15.0
 31
0.0
  0
LINE
  5
108
330
1E
100
AcDbEntity
  8
0
100
AcDbLine
 10
59.1
 20
117.0
 30
0.0
 11
60.4
 21
117.0
 31
0.0
  0
LINE
  5
109
330
1E
100
AcDbEntity
  8
0
100
AcDbLine
 10
58.3
 20
117.0
 30
0.0
 11
59.1
 21
117.0
 31
0.0
  0
LINE
  5
10A
330
1E
100
AcDbEntity
  8
0
100
AcDbLine
 10
62.2
 20
15.0
 30
0.0
 11
64.5
 21
15.0
 31
0.0
  0
LINE
  5
10B
330
1E
100
AcDbEntity
  8
0
100
AcDbLine
 10
60.4
 20
15.0
 30
0.0
 11
62.2
 21
15.0
 31
0.0
  0
LINE
  5
10C
330
1E
100
AcDbEntity
  8
0
100
AcDbLine
 10
62.2
 20
117.0
 30
0.0
 11
64.5
 21
117.0
 31
0.0
  0
LINE
  5
10D
330
1E
100
AcDbEntity
  8
0
100
AcDbLine
 10
60.4
 20
117.0
 30
0.0
 11
62.2
 21
117.0
 31
0.0
  0
LINE
  5
10E
330
1E
100
AcDbEntity
  8
0
100
AcDbLine
 10
64.5
 20
15.0
 30
0.0
 11
67.3
 21
15.0
 31
0.0
  0
LINE
  5
10F
330
1E
100
AcDbEntity
  8
0
100
AcDbLine
 10
67.3
 20
15.0
 30
0.0
 11
70.3
 21
15.0
 31
0.0
  0
LINE
  5
110
330
1E
100
AcDbEntity
  8
0
100
AcDbLine
 10
67.3
 20
117.0
 30
0.0
 11
70.3
 21
117.0
 31
0.0
  0
LINE
  5
111
330
1E
100
AcDbEntity
  8
0
100
AcDbLine
 10
70.3
 20
15.0
 30
0.0
 11
73.79999999999999
 21
15.0
 31
0.0
  0
LINE
  5
112
330
1E
100
AcDbEntity
  8
0
100
AcDbLine
 10
70.3
 20
117.0
 30
0.0
 11
73.79999999999999
 21
117.0
 31
0.0
  0
LINE
  5
113
330
1E
100
AcDbEntity
  8
0
100
AcDbLine
 10
67.3
 20
120.0
 30
0.0
 11
70.3
 21
120.0
 31
0.0
  0
LINE
  5
114
330
1E
100
AcDbEntity
  8
0
100
AcDbLine
 10
70.3
 20
120.0
 30
0.0
 11
73.79999999999999
 21
120.0
 31
0.0
  0
LINE
  5
115
330
1E
100
AcDbEntity
  8
0
100
AcDbLine
 10
64.5
 20
117.0
 30
0.0
 11
67.3
 21
117.0
 31
0.0
  0
LINE
  5
116
330
1E
100
AcDbEntity
  8
0
100
AcDbLine
 10
64.5
 20
120.0
 30
0.0
 11
67.3
 21
120.0
 31
0.0
  0
LINE
  5
117
330
1E
100
AcDbEntity
  8
0
100
AcDbLine
 10
62.2
 20
120.0
 30
0.0
 11
64.5
 21
120.0
 31
0.0
  0
LINE
  5
118
330
1E
100
AcDbEntity
  8
0
100
AcDbLine
 10
60.4
 20
120.0
 30
0.0
 11
62.2
 21
120.0
 31
0.0
  0
LINE
  5
119
330
1E
100
AcDbEntity
  8
0
100
AcDbLine
 10
59.1
 20
120.0
 30
0.0
 11
60.4
 21
120.0
 31
0.0
  0
LINE
  5
11A
330
1E
100
AcDbEntity
  8
0
100
AcDbLine
 10
58.3
 20
120.0
 30
0.0
 11
59.1
 21
120.0
 31
0.0
  0
LINE
  5
11B
330
1E
100
AcDbEntity
  8
0
100
AcDbLine
 10
58.0
 20
117.0
 30
0.0
 11
58.0
 21
120.0
 31
0.0
  0
LINE
  5
11C
330
1E
100
AcDbEntity
  8
0
100
AcDbLine
 10
58.0
 20
117.0
 30
0.0
 11
76.0
 21
115.0
 31
0.0
  0
LINE
  5
11D
330
1E
100
AcDbEntity
  8
0
100
AcDbLine
 10
58.0
 20
117.0
 30
0.0
 11
58.3
 21
117.0
 31
0.0
  0
LINE
  5
11E
330
1E
100
AcDbEntity
  8
0
100
AcDbLine
 10
69.0
 20
14.0
 30
0.0
 11
70.3
 21
14.0
 31
0.0
  0
LINE
  5
11F
330
1E
100
AcDbEntity
  8
0
100
AcDbLine
 10
69.0
 20
14.0
 30
0.0
 11
75.7
 21
14.0
 31
0.0
  0
LINE
  5
120
330
1E
100
AcDbEntity
  8
0
100
AcDbLine
 10
72.2881
 20
0.0000000000000035
 30
0.0
 11
72.7429
 21
0.0000000000000035
 31
0.0
  0
LINE
  5
121
330
1E
100
AcDbEntity
  8
0
100
AcDbLine
 10
72.07720000000001
 20
0.0000000000000035
 30
0.0
 11
73.5772
 21
0.0000000000000034
 31
0.0
  0
LINE
  5
122
330
1E
100
AcDbEntity
  8
0
100
AcDbLine
 10
75.6407
 20
0.0000000000000033
 30
0.0
 11
76.13939999999999
 21
0.0000000000000033
 31
0.0
  0
LINE
  5
123
330
1E
100
AcDbEntity
  8
0
100
AcDbLine
 10
74.6394
 20
0.0000000000000034
 30
0.0
 11
76.13939999999999
 21
0.0000000000000033
 31
0.0
  0
LINE
  5
124
330
1E
100
AcDbEntity
  8
0
100
AcDbLine
 10
73.5772
 20
0.0000000000000034
 30
0.0
 11
76.13939999999999
 21
0.0000000000000033
 31
0.0
  0
LINE
  5
125
330
1E
100
AcDbEntity
  8
0
100
AcDbLine
 10
73.5772
 20
0.0000000000000034
 30
0.0
 11
74.6394
 21
0.0000000000000034
 31
0.0
  0
LINE
  5
126
330
1E
100
AcDbEntity
  8
0
100
AcDbLine
 10
73.5772
 20
0.0000000000000034
 30
0.0
 11
73.5772
 21
2.0
 31
0.0
  0
LINE
  5
127
330
1E
100
AcDbEntity
  8
0
100
AcDbLine
 10
76.13939999999999
 20
0.0000000000000033
 30
0.0
 11
78.70149999999999
 21
0.0000000000000031
 31
0.0
  0
LINE
  5
128
330
1E
100
AcDbEntity
  8
0
100
AcDbLine
 10
76.13939999999999
 20
0.0000000000000033
 30
0.0
 11
76.13939999999999
 21
2.0
 31
0.0
  0
LINE
  5
129
330
1E
100
AcDbEntity
  8
0
100
AcDbLine
 10
76.13939999999999
 20
0.0000000000000033
 30
0.0
 11
77.1656
 21
0.0000000000000032
 31
0.0
  0
LINE
  5
12A
330
1E
100
AcDbEntity
  8
0
100
AcDbLine
 10
76.13939999999999
 20
0.0000000000000033
 30
0.0
 11
77.6927
 21
0.0000000000000032
 31
0.0
  0
LINE
  5
12B
330
1E
100
AcDbEntity
  8
0
100
AcDbLine
 10
77.1656
 20
0.0000000000000032
 30
0.0
 11
78.66559999999999
 21
0.0000000000000031
 31
0.0
  0
LINE
  5
12C
330
1E
100
AcDbEntity
  8
0
100
AcDbLine
 10
77.1656
 20
0.0000000000000032
 30
0.0
 11
78.4691
 21
0.0000000000000031
 31
0.0
  0
LINE
  5
12D
330
1E
100
AcDbEntity
  8
0
100
AcDbLine
 10
73.5194
 20
0.0000000000000034
 30
0.0
 11
76.41719999999999
 21
0.0000000000000033
 31
0.0
  0
LINE
  5
12E
330
1E
100
AcDbEntity
  8
0
100
AcDbLine
 10
73.5194
 20
0.0000000000000034
 30
0.0
 11
74.6035
 21
0.0000000000000034
 31
0.0
  0
LINE
  5
12F
330
1E
100
AcDbEntity
  8
0
100
AcDbLine
 10
73.5194
 20
0.0000000000000034
 30
0.0
 11
73.9
 21
0.0000000000000034
 31
0.0
  0
LINE
  5
130
330
1E
100
AcDbEntity
  8
0
100
AcDbLine
 10
72.7429
 20
0.0000000000000035
 30
0.0
 11
73.5194
 21
0.0000000000000034
 31
0.0
  0
LINE
  5
131
330
1E
100
AcDbEntity
  8
0
100
AcDbLine
 10
70.7881
 20
0.0000000000000036
 30
0.0
 11
71.1704
 21
0.0000000000000036
 31
0.0
  0
LINE
  5
132
330
1E
100
AcDbEntity
  8
0
100
AcDbLine
 10
71.015
 20
2.0
 30
0.0
 11
73.5772
 21
2.0
 31
0.0
  0
LINE
  5
133
330
1E
100
AcDbEntity
  8
0
100
AcDbLine
 10
71.015
 20
2.0
 30
0.0
 11
71.015
 21
0.0000000000000037
 31
0.0
  0
LINE
  5
134
330
1E
100
AcDbEntity
  8
0
100
AcDbLine
 10
73.5772
 20
2.0
 30
0.0
 11
76.13939999999999
 21
2.0
 31
0.0
  0
LINE
  5
135
330
1E
100
AcDbEntity
  8
0
100
AcDbLine
 10
73.5772
 20
2.0
 30
0.0
 11
73.5772
 21
0.0000000000000033
 31
0.0
  0
LINE
  5
136
330
1E
100
AcDbEntity
  8
0
100
AcDbLine
 10
76.13939999999999
 20
2.0
 30
0.0
 11
78.70149999999999
 21
2.0
 31
0.0
  0
LINE
  5
137
330
1E
100
AcDbEntity
  8
0
100
AcDbLine
 10
76.13939999999999
 20
2.0
 30
0.0
 11
77.2015
 21
2.0
 31
0.0
  0
LINE
  5
138
330
1E
100
AcDbEntity
  8
0
100
AcDbLine
 10
76.13939999999999
 20
2.0
 30
0.0
 11
76.13939999999999
 21
0.0000000000000033
 31
0.0
  0
LINE
  5
139
330
1E
100
AcDbEntity
  8
0
100
AcDbLine
 10
77.2015
 20
2.0
 30
0.0
 11
77.8
 21
2.0
 31
0.0
  0
LINE
  5
13A
330
1E
100
AcDbEntity
  8
0
100
AcDbLine
 10
77.2015
 20
2.0
 30
0.0
 11
78.70149999999999
 21
2.0
 31
0.0
  0
LINE
  5
13B
330
1E
100
AcDbEntity
  8
0
100
AcDbLine
 10
71.1704
 20
0.0000000000000036
 30
0.0
 11
72.7429
 21
0.0000000000000035
 31
0.0
  0
LINE
  5
13C
330
1E
100
AcDbEntity
  8
0
100
AcDbLine
 10
71.4674
 20
2.0
 30
0.0
 11
72.04130000000001
 21
2.0
 31
0.0
  0
LINE
  5
13D
330
1E
100
AcDbEntity
  8
0
100
AcDbLine
 10
71.015
 20
0.0000000000000036
 30
0.0
 11
71.1704
 21
0.0000000000000036
 31
0.0
  0
LINE
  5
13E
330
1E
100
AcDbEntity
  8
0
100
AcDbLine
 10
71.015
 20
0.0000000000000036
 30
0.0
 11
73.5772
 21
0.0000000000000034
 31
0.0
  0
LINE
  5
13F
330
1E
100
AcDbEntity
  8
0
100
AcDbLine
 10
71.015
 20
0.0000000000000036
 30
0.0
 11
71.015
 21
2.0
 31
0.0
  0
LINE
  5
140
330
1E
100
AcDbEntity
  8
0
100
AcDbLine
 10
71.68089999999999
 20
0.0000000000000036
 30
0.0
 11
72.7429
 21
0.0000000000000035
 31
0.0
  0
LINE
  5
141
330
1E
100
AcDbEntity
  8
0
100
AcDbLine
 10
91.62130000000001
 20
0.0000000000000023
 30
0.0
 11
91.62130000000001
 21
2.0
 31
0.0
  0
LINE
  5
142
330
1E
100
AcDbEntity
  8
0
100
AcDbLine
 10
87.37869999999999
 20
0.0000000000000026
 30
0.0
 11
87.37869999999999
 21
2.0
 31
0.0
  0
LINE
  5
143
330
1E
100
AcDbEntity
  8
0
100
AcDbLine
 10
87.37869999999999
 20
0.0000000000000026
 30
0.0
 11
89.50000000000001
 21
0.0000000000000025
 31
0.0
  0
LINE
  5
144
330
1E
100
AcDbEntity
  8
0
100
AcDbLine
 10
89.50000000000001
 20
0.0000000000000025
 30
0.0
 11
91.62130000000001
 21
0.0000000000000023
 31
0.0
  0
LINE
  5
145
330
1E
100
AcDbEntity
  8
0
100
AcDbLine
 10
89.50000000000001
 20
0.0000000000000025
 30
0.0
 11
89.50000000000001
 21
2.0
 31
0.0
  0
LINE
  5
146
330
1E
100
AcDbEntity
  8
0
100
AcDbLine
 10
86.38809999999999
 20
0.0000000000000027
 30
0.0
 11
86.38809999999999
 21
2.0
 31
0.0
  0
LINE
  5
147
330
1E
100
AcDbEntity
  8
0
100
AcDbLine
 10
81.26369999999999
 20
0.000000000000003
 30
0.0
 11
81.26369999999999
 21
2.0
 31
0.0
  0
LINE
  5
148
330
1E
100
AcDbEntity
  8
0
100
AcDbLine
 10
81.26369999999999
 20
0.000000000000003
 30
0.0
 11
82.3259
 21
0.0000000000000029
 31
0.0
  0
LINE
  5
149
330
1E
100
AcDbEntity
  8
0
100
AcDbLine
 10
82.3259
 20
0.0000000000000029
 30
0.0
 11
83.8259
 21
0.0000000000000028
 31
0.0
  0
LINE
  5
14A
330
1E
100
AcDbEntity
  8
0
100
AcDbLine
 10
78.70149999999999
 20
0.0000000000000031
 30
0.0
 11
79.7637
 21
0.0000000000000031
 31
0.0
  0
LINE
  5
14B
330
1E
100
AcDbEntity
  8
0
100
AcDbLine
 10
78.70149999999999
 20
0.0000000000000031
 30
0.0
 11
78.70149999999999
 21
2.0
 31
0.0
  0
LINE
  5
14C
330
1E
100
AcDbEntity
  8
0
100
AcDbLine
 10
78.70149999999999
 20
0.0000000000000031
 30
0.0
 11
81.26369999999999
 21
0.000000000000003
 31
0.0
  0
LINE
  5
14D
330
1E
100
AcDbEntity
  8
0
100
AcDbLine
 10
78.66559999999999
 20
0.0000000000000031
 30
0.0
 11
81.26369999999999
 21
0.000000000000003
 31
0.0
  0
LINE
  5
14E
330
1E
100
AcDbEntity
  8
0
100
AcDbLine
 10
81.2278
 20
0.000000000000003
 30
0.0
 11
83.8259
 21
0.0000000000000028
 31
0.0
  0
LINE
  5
14F
330
1E
100
AcDbEntity
  8
0
100
AcDbLine
 10
87.37869999999999
 20
2.0
 30
0.0
 11
87.37869999999999
 21
0.0000000000000025
 31
0.0
  0
LINE
  5
150
330
1E
100
AcDbEntity
  8
0
100
AcDbLine
 10
87.37869999999999
 20
2.0
 30
0.0
 11
89.50000000000001
 21
2.0
 31
0.0
  0
LINE
  5
151
330
1E
100
AcDbEntity
  8
0
100
AcDbLine
 10
86.38809999999999
 20
2.0
 30
0.0
 11
86.38809999999999
 21
0.0000000000000025
 31
0.0
  0
LINE
  5
152
330
1E
100
AcDbEntity
  8
0
100
AcDbLine
 10
83.8259
 20
0.0000000000000028
 30
0.0
 11
86.38809999999999
 21
0.0000000000000027
 31
0.0
  0
LINE
  5
153
330
1E
100
AcDbEntity
  8
0
100
AcDbLine
 10
83.8259
 20
0.0000000000000028
 30
0.0
 11
83.8259
 21
2.0
 31
0.0
  0
LINE
  5
154
330
1E
100
AcDbEntity
  8
0
100
AcDbLine
 10
78.4691
 20
0.0000000000000031
 30
0.0
 11
81.36689999999999
 21
0.000000000000003
 31
0.0
  0
LINE
  5
155
330
1E
100
AcDbEntity
  8
0
100
AcDbLine
 10
78.4691
 20
0.0000000000000031
 30
0.0
 11
79.7278
 21
0.0000000000000031
 31
0.0
  0
LINE
  5
156
330
1E
100
AcDbEntity
  8
0
100
AcDbLine
 10
78.70149999999999
 20
2.0
 30
0.0
 11
78.70149999999999
 21
0.0000000000000029
 31
0.0
  0
LINE
  5
157
330
1E
100
AcDbEntity
  8
0
100
AcDbLine
 10
81.26369999999999
 20
2.0
 30
0.0
 11
83.8259
 21
2.0
 31
0.0
  0
LINE
  5
158
330
1E
100
AcDbEntity
  8
0
100
AcDbLine
 10
81.26369999999999
 20
2.0
 30
0.0
 11
81.26369999999999
 21
0.0000000000000029
 31
0.0
  0
LINE
  5
159
330
1E
100
AcDbEntity
  8
0
100
AcDbLine
 10
83.8259
 20
2.0
 30
0.0
 11
86.38809999999999
 21
2.0
 31
0.0
  0
LINE
  5
15A
330
1E
100
AcDbEntity
  8
0
100
AcDbLine
 10
83.8259
 20
2.0
 30
0.0
 11
84.88809999999999
 21
2.0
 31
0.0
  0
LINE
  5
15B
330
1E
100
AcDbEntity
  8
0
100
AcDbLine
 10
83.8259
 20
2.0
 30
0.0
 11
83.8259
 21
0.0000000000000029
 31
0.0
  0
LINE
  5
15C
330
1E
100
AcDbEntity
  8
0
100
AcDbLine
 10
89.50000000000001
 20
2.0
 30
0.0
 11
101.2
 21
2.0
 31
0.0
  0
LINE
  5
15D
330
1E
100
AcDbEntity
  8
0
100
AcDbLine
 10
89.50000000000001
 20
2.0
 30
0.0
 11
89.50000000000001
 21
0.0000000000000025
 31
0.0
  0
LINE
  5
15E
330
1E
100
AcDbEntity
  8
0
100
AcDbLine
 10
122.382
 20
0.0000000000000004
 30
0.0
 11
122.382
 21
2.0
 31
0.0
  0
LINE
  5
15F
330
1E
100
AcDbEntity
  8
0
100
AcDbLine
 10
122.382
 20
0.0000000000000004
 30
0.0
 11
125.28
 21
0.0000000000000003
 31
0.0
  0
LINE
  5
160
330
1E
100
AcDbEntity
  8
0
100
AcDbLine
 10
121.106
 20
0.0000000000000005
 30
0.0
 11
121.4609999999999
 21
0.0000000000000005
 31
0.0
  0
LINE
  5
161
330
1E
100
AcDbEntity
  8
0
100
AcDbLine
 10
121.4609999999999
 20
0.0000000000000005
 30
0.0
 11
121.4609999999999
 21
2.0
 31
0.0
  0
LINE
  5
162
330
1E
100
AcDbEntity
  8
0
100
AcDbLine
 10
121.106
 20
0.0000000000000005
 30
0.0
 11
121.106
 21
2.0
 31
0.0
  0
LINE
  5
163
330
1E
100
AcDbEntity
  8
0
100
AcDbLine
 10
122.0779999999999
 20
0.0000000000000005
 30
0.0
 11
122.855
 21
0.0000000000000004
 31
0.0
  0
LINE
  5
164
330
1E
100
AcDbEntity
  8
0
100
AcDbLine
 10
122.0779999999999
 20
0.0000000000000005
 30
0.0
 11
122.0779999999999
 21
2.0
 31
0.0
  0
LINE
  5
165
330
1E
100
AcDbEntity
  8
0
100
AcDbLine
 10
122.0779999999999
 20
0.0000000000000005
 30
0.0
 11
122.382
 21
0.0000000000000004
 31
0.0
  0
LINE
  5
166
330
1E
100
AcDbEntity
  8
0
100
AcDbLine
 10
122.855
 20
0.0000000000000004
 30
0.0
 11
125.752
 21
0.0000000000000002
 31
0.0
  0
LINE
  5
167
330
1E
100
AcDbEntity
  8
0
100
AcDbLine
 10
122.855
 20
0.0000000000000004
 30
0.0
 11
124.9759999999999
 21
0.0000000000000003
 31
0.0
  0
LINE
  5
168
330
1E
100
AcDbEntity
  8
0
100
AcDbLine
 10
116.157
 20
0.0000000000000008
 30
0.0
 11
118.209
 21
0.0000000000000007
 31
0.0
  0
LINE
  5
169
330
1E
100
AcDbEntity
  8
0
100
AcDbLine
 10
117.179
 20
0.0000000000000008
 30
0.0
 11
117.432
 21
0.0000000000000007
 31
0.0
  0
LINE
  5
16A
330
1E
100
AcDbEntity
  8
0
100
AcDbLine
 10
116.157
 20
0.0000000000000008
 30
0.0
 11
116.157
 21
2.0
 31
0.0
  0
LINE
  5
16B
330
1E
100
AcDbEntity
  8
0
100
AcDbLine
 10
113.2589999999999
 20
0.000000000000001
 30
0.0
 11
115.3799999999999
 21
0.0000000000000009
 31
0.0
  0
LINE
  5
16C
330
1E
100
AcDbEntity
  8
0
100
AcDbLine
 10
115.3799999999999
 20
0.0000000000000009
 30
0.0
 11
116.157
 21
0.0000000000000008
 31
0.0
  0
LINE
  5
16D
330
1E
100
AcDbEntity
  8
0
100
AcDbLine
 10
115.3799999999999
 20
0.0000000000000009
 30
0.0
 11
115.3799999999999
 21
2.0
 31
0.0
  0
LINE
  5
16E
330
1E
100
AcDbEntity
  8
0
100
AcDbLine
 10
114.281
 20
0.0000000000000009
 30
0.0
 11
116.1
 21
0.0000000000000008
 31
0.0
  0
LINE
  5
16F
330
1E
100
AcDbEntity
  8
0
100
AcDbLine
 10
113.5049999999999
 20
0.000000000000001
 30
0.0
 11
114.281
 21
0.0000000000000009
 31
0.0
  0
LINE
  5
170
330
1E
100
AcDbEntity
  8
0
100
AcDbLine
 10
115.3799999999999
 20
0.0000000000000009
 30
0.0
 11
117.179
 21
0.0000000000000008
 31
0.0
  0
LINE
  5
171
330
1E
100
AcDbEntity
  8
0
100
AcDbLine
 10
115.3799999999999
 20
0.0000000000000009
 30
0.0
 11
116.274
 21
0.0000000000000008
 31
0.0
  0
LINE
  5
172
330
1E
100
AcDbEntity
  8
0
100
AcDbLine
 10
117.774
 20
0.0000000000000007
 30
0.0
 11
118.209
 21
0.0000000000000007
 31
0.0
  0
LINE
  5
173
330
1E
100
AcDbEntity
  8
0
100
AcDbLine
 10
118.209
 20
0.0000000000000007
 30
0.0
 11
120.33
 21
0.0000000000000006
 31
0.0
  0
LINE
  5
174
330
1E
100
AcDbEntity
  8
0
100
AcDbLine
 10
118.209
 20
0.0000000000000007
 30
0.0
 11
121.106
 21
0.0000000000000005
 31
0.0
  0
LINE
  5
175
330
1E
100
AcDbEntity
  8
0
100
AcDbLine
 10
120.33
 20
0.0000000000000006
 30
0.0
 11
121.106
 21
0.0000000000000005
 31
0.0
  0
LINE
  5
176
330
1E
100
AcDbEntity
  8
0
100
AcDbLine
 10
120.33
 20
0.0000000000000006
 30
0.0
 11
120.33
 21
2.0
 31
0.0
  0
LINE
  5
177
330
1E
100
AcDbEntity
  8
0
100
AcDbLine
 10
117.432
 20
0.0000000000000007
 30
0.0
 11
118.209
 21
0.0000000000000007
 31
0.0
  0
LINE
  5
178
330
1E
100
AcDbEntity
  8
0
100
AcDbLine
 10
117.432
 20
0.0000000000000007
 30
0.0
 11
117.432
 21
2.0
 31
0.0
  0
LINE
  5
179
330
1E
100
AcDbEntity
  8
0
100
AcDbLine
 10
117.432
 20
0.0000000000000007
 30
0.0
 11
120.33
 21
0.0000000000000006
 31
0.0
  0
LINE
  5
17A
330
1E
100
AcDbEntity
  8
0
100
AcDbLine
 10
120.372
 20
0.0000000000000006
 30
0.0
 11
121.106
 21
0.0000000000000005
 31
0.0
  0
LINE
  5
17B
330
1E
100
AcDbEntity
  8
0
100
AcDbLine
 10
133.0999999999999
 20
-0.0000000000000002
 30
0.0
 11
133.0999999999999
 21
2.0
 31
0.0
  0
LINE
  5
17C
330
1E
100
AcDbEntity
  8
0
100
AcDbLine
 10
123.0999999999999
 20
0.0000000000000004
 30
0.0
 11
123.1579999999999
 21
0.0000000000000004
 31
0.0
  0
LINE
  5
17D
330
1E
100
AcDbEntity
  8
0
100
AcDbLine
 10
129.239
 20
0.0
 30
0.0
 11
130.0999999999999
 21
0.0
 31
0.0
  0
LINE
  5
17E
330
1E
100
AcDbEntity
  8
0
100
AcDbLine
 10
128.434
 20
0.0000000000000001
 30
0.0
 11
129.9339999999999
 21
0.0
 31
0.0
  0
LINE
  5
17F
330
1E
100
AcDbEntity
  8
0
100
AcDbLine
 10
128.434
 20
0.0000000000000001
 30
0.0
 11
129.9339999999999
 21
0.0
 31
0.0
  0
LINE
  5
180
330
1E
100
AcDbEntity
  8
0
100
AcDbLine
 10
130.0999999999999
 20
0.0
 30
0.0
 11
133.0999999999999
 21
-0.0000000000000002
 31
0.0
  0
LINE
  5
181
330
1E
100
AcDbEntity
  8
0
100
AcDbLine
 10
127.336
 20
0.0000000000000001
 30
0.0
 11
128.108
 21
0.0000000000000001
 31
0.0
  0
LINE
  5
182
330
1E
100
AcDbEntity
  8
0
100
AcDbLine
 10
128.108
 20
0.0000000000000001
 30
0.0
 11
131.006
 21
-0.0000000000000001
 31
0.0
  0
LINE
  5
183
330
1E
100
AcDbEntity
  8
0
100
AcDbLine
 10
128.108
 20
0.0000000000000001
 30
0.0
 11
131.006
 21
-0.0000000000000001
 31
0.0
  0
LINE
  5
184
330
1E
100
AcDbEntity
  8
0
100
AcDbLine
 10
131.006
 20
-0.0000000000000001
 30
0.0
 11
131.006
 21
2.0
 31
0.0
  0
LINE
  5
185
330
1E
100
AcDbEntity
  8
0
100
AcDbLine
 10
130.2289999999999
 20
0.0
 30
0.0
 11
131.006
 21
-0.0000000000000001
 31
0.0
  0
LINE
  5
186
330
1E
100
AcDbEntity
  8
0
100
AcDbLine
 10
130.2289999999999
 20
0.0
 30
0.0
 11
130.2289999999999
 21
2.0
 31
0.0
  0
LINE
  5
187
330
1E
100
AcDbEntity
  8
0
100
AcDbLine
 10
126.0559999999999
 20
0.0000000000000002
 30
0.0
 11
128.434
 21
0.0000000000000001
 31
0.0
  0
LINE
  5
188
330
1E
100
AcDbEntity
  8
0
100
AcDbLine
 10
126.0999999999999
 20
0.0000000000000002
 30
0.0
 11
127.336
 21
0.0000000000000001
 31
0.0
  0
LINE
  5
189
330
1E
100
AcDbEntity
  8
0
100
AcDbLine
 10
126.0999999999999
 20
0.0000000000000002
 30
0.0
 11
127.332
 21
0.0000000000000001
 31
0.0
  0
LINE
  5
18A
330
1E
100
AcDbEntity
  8
0
100
AcDbLine
 10
126.0999999999999
 20
0.0000000000000002
 30
0.0
 11
126.0999999999999
 21
2.0
 31
0.0
  0
LINE
  5
18B
330
1E
100
AcDbEntity
  8
0
100
AcDbLine
 10
125.8359999999999
 20
0.0000000000000002
 30
0.0
 11
128.434
 21
0.0000000000000001
 31
0.0
  0
LINE
  5
18C
330
1E
100
AcDbEntity
  8
0
100
AcDbLine
 10
126.0559999999999
 20
0.0000000000000002
 30
0.0
 11
126.0559999999999
 21
2.0
 31
0.0
  0
LINE
  5
18D
330
1E
100
AcDbEntity
  8
0
100
AcDbLine
 10
125.28
 20
0.0000000000000003
 30
0.0
 11
126.0559999999999
 21
0.0000000000000002
 31
0.0
  0
LINE
  5
18E
330
1E
100
AcDbEntity
  8
0
100
AcDbLine
 10
125.28
 20
0.0000000000000003
 30
0.0
 11
125.28
 21
2.0
 31
0.0
  0
LINE
  5
18F
330
1E
100
AcDbEntity
  8
0
100
AcDbLine
 10
127.332
 20
0.0000000000000001
 30
0.0
 11
127.332
 21
2.0
 31
0.0
  0
LINE
  5
190
330
1E
100
AcDbEntity
  8
0
100
AcDbLine
 10
127.332
 20
0.0000000000000001
 30
0.0
 11
130.2289999999999
 21
0.0
 31
0.0
  0
LINE
  5
191
330
1E
100
AcDbEntity
  8
0
100
AcDbLine
 10
127.332
 20
0.0000000000000001
 30
0.0
 11
130.2289999999999
 21
0.0
 31
0.0
  0
LINE
  5
192
330
1E
100
AcDbEntity
  8
0
100
AcDbLine
 10
127.332
 20
0.0000000000000001
 30
0.0
 11
128.108
 21
0.0000000000000001
 31
0.0
  0
LINE
  5
193
330
1E
100
AcDbEntity
  8
0
100
AcDbLine
 10
124.9759999999999
 20
0.0000000000000003
 30
0.0
 11
125.752
 21
0.0000000000000002
 31
0.0
  0
LINE
  5
194
330
1E
100
AcDbEntity
  8
0
100
AcDbLine
 10
133.0999999999999
 20
-0.0000000000000002
 30
0.0
 11
134.3259999999999
 21
-0.0000000000000003
 31
0.0
  0
LINE
  5
195
330
1E
100
AcDbEntity
  8
0
100
AcDbLine
 10
133.0999999999999
 20
-0.0000000000000002
 30
0.0
 11
133.549
 21
-0.0000000000000002
 31
0.0
  0
LINE
  5
196
330
1E
100
AcDbEntity
  8
0
100
AcDbLine
 10
122.855
 20
0.0000000000000004
 30
0.0
 11
123.0999999999999
 21
0.0000000000000004
 31
0.0
  0
LINE
  5
197
330
1E
100
AcDbEntity
  8
0
100
AcDbLine
 10
101.7979999999999
 20
0.0000000000000017
 30
0.0
 11
102.861
 21
0.0000000000000016
 31
0.0
  0
LINE
  5
198
330
1E
100
AcDbEntity
  8
0
100
AcDbLine
 10
101.307
 20
0.0000000000000017
 30
0.0
 11
101.7979999999999
 21
0.0000000000000017
 31
0.0
  0
LINE
  5
199
330
1E
100
AcDbEntity
  8
0
100
AcDbLine
 10
95.17409999999999
 20
0.0000000000000021
 30
0.0
 11
95.17409999999999
 21
2.0
 31
0.0
  0
LINE
  5
19A
330
1E
100
AcDbEntity
  8
0
100
AcDbLine
 10
95.17409999999999
 20
0.0000000000000021
 30
0.0
 11
97.77219999999999
 21
0.000000000000002
 31
0.0
  0
LINE
  5
19B
330
1E
100
AcDbEntity
  8
0
100
AcDbLine
 10
95.17409999999999
 20
0.0000000000000021
 30
0.0
 11
96.6741
 21
0.000000000000002
 31
0.0
  0
LINE
  5
19C
330
1E
100
AcDbEntity
  8
0
100
AcDbLine
 10
94.11190000000001
 20
0.0000000000000022
 30
0.0
 11
96.70999999999999
 21
0.000000000000002
 31
0.0
  0
LINE
  5
19D
330
1E
100
AcDbEntity
  8
0
100
AcDbLine
 10
92.6119
 20
0.0000000000000023
 30
0.0
 11
94.11190000000001
 21
0.0000000000000022
 31
0.0
  0
LINE
  5
19E
330
1E
100
AcDbEntity
  8
0
100
AcDbLine
 10
92.6119
 20
0.0000000000000023
 30
0.0
 11
92.6119
 21
2.0
 31
0.0
  0
LINE
  5
19F
330
1E
100
AcDbEntity
  8
0
100
AcDbLine
 10
92.6119
 20
0.0000000000000023
 30
0.0
 11
95.17409999999999
 21
0.0000000000000021
 31
0.0
  0
LINE
  5
1A0
330
1E
100
AcDbEntity
  8
0
100
AcDbLine
 10
100.2979999999999
 20
0.0000000000000018
 30
0.0
 11
100.2979999999999
 21
2.0
 31
0.0
  0
LINE
  5
1A1
330
1E
100
AcDbEntity
  8
0
100
AcDbLine
 10
100.2979999999999
 20
0.0000000000000018
 30
0.0
 11
102.897
 21
0.0000000000000016
 31
0.0
  0
LINE
  5
1A2
330
1E
100
AcDbEntity
  8
0
100
AcDbLine
 10
96.6741
 20
0.000000000000002
 30
0.0
 11
97.7363
 21
0.000000000000002
 31
0.0
  0
LINE
  5
1A3
330
1E
100
AcDbEntity
  8
0
100
AcDbLine
 10
99.23630000000001
 20
0.0000000000000019
 30
0.0
 11
100.2979999999999
 21
0.0000000000000018
 31
0.0
  0
LINE
  5
1A4
330
1E
100
AcDbEntity
  8
0
100
AcDbLine
 10
97.7363
 20
0.000000000000002
 30
0.0
 11
97.7363
 21
2.0
 31
0.0
  0
LINE
  5
1A5
330
1E
100
AcDbEntity
  8
0
100
AcDbLine
 10
97.7363
 20
0.000000000000002
 30
0.0
 11
100.334
 21
0.0000000000000018
 31
0.0
  0
LINE
  5
1A6
330
1E
100
AcDbEntity
  8
0
100
AcDbLine
 10
97.7363
 20
0.000000000000002
 30
0.0
 11
99.23630000000001
 21
0.0000000000000019
 31
0.0
  0
LINE
  5
1A7
330
1E
100
AcDbEntity
  8
0
100
AcDbLine
 10
99.2722
 20
0.0000000000000019
 30
0.0
 11
100.334
 21
0.0000000000000018
 31
0.0
  0
LINE
  5
1A8
330
1E
100
AcDbEntity
  8
0
100
AcDbLine
 10
99.2722
 20
0.0000000000000019
 30
0.0
 11
100.2979999999999
 21
0.0000000000000018
 31
0.0
  0
LINE
  5
1A9
330
1E
100
AcDbEntity
  8
0
100
AcDbLine
 10
95.20999999999999
 20
0.0000000000000021
 30
0.0
 11
96.70999999999999
 21
0.000000000000002
 31
0.0
  0
LINE
  5
1AA
330
1E
100
AcDbEntity
  8
0
100
AcDbLine
 10
100.531
 20
0.0000000000000018
 30
0.0
 11
101.307
 21
0.0000000000000017
 31
0.0
  0
LINE
  5
1AB
330
1E
100
AcDbEntity
  8
0
100
AcDbLine
 10
107.9849999999999
 20
0.0000000000000013
 30
0.0
 11
107.9849999999999
 21
2.0
 31
0.0
  0
LINE
  5
1AC
330
1E
100
AcDbEntity
  8
0
100
AcDbLine
 10
107.9849999999999
 20
0.0000000000000013
 30
0.0
 11
110.583
 21
0.0000000000000012
 31
0.0
  0
LINE
  5
1AD
330
1E
100
AcDbEntity
  8
0
100
AcDbLine
 10
112.0829999999999
 20
0.0000000000000011
 30
0.0
 11
112.0829999999999
 21
2.0
 31
0.0
  0
LINE
  5
1AE
330
1E
100
AcDbEntity
  8
0
100
AcDbLine
 10
110.583
 20
0.0000000000000012
 30
0.0
 11
112.0829999999999
 21
0.0000000000000011
 31
0.0
  0
LINE
  5
1AF
330
1E
100
AcDbEntity
  8
0
100
AcDbLine
 10
110.583
 20
0.0000000000000012
 30
0.0
 11
110.583
 21
2.0
 31
0.0
  0
LINE
  5
1B0
330
1E
100
AcDbEntity
  8
0
100
AcDbLine
 10
112.0999999999999
 20
0.0000000000000011
 30
0.0
 11
112.0999999999999
 21
2.0
 31
0.0
  0
LINE
  5
1B1
330
1E
100
AcDbEntity
  8
0
100
AcDbLine
 10
109.521
 20
0.0000000000000012
 30
0.0
 11
110.43
 21
0.0000000000000012
 31
0.0
  0
LINE
  5
1B2
330
1E
100
AcDbEntity
  8
0
100
AcDbLine
 10
105.423
 20
0.0000000000000015
 30
0.0
 11
105.423
 21
2.0
 31
0.0
  0
LINE
  5
1B3
330
1E
100
AcDbEntity
  8
0
100
AcDbLine
 10
105.423
 20
0.0000000000000015
 30
0.0
 11
108.021
 21
0.0000000000000013
 31
0.0
  0
LINE
  5
1B4
330
1E
100
AcDbEntity
  8
0
100
AcDbLine
 10
105.423
 20
0.0000000000000015
 30
0.0
 11
106.9229999999999
 21
0.0000000000000014
 31
0.0
  0
LINE
  5
1B5
330
1E
100
AcDbEntity
  8
0
100
AcDbLine
 10
104.361
 20
0.0000000000000015
 30
0.0
 11
105.423
 21
0.0000000000000015
 31
0.0
  0
LINE
  5
1B6
330
1E
100
AcDbEntity
  8
0
100
AcDbLine
 10
104.361
 20
0.0000000000000015
 30
0.0
 11
106.959
 21
0.0000000000000014
 31
0.0
  0
LINE
  5
1B7
330
1E
100
AcDbEntity
  8
0
100
AcDbLine
 10
102.861
 20
0.0000000000000016
 30
0.0
 11
102.861
 21
2.0
 31
0.0
  0
LINE
  5
1B8
330
1E
100
AcDbEntity
  8
0
100
AcDbLine
 10
102.861
 20
0.0000000000000016
 30
0.0
 11
105.459
 21
0.0000000000000015
 31
0.0
  0
LINE
  5
1B9
330
1E
100
AcDbEntity
  8
0
100
AcDbLine
 10
106.9229999999999
 20
0.0000000000000014
 30
0.0
 11
107.9849999999999
 21
0.0000000000000013
 31
0.0
  0
LINE
  5
1BA
330
1E
100
AcDbEntity
  8
0
100
AcDbLine
 10
106.9229999999999
 20
0.0000000000000014
 30
0.0
 11
107.9849999999999
 21
0.0000000000000013
 31
0.0
  0
LINE
  5
1BB
330
1E
100
AcDbEntity
  8
0
100
AcDbLine
 10
121.4609999999999
 20
2.0
 30
0.0
 11
121.4609999999999
 21
0.0000000000000004
 31
0.0
  0
LINE
  5
1BC
330
1E
100
AcDbEntity
  8
0
100
AcDbLine
 10
121.106
 20
2.0
 30
0.0
 11
121.106
 21
0.0000000000000004
 31
0.0
  0
LINE
  5
1BD
330
1E
100
AcDbEntity
  8
0
100
AcDbLine
 10
120.33
 20
2.0
 30
0.0
 11
120.33
 21
0.0000000000000004
 31
0.0
  0
LINE
  5
1BE
330
1E
100
AcDbEntity
  8
0
100
AcDbLine
 10
120.33
 20
2.0
 30
0.0
 11
121.106
 21
2.0
 31
0.0
  0
LINE
  5
1BF
330
1E
100
AcDbEntity
  8
0
100
AcDbLine
 10
133.0999999999999
 20
2.0
 30
0.0
 11
133.0999999999999
 21
-0.0000000000000004
 31
0.0
  0
LINE
  5
1C0
330
1E
100
AcDbEntity
  8
0
100
AcDbLine
 10
131.006
 20
2.0
 30
0.0
 11
131.006
 21
0.0
 31
0.0
  0
LINE
  5
1C1
330
1E
100
AcDbEntity
  8
0
100
AcDbLine
 10
130.2289999999999
 20
2.0
 30
0.0
 11
130.2289999999999
 21
0.0
 31
0.0
  0
LINE
  5
1C2
330
1E
100
AcDbEntity
  8
0
100
AcDbLine
 10
126.0999999999999
 20
2.0
 30
0.0
 11
126.0999999999999
 21
0.0000000000000004
 31
0.0
  0
LINE
  5
1C3
330
1E
100
AcDbEntity
  8
0
100
AcDbLine
 10
126.0999999999999
 20
2.0
 30
0.0
 11
127.332
 21
2.0
 31
0.0
  0
LINE
  5
1C4
330
1E
100
AcDbEntity
  8
0
100
AcDbLine
 10
126.0559999999999
 20
2.0
 30
0.0
 11
126.0559999999999
 21
0.0000000000000004
 31
0.0
  0
LINE
  5
1C5
330
1E
100
AcDbEntity
  8
0
100
AcDbLine
 10
125.28
 20
2.0
 30
0.0
 11
125.28
 21
0.0000000000000004
 31
0.0
  0
LINE
  5
1C6
330
1E
100
AcDbEntity
  8
0
100
AcDbLine
 10
122.382
 20
2.0
 30
0.0
 11
123.7
 21
2.0
 31
0.0
  0
LINE
  5
1C7
330
1E
100
AcDbEntity
  8
0
100
AcDbLine
 10
122.382
 20
2.0
 30
0.0
 11
122.382
 21
0.0000000000000004
 31
0.0
  0
LINE
  5
1C8
330
1E
100
AcDbEntity
  8
0
100
AcDbLine
 10
127.332
 20
2.0
 30
0.0
 11
130.2289999999999
 21
2.0
 31
0.0
  0
LINE
  5
1C9
330
1E
100
AcDbEntity
  8
0
100
AcDbLine
 10
127.332
 20
2.0
 30
0.0
 11
127.332
 21
0.0
 31
0.0
  0
LINE
  5
1CA
330
1E
100
AcDbEntity
  8
0
100
AcDbLine
 10
122.0779999999999
 20
2.0
 30
0.0
 11
122.0779999999999
 21
0.0000000000000004
 31
0.0
  0
LINE
  5
1CB
330
1E
100
AcDbEntity
  8
0
100
AcDbLine
 10
122.0779999999999
 20
2.0
 30
0.0
 11
122.382
 21
2.0
 31
0.0
  0
LINE
  5
1CC
330
1E
100
AcDbEntity
  8
0
100
AcDbLine
 10
107.83
 20
0.0000000000000013
 30
0.0
 11
108.021
 21
0.0000000000000013
 31
0.0
  0
LINE
  5
1CD
330
1E
100
AcDbEntity
  8
0
100
AcDbLine
 10
102.583
 20
0.0000000000000017
 30
0.0
 11
102.897
 21
0.0000000000000016
 31
0.0
  0
LINE
  5
1CE
330
1E
100
AcDbEntity
  8
0
100
AcDbLine
 10
112.482
 20
0.0000000000000011
 30
0.0
 11
113.2589999999999
 21
0.000000000000001
 31
0.0
  0
LINE
  5
1CF
330
1E
100
AcDbEntity
  8
0
100
AcDbLine
 10
112.482
 20
0.0000000000000011
 30
0.0
 11
113.2589999999999
 21
0.000000000000001
 31
0.0
  0
LINE
  5
1D0
330
1E
100
AcDbEntity
  8
0
100
AcDbLine
 10
112.482
 20
0.0000000000000011
 30
0.0
 11
112.482
 21
2.0
 31
0.0
  0
LINE
  5
1D1
330
1E
100
AcDbEntity
  8
0
100
AcDbLine
 10
112.482
 20
0.0000000000000011
 30
0.0
 11
115.3799999999999
 21
0.0000000000000009
 31
0.0
  0
LINE
  5
1D2
330
1E
100
AcDbEntity
  8
0
100
AcDbLine
 10
134.3259999999999
 20
-0.0000000000000003
 30
0.0
 11
134.3259999999999
 21
2.0
 31
0.0
  0
LINE
  5
1D3
330
1E
100
AcDbEntity
  8
0
100
AcDbLine
 10
134.0999999999999
 20
2.0
 30
0.0
 11
143.9
 21
2.0
 31
0.0
  0
LINE
  5
1D4
330
1E
100
AcDbEntity
  8
0
100
AcDbLine
 10
118.209
 20
2.0
 30
0.0
 11
119.1
 21
2.0
 31
0.0
  0
LINE
  5
1D5
330
1E
100
AcDbEntity
  8
0
100
AcDbLine
 10
117.432
 20
2.0
 30
0.0
 11
117.432
 21
0.0000000000000008
 31
0.0
  0
LINE
  5
1D6
330
1E
100
AcDbEntity
  8
0
100
AcDbLine
 10
117.432
 20
2.0
 30
0.0
 11
118.209
 21
2.0
 31
0.0
  0
LINE
  5
1D7
330
1E
100
AcDbEntity
  8
0
100
AcDbLine
 10
116.157
 20
2.0
 30
0.0
 11
116.157
 21
0.0000000000000008
 31
0.0
  0
LINE
  5
1D8
330
1E
100
AcDbEntity
  8
0
100
AcDbLine
 10
116.157
 20
2.0
 30
0.0
 11
117.432
 21
2.0
 31
0.0
  0
LINE
  5
1D9
330
1E
100
AcDbEntity
  8
0
100
AcDbLine
 10
115.3799999999999
 20
2.0
 30
0.0
 11
115.3799999999999
 21
0.0000000000000008
 31
0.0
  0
LINE
  5
1DA
330
1E
100
AcDbEntity
  8
0
100
AcDbLine
 10
115.3799999999999
 20
2.0
 30
0.0
 11
116.157
 21
2.0
 31
0.0
  0
LINE
  5
1DB
330
1E
100
AcDbEntity
  8
0
100
AcDbLine
 10
123.7
 20
2.0
 30
0.0
 11
134.0999999999999
 21
2.0
 31
0.0
  0
LINE
  5
1DC
330
1E
100
AcDbEntity
  8
0
100
AcDbLine
 10
135.3979999999999
 20
2.0
 30
0.0
 11
135.3979999999999
 21
-0.0000000000000004
 31
0.0
  0
LINE
  5
1DD
330
1E
100
AcDbEntity
  8
0
100
AcDbLine
 10
135.3979999999999
 20
-0.0000000000000004
 30
0.0
 11
136.898
 21
-0.0000000000000004
 31
0.0
  0
LINE
  5
1DE
330
1E
100
AcDbEntity
  8
0
100
AcDbLine
 10
135.3979999999999
 20
-0.0000000000000004
 30
0.0
 11
135.3979999999999
 21
2.0
 31
0.0
  0
LINE
  5
1DF
330
1E
100
AcDbEntity
  8
0
100
AcDbLine
 10
135.3979999999999
 20
-0.0000000000000004
 30
0.0
 11
137.0999999999999
 21
-0.0000000000000005
 31
0.0
  0
LINE
  5
1E0
330
1E
100
AcDbEntity
  8
0
100
AcDbLine
 10
135.3979999999999
 20
-0.0000000000000004
 30
0.0
 11
137.0179999999999
 21
-0.0000000000000005
 31
0.0
  0
LINE
  5
1E1
330
1E
100
AcDbEntity
  8
0
100
AcDbLine
 10
134.3259999999999
 20
2.0
 30
0.0
 11
135.3979999999999
 21
2.0
 31
0.0
  0
LINE
  5
1E2
330
1E
100
AcDbEntity
  8
0
100
AcDbLine
 10
134.3259999999999
 20
2.0
 30
0.0
 11
134.3259999999999
 21
-0.0000000000000004
 31
0.0
  0
LINE
  5
1E3
330
1E
100
AcDbEntity
  8
0
100
AcDbLine
 10
110.583
 20
2.0
 30
0.0
 11
110.583
 21
0.0000000000000012
 31
0.0
  0
LINE
  5
1E4
330
1E
100
AcDbEntity
  8
0
100
AcDbLine
 10
110.583
 20
2.0
 30
0.0
 11
112.0829999999999
 21
2.0
 31
0.0
  0
LINE
  5
1E5
330
1E
100
AcDbEntity
  8
0
100
AcDbLine
 10
107.9849999999999
 20
2.0
 30
0.0
 11
110.583
 21
2.0
 31
0.0
  0
LINE
  5
1E6
330
1E
100
AcDbEntity
  8
0
100
AcDbLine
 10
107.9849999999999
 20
2.0
 30
0.0
 11
107.9849999999999
 21
0.0000000000000012
 31
0.0
  0
LINE
  5
1E7
330
1E
100
AcDbEntity
  8
0
100
AcDbLine
 10
112.0829999999999
 20
2.0
 30
0.0
 11
112.0829999999999
 21
0.0000000000000012
 31
0.0
  0
LINE
  5
1E8
330
1E
100
AcDbEntity
  8
0
100
AcDbLine
 10
100.2979999999999
 20
2.0
 30
0.0
 11
101.2
 21
2.0
 31
0.0
  0
LINE
  5
1E9
330
1E
100
AcDbEntity
  8
0
100
AcDbLine
 10
100.2979999999999
 20
2.0
 30
0.0
 11
100.2979999999999
 21
0.0000000000000017
 31
0.0
  0
LINE
  5
1EA
330
1E
100
AcDbEntity
  8
0
100
AcDbLine
 10
105.423
 20
2.0
 30
0.0
 11
105.423
 21
0.0000000000000017
 31
0.0
  0
LINE
  5
1EB
330
1E
100
AcDbEntity
  8
0
100
AcDbLine
 10
102.861
 20
2.0
 30
0.0
 11
102.861
 21
0.0000000000000017
 31
0.0
  0
LINE
  5
1EC
330
1E
100
AcDbEntity
  8
0
100
AcDbLine
 10
112.0999999999999
 20
2.0
 30
0.0
 11
112.0999999999999
 21
0.0000000000000012
 31
0.0
  0
LINE
  5
1ED
330
1E
100
AcDbEntity
  8
0
100
AcDbLine
 10
112.482
 20
2.0
 30
0.0
 11
112.482
 21
0.0000000000000012
 31
0.0
  0
LINE
  5
1EE
330
1E
100
AcDbEntity
  8
0
100
AcDbLine
 10
112.482
 20
2.0
 30
0.0
 11
115.3799999999999
 21
2.0
 31
0.0
  0
LINE
  5
1EF
330
1E
100
AcDbEntity
  8
0
100
AcDbLine
 10
97.7363
 20
2.0
 30
0.0
 11
100.2979999999999
 21
2.0
 31
0.0
  0
LINE
  5
1F0
330
1E
100
AcDbEntity
  8
0
100
AcDbLine
 10
97.7363
 20
2.0
 30
0.0
 11
97.7363
 21
0.0000000000000021
 31
0.0
  0
LINE
  5
1F1
330
1E
100
AcDbEntity
  8
0
100
AcDbLine
 10
95.17409999999999
 20
2.0
 30
0.0
 11
95.17409999999999
 21
0.0000000000000021
 31
0.0
  0
LINE
  5
1F2
330
1E
100
AcDbEntity
  8
0
100
AcDbLine
 10
92.6119
 20
2.0
 30
0.0
 11
92.6119
 21
0.0000000000000021
 31
0.0
  0
LINE
  5
1F3
330
1E
100
AcDbEntity
  8
0
100
AcDbLine
 10
92.6119
 20
2.0
 30
0.0
 11
95.17409999999999
 21
2.0
 31
0.0
  0
LINE
  5
1F4
330
1E
100
AcDbEntity
  8
0
100
AcDbLine
 10
97.77219999999999
 20
2.0
 30
0.0
 11
99.23630000000001
 21
2.0
 31
0.0
  0
LINE
  5
1F5
330
1E
100
AcDbEntity
  8
0
100
AcDbLine
 10
101.2
 20
2.0
 30
0.0
 11
112.5999999999999
 21
2.0
 31
0.0
  0
LINE
  5
1F6
330
1E
100
AcDbEntity
  8
0
100
AcDbLine
 10
123.7
 20
12.0
 30
0.0
 11
134.0999999999999
 21
12.0
 31
0.0
  0
LINE
  5
1F7
330
1E
100
AcDbEntity
  8
0
100
AcDbLine
 10
112.5999999999999
 20
2.0
 30
0.0
 11
114.281
 21
2.0
 31
0.0
  0
LINE
  5
1F8
330
1E
100
AcDbEntity
  8
0
100
AcDbLine
 10
112.5999999999999
 20
2.0
 30
0.0
 11
123.7
 21
2.0
 31
0.0
  0
LINE
  5
1F9
330
1E
100
AcDbEntity
  8
0
100
AcDbLine
 10
119.34
 20
2.0
 30
0.0
 11
122.0779999999999
 21
2.0
 31
0.0
  0
LINE
  5
1FA
330
1E
100
AcDbEntity
  8
0
100
AcDbLine
 10
91.62130000000001
 20
2.0
 30
0.0
 11
92.6119
 21
2.0
 31
0.0
  0
LINE
  5
1FB
330
1E
100
AcDbEntity
  8
0
100
AcDbLine
 10
91.62130000000001
 20
2.0
 30
0.0
 11
91.62130000000001
 21
0.0000000000000025
 31
0.0
  0
LINE
  5
1FC
330
1E
100
AcDbEntity
  8
0
100
AcDbLine
 10
134.0999999999999
 20
12.0
 30
0.0
 11
135.8999999999999
 21
12.0
 31
0.0
  0
LINE
  5
1FD
330
1E
100
AcDbEntity
  8
0
100
AcDbLine
 10
134.0999999999999
 20
12.0
 30
0.0
 11
143.9
 21
12.0
 31
0.0
  0
LINE
  5
1FE
330
1E
100
AcDbEntity
  8
0
100
AcDbLine
 10
140.0999999999999
 20
-0.0000000000000006
 30
0.0
 11
141.2599999999999
 21
-0.0000000000000007
 31
0.0
  0
LINE
  5
1FF
330
1E
100
AcDbEntity
  8
0
100
AcDbLine
 10
140.0999999999999
 20
-0.0000000000000006
 30
0.0
 11
140.0999999999999
 21
2.0
 31
0.0
  0
LINE
  5
200
330
1E
100
AcDbEntity
  8
0
100
AcDbLine
 10
140.0999999999999
 20
-0.0000000000000006
 30
0.0
 11
142.8989999999999
 21
-0.0000000000000008
 31
0.0
  0
LINE
  5
201
330
1E
100
AcDbEntity
  8
0
100
AcDbLine
 10
136.898
 20
2.0
 30
0.0
 11
136.898
 21
-0.0000000000000004
 31
0.0
  0
LINE
  5
202
330
1E
100
AcDbEntity
  8
0
100
AcDbLine
 10
136.898
 20
-0.0000000000000004
 30
0.0
 11
137.0999999999999
 21
-0.0000000000000005
 31
0.0
  0
LINE
  5
203
330
1E
100
AcDbEntity
  8
0
100
AcDbLine
 10
136.898
 20
-0.0000000000000004
 30
0.0
 11
136.898
 21
2.0
 31
0.0
  0
LINE
  5
204
330
1E
100
AcDbEntity
  8
0
100
AcDbLine
 10
137.0999999999999
 20
2.0
 30
0.0
 11
137.0999999999999
 21
-0.0000000000000004
 31
0.0
  0
LINE
  5
205
330
1E
100
AcDbEntity
  8
0
100
AcDbLine
 10
137.0999999999999
 20
2.0
 30
0.0
 11
140.0999999999999
 21
2.0
 31
0.0
  0
LINE
  5
206
330
1E
100
AcDbEntity
  8
0
100
AcDbLine
 10
137.0999999999999
 20
-0.0000000000000005
 30
0.0
 11
139.2249999999999
 21
-0.0000000000000006
 31
0.0
  0
LINE
  5
207
330
1E
100
AcDbEntity
  8
0
100
AcDbLine
 10
137.0999999999999
 20
-0.0000000000000005
 30
0.0
 11
140.0999999999999
 21
-0.0000000000000006
 31
0.0
  0
LINE
  5
208
330
1E
100
AcDbEntity
  8
0
100
AcDbLine
 10
137.0999999999999
 20
-0.0000000000000005
 30
0.0
 11
137.0999999999999
 21
2.0
 31
0.0
  0
LINE
  5
209
330
1E
100
AcDbEntity
  8
0
100
AcDbLine
 10
139.2249999999999
 20
2.0
 30
0.0
 11
140.0009999999999
 21
2.0
 31
0.0
  0
LINE
  5
20A
330
1E
100
AcDbEntity
  8
0
100
AcDbLine
 10
140.0999999999999
 20
2.0
 30
0.0
 11
142.8989999999999
 21
2.0
 31
0.0
  0
LINE
  5
20B
330
1E
100
AcDbEntity
  8
0
100
AcDbLine
 10
140.0999999999999
 20
2.0
 30
0.0
 11
140.0999999999999
 21
-0.0000000000000008
 31
0.0
  0
LINE
  5
20C
330
1E
100
AcDbEntity
  8
0
100
AcDbLine
 10
140.0009999999999
 20
-0.0000000000000006
 30
0.0
 11
142.8989999999999
 21
-0.0000000000000008
 31
0.0
  0
LINE
  5
20D
330
1E
100
AcDbEntity
  8
0
100
AcDbLine
 10
135.8999999999999
 20
12.0
 30
0.0
 11
138.9
 21
12.0
 31
0.0
  0
LINE
  5
20E
330
1E
100
AcDbEntity
  8
0
100
AcDbLine
 10
138.9
 20
12.0
 30
0.0
 11
141.1
 21
12.0
 31
0.0
  0
LINE
  5
20F
330
1E
100
AcDbEntity
  8
0
100
AcDbLine
 10
142.122
 20
-0.0000000000000008
 30
0.0
 11
142.8989999999999
 21
-0.0000000000000008
 31
0.0
  0
LINE
  5
210
330
1E
100
AcDbEntity
  8
0
100
AcDbLine
 10
141.2599999999999
 20
-0.0000000000000007
 30
0.0
 11
142.8989999999999
 21
-0.0000000000000008
 31
0.0
  0
LINE
  5
211
330
1E
100
AcDbEntity
  8
0
100
AcDbLine
 10
158.621
 20
-0.0000000000000018
 30
0.0
 11
158.938
 21
-0.0000000000000018
 31
0.0
  0
LINE
  5
212
330
1E
100
AcDbEntity
  8
0
100
AcDbLine
 10
158.938
 20
-0.0000000000000018
 30
0.0
 11
159.269
 21
-0.0000000000000018
 31
0.0
  0
LINE
  5
213
330
1E
100
AcDbEntity
  8
0
100
AcDbLine
 10
160.0449999999999
 20
-0.0000000000000019
 30
0.0
 11
161.059
 21
-0.0000000000000019
 31
0.0
  0
LINE
  5
214
330
1E
100
AcDbEntity
  8
0
100
AcDbLine
 10
166.7159999999999
 20
-0.0000000000000023
 30
0.0
 11
168.837
 21
-0.0000000000000024
 31
0.0
  0
LINE
  5
215
330
1E
100
AcDbEntity
  8
0
100
AcDbLine
 10
170.959
 20
-0.0000000000000025
 30
0.0
 11
170.959
 21
2.0
 31
0.0
  0
LINE
  5
216
330
1E
100
AcDbEntity
  8
0
100
AcDbLine
 10
168.837
 20
-0.0000000000000024
 30
0.0
 11
170.959
 21
-0.0000000000000025
 31
0.0
  0
LINE
  5
217
330
1E
100
AcDbEntity
  8
0
100
AcDbLine
 10
168.837
 20
-0.0000000000000024
 30
0.0
 11
168.837
 21
2.0
 31
0.0
  0
LINE
  5
218
330
1E
100
AcDbEntity
  8
0
100
AcDbLine
 10
168.1829999999999
 20
-0.0000000000000024
 30
0.0
 11
168.1829999999999
 21
2.0
 31
0.0
  0
LINE
  5
219
330
1E
100
AcDbEntity
  8
0
100
AcDbLine
 10
161.059
 20
-0.0000000000000019
 30
0.0
 11
161.059
 21
2.0
 31
0.0
  0
LINE
  5
21A
330
1E
100
AcDbEntity
  8
0
100
AcDbLine
 10
164.085
 20
-0.0000000000000021
 30
0.0
 11
165.585
 21
-0.0000000000000022
 31
0.0
  0
LINE
  5
21B
330
1E
100
AcDbEntity
  8
0
100
AcDbLine
 10
164.085
 20
-0.0000000000000021
 30
0.0
 11
165.585
 21
-0.0000000000000022
 31
0.0
  0
LINE
  5
21C
330
1E
100
AcDbEntity
  8
0
100
AcDbLine
 10
164.085
 20
-0.0000000000000021
 30
0.0
 11
164.085
 21
2.0
 31
0.0
  0
LINE
  5
21D
330
1E
100
AcDbEntity
  8
0
100
AcDbLine
 10
164.085
 20
-0.0000000000000021
 30
0.0
 11
166.683
 21
-0.0000000000000023
 31
0.0
  0
LINE
  5
21E
330
1E
100
AcDbEntity
  8
0
100
AcDbLine
 10
165.585
 20
-0.0000000000000022
 30
0.0
 11
168.1829999999999
 21
-0.0000000000000024
 31
0.0
  0
LINE
  5
21F
330
1E
100
AcDbEntity
  8
0
100
AcDbLine
 10
165.585
 20
-0.0000000000000022
 30
0.0
 11
165.585
 21
2.0
 31
0.0
  0
LINE
  5
220
330
1E
100
AcDbEntity
  8
0
100
AcDbLine
 10
165.585
 20
-0.0000000000000022
 30
0.0
 11
166.7159999999999
 21
-0.0000000000000023
 31
0.0
  0
LINE
  5
221
330
1E
100
AcDbEntity
  8
0
100
AcDbLine
 10
166.683
 20
-0.0000000000000023
 30
0.0
 11
168.1829999999999
 21
-0.0000000000000024
 31
0.0
  0
LINE
  5
222
330
1E
100
AcDbEntity
  8
0
100
AcDbLine
 10
160.0449999999999
 20
-0.0000000000000019
 30
0.0
 11
160.0449999999999
 21
2.0
 31
0.0
  0
LINE
  5
223
330
1E
100
AcDbEntity
  8
0
100
AcDbLine
 10
149.0379999999999
 20
-0.0000000000000012
 30
0.0
 11
151.16
 21
-0.0000000000000013
 31
0.0
  0
LINE
  5
224
330
1E
100
AcDbEntity
  8
0
100
AcDbLine
 10
149.0379999999999
 20
-0.0000000000000012
 30
0.0
 11
150.696
 21
-0.0000000000000013
 31
0.0
  0
LINE
  5
225
330
1E
100
AcDbEntity
  8
0
100
AcDbLine
 10
154.523
 20
-0.0000000000000015
 30
0.0
 11
156.0229999999999
 21
-0.0000000000000016
 31
0.0
  0
LINE
  5
226
330
1E
100
AcDbEntity
  8
0
100
AcDbLine
 10
154.523
 20
-0.0000000000000015
 30
0.0
 11
154.523
 21
2.0
 31
0.0
  0
LINE
  5
227
330
1E
100
AcDbEntity
  8
0
100
AcDbLine
 10
156.0229999999999
 20
-0.0000000000000016
 30
0.0
 11
156.371
 21
-0.0000000000000016
 31
0.0
  0
LINE
  5
228
330
1E
100
AcDbEntity
  8
0
100
AcDbLine
 10
156.0229999999999
 20
-0.0000000000000016
 30
0.0
 11
156.0229999999999
 21
2.0
 31
0.0
  0
LINE
  5
229
330
1E
100
AcDbEntity
  8
0
100
AcDbLine
 10
156.0229999999999
 20
-0.0000000000000016
 30
0.0
 11
158.621
 21
-0.0000000000000018
 31
0.0
  0
LINE
  5
22A
330
1E
100
AcDbEntity
  8
0
100
AcDbLine
 10
156.0229999999999
 20
-0.0000000000000016
 30
0.0
 11
156.817
 21
-0.0000000000000017
 31
0.0
  0
LINE
  5
22B
330
1E
100
AcDbEntity
  8
0
100
AcDbLine
 10
151.472
 20
-0.0000000000000013
 30
0.0
 11
151.472
 21
2.0
 31
0.0
  0
LINE
  5
22C
330
1E
100
AcDbEntity
  8
0
100
AcDbLine
 10
147.0999999999999
 20
-0.0000000000000011
 30
0.0
 11
147.5589999999999
 21
-0.0000000000000011
 31
0.0
  0
LINE
  5
22D
330
1E
100
AcDbEntity
  8
0
100
AcDbLine
 10
144.961
 20
-0.0000000000000009
 30
0.0
 11
146.461
 21
-0.000000000000001
 31
0.0
  0
LINE
  5
22E
330
1E
100
AcDbEntity
  8
0
100
AcDbLine
 10
146.461
 20
-0.000000000000001
 30
0.0
 11
148.5739999999999
 21
-0.0000000000000012
 31
0.0
  0
LINE
  5
22F
330
1E
100
AcDbEntity
  8
0
100
AcDbLine
 10
147.5589999999999
 20
-0.0000000000000011
 30
0.0
 11
149.059
 21
-0.0000000000000012
 31
0.0
  0
LINE
  5
230
330
1E
100
AcDbEntity
  8
0
100
AcDbLine
 10
147.5589999999999
 20
-0.0000000000000011
 30
0.0
 11
147.798
 21
-0.0000000000000011
 31
0.0
  0
LINE
  5
231
330
1E
100
AcDbEntity
  8
0
100
AcDbLine
 10
147.5589999999999
 20
-0.0000000000000011
 30
0.0
 11
149.0379999999999
 21
-0.0000000000000012
 31
0.0
  0
LINE
  5
232
330
1E
100
AcDbEntity
  8
0
100
AcDbLine
 10
147.0999999999999
 20
-0.0000000000000011
 30
0.0
 11
147.0999999999999
 21
2.0
 31
0.0
  0
LINE
  5
233
330
1E
100
AcDbEntity
  8
0
100
AcDbLine
 10
144.1
 20
-0.0000000000000009
 30
0.0
 11
144.1
 21
2.0
 31
0.0
  0
LINE
  5
234
330
1E
100
AcDbEntity
  8
0
100
AcDbLine
 10
144.1
 20
-0.0000000000000009
 30
0.0
 11
147.0999999999999
 21
-0.0000000000000011
 31
0.0
  0
LINE
  5
235
330
1E
100
AcDbEntity
  8
0
100
AcDbLine
 10
147.798
 20
-0.0000000000000011
 30
0.0
 11
148.5739999999999
 21
-0.0000000000000012
 31
0.0
  0
LINE
  5
236
330
1E
100
AcDbEntity
  8
0
100
AcDbLine
 10
147.798
 20
-0.0000000000000011
 30
0.0
 11
147.798
 21
2.0
 31
0.0
  0
LINE
  5
237
330
1E
100
AcDbEntity
  8
0
100
AcDbLine
 10
148.5739999999999
 20
-0.0000000000000012
 30
0.0
 11
151.472
 21
-0.0000000000000013
 31
0.0
  0
LINE
  5
238
330
1E
100
AcDbEntity
  8
0
100
AcDbLine
 10
148.5739999999999
 20
-0.0000000000000012
 30
0.0
 11
148.5739999999999
 21
2.0
 31
0.0
  0
LINE
  5
239
330
1E
100
AcDbEntity
  8
0
100
AcDbLine
 10
156.371
 20
-0.0000000000000016
 30
0.0
 11
157.148
 21
-0.0000000000000017
 31
0.0
  0
LINE
  5
23A
330
1E
100
AcDbEntity
  8
0
100
AcDbLine
 10
156.371
 20
-0.0000000000000016
 30
0.0
 11
159.269
 21
-0.0000000000000018
 31
0.0
  0
LINE
  5
23B
330
1E
100
AcDbEntity
  8
0
100
AcDbLine
 10
156.371
 20
-0.0000000000000016
 30
0.0
 11
156.371
 21
2.0
 31
0.0
  0
LINE
  5
23C
330
1E
100
AcDbEntity
  8
0
100
AcDbLine
 10
156.371
 20
-0.0000000000000016
 30
0.0
 11
156.817
 21
-0.0000000000000017
 31
0.0
  0
LINE
  5
23D
330
1E
100
AcDbEntity
  8
0
100
AcDbLine
 10
157.148
 20
-0.0000000000000017
 30
0.0
 11
160.0449999999999
 21
-0.0000000000000019
 31
0.0
  0
LINE
  5
23E
330
1E
100
AcDbEntity
  8
0
100
AcDbLine
 10
157.148
 20
-0.0000000000000017
 30
0.0
 11
157.148
 21
2.0
 31
0.0
  0
LINE
  5
23F
330
1E
100
AcDbEntity
  8
0
100
AcDbLine
 10
142.8989999999999
 20
-0.0000000000000008
 30
0.0
 11
142.8989999999999
 21
2.0
 31
0.0
  0
LINE
  5
240
330
1E
100
AcDbEntity
  8
0
100
AcDbLine
 10
164.085
 20
2.0
 30
0.0
 11
164.085
 21
-0.0000000000000021
 31
0.0
  0
LINE
  5
241
330
1E
100
AcDbEntity
  8
0
100
AcDbLine
 10
167.1
 20
2.0
 30
0.0
 11
168.837
 21
2.0
 31
0.0
  0
LINE
  5
242
330
1E
100
AcDbEntity
  8
0
100
AcDbLine
 10
165.585
 20
2.0
 30
0.0
 11
165.585
 21
-0.0000000000000021
 31
0.0
  0
LINE
  5
243
330
1E
100
AcDbEntity
  8
0
100
AcDbLine
 10
160.4
 20
2.0
 30
0.0
 11
167.1
 21
2.0
 31
0.0
  0
LINE
  5
244
330
1E
100
AcDbEntity
  8
0
100
AcDbLine
 10
168.837
 20
2.0
 30
0.0
 11
168.837
 21
-0.0000000000000025
 31
0.0
  0
LINE
  5
245
330
1E
100
AcDbEntity
  8
0
100
AcDbLine
 10
168.837
 20
2.0
 30
0.0
 11
170.959
 21
2.0
 31
0.0
  0
LINE
  5
246
330
1E
100
AcDbEntity
  8
0
100
AcDbLine
 10
168.1829999999999
 20
2.0
 30
0.0
 11
168.1829999999999
 21
-0.0000000000000025
 31
0.0
  0
LINE
  5
247
330
1E
100
AcDbEntity
  8
0
100
AcDbLine
 10
167.1
 20
2.0
 30
0.0
 11
172.1
 21
2.0
 31
0.0
  0
LINE
  5
248
330
1E
100
AcDbEntity
  8
0
100
AcDbLine
 10
167.1
 20
2.0
 30
0.0
 11
168.1829999999999
 21
2.0
 31
0.0
  0
LINE
  5
249
330
1E
100
AcDbEntity
  8
0
100
AcDbLine
 10
147.0999999999999
 20
2.0
 30
0.0
 11
147.0999999999999
 21
-0.0000000000000012
 31
0.0
  0
LINE
  5
24A
330
1E
100
AcDbEntity
  8
0
100
AcDbLine
 10
147.798
 20
2.0
 30
0.0
 11
147.798
 21
-0.0000000000000012
 31
0.0
  0
LINE
  5
24B
330
1E
100
AcDbEntity
  8
0
100
AcDbLine
 10
147.798
 20
2.0
 30
0.0
 11
148.5739999999999
 21
2.0
 31
0.0
  0
LINE
  5
24C
330
1E
100
AcDbEntity
  8
0
100
AcDbLine
 10
148.5739999999999
 20
2.0
 30
0.0
 11
148.5739999999999
 21
-0.0000000000000012
 31
0.0
  0
LINE
  5
24D
330
1E
100
AcDbEntity
  8
0
100
AcDbLine
 10
148.5739999999999
 20
2.0
 30
0.0
 11
151.472
 21
2.0
 31
0.0
  0
LINE
  5
24E
330
1E
100
AcDbEntity
  8
0
100
AcDbLine
 10
151.472
 20
2.0
 30
0.0
 11
151.472
 21
-0.0000000000000012
 31
0.0
  0
LINE
  5
24F
330
1E
100
AcDbEntity
  8
0
100
AcDbLine
 10
144.1
 20
2.0
 30
0.0
 11
144.1
 21
-0.0000000000000008
 31
0.0
  0
LINE
  5
250
330
1E
100
AcDbEntity
  8
0
100
AcDbLine
 10
152.8
 20
2.0
 30
0.0
 11
160.4
 21
2.0
 31
0.0
  0
LINE
  5
251
330
1E
100
AcDbEntity
  8
0
100
AcDbLine
 10
154.523
 20
2.0
 30
0.0
 11
154.523
 21
-0.0000000000000017
 31
0.0
  0
LINE
  5
252
330
1E
100
AcDbEntity
  8
0
100
AcDbLine
 10
154.523
 20
2.0
 30
0.0
 11
156.0229999999999
 21
2.0
 31
0.0
  0
LINE
  5
253
330
1E
100
AcDbEntity
  8
0
100
AcDbLine
 10
156.0229999999999
 20
2.0
 30
0.0
 11
156.0229999999999
 21
-0.0000000000000017
 31
0.0
  0
LINE
  5
254
330
1E
100
AcDbEntity
  8
0
100
AcDbLine
 10
156.371
 20
2.0
 30
0.0
 11
156.371
 21
-0.0000000000000017
 31
0.0
  0
LINE
  5
255
330
1E
100
AcDbEntity
  8
0
100
AcDbLine
 10
157.148
 20
2.0
 30
0.0
 11
157.148
 21
-0.0000000000000017
 31
0.0
  0
LINE
  5
256
330
1E
100
AcDbEntity
  8
0
100
AcDbLine
 10
160.0449999999999
 20
2.0
 30
0.0
 11
160.0449999999999
 21
-0.0000000000000017
 31
0.0
  0
LINE
  5
257
330
1E
100
AcDbEntity
  8
0
100
AcDbLine
 10
152.8
 20
12.0
 30
0.0
 11
160.4
 21
12.0
 31
0.0
  0
LINE
  5
258
330
1E
100
AcDbEntity
  8
0
100
AcDbLine
 10
160.4
 20
12.0
 30
0.0
 11
167.1
 21
12.0
 31
0.0
  0
LINE
  5
259
330
1E
100
AcDbEntity
  8
0
100
AcDbLine
 10
143.9
 20
2.0
 30
0.0
 11
152.8
 21
2.0
 31
0.0
  0
LINE
  5
25A
330
1E
100
AcDbEntity
  8
0
100
AcDbLine
 10
143.9
 20
12.0
 30
0.0
 11
152.8
 21
12.0
 31
0.0
  0
LINE
  5
25B
330
1E
100
AcDbEntity
  8
0
100
AcDbLine
 10
142.8989999999999
 20
2.0
 30
0.0
 11
143.9
 21
2.0
 31
0.0
  0
LINE
  5
25C
330
1E
100
AcDbEntity
  8
0
100
AcDbLine
 10
142.8989999999999
 20
2.0
 30
0.0
 11
142.8989999999999
 21
-0.0000000000000008
 31
0.0
  0
LINE
  5
25D
330
1E
100
AcDbEntity
  8
0
100
AcDbLine
 10
161.059
 20
2.0
 30
0.0
 11
164.085
 21
2.0
 31
0.0
  0
LINE
  5
25E
330
1E
100
AcDbEntity
  8
0
100
AcDbLine
 10
161.059
 20
2.0
 30
0.0
 11
161.059
 21
-0.0000000000000021
 31
0.0
  0
LINE
  5
25F
330
1E
100
AcDbEntity
  8
0
100
AcDbLine
 10
172.1
 20
2.0
 30
0.0
 11
175.8
 21
2.0
 31
0.0
  0
LINE
  5
260
330
1E
100
AcDbEntity
  8
0
100
AcDbLine
 10
172.1
 20
12.0
 30
0.0
 11
175.8
 21
12.0
 31
0.0
  0
LINE
  5
261
330
1E
100
AcDbEntity
  8
0
100
AcDbLine
 10
175.8
 20
12.0
 30
0.0
 11
178.2
 21
12.0
 31
0.0
  0
LINE
  5
262
330
1E
100
AcDbEntity
  8
0
100
AcDbLine
 10
178.2
 20
12.0
 30
0.0
 11
179.0
 21
12.0
 31
0.0
  0
LINE
  5
263
330
1E
100
AcDbEntity
  8
0
100
AcDbLine
 10
170.959
 20
2.0
 30
0.0
 11
172.1
 21
2.0
 31
0.0
  0
LINE
  5
264
330
1E
100
AcDbEntity
  8
0
100
AcDbLine
 10
170.959
 20
2.0
 30
0.0
 11
170.959
 21
-0.0000000000000025
 31
0.0
  0
LINE
  5
265
330
1E
100
AcDbEntity
  8
0
100
AcDbLine
 10
175.8
 20
2.0
 30
0.0
 11
178.2
 21
2.0
 31
0.0
  0
LINE
  5
266
330
1E
100
AcDbEntity
  8
0
100
AcDbLine
 10
179.0
 20
2.0
 30
0.0
 11
179.0
 21
12.0
 31
0.0
  0
LINE
  5
267
330
1E
100
AcDbEntity
  8
0
100
AcDbLine
 10
179.0
 20
12.0
 30
0.0
 11
179.0
 21
2.0
 31
0.0
  0
LINE
  5
268
330
1E
100
AcDbEntity
  8
0
100
AcDbLine
 10
178.2
 20
2.0
 30
0.0
 11
179.0
 21
2.0
 31
0.0
  0
LINE
  5
269
330
1E
100
AcDbEntity
  8
0
100
AcDbLine
 10
143.0
 20
12.0
 30
0.0
 11
143.0
 21
14.0
 31
0.0
  0
LINE
  5
26A
330
1E
100
AcDbEntity
  8
0
100
AcDbLine
 10
167.1
 20
12.0
 30
0.0
 11
172.1
 21
12.0
 31
0.0
  0
LINE
  5
26B
330
1E
100
AcDbEntity
  8
0
100
AcDbLine
 10
141.1
 20
12.0
 30
0.0
 11
142.5
 21
12.0
 31
0.0
  0
LINE
  5
26C
330
1E
100
AcDbEntity
  8
0
100
AcDbLine
 10
112.5999999999999
 20
12.0
 30
0.0
 11
123.7
 21
12.0
 31
0.0
  0
LINE
  5
26D
330
1E
100
AcDbEntity
  8
0
100
AcDbLine
 10
101.2
 20
12.0
 30
0.0
 11
112.5999999999999
 21
12.0
 31
0.0
  0
LINE
  5
26E
330
1E
100
AcDbEntity
  8
0
100
AcDbLine
 10
89.50000000000001
 20
12.0
 30
0.0
 11
101.2
 21
12.0
 31
0.0
  0
LINE
  5
26F
330
1E
100
AcDbEntity
  8
0
100
AcDbLine
 10
116.2
 20
12.0
 30
0.0
 11
123.7
 21
12.0
 31
0.0
  0
LINE
  5
270
330
1E
100
AcDbEntity
  8
0
100
AcDbLine
 10
142.5
 20
12.0
 30
0.0
 11
143.0
 21
12.0
 31
0.0
  0
LINE
  5
271
330
1E
100
AcDbEntity
  8
0
100
AcDbLine
 10
77.8
 20
2.0
 30
0.0
 11
89.50000000000001
 21
2.0
 31
0.0
  0
LINE
  5
272
330
1E
100
AcDbEntity
  8
0
100
AcDbLine
 10
73.79999999999999
 20
14.0
 30
0.0
 11
77.40000000000001
 21
14.0
 31
0.0
  0
LINE
  5
273
330
1E
100
AcDbEntity
  8
0
100
AcDbLine
 10
75.7
 20
14.0
 30
0.0
 11
82.5
 21
14.0
 31
0.0
  0
LINE
  5
274
330
1E
100
AcDbEntity
  8
0
100
AcDbLine
 10
73.79999999999999
 20
15.0
 30
0.0
 11
77.40000000000001
 21
15.0
 31
0.0
  0
LINE
  5
275
330
1E
100
AcDbEntity
  8
0
100
AcDbLine
 10
73.79999999999999
 20
117.0
 30
0.0
 11
77.40000000000001
 21
117.0
 31
0.0
  0
LINE
  5
276
330
1E
100
AcDbEntity
  8
0
100
AcDbLine
 10
73.79999999999999
 20
120.0
 30
0.0
 11
77.40000000000001
 21
120.0
 31
0.0
  0
LINE
  5
277
330
1E
100
AcDbEntity
  8
0
100
AcDbLine
 10
76.0
 20
15.0
 30
0.0
 11
76.0
 21
115.0
 31
0.0
  0
LINE
  5
278
330
1E
100
AcDbEntity
  8
0
100
AcDbLine
 10
77.40000000000001
 20
15.0
 30
0.0
 11
81.4
 21
15.0
 31
0.0
  0
LINE
  5
279
330
1E
100
AcDbEntity
  8
0
100
AcDbLine
 10
82.5
 20
14.0
 30
0.0
 11
89.50000000000001
 21
14.0
 31
0.0
  0
LINE
  5
27A
330
1E
100
AcDbEntity
  8
0
100
AcDbLine
 10
81.4
 20
15.0
 30
0.0
 11
85.4
 21
15.0
 31
0.0
  0
LINE
  5
27B
330
1E
100
AcDbEntity
  8
0
100
AcDbLine
 10
80.0
 20
115.0
 30
0.0
 11
81.3
 21
115.0
 31
0.0
  0
LINE
  5
27C
330
1E
100
AcDbEntity
  8
0
100
AcDbLine
 10
81.3
 20
115.0
 30
0.0
 11
82.79999999999999
 21
115.0
 31
0.0
  0
LINE
  5
27D
330
1E
100
AcDbEntity
  8
0
100
AcDbLine
 10
85.4
 20
15.0
 30
0.0
 11
89.50000000000001
 21
15.0
 31
0.0
  0
LINE
  5
27E
330
1E
100
AcDbEntity
  8
0
100
AcDbLine
 10
82.79999999999999
 20
115.0
 30
0.0
 11
84.29999999999999
 21
115.0
 31
0.0
  0
LINE
  5
27F
330
1E
100
AcDbEntity
  8
0
100
AcDbLine
 10
84.29999999999999
 20
115.0
 30
0.0
 11
86.0
 21
115.0
 31
0.0
  0
LINE
  5
280
330
1E
100
AcDbEntity
  8
0
100
AcDbLine
 10
89.50000000000001
 20
14.0
 30
0.0
 11
96.5
 21
14.0
 31
0.0
  0
LINE
  5
281
330
1E
100
AcDbEntity
  8
0
100
AcDbLine
 10
89.50000000000001
 20
15.0
 30
0.0
 11
93.59999999999999
 21
15.0
 31
0.0
  0
LINE
  5
282
330
1E
100
AcDbEntity
  8
0
100
AcDbLine
 10
94.7
 20
15.0
 30
0.0
 11
96.2
 21
15.0
 31
0.0
  0
LINE
  5
283
330
1E
100
AcDbEntity
  8
0
100
AcDbLine
 10
121.0
 20
14.0
 30
0.0
 11
121.0
 21
15.0
 31
0.0
  0
LINE
  5
284
330
1E
100
AcDbEntity
  8
0
100
AcDbLine
 10
116.2
 20
14.0
 30
0.0
 11
122.0
 21
14.0
 31
0.0
  0
LINE
  5
285
330
1E
100
AcDbEntity
  8
0
100
AcDbLine
 10
110.0
 20
14.0
 30
0.0
 11
116.2
 21
14.0
 31
0.0
  0
LINE
  5
286
330
1E
100
AcDbEntity
  8
0
100
AcDbLine
 10
103.2999999999999
 20
14.0
 30
0.0
 11
110.0
 21
14.0
 31
0.0
  0
LINE
  5
287
330
1E
100
AcDbEntity
  8
0
100
AcDbLine
 10
97.59999999999999
 20
14.0
 30
0.0
 11
101.6
 21
14.0
 31
0.0
  0
LINE
  5
288
330
1E
100
AcDbEntity
  8
0
100
AcDbLine
 10
103.0
 20
15.0
 30
0.0
 11
103.0
 21
115.0
 31
0.0
  0
LINE
  5
289
330
1E
100
AcDbEntity
  8
0
100
AcDbLine
 10
111.6999999999999
 20
15.0
 30
0.0
 11
114.5
 21
15.0
 31
0.0
  0
LINE
  5
28A
330
1E
100
AcDbEntity
  8
0
100
AcDbLine
 10
114.5
 20
15.0
 30
0.0
 11
116.7999999999999
 21
15.0
 31
0.0
  0
LINE
  5
28B
330
1E
100
AcDbEntity
  8
0
100
AcDbLine
 10
116.7999999999999
 20
15.0
 30
0.0
 11
118.5999999999999
 21
15.0
 31
0.0
  0
LINE
  5
28C
330
1E
100
AcDbEntity
  8
0
100
AcDbLine
 10
118.5999999999999
 20
15.0
 30
0.0
 11
119.9
 21
15.0
 31
0.0
  0
LINE
  5
28D
330
1E
100
AcDbEntity
  8
0
100
AcDbLine
 10
119.9
 20
15.0
 30
0.0
 11
120.7
 21
15.0
 31
0.0
  0
LINE
  5
28E
330
1E
100
AcDbEntity
  8
0
100
AcDbLine
 10
120.7
 20
15.0
 30
0.0
 11
121.0
 21
15.0
 31
0.0
  0
LINE
  5
28F
330
1E
100
AcDbEntity
  8
0
100
AcDbLine
 10
108.6999999999999
 20
15.0
 30
0.0
 11
111.6999999999999
 21
15.0
 31
0.0
  0
LINE
  5
290
330
1E
100
AcDbEntity
  8
0
100
AcDbLine
 10
105.2
 20
15.0
 30
0.0
 11
108.6999999999999
 21
15.0
 31
0.0
  0
LINE
  5
291
330
1E
100
AcDbEntity
  8
0
100
AcDbLine
 10
101.6
 20
15.0
 30
0.0
 11
105.2
 21
15.0
 31
0.0
  0
LINE
  5
292
330
1E
100
AcDbEntity
  8
0
100
AcDbLine
 10
97.59999999999999
 20
15.0
 30
0.0
 11
101.6
 21
15.0
 31
0.0
  0
LINE
  5
293
330
1E
100
AcDbEntity
  8
0
100
AcDbLine
 10
96.5
 20
14.0
 30
0.0
 11
97.59999999999999
 21
14.0
 31
0.0
  0
LINE
  5
294
330
1E
100
AcDbEntity
  8
0
100
AcDbLine
 10
96.5
 20
14.0
 30
0.0
 11
103.2999999999999
 21
14.0
 31
0.0
  0
LINE
  5
295
330
1E
100
AcDbEntity
  8
0
100
AcDbLine
 10
96.2
 20
15.0
 30
0.0
 11
97.59999999999999
 21
15.0
 31
0.0
  0
LINE
  5
296
330
1E
100
AcDbEntity
  8
0
100
AcDbLine
 10
99.0
 20
115.0
 30
0.0
 11
100.2
 21
115.0
 31
0.0
  0
LINE
  5
297
330
1E
100
AcDbEntity
  8
0
100
AcDbLine
 10
100.2
 20
115.0
 30
0.0
 11
101.2
 21
115.0
 31
0.0
  0
LINE
  5
298
330
1E
100
AcDbEntity
  8
0
100
AcDbLine
 10
101.2
 20
115.0
 30
0.0
 11
102.0
 21
115.0
 31
0.0
  0
LINE
  5
299
330
1E
100
AcDbEntity
  8
0
100
AcDbLine
 10
102.0
 20
115.0
 30
0.0
 11
102.4999999999999
 21
115.0
 31
0.0
  0
LINE
  5
29A
330
1E
100
AcDbEntity
  8
0
100
AcDbLine
 10
102.4999999999999
 20
115.0
 30
0.0
 11
102.9
 21
115.0
 31
0.0
  0
LINE
  5
29B
330
1E
100
AcDbEntity
  8
0
100
AcDbLine
 10
102.9
 20
115.0
 30
0.0
 11
103.0
 21
115.0
 31
0.0
  0
LINE
  5
29C
330
1E
100
AcDbEntity
  8
0
100
AcDbLine
 10
97.70000000000001
 20
115.0
 30
0.0
 11
99.0
 21
115.0
 31
0.0
  0
LINE
  5
29D
330
1E
100
AcDbEntity
  8
0
100
AcDbLine
 10
96.2
 20
115.0
 30
0.0
 11
97.70000000000001
 21
115.0
 31
0.0
  0
LINE
  5
29E
330
1E
100
AcDbEntity
  8
0
100
AcDbLine
 10
93.59999999999999
 20
15.0
 30
0.0
 11
94.7
 21
15.0
 31
0.0
  0
LINE
  5
29F
330
1E
100
AcDbEntity
  8
0
100
AcDbLine
 10
93.59999999999999
 20
15.0
 30
0.0
 11
97.59999999999999
 21
15.0
 31
0.0
  0
LINE
  5
2A0
330
1E
100
AcDbEntity
  8
0
100
AcDbLine
 10
131.9
 20
14.0
 30
0.0
 11
135.8999999999999
 21
14.0
 31
0.0
  0
LINE
  5
2A1
330
1E
100
AcDbEntity
  8
0
100
AcDbLine
 10
135.8999999999999
 20
14.0
 30
0.0
 11
138.9
 21
14.0
 31
0.0
  0
LINE
  5
2A2
330
1E
100
AcDbEntity
  8
0
100
AcDbLine
 10
138.9
 20
14.0
 30
0.0
 11
141.1
 21
14.0
 31
0.0
  0
LINE
  5
2A3
330
1E
100
AcDbEntity
  8
0
100
AcDbLine
 10
141.1
 20
14.0
 30
0.0
 11
142.5
 21
14.0
 31
0.0
  0
LINE
  5
2A4
330
1E
100
AcDbEntity
  8
0
100
AcDbLine
 10
142.5
 20
14.0
 30
0.0
 11
143.0
 21
14.0
 31
0.0
  0
LINE
  5
2A5
330
1E
100
AcDbEntity
  8
0
100
AcDbLine
 10
122.0
 20
14.0
 30
0.0
 11
127.2999999999999
 21
14.0
 31
0.0
  0
LINE
  5
2A6
330
1E
100
AcDbEntity
  8
0
100
AcDbLine
 10
143.0
 20
14.0
 30
0.0
 11
143.0
 21
12.0
 31
0.0
  0
LINE
  5
2A7
330
1E
100
AcDbEntity
  8
0
100
AcDbLine
 10
127.2999999999999
 20
14.0
 30
0.0
 11
131.9
 21
14.0
 31
0.0
  0
LINE
  5
2A8
330
1E
100
AcDbEntity
  8
0
100
AcDbLine
 10
121.0
 20
15.0
 30
0.0
 11
121.0
 21
14.0
 31
0.0
  0
LINE
  5
2A9
330
1E
100
AcDbEntity
  8
0
100
AcDbLine
 10
94.7
 20
115.0
 30
0.0
 11
96.2
 21
115.0
 31
0.0
  0
LINE
  5
2AA
330
1E
100
AcDbEntity
  8
0
100
AcDbLine
 10
93.0
 20
115.0
 30
0.0
 11
94.7
 21
115.0
 31
0.0
  0
LINE
  5
2AB
330
1E
100
AcDbEntity
  8
0
100
AcDbLine
 10
91.3
 20
115.0
 30
0.0
 11
93.0
 21
115.0
 31
0.0
  0
LINE
  5
2AC
330
1E
100
AcDbEntity
  8
0
100
AcDbLine
 10
89.50000000000001
 20
115.0
 30
0.0
 11
91.3
 21
115.0
 31
0.0
  0
LINE
  5
2AD
330
1E
100
AcDbEntity
  8
0
100
AcDbLine
 10
103.0
 20
115.0
 30
0.0
 11
121.0
 21
117.0
 31
0.0
  0
LINE
  5
2AE
330
1E
100
AcDbEntity
  8
0
100
AcDbLine
 10
103.0
 20
115.0
 30
0.0
 11
103.0
 21
15.0
 31
0.0
  0
LINE
  5
2AF
330
1E
100
AcDbEntity
  8
0
100
AcDbLine
 10
86.0
 20
115.0
 30
0.0
 11
87.70000000000001
 21
115.0
 31
0.0
  0
LINE
  5
2B0
330
1E
100
AcDbEntity
  8
0
100
AcDbLine
 10
87.70000000000001
 20
115.0
 30
0.0
 11
89.50000000000001
 21
115.0
 31
0.0
  0
LINE
  5
2B1
330
1E
100
AcDbEntity
  8
0
100
AcDbLine
 10
78.79999999999999
 20
115.0
 30
0.0
 11
80.0
 21
115.0
 31
0.0
  0
LINE
  5
2B2
330
1E
100
AcDbEntity
  8
0
100
AcDbLine
 10
77.8
 20
115.0
 30
0.0
 11
78.79999999999999
 21
115.0
 31
0.0
  0
LINE
  5
2B3
330
1E
100
AcDbEntity
  8
0
100
AcDbLine
 10
77.0
 20
115.0
 30
0.0
 11
77.8
 21
115.0
 31
0.0
  0
LINE
  5
2B4
330
1E
100
AcDbEntity
  8
0
100
AcDbLine
 10
76.5
 20
115.0
 30
0.0
 11
77.0
 21
115.0
 31
0.0
  0
LINE
  5
2B5
330
1E
100
AcDbEntity
  8
0
100
AcDbLine
 10
76.09999999999999
 20
115.0
 30
0.0
 11
76.5
 21
115.0
 31
0.0
  0
LINE
  5
2B6
330
1E
100
AcDbEntity
  8
0
100
AcDbLine
 10
77.40000000000001
 20
117.0
 30
0.0
 11
81.4
 21
117.0
 31
0.0
  0
LINE
  5
2B7
330
1E
100
AcDbEntity
  8
0
100
AcDbLine
 10
81.4
 20
117.0
 30
0.0
 11
85.4
 21
117.0
 31
0.0
  0
LINE
  5
2B8
330
1E
100
AcDbEntity
  8
0
100
AcDbLine
 10
85.4
 20
117.0
 30
0.0
 11
89.50000000000001
 21
117.0
 31
0.0
  0
LINE
  5
2B9
330
1E
100
AcDbEntity
  8
0
100
AcDbLine
 10
77.40000000000001
 20
120.0
 30
0.0
 11
81.4
 21
120.0
 31
0.0
  0
LINE
  5
2BA
330
1E
100
AcDbEntity
  8
0
100
AcDbLine
 10
81.4
 20
120.0
 30
0.0
 11
85.4
 21
120.0
 31
0.0
  0
LINE
  5
2BB
330
1E
100
AcDbEntity
  8
0
100
AcDbLine
 10
89.50000000000001
 20
117.0
 30
0.0
 11
93.59999999999999
 21
117.0
 31
0.0
  0
LINE
  5
2BC
330
1E
100
AcDbEntity
  8
0
100
AcDbLine
 10
97.59999999999999
 20
117.0
 30
0.0
 11
101.6
 21
117.0
 31
0.0
  0
LINE
  5
2BD
330
1E
100
AcDbEntity
  8
0
100
AcDbLine
 10
93.59999999999999
 20
117.0
 30
0.0
 11
97.59999999999999
 21
117.0
 31
0.0
  0
LINE
  5
2BE
330
1E
100
AcDbEntity
  8
0
100
AcDbLine
 10
105.2
 20
117.0
 30
0.0
 11
108.6999999999999
 21
117.0
 31
0.0
  0
LINE
  5
2BF
330
1E
100
AcDbEntity
  8
0
100
AcDbLine
 10
101.6
 20
117.0
 30
0.0
 11
105.2
 21
117.0
 31
0.0
  0
LINE
  5
2C0
330
1E
100
AcDbEntity
  8
0
100
AcDbLine
 10
111.6999999999999
 20
117.0
 30
0.0
 11
114.5
 21
117.0
 31
0.0
  0
LINE
  5
2C1
330
1E
100
AcDbEntity
  8
0
100
AcDbLine
 10
114.5
 20
117.0
 30
0.0
 11
116.7999999999999
 21
117.0
 31
0.0
  0
LINE
  5
2C2
330
1E
100
AcDbEntity
  8
0
100
AcDbLine
 10
116.7999999999999
 20
117.0
 30
0.0
 11
118.5999999999999
 21
117.0
 31
0.0
  0
LINE
  5
2C3
330
1E
100
AcDbEntity
  8
0
100
AcDbLine
 10
111.6999999999999
 20
120.0
 30
0.0
 11
114.5
 21
120.0
 31
0.0
  0
LINE
  5
2C4
330
1E
100
AcDbEntity
  8
0
100
AcDbLine
 10
114.5
 20
120.0
 30
0.0
 11
116.7999999999999
 21
120.0
 31
0.0
  0
LINE
  5
2C5
330
1E
100
AcDbEntity
  8
0
100
AcDbLine
 10
118.5999999999999
 20
117.0
 30
0.0
 11
119.9
 21
117.0
 31
0.0
  0
LINE
  5
2C6
330
1E
100
AcDbEntity
  8
0
100
AcDbLine
 10
119.9
 20
117.0
 30
0.0
 11
120.7
 21
117.0
 31
0.0
  0
LINE
  5
2C7
330
1E
100
AcDbEntity
  8
0
100
AcDbLine
 10
116.7999999999999
 20
120.0
 30
0.0
 11
118.5999999999999
 21
120.0
 31
0.0
  0
LINE
  5
2C8
330
1E
100
AcDbEntity
  8
0
100
AcDbLine
 10
118.5999999999999
 20
120.0
 30
0.0
 11
119.9
 21
120.0
 31
0.0
  0
LINE
  5
2C9
330
1E
100
AcDbEntity
  8
0
100
AcDbLine
 10
120.7
 20
117.0
 30
0.0
 11
121.0
 21
117.0
 31
0.0
  0
LINE
  5
2CA
330
1E
100
AcDbEntity
  8
0
100
AcDbLine
 10
121.0
 20
117.0
 30
0.0
 11
121.0
 21
120.0
 31
0.0
  0
LINE
  5
2CB
330
1E
100
AcDbEntity
  8
0
100
AcDbLine
 10
119.9
 20
120.0
 30
0.0
 11
120.7
 21
120.0
 31
0.0
  0
LINE
  5
2CC
330
1E
100
AcDbEntity
  8
0
100
AcDbLine
 10
120.7
 20
120.0
 30
0.0
 11
121.0
 21
120.0
 31
0.0
  0
LINE
  5
2CD
330
1E
100
AcDbEntity
  8
0
100
AcDbLine
 10
108.6999999999999
 20
117.0
 30
0.0
 11
111.6999999999999
 21
117.0
 31
0.0
  0
LINE
  5
2CE
330
1E
100
AcDbEntity
  8
0
100
AcDbLine
 10
108.6999999999999
 20
120.0
 30
0.0
 11
111.6999999999999
 21
120.0
 31
0.0
  0
LINE
  5
2CF
330
1E
100
AcDbEntity
  8
0
100
AcDbLine
 10
105.2
 20
120.0
 30
0.0
 11
108.6999999999999
 21
120.0
 31
0.0
  0
LINE
  5
2D0
330
1E
100
AcDbEntity
  8
0
100
AcDbLine
 10
101.6
 20
120.0
 30
0.0
 11
105.2
 21
120.0
 31
0.0
  0
LINE
  5
2D1
330
1E
100
AcDbEntity
  8
0
100
AcDbLine
 10
97.59999999999999
 20
120.0
 30
0.0
 11
101.6
 21
120.0
 31
0.0
  0
LINE
  5
2D2
330
1E
100
AcDbEntity
  8
0
100
AcDbLine
 10
93.59999999999999
 20
120.0
 30
0.0
 11
97.59999999999999
 21
120.0
 31
0.0
  0
LINE
  5
2D3
330
1E
100
AcDbEntity
  8
0
100
AcDbLine
 10
89.50000000000001
 20
120.0
 30
0.0
 11
93.59999999999999
 21
120.0
 31
0.0
  0
LINE
  5
2D4
330
1E
100
AcDbEntity
  8
0
100
AcDbLine
 10
121.0
 20
120.0
 30
0.0
 11
121.0
 21
117.0
 31
0.0
  0
LINE
  5
2D5
330
1E
100
AcDbEntity
  8
0
100
AcDbLine
 10
85.4
 20
120.0
 30
0.0
 11
89.50000000000001
 21
120.0
 31
0.0
  0
LINE
  5
2D6
330
1E
100
AcDbEntity
  8
0
100
AcDbLine
 10
76.0
 20
115.0
 30
0.0
 11
76.09999999999999
 21
115.0
 31
0.0
  0
LINE
  5
2D7
330
1E
100
AcDbEntity
  8
0
100
AcDbLine
 10
76.0
 20
15.0
 30
0.0
 11
76.0
 21
115.0
 31
0.0
  0
LINE
  5
2D8
330
1E
100
AcDbEntity
  8
0
100
AcDbLine
 10
77.8
 20
12.0
 30
0.0
 11
82.5
 21
12.0
 31
0.0
  0
LINE
  5
2D9
330
1E
100
AcDbEntity
  8
0
100
AcDbLine
 10
77.8
 20
12.0
 30
0.0
 11
89.50000000000001
 21
12.0
 31
0.0
  0
LINE
  5
2DA
330
1E
100
AcDbEntity
  8
0
100
AcDbLine
 10
70.3
 20
14.0
 30
0.0
 11
73.79999999999999
 21
14.0
 31
0.0
  0
ENDSEC
  0
SECTION
  2
OBJECTS
  0
DICTIONARY
  5
C
330
0
100
AcDbDictionary
281
     1
  3
ACAD_GROUP
350
D
  3
ACAD_LAYOUT
350
19
  3
ACAD_MLINESTYLE
350
16
  3
ACAD_PLOTSETTINGS
350
18
  3
ACAD_PLOTSTYLENAME
350
E
  3
AcDbVariableDictionary
350
2DF
  0
DICTIONARY
  5
D
102
{ACAD_REACTORS
330
C
102
}
330
C
100
AcDbDictionary
281
     1
  0
DICTIONARY
  5
19
102
{ACAD_REACTORS
330
C
102
}
330
C
100
AcDbDictionary
281
     1
  3
Layout1
350
1D
  3
Model
350
21
  0
DICTIONARY
  5
16
102
{ACAD_REACTORS
330
C
102
}
330
C
100
AcDbDictionary
281
     1
  3
Standard
350
17
  0
DICTIONARY
  5
18
102
{ACAD_REACTORS
330
C
102
}
330
C
100
AcDbDictionary
281
     1
  0
ACDBDICTIONARYWDFLT
  5
E
102
{ACAD_REACTORS
330
C
102
}
330
C
100
AcDbDictionary
281
     1
  3
Normal
350
F
100
AcDbDictionaryWithDefault
340
F
  0
DICTIONARY
  5
2DF
102
{ACAD_REACTORS
330
C
102
}
330
C
100
AcDbDictionary
281
     1
  3
DIMASSOC
350
2E0
  0
LAYOUT
  5
1D
102
{ACAD_REACTORS
330
19
102
}
330
19
100
AcDbPlotSettings
  1

  2
hp deskjet 980c series
  4

  6

 40
0.0
 41
0.0
 42
0.0
 43
0.0
 44
0.0
 45
0.0
 46
0.0
 47
0.0
 48
0.0
 49
0.0
140
0.0
141
0.0
142
1.0
143
1.0
 70
   688
 72
     0
 73
     0
 74
     5
  7

 75
    16
147
1.0
148
0.0
149
0.0
100
AcDbLayout
  1
Layout1
 70
     1
 71
     1
 10
0.0
 20
0.0
 11
12.0
 21
9.0
 12
0.0
 22
0.0
 32
0.0
 14
1.000000000000000E+20
 24
1.000000000000000E+20
 34
1.000000000000000E+20
 15
-1.000000000000000E+20
 25
-1.000000000000000E+20
 35
-1.000000000000000E+20
146
0.0
 13
0.0
 23
0.0
 33
0.0
 16
1.0
 26
0.0
 36
0.0
 17
0.0
 27
1.0
 37
0.0
 76
     0
330
1A
  0
LAYOUT
  5
21
102
{ACAD_REACTORS
330
19
102
}
330
19
100
AcDbPlotSettings
  1

  2
hp deskjet 980c series
  4

  6

 40
0.0
 41
0.0
 42
0.0
 43
0.0
 44
0.0
 45
0.0
 46
0.0
 47
0.0
 48
0.0
 49
0.0
140
0.0
141
0.0
142
1.0
143
1.0
 70
  1712
 72
     0
 73
     0
 74
     0
  7

 75
     0
147
1.0
148
0.0
149
0.0
100
AcDbLayout
  1
Model
 70
     1
 71
     0
 10
0.0
 20
0.0
 11
12.0
 21
9.0
 12
0.0
 22
0.0
 32
0.0
 14
0.0
 24
0.0
 34
0.0
 15
0.0
 25
0.0
 35
0.0
146
0.0
 13
0.0
 23
0.0
 33
0.0
 16
1.0
 26
0.0
 36
0.0
 17
0.0
 27
1.0
 37
0.0
 76
     0
330
1E
  0
MLINESTYLE
  5
17
102
{ACAD_REACTORS
330
16
102
}
330
16
100
AcDbMlineStyle
  2
STANDARD
 70
     0
  3

 62
   256
 51
90.0
 52
90.0
 71
     2
 49
0.5
 62
   256
  6
BYLAYER
 49
-0.5
 62
   256
  6
BYLAYER
  0
ACDBPLACEHOLDER
  5
F
102
{ACAD_REACTORS
330
E
102
}
330
E
  0
DICTIONARYVAR
  5
2E0
102
{ACAD_REACTORS
330
2DF
102
}
330
2DF
100
DictionaryVariables
280
     0
  1
1
  0
ENDSEC
  0
EOF
