  0
SECTION
  2
HEADER
  9
$ACADVER
  1
AC1015
  9
$ACADMAINTVER
 70
    13
  9
$DWGCODEPAGE
  3
ANSI_1252
  9
$INSBASE
 10
0.0
 20
0.0
 30
0.0
  9
$EXTMIN
 10
0.0000000000000105
 20
0.0000000000000178
 30
0.0
  9
$EXTMAX
 10
524.0
 20
171.0
 30
0.0
  9
$LIMMIN
 10
0.0
 20
0.0
  9
$LIMMAX
 10
12.0
 20
9.0
  9
$ORTHOMODE
 70
     0
  9
$REGENMODE
 70
     1
  9
$FILLMODE
 70
     1
  9
$QTEXTMODE
 70
     0
  9
$MIRRTEXT
 70
     1
  9
$LTSCALE
 40
1.0
  9
$ATTMODE
 70
     1
  9
$TEXTSIZE
 40
0.2
  9
$TRACEWID
 40
0.05
  9
$TEXTSTYLE
  7
Standard
  9
$CLAYER
  8
0
  9
$CELTYPE
  6
Continuous
  9
$CECOLOR
 62
   256
  9
$CELTSCALE
 40
1.0
  9
$DISPSILH
 70
     0
  9
$DIMSCALE
 40
1.0
  9
$DIMASZ
 40
0.18
  9
$DIMEXO
 40
0.0625
  9
$DIMDLI
 40
0.38
  9
$DIMRND
 40
0.0
  9
$DIMDLE
 40
0.0
  9
$DIMEXE
 40
0.18
  9
$DIMTP
 40
0.0
  9
$DIMTM
 40
0.0
  9
$DIMTXT
 40
0.18
  9
$DIMCEN
 40
0.09
  9
$DIMTSZ
 40
0.0
  9
$DIMTOL
 70
     0
  9
$DIMLIM
 70
     0
  9
$DIMTIH
 70
     1
  9
$DIMTOH
 70
     1
  9
$DIMSE1
 70
     0
  9
$DIMSE2
 70
     0
  9
$DIMTAD
 70
     0
  9
$DIMZIN
 70
     0
  9
$DIMBLK
  1

  9
$DIMASO
 70
     1
  9
$DIMSHO
 70
     1
  9
$DIMPOST
  1

  9
$DIMAPOST
  1

  9
$DIMALT
 70
     0
  9
$DIMALTD
 70
     2
  9
$DIMALTF
 40
25.4
  9
$DIMLFAC
 40
1.0
  9
$DIMTOFL
 70
     0
  9
$DIMTVP
 40
0.0
  9
$DIMTIX
 70
     0
  9
$DIMSOXD
 70
     0
  9
$DIMSAH
 70
     0
  9
$DIMBLK1
  1

  9
$DIMBLK2
  1

  9
$DIMSTYLE
  2
Standard
  9
$DIMCLRD
 70
     0
  9
$DIMCLRE
 70
     0
  9
$DIMCLRT
 70
     0
  9
$DIMTFAC
 40
1.0
  9
$DIMGAP
 40
0.09
  9
$DIMJUST
 70
     0
  9
$DIMSD1
 70
     0
  9
$DIMSD2
 70
     0
  9
$DIMTOLJ
 70
     1
  9
$DIMTZIN
 70
     0
  9
$DIMALTZ
 70
     0
  9
$DIMALTTZ
 70
     0
  9
$DIMUPT
 70
     0
  9
$DIMDEC
 70
     4
  9
$DIMTDEC
 70
     4
  9
$DIMALTU
 70
     2
  9
$DIMALTTD
 70
     2
  9
$DIMTXSTY
  7
Standard
  9
$DIMAUNIT
 70
     0
  9
$DIMADEC
 70
     0
  9
$DIMALTRND
 40
0.0
  9
$DIMAZIN
 70
     0
  9
$DIMDSEP
 70
    46
  9
$DIMATFIT
 70
     3
  9
$DIMFRAC
 70
     0
  9
$DIMLDRBLK
  1

  9
$DIMLUNIT
 70
     2
  9
$DIMLWD
 70
    -2
  9
$DIMLWE
 70
    -2
  9
$DIMTMOVE
 70
     0
  9
$LUNITS
 70
     2
  9
$LUPREC
 70
     4
  9
$SKETCHINC
 40
0.1
  9
$FILLETRAD
 40
0.0
  9
$AUNITS
 70
     0
  9
$AUPREC
 70
     0
  9
$MENU
  1
.
  9
$ELEVATION
 40
0.0
  9
$PELEVATION
 40
0.0
  9
$THICKNESS
 40
0.0
  9
$LIMCHECK
 70
     0
  9
$CHAMFERA
 40
0.0
  9
$CHAMFERB
 40
0.0
  9
$CHAMFERC
 40
0.0
  9
$CHAMFERD
 40
0.0
  9
$SKPOLY
 70
     0
  9
$TDCREATE
 40
2454737.931045277
  9
$TDUCREATE
 40
2454737.847711944
  9
$TDUPDATE
 40
2454737.934740486
  9
$TDUUPDATE
 40
2454737.851407152
  9
$TDINDWG
 40
0.0036952083
  9
$TDUSRTIMER
 40
0.0036952083
  9
$USRTIMER
 70
     1
  9
$ANGBASE
 50
0.0
  9
$ANGDIR
 70
     0
  9
$PDMODE
 70
     0
  9
$PDSIZE
 40
0.0
  9
$PLINEWID
 40
0.0
  9
$SPLFRAME
 70
     0
  9
$SPLINETYPE
 70
     6
  9
$SPLINESEGS
 70
     8
  9
$HANDSEED
  5
807
  9
$SURFTAB1
 70
     6
  9
$SURFTAB2
 70
     6
  9
$SURFTYPE
 70
     6
  9
$SURFU
 70
     6
  9
$SURFV
 70
     6
  9
$UCSBASE
  2

  9
$UCSNAME
  2

  9
$UCSORG
 10
0.0
 20
0.0
 30
0.0
  9
$UCSXDIR
 10
1.0
 20
0.0
 30
0.0
  9
$UCSYDIR
 10
0.0
 20
1.0
 30
0.0
  9
$UCSORTHOREF
  2

  9
$UCSORTHOVIEW
 70
     1
  9
$UCSORGTOP
 10
0.0
 20
0.0
 30
0.0
  9
$UCSORGBOTTOM
 10
0.0
 20
0.0
 30
0.0
  9
$UCSORGLEFT
 10
0.0
 20
0.0
 30
0.0
  9
$UCSORGRIGHT
 10
0.0
 20
0.0
 30
0.0
  9
$UCSORGFRONT
 10
0.0
 20
0.0
 30
0.0
  9
$UCSORGBACK
 10
0.0
 20
0.0
 30
0.0
  9
$PUCSBASE
  2

  9
$PUCSNAME
  2

  9
$PUCSORG
 10
0.0
 20
0.0
 30
0.0
  9
$PUCSXDIR
 10
1.0
 20
0.0
 30
0.0
  9
$PUCSYDIR
 10
0.0
 20
1.0
 30
0.0
  9
$PUCSORTHOREF
  2

  9
$PUCSORTHOVIEW
 70
     0
  9
$PUCSORGTOP
 10
0.0
 20
0.0
 30
0.0
  9
$PUCSORGBOTTOM
 10
0.0
 20
0.0
 30
0.0
  9
$PUCSORGLEFT
 10
0.0
 20
0.0
 30
0.0
  9
$PUCSORGRIGHT
 10
0.0
 20
0.0
 30
0.0
  9
$PUCSORGFRONT
 10
0.0
 20
0.0
 30
0.0
  9
$PUCSORGBACK
 10
0.0
 20
0.0
 30
0.0
  9
$USERI1
 70
     0
  9
$USERI2
 70
     0
  9
$USERI3
 70
     0
  9
$USERI4
 70
     0
  9
$USERI5
 70
     0
  9
$USERR1
 40
0.0
  9
$USERR2
 40
0.0
  9
$USERR3
 40
0.0
  9
$USERR4
 40
0.0
  9
$USERR5
 40
0.0
  9
$WORLDVIEW
 70
     1
  9
$SHADEDGE
 70
     3
  9
$SHADEDIF
 70
    70
  9
$TILEMODE
 70
     1
  9
$MAXACTVP
 70
    64
  9
$PINSBASE
 10
0.0
 20
0.0
 30
0.0
  9
$PLIMCHECK
 70
     0
  9
$PEXTMIN
 10
1.000000000000000E+20
 20
1.000000000000000E+20
 30
1.000000000000000E+20
  9
$PEXTMAX
 10
-1.000000000000000E+20
 20
-1.000000000000000E+20
 30
-1.000000000000000E+20
  9
$PLIMMIN
 10
0.0
 20
0.0
  9
$PLIMMAX
 10
12.0
 20
9.0
  9
$UNITMODE
 70
     0
  9
$VISRETAIN
 70
     1
  9
$PLINEGEN
 70
     0
  9
$PSLTSCALE
 70
     1
  9
$TREEDEPTH
 70
  3020
  9
$CMLSTYLE
  2
Standard
  9
$CMLJUST
 70
     0
  9
$CMLSCALE
 40
1.0
  9
$PROXYGRAPHICS
 70
     1
  9
$MEASUREMENT
 70
     0
  9
$CELWEIGHT
370
    -1
  9
$ENDCAPS
280
     0
  9
$JOINSTYLE
280
     0
  9
$LWDISPLAY
290
     0
  9
$INSUNITS
 70
     0
  9
$HYPERLINKBASE
  1

  9
$STYLESHEET
  1

  9
$XEDIT
290
     1
  9
$CEPSNTYPE
380
     0
  9
$PSTYLEMODE
290
     1
  9
$FINGERPRINTGUID
  2
{5CD66E74-0575-4718-B720-1DF56DB5E8AE}
  9
$VERSIONGUID
  2
{26469937-D035-45FD-970A-841A6D30A190}
  9
$EXTNAMES
290
     1
  9
$PSVPSCALE
 40
0.0
  9
$OLESTARTUP
290
     0
  0
ENDSEC
  0
SECTION
  2
CLASSES
  0
CLASS
  1
ACDBDICTIONARYWDFLT
  2
AcDbDictionaryWithDefault
  3
AutoCAD 2000
 90
        0
280
     0
281
     0
  0
CLASS
  1
ACDBPLACEHOLDER
  2
AcDbPlaceHolder
  3
AutoCAD 2000
 90
        0
280
     0
281
     0
  0
CLASS
  1
LAYOUT
  2
AcDbLayout
  3
AutoCAD 2000
 90
        0
280
     0
281
     0
  0
CLASS
  1
DICTIONARYVAR
  2
AcDbDictionaryVar
  3
AutoCAD 2000
 90
        0
280
     0
281
     0
  0
ENDSEC
  0
SECTION
  2
TABLES
  0
TABLE
  2
VPORT
  5
8
330
0
100
AcDbSymbolTable
 70
     2
  0
VPORT
  5
806
330
8
100
AcDbSymbolTableRecord
100
AcDbViewportTableRecord
  2
*Active
 70
     0
 10
0.0
 20
0.0
 11
1.0
 21
1.0
 12
262.0
 22
85.5
 13
0.0
 23
0.0
 14
1.0
 24
1.0
 15
0.0
 25
0.0
 16
0.0
 26
0.0
 36
1.0
 17
0.0
 27
0.0
 37
0.0
 40
253.0844024779266
 41
2.078104993597951
 42
50.0
 43
0.0
 44
0.0
 50
0.0
 51
0.0
 71
     0
 72
   100
 73
     1
 74
     3
 75
     0
 76
     0
 77
     0
 78
     0
281
     0
 65
     1
110
0.0
120
0.0
130
0.0
111
1.0
121
0.0
131
0.0
112
0.0
122
1.0
132
0.0
 79
     1
146
0.0
  0
ENDTAB
  0
TABLE
  2
LTYPE
  5
5
330
0
100
AcDbSymbolTable
 70
     1
  0
LTYPE
  5
13
330
5
100
AcDbSymbolTableRecord
100
AcDbLinetypeTableRecord
  2
ByBlock
 70
     0
  3

 72
    65
 73
     0
 40
0.0
  0
LTYPE
  5
14
330
5
100
AcDbSymbolTableRecord
100
AcDbLinetypeTableRecord
  2
ByLayer
 70
     0
  3

 72
    65
 73
     0
 40
0.0
  0
LTYPE
  5
15
330
5
100
AcDbSymbolTableRecord
100
AcDbLinetypeTableRecord
  2
Continuous
 70
     0
  3
Solid line
 72
    65
 73
     0
 40
0.0
  0
ENDTAB
  0
TABLE
  2
LAYER
  5
2
330
0
100
AcDbSymbolTable
 70
     1
  0
LAYER
  5
10
330
2
100
AcDbSymbolTableRecord
100
AcDbLayerTableRecord
  2
0
 70
     0
 62
     7
  6
Continuous
370
    -3
390
F
  0
ENDTAB
  0
TABLE
  2
STYLE
  5
3
330
0
100
AcDbSymbolTable
 70
     1
  0
STYLE
  5
11
330
3
100
AcDbSymbolTableRecord
100
AcDbTextStyleTableRecord
  2
Standard
 70
     0
 40
0.0
 41
1.0
 50
0.0
 71
     0
 42
0.2
  3
txt
  4

  0
ENDTAB
  0
TABLE
  2
VIEW
  5
6
330
0
100
AcDbSymbolTable
 70
     0
  0
ENDTAB
  0
TABLE
  2
UCS
  5
7
330
0
100
AcDbSymbolTable
 70
     0
  0
ENDTAB
  0
TABLE
  2
APPID
  5
9
330
0
100
AcDbSymbolTable
 70
     1
  0
APPID
  5
12
330
9
100
AcDbSymbolTableRecord
100
AcDbRegAppTableRecord
  2
ACAD
 70
     0
  0
ENDTAB
  0
TABLE
  2
DIMSTYLE
  5
A
330
0
100
AcDbSymbolTable
 70
     1
100
AcDbDimStyleTable
 71
     0
  0
DIMSTYLE
105
800
330
A
100
AcDbSymbolTableRecord
100
AcDbDimStyleTableRecord
  2
Standard
 70
     0
340
11
  0
ENDTAB
  0
TABLE
  2
BLOCK_RECORD
  5
1
330
0
100
AcDbSymbolTable
 70
     0
  0
BLOCK_RECORD
  5
1E
330
1
100
AcDbSymbolTableRecord
100
AcDbBlockTableRecord
  2
*Model_Space
340
21
  0
BLOCK_RECORD
  5
1A
330
1
100
AcDbSymbolTableRecord
100
AcDbBlockTableRecord
  2
*Paper_Space
340
1D
  0
ENDTAB
  0
ENDSEC
  0
SECTION
  2
BLOCKS
  0
BLOCK
  5
1F
330
1E
100
AcDbEntity
  8
0
100
AcDbBlockBegin
  2
*Model_Space
 70
     0
 10
0.0
 20
0.0
 30
0.0
  3
*Model_Space
  1

  0
ENDBLK
  5
20
330
1E
100
AcDbEntity
  8
0
100
AcDbBlockEnd
  0
BLOCK
  5
1B
330
1A
100
AcDbEntity
 67
     1
  8
0
100
AcDbBlockBegin
  2
*Paper_Space
 70
     0
 10
0.0
 20
0.0
 30
0.0
  3
*Paper_Space
  1

  0
ENDBLK
  5
1C
330
1A
100
AcDbEntity
 67
     1
  8
0
100
AcDbBlockEnd
  0
ENDSEC
  0
SECTION
  2
ENTITIES
  0
LINE
  5
3F
330
1E
100
AcDbEntity
  8
0
100
AcDbLine
 10
24.7759
 20
1.00000000000003
 30
0.0
 11
24.8845
 21
1.00000000000003
 31
0.0
  0
LINE
  5
4B
330
1E
100
AcDbEntity
  8
0
100
AcDbLine
 10
28.375
 20
1.00000000000003
 30
0.0
 11
29.1365
 21
1.00000000000003
 31
0.0
  0
LINE
  5
4D
330
1E
100
AcDbEntity
  8
0
100
AcDbLine
 10
27.82999999999999
 20
1.00000000000003
 30
0.0
 11
28.375
 21
1.00000000000003
 31
0.0
  0
LINE
  5
C6
330
1E
100
AcDbEntity
  8
0
100
AcDbLine
 10
65.12170000000001
 20
1.00000000000003
 30
0.0
 11
65.78579999999999
 21
1.00000000000003
 31
0.0
  0
LINE
  5
C7
330
1E
100
AcDbEntity
  8
0
100
AcDbLine
 10
65.12170000000001
 20
1.00000000000003
 30
0.0
 11
65.60120000000001
 21
1.00000000000003
 31
0.0
  0
LINE
  5
C8
330
1E
100
AcDbEntity
  8
0
100
AcDbLine
 10
64.01100000000001
 20
1.00000000000003
 30
0.0
 11
64.3837
 21
1.00000000000003
 31
0.0
  0
LINE
  5
CA
330
1E
100
AcDbEntity
  8
0
100
AcDbLine
 10
64.3837
 20
1.00000000000003
 30
0.0
 11
65.12170000000001
 21
1.00000000000003
 31
0.0
  0
LINE
  5
CC
330
1E
100
AcDbEntity
  8
0
100
AcDbLine
 10
63.5822
 20
1.00000000000003
 30
0.0
 11
64.01100000000001
 21
1.00000000000003
 31
0.0
  0
LINE
  5
CE
330
1E
100
AcDbEntity
  8
0
100
AcDbLine
 10
63.2994
 20
1.00000000000003
 30
0.0
 11
63.5822
 21
1.00000000000003
 31
0.0
  0
LINE
  5
EB
330
1E
100
AcDbEntity
  8
0
100
AcDbLine
 10
65.78579999999999
 20
1.00000000000003
 30
0.0
 11
65.9739
 21
1.00000000000003
 31
0.0
  0
LINE
  5
EC
330
1E
100
AcDbEntity
  8
0
100
AcDbLine
 10
65.9739
 20
1.00000000000003
 30
0.0
 11
66.3842
 21
1.00000000000003
 31
0.0
  0
LINE
  5
EF
330
1E
100
AcDbEntity
  8
0
100
AcDbLine
 10
69.4046
 20
1.00000000000003
 30
0.0
 11
69.9496
 21
1.00000000000003
 31
0.0
  0
LINE
  5
F2
330
1E
100
AcDbEntity
  8
0
100
AcDbLine
 10
68.1737
 20
1.00000000000003
 30
0.0
 11
68.5464
 21
1.00000000000003
 31
0.0
  0
LINE
  5
F4
330
1E
100
AcDbEntity
  8
0
100
AcDbLine
 10
67.4358
 20
1.00000000000003
 30
0.0
 11
67.6942
 21
1.00000000000003
 31
0.0
  0
LINE
  5
F6
330
1E
100
AcDbEntity
  8
0
100
AcDbLine
 10
66.7716
 20
1.00000000000003
 30
0.0
 11
67.4358
 21
1.00000000000003
 31
0.0
  0
LINE
  5
F8
330
1E
100
AcDbEntity
  8
0
100
AcDbLine
 10
66.5835
 20
1.00000000000003
 30
0.0
 11
66.7716
 21
1.00000000000003
 31
0.0
  0
LINE
  5
FA
330
1E
100
AcDbEntity
  8
0
100
AcDbLine
 10
66.3842
 20
1.00000000000003
 30
0.0
 11
66.5835
 21
1.00000000000003
 31
0.0
  0
LINE
  5
107
330
1E
100
AcDbEntity
  8
0
100
AcDbLine
 10
70.7111
 20
1.00000000000003
 30
0.0
 11
71.24299999999999
 21
1.00000000000003
 31
0.0
  0
LINE
  5
10E
330
1E
100
AcDbEntity
  8
0
100
AcDbLine
 10
73.51510000000001
 20
1.00000000000003
 30
0.0
 11
74.2531
 21
1.00000000000003
 31
0.0
  0
LINE
  5
110
330
1E
100
AcDbEntity
  8
0
100
AcDbLine
 10
73.14239999999999
 20
1.00000000000003
 30
0.0
 11
73.51510000000001
 21
1.00000000000003
 31
0.0
  0
LINE
  5
160
330
1E
100
AcDbEntity
  8
0
100
AcDbLine
 10
78.4838
 20
1.00000000000003
 30
0.0
 11
78.67189999999999
 21
1.00000000000003
 31
0.0
  0
LINE
  5
163
330
1E
100
AcDbEntity
  8
0
100
AcDbLine
 10
78.366
 20
1.00000000000003
 30
0.0
 11
78.4562
 21
1.00000000000003
 31
0.0
  0
LINE
  5
16E
330
1E
100
AcDbEntity
  8
0
100
AcDbLine
 10
80.90819999999999
 20
1.00000000000003
 30
0.0
 11
81.37909999999999
 21
1.00000000000003
 31
0.0
  0
LINE
  5
172
330
1E
100
AcDbEntity
  8
0
100
AcDbLine
 10
84.7438
 20
1.00000000000003
 30
0.0
 11
85.25620000000001
 21
1.00000000000003
 31
0.0
  0
LINE
  5
175
330
1E
100
AcDbEntity
  8
0
100
AcDbLine
 10
87.8686
 20
1.00000000000003
 30
0.0
 11
88.3248
 21
1.00000000000003
 31
0.0
  0
LINE
  5
17B
330
1E
100
AcDbEntity
  8
0
100
AcDbLine
 10
85.866
 20
1.00000000000003
 30
0.0
 11
85.9562
 21
1.00000000000003
 31
0.0
  0
LINE
  5
17D
330
1E
100
AcDbEntity
  8
0
100
AcDbLine
 10
85.25620000000001
 20
1.00000000000003
 30
0.0
 11
85.866
 21
1.00000000000003
 31
0.0
  0
LINE
  5
17F
330
1E
100
AcDbEntity
  8
0
100
AcDbLine
 10
84.50000000000001
 20
1.00000000000003
 30
0.0
 11
85.25620000000001
 21
1.00000000000003
 31
0.0
  0
LINE
  5
182
330
1E
100
AcDbEntity
  8
0
100
AcDbLine
 10
80.7
 20
1.00000000000003
 30
0.0
 11
80.90819999999999
 21
1.00000000000003
 31
0.0
  0
LINE
  5
183
330
1E
100
AcDbEntity
  8
0
100
AcDbLine
 10
80.44670000000001
 20
1.00000000000003
 30
0.0
 11
80.7
 21
1.00000000000003
 31
0.0
  0
LINE
  5
185
330
1E
100
AcDbEntity
  8
0
100
AcDbLine
 10
80.074
 20
1.00000000000003
 30
0.0
 11
80.25859999999999
 21
1.00000000000003
 31
0.0
  0
LINE
  5
187
330
1E
100
AcDbEntity
  8
0
100
AcDbLine
 10
80.074
 20
1.00000000000003
 30
0.0
 11
80.44670000000001
 21
1.00000000000003
 31
0.0
  0
LINE
  5
18A
330
1E
100
AcDbEntity
  8
0
100
AcDbLine
 10
74.29999999999999
 20
1.00000000000003
 30
0.0
 11
88.40000000000001
 21
1.00000000000003
 31
0.0
  0
LINE
  5
18B
330
1E
100
AcDbEntity
  8
0
100
AcDbLine
 10
71.25230000000001
 20
1.00000000000003
 30
0.0
 11
73.14239999999999
 21
1.00000000000003
 31
0.0
  0
LINE
  5
18D
330
1E
100
AcDbEntity
  8
0
100
AcDbLine
 10
69.9496
 20
1.00000000000003
 30
0.0
 11
70.70730000000001
 21
1.00000000000003
 31
0.0
  0
LINE
  5
18F
330
1E
100
AcDbEntity
  8
0
100
AcDbLine
 10
69.9496
 20
1.00000000000003
 30
0.0
 11
70.7111
 21
1.00000000000003
 31
0.0
  0
LINE
  5
190
330
1E
100
AcDbEntity
  8
0
100
AcDbLine
 10
67.6942
 20
1.00000000000003
 30
0.0
 11
69.4046
 21
1.00000000000003
 31
0.0
  0
LINE
  5
191
330
1E
100
AcDbEntity
  8
0
100
AcDbLine
 10
65.60120000000001
 20
1.00000000000003
 30
0.0
 11
66.3842
 21
1.00000000000003
 31
0.0
  0
LINE
  5
192
330
1E
100
AcDbEntity
  8
0
100
AcDbLine
 10
65.60120000000001
 20
1.00000000000003
 30
0.0
 11
65.7294
 21
1.00000000000003
 31
0.0
  0
LINE
  5
193
330
1E
100
AcDbEntity
  8
0
100
AcDbLine
 10
65.60120000000001
 20
1.00000000000003
 30
0.0
 11
65.78579999999999
 21
1.00000000000003
 31
0.0
  0
LINE
  5
197
330
1E
100
AcDbEntity
  8
0
100
AcDbLine
 10
35.1509
 20
1.00000000000003
 30
0.0
 11
35.9071
 21
1.00000000000003
 31
0.0
  0
LINE
  5
199
330
1E
100
AcDbEntity
  8
0
100
AcDbLine
 10
34.5411
 20
1.00000000000003
 30
0.0
 11
35.1509
 21
1.00000000000003
 31
0.0
  0
LINE
  5
19B
330
1E
100
AcDbEntity
  8
0
100
AcDbLine
 10
34.45089999999999
 20
1.00000000000003
 30
0.0
 11
34.5411
 21
1.00000000000003
 31
0.0
  0
LINE
  5
19C
330
1E
100
AcDbEntity
  8
0
100
AcDbLine
 10
36.3633
 20
1.00000000000003
 30
0.0
 11
36.4582
 21
1.00000000000003
 31
0.0
  0
LINE
  5
19E
330
1E
100
AcDbEntity
  8
0
100
AcDbLine
 10
36.3633
 20
1.00000000000003
 30
0.0
 11
36.6409
 21
1.00000000000003
 31
0.0
  0
LINE
  5
1A0
330
1E
100
AcDbEntity
  8
0
100
AcDbLine
 10
37.9124
 20
1.00000000000003
 30
0.0
 11
38.39999999999999
 21
1.00000000000003
 31
0.0
  0
LINE
  5
1A2
330
1E
100
AcDbEntity
  8
0
100
AcDbLine
 10
37.44149999999999
 20
1.00000000000003
 30
0.0
 11
37.9124
 21
1.00000000000003
 31
0.0
  0
LINE
  5
1A5
330
1E
100
AcDbEntity
  8
0
100
AcDbLine
 10
36.6409
 20
1.00000000000003
 30
0.0
 11
36.847
 21
1.00000000000003
 31
0.0
  0
LINE
  5
1A7
330
1E
100
AcDbEntity
  8
0
100
AcDbLine
 10
34.29999999999999
 20
1.00000000000003
 30
0.0
 11
34.45089999999999
 21
1.00000000000003
 31
0.0
  0
LINE
  5
1AC
330
1E
100
AcDbEntity
  8
0
100
AcDbLine
 10
41.6882
 20
1.00000000000003
 30
0.0
 11
42.2332
 21
1.00000000000003
 31
0.0
  0
LINE
  5
1AF
330
1E
100
AcDbEntity
  8
0
100
AcDbLine
 10
39.2647
 20
1.00000000000003
 30
0.0
 11
39.3733
 21
1.00000000000003
 31
0.0
  0
LINE
  5
1B3
330
1E
100
AcDbEntity
  8
0
100
AcDbLine
 10
44.3731
 20
1.00000000000003
 30
0.0
 11
44.7458
 21
1.00000000000003
 31
0.0
  0
LINE
  5
1B8
330
1E
100
AcDbEntity
  8
0
100
AcDbLine
 10
38.39999999999999
 20
1.00000000000003
 30
0.0
 11
48.9
 21
1.00000000000003
 31
0.0
  0
LINE
  5
1B9
330
1E
100
AcDbEntity
  8
0
100
AcDbLine
 10
48.9
 20
1.00000000000003
 30
0.0
 11
60.8
 21
1.00000000000003
 31
0.0
  0
LINE
  5
1BC
330
1E
100
AcDbEntity
  8
0
100
AcDbLine
 10
51.5126
 20
1.00000000000003
 30
0.0
 11
51.7186
 21
1.00000000000003
 31
0.0
  0
LINE
  5
1BE
330
1E
100
AcDbEntity
  8
0
100
AcDbLine
 10
55.5355
 20
1.00000000000003
 30
0.0
 11
56.2734
 21
1.00000000000003
 31
0.0
  0
LINE
  5
1C1
330
1E
100
AcDbEntity
  8
0
100
AcDbLine
 10
54.6832
 20
1.00000000000003
 30
0.0
 11
54.8713
 21
1.00000000000003
 31
0.0
  0
LINE
  5
1C3
330
1E
100
AcDbEntity
  8
0
100
AcDbLine
 10
54.3898
 20
1.00000000000003
 30
0.0
 11
54.6727
 21
1.00000000000003
 31
0.0
  0
LINE
  5
1C5
330
1E
100
AcDbEntity
  8
0
100
AcDbLine
 10
53.68269999999999
 20
1.00000000000003
 30
0.0
 11
54.3898
 21
1.00000000000003
 31
0.0
  0
LINE
  5
1C8
330
1E
100
AcDbEntity
  8
0
100
AcDbLine
 10
56.8529
 20
1.00000000000003
 30
0.0
 11
57.3848
 21
1.00000000000003
 31
0.0
  0
LINE
  5
1C9
330
1E
100
AcDbEntity
  8
0
100
AcDbLine
 10
56.64609999999999
 20
1.00000000000003
 30
0.0
 11
56.8529
 21
1.00000000000003
 31
0.0
  0
LINE
  5
1CB
330
1E
100
AcDbEntity
  8
0
100
AcDbLine
 10
56.2734
 20
1.00000000000003
 30
0.0
 11
56.64609999999999
 21
1.00000000000003
 31
0.0
  0
LINE
  5
1CC
330
1E
100
AcDbEntity
  8
0
100
AcDbLine
 10
57.3941
 20
1.00000000000003
 30
0.0
 11
60.8
 21
1.00000000000003
 31
0.0
  0
LINE
  5
1CE
330
1E
100
AcDbEntity
  8
0
100
AcDbLine
 10
55.7939
 20
1.00000000000003
 30
0.0
 11
56.0876
 21
1.00000000000003
 31
0.0
  0
LINE
  5
1CF
330
1E
100
AcDbEntity
  8
0
100
AcDbLine
 10
55.7939
 20
1.00000000000003
 30
0.0
 11
56.2734
 21
1.00000000000003
 31
0.0
  0
LINE
  5
1D1
330
1E
100
AcDbEntity
  8
0
100
AcDbLine
 10
52.9756
 20
1.00000000000003
 30
0.0
 11
53.68269999999999
 21
1.00000000000003
 31
0.0
  0
LINE
  5
1D4
330
1E
100
AcDbEntity
  8
0
100
AcDbLine
 10
50.8577
 20
1.00000000000003
 30
0.0
 11
51.5126
 21
1.00000000000003
 31
0.0
  0
LINE
  5
1D7
330
1E
100
AcDbEntity
  8
0
100
AcDbLine
 10
51.7186
 20
1.00000000000003
 30
0.0
 11
52.6928
 21
1.00000000000003
 31
0.0
  0
LINE
  5
1D9
330
1E
100
AcDbEntity
  8
0
100
AcDbLine
 10
49.3537
 20
1.00000000000003
 30
0.0
 11
49.7357
 21
1.00000000000003
 31
0.0
  0
LINE
  5
1DB
330
1E
100
AcDbEntity
  8
0
100
AcDbLine
 10
60.8
 20
1.00000000000003
 30
0.0
 11
64.01100000000001
 21
1.00000000000003
 31
0.0
  0
LINE
  5
1DC
330
1E
100
AcDbEntity
  8
0
100
AcDbLine
 10
60.8
 20
1.00000000000003
 30
0.0
 11
74.29999999999999
 21
1.00000000000003
 31
0.0
  0
LINE
  5
1F1
330
1E
100
AcDbEntity
  8
0
100
AcDbLine
 10
93.18009999999999
 20
1.00000000000003
 30
0.0
 11
93.36820000000001
 21
1.00000000000003
 31
0.0
  0
LINE
  5
1F3
330
1E
100
AcDbEntity
  8
0
100
AcDbLine
 10
92.5159
 20
1.00000000000003
 30
0.0
 11
93.18009999999999
 21
1.00000000000003
 31
0.0
  0
LINE
  5
20C
330
1E
100
AcDbEntity
  8
0
100
AcDbLine
 10
95.402
 20
1.00000000000003
 30
0.0
 11
95.8078
 21
1.00000000000003
 31
0.0
  0
LINE
  5
20E
330
1E
100
AcDbEntity
  8
0
100
AcDbLine
 10
95.11920000000001
 20
1.00000000000003
 30
0.0
 11
95.402
 21
1.00000000000003
 31
0.0
  0
LINE
  5
214
330
1E
100
AcDbEntity
  8
0
100
AcDbLine
 10
95.0
 20
1.00000000000003
 30
0.0
 11
95.11920000000001
 21
1.00000000000003
 31
0.0
  0
LINE
  5
219
330
1E
100
AcDbEntity
  8
0
100
AcDbLine
 10
93.36820000000001
 20
1.00000000000003
 30
0.0
 11
94.0
 21
1.00000000000003
 31
0.0
  0
LINE
  5
224
330
1E
100
AcDbEntity
  8
0
100
AcDbLine
 10
100.1029999999999
 20
1.00000000000003
 30
0.0
 11
100.8589999999999
 21
1.00000000000003
 31
0.0
  0
LINE
  5
232
330
1E
100
AcDbEntity
  8
0
100
AcDbLine
 10
102.851
 20
1.00000000000003
 30
0.0
 11
103.3959999999999
 21
1.00000000000003
 31
0.0
  0
LINE
  5
234
330
1E
100
AcDbEntity
  8
0
100
AcDbLine
 10
102.089
 20
1.00000000000003
 30
0.0
 11
102.851
 21
1.00000000000003
 31
0.0
  0
LINE
  5
238
330
1E
100
AcDbEntity
  8
0
100
AcDbLine
 10
101.3149999999999
 20
1.00000000000003
 30
0.0
 11
101.5479999999999
 21
1.00000000000003
 31
0.0
  0
LINE
  5
2A4
330
1E
100
AcDbEntity
  8
0
100
AcDbLine
 10
118.998
 20
1.00000000000003
 30
0.0
 11
119.1
 21
1.00000000000003
 31
0.0
  0
LINE
  5
2B0
330
1E
100
AcDbEntity
  8
0
100
AcDbLine
 10
107.0
 20
1.00000000000003
 30
0.0
 11
107.288
 21
1.00000000000003
 31
0.0
  0
LINE
  5
2B4
330
1E
100
AcDbEntity
  8
0
100
AcDbLine
 10
107.2979999999999
 20
1.00000000000003
 30
0.0
 11
107.8289999999999
 21
1.00000000000003
 31
0.0
  0
LINE
  5
2B8
330
1E
100
AcDbEntity
  8
0
100
AcDbLine
 10
109.613
 20
1.00000000000003
 30
0.0
 11
110.084
 21
1.00000000000003
 31
0.0
  0
LINE
  5
2BA
330
1E
100
AcDbEntity
  8
0
100
AcDbLine
 10
108.8589999999999
 20
1.00000000000003
 30
0.0
 11
109.613
 21
1.00000000000003
 31
0.0
  0
LINE
  5
2BD
330
1E
100
AcDbEntity
  8
0
100
AcDbLine
 10
113.849
 20
1.00000000000003
 30
0.0
 11
114.0439999999999
 21
1.00000000000003
 31
0.0
  0
LINE
  5
2C4
330
1E
100
AcDbEntity
  8
0
100
AcDbLine
 10
114.134
 20
1.00000000000003
 30
0.0
 11
114.5
 21
1.00000000000003
 31
0.0
  0
LINE
  5
2C7
330
1E
100
AcDbEntity
  8
0
100
AcDbLine
 10
114.0439999999999
 20
1.00000000000003
 30
0.0
 11
114.5
 21
1.00000000000003
 31
0.0
  0
LINE
  5
2CF
330
1E
100
AcDbEntity
  8
0
100
AcDbLine
 10
104.977
 20
1.00000000000003
 30
0.0
 11
105.731
 21
1.00000000000003
 31
0.0
  0
LINE
  5
2D1
330
1E
100
AcDbEntity
  8
0
100
AcDbLine
 10
104.3779999999999
 20
1.00000000000003
 30
0.0
 11
104.977
 21
1.00000000000003
 31
0.0
  0
LINE
  5
2D2
330
1E
100
AcDbEntity
  8
0
100
AcDbLine
 10
109.2999999999999
 20
1.00000000000003
 30
0.0
 11
109.377
 21
1.00000000000003
 31
0.0
  0
LINE
  5
2D3
330
1E
100
AcDbEntity
  8
0
100
AcDbLine
 10
103.4999999999999
 20
1.00000000000003
 30
0.0
 11
119.1
 21
1.00000000000003
 31
0.0
  0
LINE
  5
2D4
330
1E
100
AcDbEntity
  8
0
100
AcDbLine
 10
119.1
 20
1.00000000000003
 30
0.0
 11
135.0
 21
1.000000000000019
 31
0.0
  0
LINE
  5
2D5
330
1E
100
AcDbEntity
  8
0
100
AcDbLine
 10
103.3959999999999
 20
1.00000000000003
 30
0.0
 11
103.4999999999999
 21
1.00000000000003
 31
0.0
  0
LINE
  5
2D8
330
1E
100
AcDbEntity
  8
0
100
AcDbLine
 10
99.493
 20
1.00000000000003
 30
0.0
 11
100.1029999999999
 21
1.00000000000003
 31
0.0
  0
LINE
  5
2DA
330
1E
100
AcDbEntity
  8
0
100
AcDbLine
 10
99.40280000000001
 20
1.00000000000003
 30
0.0
 11
99.493
 21
1.00000000000003
 31
0.0
  0
LINE
  5
2DB
330
1E
100
AcDbEntity
  8
0
100
AcDbLine
 10
101.557
 20
1.00000000000003
 30
0.0
 11
102.089
 21
1.00000000000003
 31
0.0
  0
LINE
  5
2DD
330
1E
100
AcDbEntity
  8
0
100
AcDbLine
 10
97.65550000000001
 20
1.00000000000003
 30
0.0
 11
99.40280000000001
 21
1.00000000000003
 31
0.0
  0
LINE
  5
2E4
330
1E
100
AcDbEntity
  8
0
100
AcDbLine
 10
90.0768
 20
1.00000000000003
 30
0.0
 11
90.60869999999999
 21
1.00000000000003
 31
0.0
  0
LINE
  5
2E5
330
1E
100
AcDbEntity
  8
0
100
AcDbLine
 10
94.29999999999999
 20
1.00000000000003
 30
0.0
 11
95.0
 21
1.00000000000003
 31
0.0
  0
LINE
  5
2E7
330
1E
100
AcDbEntity
  8
0
100
AcDbLine
 10
88.40000000000001
 20
1.00000000000003
 30
0.0
 11
90.0675
 21
1.00000000000003
 31
0.0
  0
LINE
  5
2E8
330
1E
100
AcDbEntity
  8
0
100
AcDbLine
 10
88.40000000000001
 20
1.00000000000003
 30
0.0
 11
103.4999999999999
 21
1.00000000000003
 31
0.0
  0
LINE
  5
2EC
330
1E
100
AcDbEntity
  8
0
100
AcDbLine
 10
36.4582
 20
1.00000000000003
 30
0.0
 11
37.44149999999999
 21
1.00000000000003
 31
0.0
  0
LINE
  5
2ED
330
1E
100
AcDbEntity
  8
0
100
AcDbLine
 10
36.4582
 20
1.00000000000003
 30
0.0
 11
36.6409
 21
1.00000000000003
 31
0.0
  0
LINE
  5
2EE
330
1E
100
AcDbEntity
  8
0
100
AcDbLine
 10
29.3
 20
1.00000000000003
 30
0.0
 11
34.8641
 21
1.00000000000003
 31
0.0
  0
LINE
  5
2EF
330
1E
100
AcDbEntity
  8
0
100
AcDbLine
 10
29.3
 20
1.00000000000003
 30
0.0
 11
38.39999999999999
 21
1.00000000000003
 31
0.0
  0
LINE
  5
2F0
330
1E
100
AcDbEntity
  8
0
100
AcDbLine
 10
29.1365
 20
1.00000000000003
 30
0.0
 11
29.3
 21
1.00000000000003
 31
0.0
  0
LINE
  5
2F2
330
1E
100
AcDbEntity
  8
0
100
AcDbLine
 10
29.1365
 20
1.00000000000003
 30
0.0
 11
29.66839999999999
 21
1.00000000000003
 31
0.0
  0
LINE
  5
2F3
330
1E
100
AcDbEntity
  8
0
100
AcDbLine
 10
29.1365
 20
1.00000000000003
 30
0.0
 11
29.6777
 21
1.00000000000003
 31
0.0
  0
LINE
  5
2F4
330
1E
100
AcDbEntity
  8
0
100
AcDbLine
 10
24.8845
 20
1.00000000000003
 30
0.0
 11
27.82999999999999
 21
1.00000000000003
 31
0.0
  0
LINE
  5
2FD
330
1E
100
AcDbEntity
  8
0
100
AcDbLine
 10
17.4
 20
1.00000000000003
 30
0.0
 11
22.5
 21
1.00000000000003
 31
0.0
  0
LINE
  5
2FE
330
1E
100
AcDbEntity
  8
0
100
AcDbLine
 10
22.5
 20
1.00000000000003
 30
0.0
 11
22.9526
 21
1.00000000000003
 31
0.0
  0
LINE
  5
2FF
330
1E
100
AcDbEntity
  8
0
100
AcDbLine
 10
22.5
 20
1.00000000000003
 30
0.0
 11
29.3
 21
1.00000000000003
 31
0.0
  0
LINE
  5
300
330
1E
100
AcDbEntity
  8
0
100
AcDbLine
 10
14.19999999999999
 20
1.00000000000003
 30
0.0
 11
17.4
 21
1.00000000000003
 31
0.0
  0
LINE
  5
301
330
1E
100
AcDbEntity
  8
0
100
AcDbLine
 10
0.0000000000000105
 20
4.00000000000003
 30
0.0
 11
0.0000000000000105
 21
4.50000000000003
 31
0.0
  0
LINE
  5
302
330
1E
100
AcDbEntity
  8
0
100
AcDbLine
 10
0.0000000000000105
 20
4.00000000000003
 30
0.0
 11
0.50000000000001
 21
3.000000000000029
 31
0.0
  0
LINE
  5
303
330
1E
100
AcDbEntity
  8
0
100
AcDbLine
 10
0.0000000000000105
 20
4.50000000000003
 30
0.0
 11
0.5000000000000111
 21
5.50000000000003
 31
0.0
  0
LINE
  5
304
330
1E
100
AcDbEntity
  8
0
100
AcDbLine
 10
0.0000000000000105
 20
4.50000000000003
 30
0.0
 11
0.5000000000000111
 21
5.50000000000003
 31
0.0
  0
LINE
  5
305
330
1E
100
AcDbEntity
  8
0
100
AcDbLine
 10
0.0000000000000105
 20
4.00000000000003
 30
0.0
 11
0.50000000000001
 21
3.000000000000029
 31
0.0
  0
LINE
  5
306
330
1E
100
AcDbEntity
  8
0
100
AcDbLine
 10
68.79999999999999
 20
2.500000000000029
 30
0.0
 11
84.19999999999999
 21
2.500000000000029
 31
0.0
  0
LINE
  5
307
330
1E
100
AcDbEntity
  8
0
100
AcDbLine
 10
19.8
 20
2.500000000000029
 30
0.0
 11
29.7
 21
2.500000000000029
 31
0.0
  0
LINE
  5
308
330
1E
100
AcDbEntity
  8
0
100
AcDbLine
 10
12.4
 20
2.500000000000029
 30
0.0
 11
19.8
 21
2.500000000000029
 31
0.0
  0
LINE
  5
309
330
1E
100
AcDbEntity
  8
0
100
AcDbLine
 10
29.7
 20
2.500000000000029
 30
0.0
 11
41.1
 21
2.500000000000029
 31
0.0
  0
LINE
  5
30A
330
1E
100
AcDbEntity
  8
0
100
AcDbLine
 10
29.3
 20
2.500000000000029
 30
0.0
 11
29.7
 21
2.500000000000029
 31
0.0
  0
LINE
  5
30B
330
1E
100
AcDbEntity
  8
0
100
AcDbLine
 10
22.5
 20
2.500000000000029
 30
0.0
 11
29.3
 21
2.500000000000029
 31
0.0
  0
LINE
  5
30C
330
1E
100
AcDbEntity
  8
0
100
AcDbLine
 10
1.800000000000009
 20
3.000000000000029
 30
0.0
 11
5.300000000000009
 21
3.000000000000029
 31
0.0
  0
LINE
  5
30D
330
1E
100
AcDbEntity
  8
0
100
AcDbLine
 10
0.5000000000000111
 20
5.50000000000003
 30
0.0
 11
1.50000000000001
 21
6.50000000000003
 31
0.0
  0
LINE
  5
30E
330
1E
100
AcDbEntity
  8
0
100
AcDbLine
 10
1.800000000000009
 20
3.000000000000029
 30
0.0
 11
5.300000000000009
 21
3.000000000000029
 31
0.0
  0
LINE
  5
30F
330
1E
100
AcDbEntity
  8
0
100
AcDbLine
 10
6.800000000000009
 20
2.500000000000029
 30
0.0
 11
12.4
 21
2.500000000000029
 31
0.0
  0
LINE
  5
310
330
1E
100
AcDbEntity
  8
0
100
AcDbLine
 10
28.5
 20
3.000000000000029
 30
0.0
 11
40.1
 21
3.000000000000029
 31
0.0
  0
LINE
  5
311
330
1E
100
AcDbEntity
  8
0
100
AcDbLine
 10
18.5
 20
3.000000000000029
 30
0.0
 11
28.5
 21
3.000000000000029
 31
0.0
  0
LINE
  5
312
330
1E
100
AcDbEntity
  8
0
100
AcDbLine
 10
11.0
 20
3.000000000000029
 30
0.0
 11
18.5
 21
3.000000000000029
 31
0.0
  0
LINE
  5
313
330
1E
100
AcDbEntity
  8
0
100
AcDbLine
 10
5.300000000000009
 20
3.000000000000029
 30
0.0
 11
11.0
 21
3.000000000000029
 31
0.0
  0
LINE
  5
314
330
1E
100
AcDbEntity
  8
0
100
AcDbLine
 10
3.300000000000009
 20
2.500000000000029
 30
0.0
 11
6.800000000000009
 21
2.500000000000029
 31
0.0
  0
LINE
  5
315
330
1E
100
AcDbEntity
  8
0
100
AcDbLine
 10
2.00000000000001
 20
2.500000000000029
 30
0.0
 11
3.300000000000009
 21
2.500000000000029
 31
0.0
  0
LINE
  5
316
330
1E
100
AcDbEntity
  8
0
100
AcDbLine
 10
14.19999999999999
 20
2.500000000000029
 30
0.0
 11
17.4
 21
2.500000000000029
 31
0.0
  0
LINE
  5
317
330
1E
100
AcDbEntity
  8
0
100
AcDbLine
 10
40.1
 20
3.000000000000029
 30
0.0
 11
53.2
 21
3.000000000000029
 31
0.0
  0
LINE
  5
318
330
1E
100
AcDbEntity
  8
0
100
AcDbLine
 10
41.1
 20
2.500000000000029
 30
0.0
 11
54.1
 21
2.500000000000029
 31
0.0
  0
LINE
  5
319
330
1E
100
AcDbEntity
  8
0
100
AcDbLine
 10
53.2
 20
3.000000000000029
 30
0.0
 11
68.0
 21
3.000000000000029
 31
0.0
  0
LINE
  5
31A
330
1E
100
AcDbEntity
  8
0
100
AcDbLine
 10
68.0
 20
3.000000000000029
 30
0.0
 11
83.59999999999999
 21
3.000000000000029
 31
0.0
  0
LINE
  5
31B
330
1E
100
AcDbEntity
  8
0
100
AcDbLine
 10
54.1
 20
2.500000000000029
 30
0.0
 11
68.79999999999999
 21
2.500000000000029
 31
0.0
  0
LINE
  5
31C
330
1E
100
AcDbEntity
  8
0
100
AcDbLine
 10
48.9
 20
2.500000000000029
 30
0.0
 11
60.8
 21
2.500000000000029
 31
0.0
  0
LINE
  5
31D
330
1E
100
AcDbEntity
  8
0
100
AcDbLine
 10
60.8
 20
2.500000000000029
 30
0.0
 11
74.29999999999999
 21
2.500000000000029
 31
0.0
  0
LINE
  5
31E
330
1E
100
AcDbEntity
  8
0
100
AcDbLine
 10
117.7
 20
2.500000000000029
 30
0.0
 11
135.0
 21
2.500000000000019
 31
0.0
  0
LINE
  5
31F
330
1E
100
AcDbEntity
  8
0
100
AcDbLine
 10
83.59999999999999
 20
3.000000000000029
 30
0.0
 11
100.2999999999999
 21
3.000000000000029
 31
0.0
  0
LINE
  5
320
330
1E
100
AcDbEntity
  8
0
100
AcDbLine
 10
84.19999999999999
 20
2.500000000000029
 30
0.0
 11
100.7
 21
2.500000000000029
 31
0.0
  0
LINE
  5
321
330
1E
100
AcDbEntity
  8
0
100
AcDbLine
 10
100.2999999999999
 20
3.000000000000029
 30
0.0
 11
117.4
 21
3.000000000000029
 31
0.0
  0
LINE
  5
322
330
1E
100
AcDbEntity
  8
0
100
AcDbLine
 10
117.4
 20
3.000000000000029
 30
0.0
 11
135.0
 21
3.00000000000002
 31
0.0
  0
LINE
  5
323
330
1E
100
AcDbEntity
  8
0
100
AcDbLine
 10
100.7
 20
2.500000000000029
 30
0.0
 11
117.7
 21
2.500000000000029
 31
0.0
  0
LINE
  5
324
330
1E
100
AcDbEntity
  8
0
100
AcDbLine
 10
88.40000000000001
 20
2.500000000000029
 30
0.0
 11
103.4999999999999
 21
2.500000000000029
 31
0.0
  0
LINE
  5
325
330
1E
100
AcDbEntity
  8
0
100
AcDbLine
 10
103.4999999999999
 20
2.500000000000029
 30
0.0
 11
119.1
 21
2.500000000000029
 31
0.0
  0
LINE
  5
326
330
1E
100
AcDbEntity
  8
0
100
AcDbLine
 10
74.29999999999999
 20
2.500000000000029
 30
0.0
 11
84.19999999999999
 21
2.500000000000029
 31
0.0
  0
LINE
  5
327
330
1E
100
AcDbEntity
  8
0
100
AcDbLine
 10
45.7
 20
27.5
 30
0.0
 11
58.1
 21
27.5
 31
0.0
  0
LINE
  5
328
330
1E
100
AcDbEntity
  8
0
100
AcDbLine
 10
58.1
 20
27.5
 30
0.0
 11
72.0
 21
27.5
 31
0.0
  0
LINE
  5
329
330
1E
100
AcDbEntity
  8
0
100
AcDbLine
 10
72.0
 20
27.5
 30
0.0
 11
86.69999999999999
 21
27.5
 31
0.0
  0
LINE
  5
32A
330
1E
100
AcDbEntity
  8
0
100
AcDbLine
 10
86.69999999999999
 20
27.5
 30
0.0
 11
102.4
 21
27.5
 31
0.0
  0
LINE
  5
32B
330
1E
100
AcDbEntity
  8
0
100
AcDbLine
 10
34.79999999999999
 20
27.5
 30
0.0
 11
45.7
 21
27.5
 31
0.0
  0
LINE
  5
32C
330
1E
100
AcDbEntity
  8
0
100
AcDbLine
 10
25.4
 20
27.5
 30
0.0
 11
34.79999999999999
 21
27.5
 31
0.0
  0
LINE
  5
32D
330
1E
100
AcDbEntity
  8
0
100
AcDbLine
 10
18.39999999999999
 20
27.5
 30
0.0
 11
25.4
 21
27.5
 31
0.0
  0
LINE
  5
32E
330
1E
100
AcDbEntity
  8
0
100
AcDbLine
 10
10.0
 20
28.0
 30
0.0
 11
34.0
 21
29.0
 31
0.0
  0
LINE
  5
32F
330
1E
100
AcDbEntity
  8
0
100
AcDbLine
 10
13.1
 20
27.5
 30
0.0
 11
18.39999999999999
 21
27.5
 31
0.0
  0
LINE
  5
330
330
1E
100
AcDbEntity
  8
0
100
AcDbLine
 10
9.800000000000009
 20
27.5
 30
0.0
 11
13.1
 21
27.5
 31
0.0
  0
LINE
  5
331
330
1E
100
AcDbEntity
  8
0
100
AcDbLine
 10
102.4
 20
27.5
 30
0.0
 11
118.5999999999999
 21
27.5
 31
0.0
  0
LINE
  5
332
330
1E
100
AcDbEntity
  8
0
100
AcDbLine
 10
118.5999999999999
 20
27.5
 30
0.0
 11
135.0
 21
27.5
 31
0.0
  0
LINE
  5
333
330
1E
100
AcDbEntity
  8
0
100
AcDbLine
 10
117.5
 20
31.0
 30
0.0
 11
117.5
 21
43.5
 31
0.0
  0
LINE
  5
334
330
1E
100
AcDbEntity
  8
0
100
AcDbLine
 10
111.2
 20
31.0
 30
0.0
 11
113.7999999999999
 21
31.0
 31
0.0
  0
LINE
  5
335
330
1E
100
AcDbEntity
  8
0
100
AcDbLine
 10
109.0
 20
31.0
 30
0.0
 11
111.2
 21
31.0
 31
0.0
  0
LINE
  5
336
330
1E
100
AcDbEntity
  8
0
100
AcDbLine
 10
107.2999999999999
 20
31.0
 30
0.0
 11
109.0
 21
31.0
 31
0.0
  0
LINE
  5
337
330
1E
100
AcDbEntity
  8
0
100
AcDbLine
 10
106.0999999999999
 20
31.0
 30
0.0
 11
107.2999999999999
 21
31.0
 31
0.0
  0
LINE
  5
338
330
1E
100
AcDbEntity
  8
0
100
AcDbLine
 10
105.2999999999999
 20
31.0
 30
0.0
 11
106.0999999999999
 21
31.0
 31
0.0
  0
LINE
  5
339
330
1E
100
AcDbEntity
  8
0
100
AcDbLine
 10
105.0
 20
31.0
 30
0.0
 11
105.2999999999999
 21
31.0
 31
0.0
  0
LINE
  5
33A
330
1E
100
AcDbEntity
  8
0
100
AcDbLine
 10
119.833
 20
43.5
 30
0.0
 11
122.591
 21
43.5
 31
0.0
  0
LINE
  5
33B
330
1E
100
AcDbEntity
  8
0
100
AcDbLine
 10
118.136
 20
43.5
 30
0.0
 11
119.833
 21
43.5
 31
0.0
  0
LINE
  5
33C
330
1E
100
AcDbEntity
  8
0
100
AcDbLine
 10
118.667
 20
44.0
 30
0.0
 11
120.2579999999999
 21
44.0
 31
0.0
  0
LINE
  5
33D
330
1E
100
AcDbEntity
  8
0
100
AcDbLine
 10
118.03
 20
44.0
 30
0.0
 11
118.667
 21
44.0
 31
0.0
  0
LINE
  5
33E
330
1E
100
AcDbEntity
  8
0
100
AcDbLine
 10
117.5
 20
43.5
 30
0.0
 11
118.03
 21
44.0
 31
0.0
  0
LINE
  5
33F
330
1E
100
AcDbEntity
  8
0
100
AcDbLine
 10
117.5
 20
43.5
 30
0.0
 11
117.5
 21
31.0
 31
0.0
  0
LINE
  5
340
330
1E
100
AcDbEntity
  8
0
100
AcDbLine
 10
117.5
 20
43.5
 30
0.0
 11
118.136
 21
43.5
 31
0.0
  0
LINE
  5
341
330
1E
100
AcDbEntity
  8
0
100
AcDbLine
 10
113.7999999999999
 20
31.0
 30
0.0
 11
116.7999999999999
 21
31.0
 31
0.0
  0
LINE
  5
342
330
1E
100
AcDbEntity
  8
0
100
AcDbLine
 10
116.7999999999999
 20
31.0
 30
0.0
 11
120.1
 21
31.0
 31
0.0
  0
LINE
  5
343
330
1E
100
AcDbEntity
  8
0
100
AcDbLine
 10
122.591
 20
43.5
 30
0.0
 11
126.303
 21
43.5
 31
0.0
  0
LINE
  5
344
330
1E
100
AcDbEntity
  8
0
100
AcDbLine
 10
120.2579999999999
 20
44.0
 30
0.0
 11
123.015
 21
44.0
 31
0.0
  0
LINE
  5
345
330
1E
100
AcDbEntity
  8
0
100
AcDbLine
 10
122.273
 20
76.0
 30
0.0
 11
122.273
 21
66.0
 31
0.0
  0
LINE
  5
346
330
1E
100
AcDbEntity
  8
0
100
AcDbLine
 10
122.273
 20
76.0
 30
0.0
 11
122.697
 21
76.0
 31
0.0
  0
LINE
  5
347
330
1E
100
AcDbEntity
  8
0
100
AcDbLine
 10
122.697
 20
76.0
 30
0.0
 11
123.97
 21
76.0
 31
0.0
  0
LINE
  5
348
330
1E
100
AcDbEntity
  8
0
100
AcDbLine
 10
122.697
 20
66.0
 30
0.0
 11
123.333
 21
66.0
 31
0.0
  0
LINE
  5
349
330
1E
100
AcDbEntity
  8
0
100
AcDbLine
 10
122.697
 20
66.0
 30
0.0
 11
123.97
 21
66.0
 31
0.0
  0
LINE
  5
34A
330
1E
100
AcDbEntity
  8
0
100
AcDbLine
 10
122.273
 20
66.0
 30
0.0
 11
122.697
 21
66.0
 31
0.0
  0
LINE
  5
34B
330
1E
100
AcDbEntity
  8
0
100
AcDbLine
 10
122.273
 20
66.0
 30
0.0
 11
122.273
 21
76.0
 31
0.0
  0
LINE
  5
34C
330
1E
100
AcDbEntity
  8
0
100
AcDbLine
 10
121.742
 20
44.0
 30
0.0
 11
123.333
 21
48.0
 31
0.0
  0
LINE
  5
34D
330
1E
100
AcDbEntity
  8
0
100
AcDbLine
 10
120.1
 20
31.0
 30
0.0
 11
123.5
 21
31.0
 31
0.0
  0
LINE
  5
34E
330
1E
100
AcDbEntity
  8
0
100
AcDbLine
 10
71.0
 20
30.0
 30
0.0
 11
105.0
 21
31.0
 31
0.0
  0
LINE
  5
34F
330
1E
100
AcDbEntity
  8
0
100
AcDbLine
 10
34.0
 20
29.0
 30
0.0
 11
71.0
 21
30.0
 31
0.0
  0
LINE
  5
350
330
1E
100
AcDbEntity
  8
0
100
AcDbLine
 10
10.0
 20
28.0
 30
0.0
 11
34.0
 21
29.0
 31
0.0
  0
LINE
  5
351
330
1E
100
AcDbEntity
  8
0
100
AcDbLine
 10
8.500000000000008
 20
27.5
 30
0.0
 11
10.0
 21
28.0
 31
0.0
  0
LINE
  5
352
330
1E
100
AcDbEntity
  8
0
100
AcDbLine
 10
8.500000000000008
 20
27.5
 30
0.0
 11
9.800000000000009
 21
27.5
 31
0.0
  0
LINE
  5
353
330
1E
100
AcDbEntity
  8
0
100
AcDbLine
 10
7.500000000000009
 20
26.0
 30
0.0
 11
8.500000000000008
 21
27.5
 31
0.0
  0
LINE
  5
354
330
1E
100
AcDbEntity
  8
0
100
AcDbLine
 10
7.000000000000009
 20
23.0
 30
0.0
 11
7.500000000000009
 21
26.0
 31
0.0
  0
LINE
  5
355
330
1E
100
AcDbEntity
  8
0
100
AcDbLine
 10
6.500000000000009
 20
20.0
 30
0.0
 11
7.000000000000009
 21
23.0
 31
0.0
  0
LINE
  5
356
330
1E
100
AcDbEntity
  8
0
100
AcDbLine
 10
5.000000000000009
 20
14.0
 30
0.0
 11
6.500000000000009
 21
20.0
 31
0.0
  0
LINE
  5
357
330
1E
100
AcDbEntity
  8
0
100
AcDbLine
 10
3.000000000000009
 20
9.00000000000003
 30
0.0
 11
5.000000000000009
 21
14.0
 31
0.0
  0
LINE
  5
358
330
1E
100
AcDbEntity
  8
0
100
AcDbLine
 10
1.50000000000001
 20
6.50000000000003
 30
0.0
 11
3.000000000000009
 21
9.00000000000003
 31
0.0
  0
LINE
  5
359
330
1E
100
AcDbEntity
  8
0
100
AcDbLine
 10
0.5000000000000111
 20
5.50000000000003
 30
0.0
 11
1.50000000000001
 21
6.50000000000003
 31
0.0
  0
LINE
  5
35A
330
1E
100
AcDbEntity
  8
0
100
AcDbLine
 10
0.50000000000001
 20
3.000000000000029
 30
0.0
 11
2.00000000000001
 21
2.500000000000029
 31
0.0
  0
LINE
  5
35B
330
1E
100
AcDbEntity
  8
0
100
AcDbLine
 10
0.50000000000001
 20
3.000000000000029
 30
0.0
 11
1.800000000000009
 21
3.000000000000029
 31
0.0
  0
LINE
  5
35C
330
1E
100
AcDbEntity
  8
0
100
AcDbLine
 10
13.0
 20
1.00000000000003
 30
0.0
 11
14.19999999999999
 21
1.00000000000003
 31
0.0
  0
LINE
  5
35D
330
1E
100
AcDbEntity
  8
0
100
AcDbLine
 10
13.0
 20
1.00000000000003
 30
0.0
 11
13.0
 21
2.500000000000029
 31
0.0
  0
LINE
  5
385
330
1E
100
AcDbEntity
  8
0
100
AcDbLine
 10
126.855
 20
1.00000000000003
 30
0.0
 11
127.347
 21
1.00000000000003
 31
0.0
  0
LINE
  5
387
330
1E
100
AcDbEntity
  8
0
100
AcDbLine
 10
126.466
 20
1.00000000000003
 30
0.0
 11
126.855
 21
1.00000000000003
 31
0.0
  0
LINE
  5
391
330
1E
100
AcDbEntity
  8
0
100
AcDbLine
 10
131.712
 20
1.00000000000003
 30
0.0
 11
131.802
 21
1.00000000000003
 31
0.0
  0
LINE
  5
394
330
1E
100
AcDbEntity
  8
0
100
AcDbLine
 10
131.802
 20
1.00000000000003
 30
0.0
 11
132.52
 21
1.00000000000003
 31
0.0
  0
LINE
  5
397
330
1E
100
AcDbEntity
  8
0
100
AcDbLine
 10
132.52
 20
1.00000000000003
 30
0.0
 11
133.7199999999999
 21
1.000000000000019
 31
0.0
  0
LINE
  5
398
330
1E
100
AcDbEntity
  8
0
100
AcDbLine
 10
132.52
 20
1.00000000000003
 30
0.0
 11
132.645
 21
1.00000000000003
 31
0.0
  0
LINE
  5
3A2
330
1E
100
AcDbEntity
  8
0
100
AcDbLine
 10
123.775
 20
1.00000000000003
 30
0.0
 11
124.5079999999999
 21
1.00000000000003
 31
0.0
  0
LINE
  5
3A4
330
1E
100
AcDbEntity
  8
0
100
AcDbLine
 10
127.804
 20
1.00000000000003
 30
0.0
 11
129.8899999999999
 21
1.00000000000003
 31
0.0
  0
LINE
  5
3AD
330
1E
100
AcDbEntity
  8
0
100
AcDbLine
 10
134.0
 20
1.000000000000019
 30
0.0
 11
134.3
 21
1.000000000000019
 31
0.0
  0
LINE
  5
3B0
330
1E
100
AcDbEntity
  8
0
100
AcDbLine
 10
134.3
 20
1.000000000000019
 30
0.0
 11
135.0
 21
1.000000000000019
 31
0.0
  0
LINE
  5
3B1
330
1E
100
AcDbEntity
  8
0
100
AcDbLine
 10
133.7199999999999
 20
1.000000000000019
 30
0.0
 11
134.0
 21
1.000000000000019
 31
0.0
  0
LINE
  5
3B3
330
1E
100
AcDbEntity
  8
0
100
AcDbLine
 10
133.101
 20
1.00000000000003
 30
0.0
 11
133.7199999999999
 21
1.000000000000019
 31
0.0
  0
LINE
  5
3B4
330
1E
100
AcDbEntity
  8
0
100
AcDbLine
 10
123.5
 20
31.0
 30
0.0
 11
127.2999999999999
 21
31.0
 31
0.0
  0
LINE
  5
3B5
330
1E
100
AcDbEntity
  8
0
100
AcDbLine
 10
127.2999999999999
 20
31.0
 30
0.0
 11
131.0999999999999
 21
31.0
 31
0.0
  0
LINE
  5
3B6
330
1E
100
AcDbEntity
  8
0
100
AcDbLine
 10
123.015
 20
44.0
 30
0.0
 11
126.5149999999999
 21
44.0
 31
0.0
  0
LINE
  5
3B7
330
1E
100
AcDbEntity
  8
0
100
AcDbLine
 10
123.333
 20
66.0
 30
0.0
 11
125.455
 21
59.5
 31
0.0
  0
LINE
  5
3B8
330
1E
100
AcDbEntity
  8
0
100
AcDbLine
 10
123.333
 20
66.0
 30
0.0
 11
123.7579999999999
 21
66.0
 31
0.0
  0
LINE
  5
3B9
330
1E
100
AcDbEntity
  8
0
100
AcDbLine
 10
126.5149999999999
 20
44.0
 30
0.0
 11
130.652
 21
44.0
 31
0.0
  0
LINE
  5
3BA
330
1E
100
AcDbEntity
  8
0
100
AcDbLine
 10
126.303
 20
43.5
 30
0.0
 11
130.5459999999999
 21
43.5
 31
0.0
  0
LINE
  5
3BB
330
1E
100
AcDbEntity
  8
0
100
AcDbLine
 10
130.652
 20
44.0
 30
0.0
 11
135.0
 21
44.0
 31
0.0
  0
LINE
  5
3BC
330
1E
100
AcDbEntity
  8
0
100
AcDbLine
 10
130.5459999999999
 20
43.5
 30
0.0
 11
135.0
 21
43.5
 31
0.0
  0
LINE
  5
3BD
330
1E
100
AcDbEntity
  8
0
100
AcDbLine
 10
135.0
 20
44.0
 30
0.0
 11
139.3479999999999
 21
44.0
 31
0.0
  0
LINE
  5
3BE
330
1E
100
AcDbEntity
  8
0
100
AcDbLine
 10
135.0
 20
43.5
 30
0.0
 11
139.454
 21
43.5
 31
0.0
  0
LINE
  5
3BF
330
1E
100
AcDbEntity
  8
0
100
AcDbLine
 10
123.97
 20
66.0
 30
0.0
 11
125.9849999999999
 21
66.0
 31
0.0
  0
LINE
  5
3C0
330
1E
100
AcDbEntity
  8
0
100
AcDbLine
 10
124.9239999999999
 20
66.0
 30
0.0
 11
126.727
 21
66.0
 31
0.0
  0
LINE
  5
3C1
330
1E
100
AcDbEntity
  8
0
100
AcDbLine
 10
123.97
 20
76.0
 30
0.0
 11
125.9849999999999
 21
76.0
 31
0.0
  0
LINE
  5
3C2
330
1E
100
AcDbEntity
  8
0
100
AcDbLine
 10
123.7579999999999
 20
66.0
 30
0.0
 11
124.9239999999999
 21
66.0
 31
0.0
  0
LINE
  5
3C3
330
1E
100
AcDbEntity
  8
0
100
AcDbLine
 10
130.121
 20
55.0
 30
0.0
 11
131.606
 21
55.0
 31
0.0
  0
LINE
  5
3C4
330
1E
100
AcDbEntity
  8
0
100
AcDbLine
 10
131.606
 20
55.0
 30
0.0
 11
133.197
 21
55.0
 31
0.0
  0
LINE
  5
3C5
330
1E
100
AcDbEntity
  8
0
100
AcDbLine
 10
133.197
 20
55.0
 30
0.0
 11
135.0
 21
55.0
 31
0.0
  0
LINE
  5
3C6
330
1E
100
AcDbEntity
  8
0
100
AcDbLine
 10
129.061
 20
55.0
 30
0.0
 11
130.121
 21
55.0
 31
0.0
  0
LINE
  5
3C7
330
1E
100
AcDbEntity
  8
0
100
AcDbLine
 10
128.3179999999999
 20
55.0
 30
0.0
 11
129.061
 21
55.0
 31
0.0
  0
LINE
  5
3C8
330
1E
100
AcDbEntity
  8
0
100
AcDbLine
 10
128.1059999999999
 20
55.0
 30
0.0
 11
128.3179999999999
 21
55.0
 31
0.0
  0
LINE
  5
3C9
330
1E
100
AcDbEntity
  8
0
100
AcDbLine
 10
125.9849999999999
 20
66.0
 30
0.0
 11
128.6359999999999
 21
66.0
 31
0.0
  0
LINE
  5
3CA
330
1E
100
AcDbEntity
  8
0
100
AcDbLine
 10
128.6359999999999
 20
66.0
 30
0.0
 11
131.712
 21
66.0
 31
0.0
  0
LINE
  5
3CB
330
1E
100
AcDbEntity
  8
0
100
AcDbLine
 10
131.712
 20
66.0
 30
0.0
 11
135.0
 21
66.0
 31
0.0
  0
LINE
  5
3CC
330
1E
100
AcDbEntity
  8
0
100
AcDbLine
 10
126.727
 20
66.0
 30
0.0
 11
129.167
 21
66.0
 31
0.0
  0
LINE
  5
3CD
330
1E
100
AcDbEntity
  8
0
100
AcDbLine
 10
125.9849999999999
 20
76.0
 30
0.0
 11
128.6359999999999
 21
76.0
 31
0.0
  0
LINE
  5
3CE
330
1E
100
AcDbEntity
  8
0
100
AcDbLine
 10
128.6359999999999
 20
76.0
 30
0.0
 11
131.712
 21
76.0
 31
0.0
  0
LINE
  5
3CF
330
1E
100
AcDbEntity
  8
0
100
AcDbLine
 10
131.712
 20
76.0
 30
0.0
 11
135.0
 21
76.0
 31
0.0
  0
LINE
  5
3D0
330
1E
100
AcDbEntity
  8
0
100
AcDbLine
 10
129.167
 20
66.0
 30
0.0
 11
132.03
 21
66.0
 31
0.0
  0
LINE
  5
3D1
330
1E
100
AcDbEntity
  8
0
100
AcDbLine
 10
132.03
 20
66.0
 30
0.0
 11
135.0
 21
66.0
 31
0.0
  0
LINE
  5
3D2
330
1E
100
AcDbEntity
  8
0
100
AcDbLine
 10
135.0
 20
76.0
 30
0.0
 11
138.2879999999999
 21
76.0
 31
0.0
  0
LINE
  5
3D3
330
1E
100
AcDbEntity
  8
0
100
AcDbLine
 10
135.0
 20
66.0
 30
0.0
 11
137.9699999999999
 21
66.0
 31
0.0
  0
LINE
  5
3D4
330
1E
100
AcDbEntity
  8
0
100
AcDbLine
 10
135.0
 20
66.0
 30
0.0
 11
138.2879999999999
 21
66.0
 31
0.0
  0
LINE
  5
3D5
330
1E
100
AcDbEntity
  8
0
100
AcDbLine
 10
135.0
 20
55.0
 30
0.0
 11
136.803
 21
55.0
 31
0.0
  0
LINE
  5
3D6
330
1E
100
AcDbEntity
  8
0
100
AcDbLine
 10
125.455
 20
59.5
 30
0.0
 11
128.1059999999999
 21
55.0
 31
0.0
  0
LINE
  5
3D7
330
1E
100
AcDbEntity
  8
0
100
AcDbLine
 10
125.455
 20
52.0
 30
0.0
 11
128.1059999999999
 21
55.0
 31
0.0
  0
LINE
  5
3D8
330
1E
100
AcDbEntity
  8
0
100
AcDbLine
 10
123.333
 20
48.0
 30
0.0
 11
125.455
 21
52.0
 31
0.0
  0
LINE
  5
3D9
330
1E
100
AcDbEntity
  8
0
100
AcDbLine
 10
131.0999999999999
 20
31.0
 30
0.0
 11
135.0
 21
31.0
 31
0.0
  0
LINE
  5
3DA
330
1E
100
AcDbEntity
  8
0
100
AcDbLine
 10
135.0
 20
31.0
 30
0.0
 11
138.9
 21
31.0
 31
0.0
  0
LINE
  5
3DB
330
1E
100
AcDbEntity
  8
0
100
AcDbLine
 10
135.0
 20
27.5
 30
0.0
 11
151.4
 21
27.5
 31
0.0
  0
LINE
  5
3DC
330
1E
100
AcDbEntity
  8
0
100
AcDbLine
 10
135.0
 20
3.00000000000002
 30
0.0
 11
152.5999999999999
 21
3.00000000000002
 31
0.0
  0
LINE
  5
3DD
330
1E
100
AcDbEntity
  8
0
100
AcDbLine
 10
135.0
 20
2.500000000000019
 30
0.0
 11
150.9
 21
2.500000000000019
 31
0.0
  0
LINE
  5
3DE
330
1E
100
AcDbEntity
  8
0
100
AcDbLine
 10
135.0
 20
2.500000000000019
 30
0.0
 11
152.3
 21
2.500000000000019
 31
0.0
  0
LINE
  5
46E
330
1E
100
AcDbEntity
  8
0
100
AcDbLine
 10
162.712
 20
1.000000000000019
 30
0.0
 11
163.0
 21
1.000000000000019
 31
0.0
  0
LINE
  5
471
330
1E
100
AcDbEntity
  8
0
100
AcDbLine
 10
163.0
 20
1.000000000000019
 30
0.0
 11
163.456
 21
1.000000000000019
 31
0.0
  0
LINE
  5
47B
330
1E
100
AcDbEntity
  8
0
100
AcDbLine
 10
165.023
 20
1.000000000000019
 30
0.0
 11
165.622
 21
1.000000000000019
 31
0.0
  0
LINE
  5
481
330
1E
100
AcDbEntity
  8
0
100
AcDbLine
 10
165.622
 20
1.000000000000019
 30
0.0
 11
165.73
 21
1.000000000000019
 31
0.0
  0
LINE
  5
487
330
1E
100
AcDbEntity
  8
0
100
AcDbLine
 10
163.456
 20
1.000000000000019
 30
0.0
 11
163.7979999999999
 21
1.000000000000019
 31
0.0
  0
LINE
  5
48A
330
1E
100
AcDbEntity
  8
0
100
AcDbLine
 10
155.4999999999999
 20
1.000000000000019
 30
0.0
 11
155.956
 21
1.000000000000019
 31
0.0
  0
LINE
  5
48B
330
1E
100
AcDbEntity
  8
0
100
AcDbLine
 10
155.956
 20
1.000000000000019
 30
0.0
 11
156.151
 21
1.000000000000019
 31
0.0
  0
LINE
  5
494
330
1E
100
AcDbEntity
  8
0
100
AcDbLine
 10
150.7959999999999
 20
1.000000000000019
 30
0.0
 11
150.9
 21
1.000000000000019
 31
0.0
  0
LINE
  5
497
330
1E
100
AcDbEntity
  8
0
100
AcDbLine
 10
160.387
 20
1.000000000000019
 30
0.0
 11
161.141
 21
1.000000000000019
 31
0.0
  0
LINE
  5
49C
330
1E
100
AcDbEntity
  8
0
100
AcDbLine
 10
162.171
 20
1.000000000000019
 30
0.0
 11
162.7019999999999
 21
1.000000000000019
 31
0.0
  0
LINE
  5
49D
330
1E
100
AcDbEntity
  8
0
100
AcDbLine
 10
162.171
 20
1.000000000000019
 30
0.0
 11
162.712
 21
1.000000000000019
 31
0.0
  0
LINE
  5
49F
330
1E
100
AcDbEntity
  8
0
100
AcDbLine
 10
162.244
 20
1.000000000000019
 30
0.0
 11
162.7019999999999
 21
1.000000000000019
 31
0.0
  0
LINE
  5
4A2
330
1E
100
AcDbEntity
  8
0
100
AcDbLine
 10
157.607
 20
1.000000000000019
 30
0.0
 11
159.0
 21
1.000000000000019
 31
0.0
  0
LINE
  5
4A3
330
1E
100
AcDbEntity
  8
0
100
AcDbLine
 10
164.5049999999999
 20
1.000000000000019
 30
0.0
 11
165.023
 21
1.000000000000019
 31
0.0
  0
LINE
  5
4A4
330
1E
100
AcDbEntity
  8
0
100
AcDbLine
 10
165.73
 20
1.000000000000019
 30
0.0
 11
166.5
 21
1.000000000000019
 31
0.0
  0
LINE
  5
4A6
330
1E
100
AcDbEntity
  8
0
100
AcDbLine
 10
151.002
 20
1.000000000000019
 30
0.0
 11
154.0439999999999
 21
1.000000000000019
 31
0.0
  0
LINE
  5
530
330
1E
100
AcDbEntity
  8
0
100
AcDbLine
 10
192.244
 20
1.000000000000019
 30
0.0
 11
193.0
 21
1.000000000000019
 31
0.0
  0
LINE
  5
532
330
1E
100
AcDbEntity
  8
0
100
AcDbLine
 10
193.0
 20
1.000000000000019
 30
0.0
 11
193.4559999999999
 21
1.000000000000019
 31
0.0
  0
LINE
  5
534
330
1E
100
AcDbEntity
  8
0
100
AcDbLine
 10
195.083
 20
1.000000000000019
 30
0.0
 11
195.6999999999999
 21
1.000000000000019
 31
0.0
  0
LINE
  5
536
330
1E
100
AcDbEntity
  8
0
100
AcDbLine
 10
194.895
 20
1.000000000000019
 30
0.0
 11
195.083
 21
1.000000000000019
 31
0.0
  0
LINE
  5
53E
330
1E
100
AcDbEntity
  8
0
100
AcDbLine
 10
189.3
 20
1.000000000000019
 30
0.0
 11
189.5529999999999
 21
1.000000000000019
 31
0.0
  0
LINE
  5
540
330
1E
100
AcDbEntity
  8
0
100
AcDbLine
 10
189.5529999999999
 20
1.000000000000019
 30
0.0
 11
189.9259999999999
 21
1.000000000000019
 31
0.0
  0
LINE
  5
542
330
1E
100
AcDbEntity
  8
0
100
AcDbLine
 10
189.9259999999999
 20
1.000000000000019
 30
0.0
 11
190.664
 21
1.000000000000019
 31
0.0
  0
LINE
  5
544
330
1E
100
AcDbEntity
  8
0
100
AcDbLine
 10
187.3529999999999
 20
1.000000000000019
 30
0.0
 11
187.7259999999999
 21
1.000000000000019
 31
0.0
  0
LINE
  5
545
330
1E
100
AcDbEntity
  8
0
100
AcDbLine
 10
187.7259999999999
 20
1.000000000000019
 30
0.0
 11
187.867
 21
1.000000000000019
 31
0.0
  0
LINE
  5
548
330
1E
100
AcDbEntity
  8
0
100
AcDbLine
 10
187.867
 20
1.000000000000019
 30
0.0
 11
188.6209999999999
 21
1.000000000000019
 31
0.0
  0
LINE
  5
54B
330
1E
100
AcDbEntity
  8
0
100
AcDbLine
 10
190.664
 20
1.000000000000019
 30
0.0
 11
191.328
 21
1.000000000000019
 31
0.0
  0
LINE
  5
54E
330
1E
100
AcDbEntity
  8
0
100
AcDbLine
 10
184.744
 20
1.000000000000019
 30
0.0
 11
185.5
 21
1.000000000000019
 31
0.0
  0
LINE
  5
550
330
1E
100
AcDbEntity
  8
0
100
AcDbLine
 10
185.5
 20
1.000000000000019
 30
0.0
 11
185.9559999999999
 21
1.000000000000019
 31
0.0
  0
LINE
  5
551
330
1E
100
AcDbEntity
  8
0
100
AcDbLine
 10
185.9559999999999
 20
1.000000000000019
 30
0.0
 11
186.6159999999999
 21
1.000000000000019
 31
0.0
  0
LINE
  5
553
330
1E
100
AcDbEntity
  8
0
100
AcDbLine
 10
189.092
 20
1.000000000000019
 30
0.0
 11
189.7409999999999
 21
1.000000000000019
 31
0.0
  0
LINE
  5
556
330
1E
100
AcDbEntity
  8
0
100
AcDbLine
 10
191.544
 20
1.000000000000019
 30
0.0
 11
191.634
 21
1.000000000000019
 31
0.0
  0
LINE
  5
559
330
1E
100
AcDbEntity
  8
0
100
AcDbLine
 10
182.1309999999999
 20
1.000000000000019
 30
0.0
 11
182.888
 21
1.000000000000019
 31
0.0
  0
LINE
  5
55B
330
1E
100
AcDbEntity
  8
0
100
AcDbLine
 10
182.888
 20
1.000000000000019
 30
0.0
 11
183.497
 21
1.000000000000019
 31
0.0
  0
LINE
  5
55D
330
1E
100
AcDbEntity
  8
0
100
AcDbLine
 10
183.497
 20
1.000000000000019
 30
0.0
 11
183.5879999999999
 21
1.000000000000019
 31
0.0
  0
LINE
  5
562
330
1E
100
AcDbEntity
  8
0
100
AcDbLine
 10
181.675
 20
1.000000000000019
 30
0.0
 11
182.1309999999999
 21
1.000000000000019
 31
0.0
  0
LINE
  5
563
330
1E
100
AcDbEntity
  8
0
100
AcDbLine
 10
181.765
 20
1.000000000000019
 30
0.0
 11
182.888
 21
1.000000000000019
 31
0.0
  0
LINE
  5
564
330
1E
100
AcDbEntity
  8
0
100
AcDbLine
 10
181.765
 20
1.000000000000019
 30
0.0
 11
182.1309999999999
 21
1.000000000000019
 31
0.0
  0
LINE
  5
565
330
1E
100
AcDbEntity
  8
0
100
AcDbLine
 10
183.5879999999999
 20
1.000000000000019
 30
0.0
 11
184.044
 21
1.000000000000019
 31
0.0
  0
LINE
  5
567
330
1E
100
AcDbEntity
  8
0
100
AcDbLine
 10
184.134
 20
1.000000000000019
 30
0.0
 11
185.2559999999999
 21
1.000000000000019
 31
0.0
  0
LINE
  5
569
330
1E
100
AcDbEntity
  8
0
100
AcDbLine
 10
186.6159999999999
 20
1.000000000000019
 30
0.0
 11
187.269
 21
1.000000000000019
 31
0.0
  0
LINE
  5
56B
330
1E
100
AcDbEntity
  8
0
100
AcDbLine
 10
186.6159999999999
 20
1.000000000000019
 30
0.0
 11
187.3529999999999
 21
1.000000000000019
 31
0.0
  0
LINE
  5
56C
330
1E
100
AcDbEntity
  8
0
100
AcDbLine
 10
191.634
 20
1.000000000000019
 30
0.0
 11
192.0
 21
1.000000000000019
 31
0.0
  0
LINE
  5
56E
330
1E
100
AcDbEntity
  8
0
100
AcDbLine
 10
191.634
 20
1.000000000000019
 30
0.0
 11
192.244
 21
1.000000000000019
 31
0.0
  0
LINE
  5
56F
330
1E
100
AcDbEntity
  8
0
100
AcDbLine
 10
193.4559999999999
 20
1.000000000000019
 30
0.0
 11
194.895
 21
1.000000000000019
 31
0.0
  0
LINE
  5
649
330
1E
100
AcDbEntity
  8
0
100
AcDbLine
 10
240.3319999999999
 20
1.000000000000019
 30
0.0
 11
240.7
 21
1.000000000000019
 31
0.0
  0
LINE
  5
653
330
1E
100
AcDbEntity
  8
0
100
AcDbLine
 10
245.1159999999999
 20
1.000000000000019
 30
0.0
 11
245.224
 21
1.000000000000019
 31
0.0
  0
LINE
  5
654
330
1E
100
AcDbEntity
  8
0
100
AcDbLine
 10
247.047
 20
1.000000000000019
 30
0.0
 11
247.5
 21
1.000000000000019
 31
0.0
  0
LINE
  5
655
330
1E
100
AcDbEntity
  8
0
100
AcDbLine
 10
242.1699999999999
 20
1.000000000000019
 30
0.0
 11
245.1159999999999
 21
1.000000000000019
 31
0.0
  0
LINE
  5
657
330
1E
100
AcDbEntity
  8
0
100
AcDbLine
 10
225.627
 20
1.000000000000019
 30
0.0
 11
226.365
 21
1.000000000000019
 31
0.0
  0
LINE
  5
65B
330
1E
100
AcDbEntity
  8
0
100
AcDbLine
 10
225.442
 20
1.000000000000019
 30
0.0
 11
225.627
 21
1.000000000000019
 31
0.0
  0
LINE
  5
65E
330
1E
100
AcDbEntity
  8
0
100
AcDbLine
 10
225.254
 20
1.000000000000019
 30
0.0
 11
225.627
 21
1.000000000000019
 31
0.0
  0
LINE
  5
663
330
1E
100
AcDbEntity
  8
0
100
AcDbLine
 10
220.264
 20
1.000000000000019
 30
0.0
 11
220.6459999999999
 21
1.000000000000019
 31
0.0
  0
LINE
  5
664
330
1E
100
AcDbEntity
  8
0
100
AcDbLine
 10
222.559
 20
1.000000000000019
 30
0.0
 11
225.254
 21
1.000000000000019
 31
0.0
  0
LINE
  5
666
330
1E
100
AcDbEntity
  8
0
100
AcDbLine
 10
230.735
 20
1.000000000000019
 30
0.0
 11
231.334
 21
1.000000000000019
 31
0.0
  0
LINE
  5
668
330
1E
100
AcDbEntity
  8
0
100
AcDbLine
 10
231.334
 20
1.000000000000019
 30
0.0
 11
231.5999999999999
 21
1.000000000000019
 31
0.0
  0
LINE
  5
66A
330
1E
100
AcDbEntity
  8
0
100
AcDbLine
 10
230.627
 20
1.000000000000019
 30
0.0
 11
230.735
 21
1.000000000000019
 31
0.0
  0
LINE
  5
66B
330
1E
100
AcDbEntity
  8
0
100
AcDbLine
 10
228.312
 20
1.000000000000019
 30
0.0
 11
230.627
 21
1.000000000000019
 31
0.0
  0
LINE
  5
67E
330
1E
100
AcDbEntity
  8
0
100
AcDbLine
 10
215.61
 20
1.000000000000019
 30
0.0
 11
216.317
 21
1.000000000000019
 31
0.0
  0
LINE
  5
680
330
1E
100
AcDbEntity
  8
0
100
AcDbLine
 10
217.307
 20
1.000000000000019
 30
0.0
 11
218.2809999999999
 21
1.000000000000019
 31
0.0
  0
LINE
  5
682
330
1E
100
AcDbEntity
  8
0
100
AcDbLine
 10
221.0999999999999
 20
1.000000000000019
 30
0.0
 11
231.5999999999999
 21
1.000000000000019
 31
0.0
  0
LINE
  5
684
330
1E
100
AcDbEntity
  8
0
100
AcDbLine
 10
235.4589999999999
 20
1.000000000000019
 30
0.0
 11
235.549
 21
1.000000000000019
 31
0.0
  0
LINE
  5
685
330
1E
100
AcDbEntity
  8
0
100
AcDbLine
 10
235.549
 20
1.000000000000019
 30
0.0
 11
235.6999999999999
 21
1.000000000000019
 31
0.0
  0
LINE
  5
688
330
1E
100
AcDbEntity
  8
0
100
AcDbLine
 10
235.6999999999999
 20
1.000000000000019
 30
0.0
 11
236.0
 21
1.000000000000019
 31
0.0
  0
LINE
  5
68B
330
1E
100
AcDbEntity
  8
0
100
AcDbLine
 10
233.637
 20
1.000000000000019
 30
0.0
 11
234.0929999999999
 21
1.000000000000019
 31
0.0
  0
LINE
  5
68E
330
1E
100
AcDbEntity
  8
0
100
AcDbLine
 10
234.849
 20
1.000000000000019
 30
0.0
 11
235.4589999999999
 21
1.000000000000019
 31
0.0
  0
LINE
  5
68F
330
1E
100
AcDbEntity
  8
0
100
AcDbLine
 10
235.0929999999999
 20
1.000000000000019
 30
0.0
 11
235.549
 21
1.000000000000019
 31
0.0
  0
LINE
  5
691
330
1E
100
AcDbEntity
  8
0
100
AcDbLine
 10
233.359
 20
1.000000000000019
 30
0.0
 11
233.637
 21
1.000000000000019
 31
0.0
  0
LINE
  5
692
330
1E
100
AcDbEntity
  8
0
100
AcDbLine
 10
235.136
 20
1.000000000000019
 30
0.0
 11
235.4589999999999
 21
1.000000000000019
 31
0.0
  0
LINE
  5
694
330
1E
100
AcDbEntity
  8
0
100
AcDbLine
 10
233.1529999999999
 20
1.000000000000019
 30
0.0
 11
233.359
 21
1.000000000000019
 31
0.0
  0
LINE
  5
695
330
1E
100
AcDbEntity
  8
0
100
AcDbLine
 10
232.559
 20
1.000000000000019
 30
0.0
 11
233.1529999999999
 21
1.000000000000019
 31
0.0
  0
LINE
  5
697
330
1E
100
AcDbEntity
  8
0
100
AcDbLine
 10
236.0
 20
1.000000000000019
 30
0.0
 11
240.322
 21
1.000000000000019
 31
0.0
  0
LINE
  5
699
330
1E
100
AcDbEntity
  8
0
100
AcDbLine
 10
231.5999999999999
 20
1.000000000000019
 30
0.0
 11
240.7
 21
1.000000000000019
 31
0.0
  0
LINE
  5
69A
330
1E
100
AcDbEntity
  8
0
100
AcDbLine
 10
240.7
 20
1.000000000000019
 30
0.0
 11
247.5
 21
1.000000000000019
 31
0.0
  0
LINE
  5
69E
330
1E
100
AcDbEntity
  8
0
100
AcDbLine
 10
249.619
 20
1.000000000000019
 30
0.0
 11
250.008
 21
1.000000000000019
 31
0.0
  0
LINE
  5
6A3
330
1E
100
AcDbEntity
  8
0
100
AcDbLine
 10
247.5
 20
1.000000000000019
 30
0.0
 11
252.5999999999999
 21
1.000000000000019
 31
0.0
  0
LINE
  5
6A4
330
1E
100
AcDbEntity
  8
0
100
AcDbLine
 10
252.5999999999999
 20
1.000000000000019
 30
0.0
 11
255.8
 21
1.000000000000019
 31
0.0
  0
LINE
  5
6A5
330
1E
100
AcDbEntity
  8
0
100
AcDbLine
 10
257.0
 20
1.000000000000019
 30
0.0
 11
257.0
 21
2.500000000000019
 31
0.0
  0
LINE
  5
6A6
330
1E
100
AcDbEntity
  8
0
100
AcDbLine
 10
255.8
 20
1.000000000000019
 30
0.0
 11
257.0
 21
1.000000000000019
 31
0.0
  0
LINE
  5
6A8
330
1E
100
AcDbEntity
  8
0
100
AcDbLine
 10
199.289
 20
1.000000000000019
 30
0.0
 11
200.05
 21
1.000000000000019
 31
0.0
  0
LINE
  5
6AF
330
1E
100
AcDbEntity
  8
0
100
AcDbLine
 10
196.485
 20
1.000000000000019
 30
0.0
 11
196.858
 21
1.000000000000019
 31
0.0
  0
LINE
  5
6B2
330
1E
100
AcDbEntity
  8
0
100
AcDbLine
 10
201.826
 20
1.000000000000019
 30
0.0
 11
202.564
 21
1.000000000000019
 31
0.0
  0
LINE
  5
6B5
330
1E
100
AcDbEntity
  8
0
100
AcDbLine
 10
206.4179999999999
 20
1.000000000000019
 30
0.0
 11
206.7009999999999
 21
1.000000000000019
 31
0.0
  0
LINE
  5
6B7
330
1E
100
AcDbEntity
  8
0
100
AcDbLine
 10
204.0259999999999
 20
1.000000000000019
 30
0.0
 11
204.214
 21
1.000000000000019
 31
0.0
  0
LINE
  5
6B9
330
1E
100
AcDbEntity
  8
0
100
AcDbLine
 10
204.214
 20
1.000000000000019
 30
0.0
 11
204.8779999999999
 21
1.000000000000019
 31
0.0
  0
LINE
  5
6BC
330
1E
100
AcDbEntity
  8
0
100
AcDbLine
 10
205.989
 20
1.000000000000019
 30
0.0
 11
206.4179999999999
 21
1.000000000000019
 31
0.0
  0
LINE
  5
6C2
330
1E
100
AcDbEntity
  8
0
100
AcDbLine
 10
201.454
 20
1.000000000000019
 30
0.0
 11
201.826
 21
1.000000000000019
 31
0.0
  0
LINE
  5
6C3
330
1E
100
AcDbEntity
  8
0
100
AcDbLine
 10
209.2
 20
1.000000000000019
 30
0.0
 11
221.0999999999999
 21
1.000000000000019
 31
0.0
  0
LINE
  5
6C4
330
1E
100
AcDbEntity
  8
0
100
AcDbLine
 10
209.2
 20
1.000000000000019
 30
0.0
 11
212.6059999999999
 21
1.000000000000019
 31
0.0
  0
LINE
  5
6C5
330
1E
100
AcDbEntity
  8
0
100
AcDbLine
 10
195.6999999999999
 20
1.000000000000019
 30
0.0
 11
209.2
 21
1.000000000000019
 31
0.0
  0
LINE
  5
6C7
330
1E
100
AcDbEntity
  8
0
100
AcDbLine
 10
167.9109999999999
 20
1.000000000000019
 30
0.0
 11
168.4429999999999
 21
1.000000000000019
 31
0.0
  0
LINE
  5
6CA
330
1E
100
AcDbEntity
  8
0
100
AcDbLine
 10
167.149
 20
1.000000000000019
 30
0.0
 11
167.907
 21
1.000000000000019
 31
0.0
  0
LINE
  5
6CC
330
1E
100
AcDbEntity
  8
0
100
AcDbLine
 10
167.149
 20
1.000000000000019
 30
0.0
 11
167.9109999999999
 21
1.000000000000019
 31
0.0
  0
LINE
  5
6CE
330
1E
100
AcDbEntity
  8
0
100
AcDbLine
 10
178.085
 20
1.000000000000019
 30
0.0
 11
178.6299999999999
 21
1.000000000000019
 31
0.0
  0
LINE
  5
6D0
330
1E
100
AcDbEntity
  8
0
100
AcDbLine
 10
178.6299999999999
 20
1.000000000000019
 30
0.0
 11
179.3909999999999
 21
1.000000000000019
 31
0.0
  0
LINE
  5
6D2
330
1E
100
AcDbEntity
  8
0
100
AcDbLine
 10
177.484
 20
1.000000000000019
 30
0.0
 11
178.085
 21
1.000000000000019
 31
0.0
  0
LINE
  5
6D4
330
1E
100
AcDbEntity
  8
0
100
AcDbLine
 10
169.897
 20
1.000000000000019
 30
0.0
 11
170.507
 21
1.000000000000019
 31
0.0
  0
LINE
  5
6D5
330
1E
100
AcDbEntity
  8
0
100
AcDbLine
 10
170.507
 20
1.000000000000019
 30
0.0
 11
170.597
 21
1.000000000000019
 31
0.0
  0
LINE
  5
6D8
330
1E
100
AcDbEntity
  8
0
100
AcDbLine
 10
172.8899999999999
 20
1.000000000000019
 30
0.0
 11
173.6509999999999
 21
1.000000000000019
 31
0.0
  0
LINE
  5
6DB
330
1E
100
AcDbEntity
  8
0
100
AcDbLine
 10
173.6509999999999
 20
1.000000000000019
 30
0.0
 11
174.183
 21
1.000000000000019
 31
0.0
  0
LINE
  5
6DE
330
1E
100
AcDbEntity
  8
0
100
AcDbLine
 10
172.344
 20
1.000000000000019
 30
0.0
 11
172.8899999999999
 21
1.000000000000019
 31
0.0
  0
LINE
  5
6E1
330
1E
100
AcDbEntity
  8
0
100
AcDbLine
 10
168.6849999999999
 20
1.000000000000019
 30
0.0
 11
169.1409999999999
 21
1.000000000000019
 31
0.0
  0
LINE
  5
6E2
330
1E
100
AcDbEntity
  8
0
100
AcDbLine
 10
169.3849999999999
 20
1.000000000000019
 30
0.0
 11
170.1409999999999
 21
1.000000000000019
 31
0.0
  0
LINE
  5
6E3
330
1E
100
AcDbEntity
  8
0
100
AcDbLine
 10
170.597
 20
1.000000000000019
 30
0.0
 11
172.886
 21
1.000000000000019
 31
0.0
  0
LINE
  5
6E7
330
1E
100
AcDbEntity
  8
0
100
AcDbLine
 10
175.0
 20
1.000000000000019
 30
0.0
 11
175.6999999999999
 21
1.000000000000019
 31
0.0
  0
LINE
  5
6E9
330
1E
100
AcDbEntity
  8
0
100
AcDbLine
 10
175.6999999999999
 20
1.000000000000019
 30
0.0
 11
176.0
 21
1.000000000000019
 31
0.0
  0
LINE
  5
6EB
330
1E
100
AcDbEntity
  8
0
100
AcDbLine
 10
176.82
 20
1.000000000000019
 30
0.0
 11
177.484
 21
1.000000000000019
 31
0.0
  0
LINE
  5
6ED
330
1E
100
AcDbEntity
  8
0
100
AcDbLine
 10
176.0
 20
1.000000000000019
 30
0.0
 11
176.632
 21
1.000000000000019
 31
0.0
  0
LINE
  5
6EF
330
1E
100
AcDbEntity
  8
0
100
AcDbLine
 10
177.0049999999999
 20
1.000000000000019
 30
0.0
 11
177.484
 21
1.000000000000019
 31
0.0
  0
LINE
  5
6F0
330
1E
100
AcDbEntity
  8
0
100
AcDbLine
 10
177.0049999999999
 20
1.000000000000019
 30
0.0
 11
177.484
 21
1.000000000000019
 31
0.0
  0
LINE
  5
6F1
330
1E
100
AcDbEntity
  8
0
100
AcDbLine
 10
174.5979999999999
 20
1.000000000000019
 30
0.0
 11
175.0
 21
1.000000000000019
 31
0.0
  0
LINE
  5
6F3
330
1E
100
AcDbEntity
  8
0
100
AcDbLine
 10
179.3909999999999
 20
1.000000000000019
 30
0.0
 11
181.6
 21
1.000000000000019
 31
0.0
  0
LINE
  5
6F5
330
1E
100
AcDbEntity
  8
0
100
AcDbLine
 10
168.452
 20
1.000000000000019
 30
0.0
 11
168.6849999999999
 21
1.000000000000019
 31
0.0
  0
LINE
  5
6F7
330
1E
100
AcDbEntity
  8
0
100
AcDbLine
 10
181.6
 20
1.000000000000019
 30
0.0
 11
195.6999999999999
 21
1.000000000000019
 31
0.0
  0
LINE
  5
6F8
330
1E
100
AcDbEntity
  8
0
100
AcDbLine
 10
181.6
 20
1.000000000000019
 30
0.0
 11
181.675
 21
1.000000000000019
 31
0.0
  0
LINE
  5
6F9
330
1E
100
AcDbEntity
  8
0
100
AcDbLine
 10
166.5
 20
1.000000000000019
 30
0.0
 11
181.6
 21
1.000000000000019
 31
0.0
  0
LINE
  5
6FA
330
1E
100
AcDbEntity
  8
0
100
AcDbLine
 10
166.5
 20
1.000000000000019
 30
0.0
 11
166.604
 21
1.000000000000019
 31
0.0
  0
LINE
  5
6FC
330
1E
100
AcDbEntity
  8
0
100
AcDbLine
 10
138.9089999999999
 20
1.000000000000019
 30
0.0
 11
139.115
 21
1.000000000000019
 31
0.0
  0
LINE
  5
6FE
330
1E
100
AcDbEntity
  8
0
100
AcDbLine
 10
143.5339999999999
 20
1.000000000000019
 30
0.0
 11
144.2669999999999
 21
1.000000000000019
 31
0.0
  0
LINE
  5
700
330
1E
100
AcDbEntity
  8
0
100
AcDbLine
 10
143.145
 20
1.000000000000019
 30
0.0
 11
143.5339999999999
 21
1.000000000000019
 31
0.0
  0
LINE
  5
706
330
1E
100
AcDbEntity
  8
0
100
AcDbLine
 10
148.1829999999999
 20
1.000000000000019
 30
0.0
 11
148.838
 21
1.000000000000019
 31
0.0
  0
LINE
  5
708
330
1E
100
AcDbEntity
  8
0
100
AcDbLine
 10
147.9219999999999
 20
1.000000000000019
 30
0.0
 11
148.1829999999999
 21
1.000000000000019
 31
0.0
  0
LINE
  5
70A
330
1E
100
AcDbEntity
  8
0
100
AcDbLine
 10
147.4499999999999
 20
1.000000000000019
 30
0.0
 11
148.1829999999999
 21
1.000000000000019
 31
0.0
  0
LINE
  5
711
330
1E
100
AcDbEntity
  8
0
100
AcDbLine
 10
142.896
 20
1.000000000000019
 30
0.0
 11
143.145
 21
1.000000000000019
 31
0.0
  0
LINE
  5
713
330
1E
100
AcDbEntity
  8
0
100
AcDbLine
 10
142.6529999999999
 20
1.000000000000019
 30
0.0
 11
143.145
 21
1.000000000000019
 31
0.0
  0
LINE
  5
717
330
1E
100
AcDbEntity
  8
0
100
AcDbLine
 10
139.115
 20
1.000000000000019
 30
0.0
 11
139.3399999999999
 21
1.000000000000019
 31
0.0
  0
LINE
  5
71C
330
1E
100
AcDbEntity
  8
0
100
AcDbLine
 10
138.2539999999999
 20
1.000000000000019
 30
0.0
 11
138.9089999999999
 21
1.000000000000019
 31
0.0
  0
LINE
  5
71E
330
1E
100
AcDbEntity
  8
0
100
AcDbLine
 10
136.28
 20
1.000000000000019
 30
0.0
 11
137.132
 21
1.000000000000019
 31
0.0
  0
LINE
  5
71F
330
1E
100
AcDbEntity
  8
0
100
AcDbLine
 10
140.11
 20
1.000000000000019
 30
0.0
 11
142.196
 21
1.000000000000019
 31
0.0
  0
LINE
  5
721
330
1E
100
AcDbEntity
  8
0
100
AcDbLine
 10
135.6999999999999
 20
1.000000000000019
 30
0.0
 11
136.28
 21
1.000000000000019
 31
0.0
  0
LINE
  5
723
330
1E
100
AcDbEntity
  8
0
100
AcDbLine
 10
149.9
 20
31.0
 30
0.0
 11
153.2
 21
31.0
 31
0.0
  0
LINE
  5
724
330
1E
100
AcDbEntity
  8
0
100
AcDbLine
 10
146.5
 20
31.0
 30
0.0
 11
149.9
 21
31.0
 31
0.0
  0
LINE
  5
725
330
1E
100
AcDbEntity
  8
0
100
AcDbLine
 10
142.6999999999999
 20
31.0
 30
0.0
 11
146.5
 21
31.0
 31
0.0
  0
LINE
  5
726
330
1E
100
AcDbEntity
  8
0
100
AcDbLine
 10
139.3479999999999
 20
44.0
 30
0.0
 11
143.485
 21
44.0
 31
0.0
  0
LINE
  5
727
330
1E
100
AcDbEntity
  8
0
100
AcDbLine
 10
143.485
 20
44.0
 30
0.0
 11
146.985
 21
44.0
 31
0.0
  0
LINE
  5
728
330
1E
100
AcDbEntity
  8
0
100
AcDbLine
 10
143.697
 20
43.5
 30
0.0
 11
147.4089999999999
 21
43.5
 31
0.0
  0
LINE
  5
729
330
1E
100
AcDbEntity
  8
0
100
AcDbLine
 10
139.454
 20
43.5
 30
0.0
 11
143.697
 21
43.5
 31
0.0
  0
LINE
  5
72A
330
1E
100
AcDbEntity
  8
0
100
AcDbLine
 10
139.8789999999999
 20
55.0
 30
0.0
 11
140.9389999999999
 21
55.0
 31
0.0
  0
LINE
  5
72B
330
1E
100
AcDbEntity
  8
0
100
AcDbLine
 10
140.9389999999999
 20
55.0
 30
0.0
 11
141.682
 21
55.0
 31
0.0
  0
LINE
  5
72C
330
1E
100
AcDbEntity
  8
0
100
AcDbLine
 10
141.682
 20
55.0
 30
0.0
 11
141.894
 21
55.0
 31
0.0
  0
LINE
  5
72D
330
1E
100
AcDbEntity
  8
0
100
AcDbLine
 10
138.394
 20
55.0
 30
0.0
 11
139.8789999999999
 21
55.0
 31
0.0
  0
LINE
  5
72E
330
1E
100
AcDbEntity
  8
0
100
AcDbLine
 10
141.364
 20
66.0
 30
0.0
 11
144.0149999999999
 21
66.0
 31
0.0
  0
LINE
  5
72F
330
1E
100
AcDbEntity
  8
0
100
AcDbLine
 10
138.2879999999999
 20
66.0
 30
0.0
 11
141.364
 21
66.0
 31
0.0
  0
LINE
  5
730
330
1E
100
AcDbEntity
  8
0
100
AcDbLine
 10
141.364
 20
76.0
 30
0.0
 11
144.0149999999999
 21
76.0
 31
0.0
  0
LINE
  5
731
330
1E
100
AcDbEntity
  8
0
100
AcDbLine
 10
138.2879999999999
 20
76.0
 30
0.0
 11
141.364
 21
76.0
 31
0.0
  0
LINE
  5
732
330
1E
100
AcDbEntity
  8
0
100
AcDbLine
 10
140.833
 20
66.0
 30
0.0
 11
143.273
 21
66.0
 31
0.0
  0
LINE
  5
733
330
1E
100
AcDbEntity
  8
0
100
AcDbLine
 10
137.9699999999999
 20
66.0
 30
0.0
 11
140.833
 21
66.0
 31
0.0
  0
LINE
  5
734
330
1E
100
AcDbEntity
  8
0
100
AcDbLine
 10
136.803
 20
55.0
 30
0.0
 11
138.394
 21
55.0
 31
0.0
  0
LINE
  5
735
330
1E
100
AcDbEntity
  8
0
100
AcDbLine
 10
144.0149999999999
 20
66.0
 30
0.0
 11
146.0299999999999
 21
66.0
 31
0.0
  0
LINE
  5
736
330
1E
100
AcDbEntity
  8
0
100
AcDbLine
 10
143.273
 20
66.0
 30
0.0
 11
145.076
 21
66.0
 31
0.0
  0
LINE
  5
737
330
1E
100
AcDbEntity
  8
0
100
AcDbLine
 10
146.0299999999999
 20
66.0
 30
0.0
 11
147.303
 21
66.0
 31
0.0
  0
LINE
  5
738
330
1E
100
AcDbEntity
  8
0
100
AcDbLine
 10
145.076
 20
66.0
 30
0.0
 11
146.242
 21
66.0
 31
0.0
  0
LINE
  5
739
330
1E
100
AcDbEntity
  8
0
100
AcDbLine
 10
144.0149999999999
 20
76.0
 30
0.0
 11
146.0299999999999
 21
76.0
 31
0.0
  0
LINE
  5
73A
330
1E
100
AcDbEntity
  8
0
100
AcDbLine
 10
146.0299999999999
 20
76.0
 30
0.0
 11
147.303
 21
76.0
 31
0.0
  0
LINE
  5
73B
330
1E
100
AcDbEntity
  8
0
100
AcDbLine
 10
146.242
 20
66.0
 30
0.0
 11
146.667
 21
66.0
 31
0.0
  0
LINE
  5
73C
330
1E
100
AcDbEntity
  8
0
100
AcDbLine
 10
146.667
 20
66.0
 30
0.0
 11
147.303
 21
66.0
 31
0.0
  0
LINE
  5
73D
330
1E
100
AcDbEntity
  8
0
100
AcDbLine
 10
144.5459999999999
 20
59.5
 30
0.0
 11
146.667
 21
66.0
 31
0.0
  0
LINE
  5
73E
330
1E
100
AcDbEntity
  8
0
100
AcDbLine
 10
141.894
 20
55.0
 30
0.0
 11
144.5459999999999
 21
52.0
 31
0.0
  0
LINE
  5
73F
330
1E
100
AcDbEntity
  8
0
100
AcDbLine
 10
141.894
 20
55.0
 30
0.0
 11
144.5459999999999
 21
59.5
 31
0.0
  0
LINE
  5
740
330
1E
100
AcDbEntity
  8
0
100
AcDbLine
 10
144.5459999999999
 20
52.0
 30
0.0
 11
146.667
 21
48.0
 31
0.0
  0
LINE
  5
741
330
1E
100
AcDbEntity
  8
0
100
AcDbLine
 10
147.727
 20
66.0
 30
0.0
 11
147.727
 21
76.0
 31
0.0
  0
LINE
  5
742
330
1E
100
AcDbEntity
  8
0
100
AcDbLine
 10
146.985
 20
44.0
 30
0.0
 11
149.742
 21
44.0
 31
0.0
  0
LINE
  5
743
330
1E
100
AcDbEntity
  8
0
100
AcDbLine
 10
149.742
 20
44.0
 30
0.0
 11
151.333
 21
44.0
 31
0.0
  0
LINE
  5
744
330
1E
100
AcDbEntity
  8
0
100
AcDbLine
 10
147.4089999999999
 20
43.5
 30
0.0
 11
150.167
 21
43.5
 31
0.0
  0
LINE
  5
745
330
1E
100
AcDbEntity
  8
0
100
AcDbLine
 10
151.333
 20
44.0
 30
0.0
 11
151.97
 21
44.0
 31
0.0
  0
LINE
  5
746
330
1E
100
AcDbEntity
  8
0
100
AcDbLine
 10
150.167
 20
43.5
 30
0.0
 11
151.8639999999999
 21
43.5
 31
0.0
  0
LINE
  5
747
330
1E
100
AcDbEntity
  8
0
100
AcDbLine
 10
147.303
 20
76.0
 30
0.0
 11
147.727
 21
76.0
 31
0.0
  0
LINE
  5
748
330
1E
100
AcDbEntity
  8
0
100
AcDbLine
 10
147.727
 20
76.0
 30
0.0
 11
147.727
 21
66.0
 31
0.0
  0
LINE
  5
749
330
1E
100
AcDbEntity
  8
0
100
AcDbLine
 10
147.303
 20
66.0
 30
0.0
 11
147.727
 21
66.0
 31
0.0
  0
LINE
  5
74A
330
1E
100
AcDbEntity
  8
0
100
AcDbLine
 10
146.667
 20
48.0
 30
0.0
 11
148.2579999999999
 21
44.0
 31
0.0
  0
LINE
  5
74B
330
1E
100
AcDbEntity
  8
0
100
AcDbLine
 10
138.9
 20
31.0
 30
0.0
 11
142.6999999999999
 21
31.0
 31
0.0
  0
LINE
  5
74C
330
1E
100
AcDbEntity
  8
0
100
AcDbLine
 10
151.8639999999999
 20
43.5
 30
0.0
 11
152.5
 21
43.5
 31
0.0
  0
LINE
  5
74D
330
1E
100
AcDbEntity
  8
0
100
AcDbLine
 10
151.97
 20
44.0
 30
0.0
 11
152.5
 21
43.5
 31
0.0
  0
LINE
  5
74E
330
1E
100
AcDbEntity
  8
0
100
AcDbLine
 10
151.4
 20
27.5
 30
0.0
 11
167.5999999999999
 21
27.5
 31
0.0
  0
LINE
  5
74F
330
1E
100
AcDbEntity
  8
0
100
AcDbLine
 10
152.3
 20
2.500000000000019
 30
0.0
 11
169.3
 21
2.500000000000019
 31
0.0
  0
LINE
  5
750
330
1E
100
AcDbEntity
  8
0
100
AcDbLine
 10
228.9
 20
2.500000000000019
 30
0.0
 11
240.3
 21
2.500000000000019
 31
0.0
  0
LINE
  5
751
330
1E
100
AcDbEntity
  8
0
100
AcDbLine
 10
221.0999999999999
 20
2.500000000000019
 30
0.0
 11
231.5999999999999
 21
2.500000000000019
 31
0.0
  0
LINE
  5
752
330
1E
100
AcDbEntity
  8
0
100
AcDbLine
 10
240.3
 20
2.500000000000019
 30
0.0
 11
250.1999999999999
 21
2.500000000000019
 31
0.0
  0
LINE
  5
753
330
1E
100
AcDbEntity
  8
0
100
AcDbLine
 10
231.5999999999999
 20
2.500000000000019
 30
0.0
 11
240.3
 21
2.500000000000019
 31
0.0
  0
LINE
  5
754
330
1E
100
AcDbEntity
  8
0
100
AcDbLine
 10
250.1999999999999
 20
2.500000000000019
 30
0.0
 11
257.6
 21
2.500000000000019
 31
0.0
  0
LINE
  5
755
330
1E
100
AcDbEntity
  8
0
100
AcDbLine
 10
268.0
 20
2.500000000000019
 30
0.0
 11
269.4999999999999
 21
3.00000000000002
 31
0.0
  0
LINE
  5
756
330
1E
100
AcDbEntity
  8
0
100
AcDbLine
 10
263.2
 20
2.500000000000019
 30
0.0
 11
266.6999999999999
 21
2.500000000000019
 31
0.0
  0
LINE
  5
757
330
1E
100
AcDbEntity
  8
0
100
AcDbLine
 10
257.0
 20
2.500000000000019
 30
0.0
 11
257.0
 21
1.000000000000019
 31
0.0
  0
LINE
  5
758
330
1E
100
AcDbEntity
  8
0
100
AcDbLine
 10
257.6
 20
2.500000000000019
 30
0.0
 11
263.2
 21
2.500000000000019
 31
0.0
  0
LINE
  5
759
330
1E
100
AcDbEntity
  8
0
100
AcDbLine
 10
266.6999999999999
 20
2.500000000000019
 30
0.0
 11
268.0
 21
2.500000000000019
 31
0.0
  0
LINE
  5
75A
330
1E
100
AcDbEntity
  8
0
100
AcDbLine
 10
255.8
 20
2.500000000000019
 30
0.0
 11
257.0
 21
2.500000000000019
 31
0.0
  0
LINE
  5
75B
330
1E
100
AcDbEntity
  8
0
100
AcDbLine
 10
215.9
 20
2.500000000000019
 30
0.0
 11
228.9
 21
2.500000000000019
 31
0.0
  0
LINE
  5
75C
330
1E
100
AcDbEntity
  8
0
100
AcDbLine
 10
201.2
 20
2.500000000000019
 30
0.0
 11
215.9
 21
2.500000000000019
 31
0.0
  0
LINE
  5
75D
330
1E
100
AcDbEntity
  8
0
100
AcDbLine
 10
152.5
 20
31.0
 30
0.0
 11
152.5
 21
43.5
 31
0.0
  0
LINE
  5
75E
330
1E
100
AcDbEntity
  8
0
100
AcDbLine
 10
156.1999999999999
 20
31.0
 30
0.0
 11
158.8
 21
31.0
 31
0.0
  0
LINE
  5
75F
330
1E
100
AcDbEntity
  8
0
100
AcDbLine
 10
158.8
 20
31.0
 30
0.0
 11
161.0
 21
31.0
 31
0.0
  0
LINE
  5
760
330
1E
100
AcDbEntity
  8
0
100
AcDbLine
 10
161.0
 20
31.0
 30
0.0
 11
162.6999999999999
 21
31.0
 31
0.0
  0
LINE
  5
761
330
1E
100
AcDbEntity
  8
0
100
AcDbLine
 10
162.6999999999999
 20
31.0
 30
0.0
 11
163.9
 21
31.0
 31
0.0
  0
LINE
  5
762
330
1E
100
AcDbEntity
  8
0
100
AcDbLine
 10
163.9
 20
31.0
 30
0.0
 11
164.7
 21
31.0
 31
0.0
  0
LINE
  5
763
330
1E
100
AcDbEntity
  8
0
100
AcDbLine
 10
165.0
 20
31.0
 30
0.0
 11
199.0
 21
30.0
 31
0.0
  0
LINE
  5
764
330
1E
100
AcDbEntity
  8
0
100
AcDbLine
 10
164.7
 20
31.0
 30
0.0
 11
165.0
 21
31.0
 31
0.0
  0
LINE
  5
765
330
1E
100
AcDbEntity
  8
0
100
AcDbLine
 10
152.5
 20
43.5
 30
0.0
 11
152.5
 21
31.0
 31
0.0
  0
LINE
  5
766
330
1E
100
AcDbEntity
  8
0
100
AcDbLine
 10
153.2
 20
31.0
 30
0.0
 11
156.1999999999999
 21
31.0
 31
0.0
  0
LINE
  5
767
330
1E
100
AcDbEntity
  8
0
100
AcDbLine
 10
167.5999999999999
 20
27.5
 30
0.0
 11
183.3
 21
27.5
 31
0.0
  0
LINE
  5
768
330
1E
100
AcDbEntity
  8
0
100
AcDbLine
 10
152.5999999999999
 20
3.00000000000002
 30
0.0
 11
169.6999999999999
 21
3.00000000000002
 31
0.0
  0
LINE
  5
769
330
1E
100
AcDbEntity
  8
0
100
AcDbLine
 10
269.4999999999999
 20
3.00000000000002
 30
0.0
 11
270.0
 21
4.00000000000002
 31
0.0
  0
LINE
  5
76A
330
1E
100
AcDbEntity
  8
0
100
AcDbLine
 10
229.8999999999999
 20
3.00000000000002
 30
0.0
 11
241.5
 21
3.00000000000002
 31
0.0
  0
LINE
  5
76B
330
1E
100
AcDbEntity
  8
0
100
AcDbLine
 10
241.5
 20
3.00000000000002
 30
0.0
 11
251.5
 21
3.00000000000002
 31
0.0
  0
LINE
  5
76C
330
1E
100
AcDbEntity
  8
0
100
AcDbLine
 10
251.5
 20
3.00000000000002
 30
0.0
 11
259.0
 21
3.00000000000002
 31
0.0
  0
LINE
  5
76D
330
1E
100
AcDbEntity
  8
0
100
AcDbLine
 10
259.0
 20
3.00000000000002
 30
0.0
 11
264.6999999999999
 21
3.00000000000002
 31
0.0
  0
LINE
  5
76E
330
1E
100
AcDbEntity
  8
0
100
AcDbLine
 10
264.6999999999999
 20
3.00000000000002
 30
0.0
 11
268.1999999999999
 21
3.00000000000002
 31
0.0
  0
LINE
  5
76F
330
1E
100
AcDbEntity
  8
0
100
AcDbLine
 10
268.1999999999999
 20
3.00000000000002
 30
0.0
 11
269.4999999999999
 21
3.00000000000002
 31
0.0
  0
LINE
  5
770
330
1E
100
AcDbEntity
  8
0
100
AcDbLine
 10
216.8
 20
3.00000000000002
 30
0.0
 11
229.8999999999999
 21
3.00000000000002
 31
0.0
  0
LINE
  5
771
330
1E
100
AcDbEntity
  8
0
100
AcDbLine
 10
202.0
 20
3.00000000000002
 30
0.0
 11
216.8
 21
3.00000000000002
 31
0.0
  0
LINE
  5
772
330
1E
100
AcDbEntity
  8
0
100
AcDbLine
 10
186.4
 20
3.00000000000002
 30
0.0
 11
202.0
 21
3.00000000000002
 31
0.0
  0
LINE
  5
773
330
1E
100
AcDbEntity
  8
0
100
AcDbLine
 10
224.3
 20
27.5
 30
0.0
 11
235.1999999999999
 21
27.5
 31
0.0
  0
LINE
  5
774
330
1E
100
AcDbEntity
  8
0
100
AcDbLine
 10
235.1999999999999
 20
27.5
 30
0.0
 11
244.6
 21
27.5
 31
0.0
  0
LINE
  5
775
330
1E
100
AcDbEntity
  8
0
100
AcDbLine
 10
244.6
 20
27.5
 30
0.0
 11
251.6
 21
27.5
 31
0.0
  0
LINE
  5
776
330
1E
100
AcDbEntity
  8
0
100
AcDbLine
 10
251.6
 20
27.5
 30
0.0
 11
256.8999999999999
 21
27.5
 31
0.0
  0
LINE
  5
777
330
1E
100
AcDbEntity
  8
0
100
AcDbLine
 10
256.8999999999999
 20
27.5
 30
0.0
 11
260.1999999999999
 21
27.5
 31
0.0
  0
LINE
  5
778
330
1E
100
AcDbEntity
  8
0
100
AcDbLine
 10
260.1999999999999
 20
27.5
 30
0.0
 11
261.5
 21
27.5
 31
0.0
  0
LINE
  5
779
330
1E
100
AcDbEntity
  8
0
100
AcDbLine
 10
261.5
 20
27.5
 30
0.0
 11
262.5
 21
26.0
 31
0.0
  0
LINE
  5
77A
330
1E
100
AcDbEntity
  8
0
100
AcDbLine
 10
262.5
 20
26.0
 30
0.0
 11
263.0
 21
23.0
 31
0.0
  0
LINE
  5
77B
330
1E
100
AcDbEntity
  8
0
100
AcDbLine
 10
263.0
 20
23.0
 30
0.0
 11
263.5
 21
20.0
 31
0.0
  0
LINE
  5
77C
330
1E
100
AcDbEntity
  8
0
100
AcDbLine
 10
263.5
 20
20.0
 30
0.0
 11
265.0
 21
14.0
 31
0.0
  0
LINE
  5
77D
330
1E
100
AcDbEntity
  8
0
100
AcDbLine
 10
265.0
 20
14.0
 30
0.0
 11
267.0
 21
9.000000000000019
 31
0.0
  0
LINE
  5
77E
330
1E
100
AcDbEntity
  8
0
100
AcDbLine
 10
267.0
 20
9.000000000000019
 30
0.0
 11
268.5
 21
6.500000000000018
 31
0.0
  0
LINE
  5
77F
330
1E
100
AcDbEntity
  8
0
100
AcDbLine
 10
268.5
 20
6.500000000000018
 30
0.0
 11
269.4999999999999
 21
5.500000000000018
 31
0.0
  0
LINE
  5
780
330
1E
100
AcDbEntity
  8
0
100
AcDbLine
 10
270.0
 20
4.500000000000019
 30
0.0
 11
270.0
 21
4.00000000000002
 31
0.0
  0
LINE
  5
781
330
1E
100
AcDbEntity
  8
0
100
AcDbLine
 10
269.4999999999999
 20
5.500000000000018
 30
0.0
 11
270.0
 21
4.500000000000019
 31
0.0
  0
LINE
  5
782
330
1E
100
AcDbEntity
  8
0
100
AcDbLine
 10
270.0
 20
4.00000000000002
 30
0.0
 11
270.0
 21
4.500000000000019
 31
0.0
  0
LINE
  5
783
330
1E
100
AcDbEntity
  8
0
100
AcDbLine
 10
211.9
 20
27.5
 30
0.0
 11
224.3
 21
27.5
 31
0.0
  0
LINE
  5
784
330
1E
100
AcDbEntity
  8
0
100
AcDbLine
 10
199.0
 20
30.0
 30
0.0
 11
236.0
 21
29.0
 31
0.0
  0
LINE
  5
785
330
1E
100
AcDbEntity
  8
0
100
AcDbLine
 10
236.0
 20
29.0
 30
0.0
 11
260.0
 21
28.0
 31
0.0
  0
LINE
  5
786
330
1E
100
AcDbEntity
  8
0
100
AcDbLine
 10
260.0
 20
28.0
 30
0.0
 11
261.5
 21
27.5
 31
0.0
  0
LINE
  5
787
330
1E
100
AcDbEntity
  8
0
100
AcDbLine
 10
198.0
 20
27.5
 30
0.0
 11
211.9
 21
27.5
 31
0.0
  0
LINE
  5
788
330
1E
100
AcDbEntity
  8
0
100
AcDbLine
 10
183.3
 20
27.5
 30
0.0
 11
198.0
 21
27.5
 31
0.0
  0
LINE
  5
789
330
1E
100
AcDbEntity
  8
0
100
AcDbLine
 10
169.6999999999999
 20
3.00000000000002
 30
0.0
 11
186.4
 21
3.00000000000002
 31
0.0
  0
LINE
  5
78A
330
1E
100
AcDbEntity
  8
0
100
AcDbLine
 10
169.3
 20
2.500000000000019
 30
0.0
 11
185.8
 21
2.500000000000019
 31
0.0
  0
LINE
  5
78B
330
1E
100
AcDbEntity
  8
0
100
AcDbLine
 10
185.8
 20
2.500000000000019
 30
0.0
 11
195.6999999999999
 21
2.500000000000019
 31
0.0
  0
LINE
  5
78C
330
1E
100
AcDbEntity
  8
0
100
AcDbLine
 10
185.8
 20
2.500000000000019
 30
0.0
 11
201.2
 21
2.500000000000019
 31
0.0
  0
LINE
  5
78D
330
1E
100
AcDbEntity
  8
0
100
AcDbLine
 10
150.9
 20
1.000000000000019
 30
0.0
 11
166.5
 21
1.000000000000019
 31
0.0
  0
LINE
  5
78E
330
1E
100
AcDbEntity
  8
0
100
AcDbLine
 10
135.0
 20
1.000000000000019
 30
0.0
 11
150.9
 21
1.000000000000019
 31
0.0
  0
LINE
  5
790
330
1E
100
AcDbEntity
  8
0
100
AcDbLine
 10
147.0
 20
76.0
 30
0.0
 11
147.0
 21
103.0
 31
0.0
  0
LINE
  5
791
330
1E
100
AcDbEntity
  8
0
100
AcDbLine
 10
123.0
 20
76.0
 30
0.0
 11
123.0
 21
103.0
 31
0.0
  0
LINE
  5
792
330
1E
100
AcDbEntity
  8
0
100
AcDbLine
 10
512.0
 20
93.40000000000001
 30
0.0
 11
512.0
 21
91.95999999999999
 31
0.0
  0
LINE
  5
793
330
1E
100
AcDbEntity
  8
0
100
AcDbLine
 10
512.0
 20
93.40000000000001
 30
0.0
 11
512.0
 21
97.24
 31
0.0
  0
LINE
  5
794
330
1E
100
AcDbEntity
  8
0
100
AcDbLine
 10
512.0
 20
91.95999999999999
 30
0.0
 11
512.72
 21
91.0
 31
0.0
  0
LINE
  5
795
330
1E
100
AcDbEntity
  8
0
100
AcDbLine
 10
512.0
 20
91.95999999999999
 30
0.0
 11
512.0
 21
93.40000000000001
 31
0.0
  0
LINE
  5
796
330
1E
100
AcDbEntity
  8
0
100
AcDbLine
 10
512.72
 20
96.28
 30
0.0
 11
512.72
 21
92.43999999999999
 31
0.0
  0
LINE
  5
797
330
1E
100
AcDbEntity
  8
0
100
AcDbLine
 10
512.72
 20
96.28
 30
0.0
 11
512.72
 21
102.68
 31
0.0
  0
LINE
  5
798
330
1E
100
AcDbEntity
  8
0
100
AcDbLine
 10
512.72
 20
91.0
 30
0.0
 11
524.0
 21
91.0
 31
0.0
  0
LINE
  5
799
330
1E
100
AcDbEntity
  8
0
100
AcDbLine
 10
512.72
 20
91.0
 30
0.0
 11
512.72
 21
92.43999999999999
 31
0.0
  0
LINE
  5
79A
330
1E
100
AcDbEntity
  8
0
100
AcDbLine
 10
524.0
 20
91.0
 30
0.0
 11
524.0
 21
92.43999999999999
 31
0.0
  0
LINE
  5
79B
330
1E
100
AcDbEntity
  8
0
100
AcDbLine
 10
512.72
 20
92.43999999999999
 30
0.0
 11
512.72
 21
91.0
 31
0.0
  0
LINE
  5
79C
330
1E
100
AcDbEntity
  8
0
100
AcDbLine
 10
512.72
 20
92.43999999999999
 30
0.0
 11
512.72
 21
96.28
 31
0.0
  0
LINE
  5
79D
330
1E
100
AcDbEntity
  8
0
100
AcDbLine
 10
123.0
 20
103.0
 30
0.0
 11
124.3999999999999
 21
113.4
 31
0.0
  0
LINE
  5
79E
330
1E
100
AcDbEntity
  8
0
100
AcDbLine
 10
123.0
 20
103.0
 30
0.0
 11
123.0
 21
76.0
 31
0.0
  0
LINE
  5
79F
330
1E
100
AcDbEntity
  8
0
100
AcDbLine
 10
147.0
 20
103.0
 30
0.0
 11
147.0
 21
76.0
 31
0.0
  0
LINE
  5
7A0
330
1E
100
AcDbEntity
  8
0
100
AcDbLine
 10
147.0
 20
103.0
 30
0.0
 11
147.5
 21
107.0999999999999
 31
0.0
  0
LINE
  5
7A1
330
1E
100
AcDbEntity
  8
0
100
AcDbLine
 10
149.0999999999999
 20
111.0
 30
0.0
 11
151.6999999999999
 21
114.3
 31
0.0
  0
LINE
  5
7A2
330
1E
100
AcDbEntity
  8
0
100
AcDbLine
 10
147.5
 20
107.0999999999999
 30
0.0
 11
149.0999999999999
 21
111.0
 31
0.0
  0
LINE
  5
7A3
330
1E
100
AcDbEntity
  8
0
100
AcDbLine
 10
512.0
 20
103.48
 30
0.0
 11
512.0
 21
97.24
 31
0.0
  0
LINE
  5
7A4
330
1E
100
AcDbEntity
  8
0
100
AcDbLine
 10
512.0
 20
103.48
 30
0.0
 11
512.0
 21
111.64
 31
0.0
  0
LINE
  5
7A5
330
1E
100
AcDbEntity
  8
0
100
AcDbLine
 10
512.0
 20
97.24
 30
0.0
 11
512.0
 21
93.40000000000001
 31
0.0
  0
LINE
  5
7A6
330
1E
100
AcDbEntity
  8
0
100
AcDbLine
 10
512.0
 20
97.24
 30
0.0
 11
512.0
 21
103.48
 31
0.0
  0
LINE
  5
7A7
330
1E
100
AcDbEntity
  8
0
100
AcDbLine
 10
512.72
 20
111.1599999999999
 30
0.0
 11
512.72
 21
102.68
 31
0.0
  0
LINE
  5
7A8
330
1E
100
AcDbEntity
  8
0
100
AcDbLine
 10
512.72
 20
111.1599999999999
 30
0.0
 11
512.72
 21
120.76
 31
0.0
  0
LINE
  5
7A9
330
1E
100
AcDbEntity
  8
0
100
AcDbLine
 10
512.72
 20
102.68
 30
0.0
 11
512.72
 21
96.28
 31
0.0
  0
LINE
  5
7AA
330
1E
100
AcDbEntity
  8
0
100
AcDbLine
 10
512.72
 20
102.68
 30
0.0
 11
512.72
 21
111.1599999999999
 31
0.0
  0
LINE
  5
7AB
330
1E
100
AcDbEntity
  8
0
100
AcDbLine
 10
151.6999999999999
 20
114.3
 30
0.0
 11
155.0
 21
116.9
 31
0.0
  0
LINE
  5
7AC
330
1E
100
AcDbEntity
  8
0
100
AcDbLine
 10
155.0
 20
116.9
 30
0.0
 11
158.9
 21
118.5
 31
0.0
  0
LINE
  5
7AD
330
1E
100
AcDbEntity
  8
0
100
AcDbLine
 10
158.9
 20
118.5
 30
0.0
 11
163.0
 21
119.0
 31
0.0
  0
LINE
  5
7AE
330
1E
100
AcDbEntity
  8
0
100
AcDbLine
 10
163.0
 20
119.0
 30
0.0
 11
512.0
 21
119.0
 31
0.0
  0
LINE
  5
7AF
330
1E
100
AcDbEntity
  8
0
100
AcDbLine
 10
512.0
 20
119.4
 30
0.0
 11
512.0
 21
120.5999999999999
 31
0.0
  0
LINE
  5
7B0
330
1E
100
AcDbEntity
  8
0
100
AcDbLine
 10
512.0
 20
120.5999999999999
 30
0.0
 11
512.0
 21
122.5
 31
0.0
  0
LINE
  5
7B1
330
1E
100
AcDbEntity
  8
0
100
AcDbLine
 10
163.0
 20
119.0
 30
0.0
 11
512.0
 21
119.0
 31
0.0
  0
LINE
  5
7B2
330
1E
100
AcDbEntity
  8
0
100
AcDbLine
 10
124.3999999999999
 20
113.4
 30
0.0
 11
128.4
 21
123.0
 31
0.0
  0
LINE
  5
7B3
330
1E
100
AcDbEntity
  8
0
100
AcDbLine
 10
512.0
 20
119.0
 30
0.0
 11
512.0
 21
111.64
 31
0.0
  0
LINE
  5
7B4
330
1E
100
AcDbEntity
  8
0
100
AcDbLine
 10
512.0
 20
119.0
 30
0.0
 11
512.0
 21
119.4
 31
0.0
  0
LINE
  5
7B5
330
1E
100
AcDbEntity
  8
0
100
AcDbLine
 10
512.0
 20
122.5
 30
0.0
 11
512.0
 21
125.0
 31
0.0
  0
LINE
  5
7B6
330
1E
100
AcDbEntity
  8
0
100
AcDbLine
 10
512.0
 20
125.0
 30
0.0
 11
512.0
 21
127.9
 31
0.0
  0
LINE
  5
7B7
330
1E
100
AcDbEntity
  8
0
100
AcDbLine
 10
512.0
 20
127.9
 30
0.0
 11
512.0
 21
131.0
 31
0.0
  0
LINE
  5
7B8
330
1E
100
AcDbEntity
  8
0
100
AcDbLine
 10
128.4
 20
123.0
 30
0.0
 11
134.6999999999999
 21
131.3
 31
0.0
  0
LINE
  5
7B9
330
1E
100
AcDbEntity
  8
0
100
AcDbLine
 10
512.0
 20
131.0
 30
0.0
 11
512.0
 21
120.92
 31
0.0
  0
LINE
  5
7BA
330
1E
100
AcDbEntity
  8
0
100
AcDbLine
 10
512.0
 20
131.0
 30
0.0
 11
512.0
 21
141.08
 31
0.0
  0
LINE
  5
7BB
330
1E
100
AcDbEntity
  8
0
100
AcDbLine
 10
512.0
 20
131.0
 30
0.0
 11
512.0
 21
134.0999999999999
 31
0.0
  0
LINE
  5
7BC
330
1E
100
AcDbEntity
  8
0
100
AcDbLine
 10
512.0
 20
120.92
 30
0.0
 11
512.0
 21
111.64
 31
0.0
  0
LINE
  5
7BD
330
1E
100
AcDbEntity
  8
0
100
AcDbLine
 10
512.0
 20
120.92
 30
0.0
 11
512.0
 21
131.0
 31
0.0
  0
LINE
  5
7BE
330
1E
100
AcDbEntity
  8
0
100
AcDbLine
 10
512.0
 20
111.64
 30
0.0
 11
512.0
 21
103.48
 31
0.0
  0
LINE
  5
7BF
330
1E
100
AcDbEntity
  8
0
100
AcDbLine
 10
512.0
 20
111.64
 30
0.0
 11
512.0
 21
120.92
 31
0.0
  0
LINE
  5
7C0
330
1E
100
AcDbEntity
  8
0
100
AcDbLine
 10
512.0
 20
111.64
 30
0.0
 11
512.0
 21
119.0
 31
0.0
  0
LINE
  5
7C1
330
1E
100
AcDbEntity
  8
0
100
AcDbLine
 10
512.72
 20
131.0
 30
0.0
 11
512.72
 21
120.76
 31
0.0
  0
LINE
  5
7C2
330
1E
100
AcDbEntity
  8
0
100
AcDbLine
 10
512.72
 20
131.0
 30
0.0
 11
512.72
 21
141.24
 31
0.0
  0
LINE
  5
7C3
330
1E
100
AcDbEntity
  8
0
100
AcDbLine
 10
512.72
 20
120.76
 30
0.0
 11
512.72
 21
111.1599999999999
 31
0.0
  0
LINE
  5
7C4
330
1E
100
AcDbEntity
  8
0
100
AcDbLine
 10
512.72
 20
120.76
 30
0.0
 11
512.72
 21
131.0
 31
0.0
  0
LINE
  5
7C5
330
1E
100
AcDbEntity
  8
0
100
AcDbLine
 10
134.6999999999999
 20
131.3
 30
0.0
 11
143.0
 21
137.5999999999999
 31
0.0
  0
LINE
  5
7C6
330
1E
100
AcDbEntity
  8
0
100
AcDbLine
 10
512.0
 20
134.0999999999999
 30
0.0
 11
512.0
 21
137.0
 31
0.0
  0
LINE
  5
7C7
330
1E
100
AcDbEntity
  8
0
100
AcDbLine
 10
512.0
 20
137.0
 30
0.0
 11
512.0
 21
139.5
 31
0.0
  0
LINE
  5
7C8
330
1E
100
AcDbEntity
  8
0
100
AcDbLine
 10
512.0
 20
139.5
 30
0.0
 11
512.0
 21
141.4
 31
0.0
  0
LINE
  5
7C9
330
1E
100
AcDbEntity
  8
0
100
AcDbLine
 10
143.0
 20
137.5999999999999
 30
0.0
 11
152.5999999999999
 21
141.5999999999999
 31
0.0
  0
LINE
  5
7CA
330
1E
100
AcDbEntity
  8
0
100
AcDbLine
 10
512.0
 20
141.08
 30
0.0
 11
512.0
 21
131.0
 31
0.0
  0
LINE
  5
7CB
330
1E
100
AcDbEntity
  8
0
100
AcDbLine
 10
512.0
 20
141.08
 30
0.0
 11
512.0
 21
150.36
 31
0.0
  0
LINE
  5
7CC
330
1E
100
AcDbEntity
  8
0
100
AcDbLine
 10
512.72
 20
141.24
 30
0.0
 11
512.72
 21
131.0
 31
0.0
  0
LINE
  5
7CD
330
1E
100
AcDbEntity
  8
0
100
AcDbLine
 10
512.72
 20
141.24
 30
0.0
 11
512.72
 21
150.8399999999999
 31
0.0
  0
LINE
  5
7CE
330
1E
100
AcDbEntity
  8
0
100
AcDbLine
 10
512.0
 20
141.4
 30
0.0
 11
512.0
 21
142.5999999999999
 31
0.0
  0
LINE
  5
7CF
330
1E
100
AcDbEntity
  8
0
100
AcDbLine
 10
512.0
 20
142.5999999999999
 30
0.0
 11
512.0
 21
143.0
 31
0.0
  0
LINE
  5
7D0
330
1E
100
AcDbEntity
  8
0
100
AcDbLine
 10
152.5999999999999
 20
141.5999999999999
 30
0.0
 11
163.0
 21
143.0
 31
0.0
  0
LINE
  5
7D1
330
1E
100
AcDbEntity
  8
0
100
AcDbLine
 10
163.0
 20
143.0
 30
0.0
 11
512.0
 21
143.0
 31
0.0
  0
LINE
  5
7D2
330
1E
100
AcDbEntity
  8
0
100
AcDbLine
 10
163.0
 20
143.0
 30
0.0
 11
512.0
 21
143.0
 31
0.0
  0
LINE
  5
7D3
330
1E
100
AcDbEntity
  8
0
100
AcDbLine
 10
512.0
 20
143.0
 30
0.0
 11
512.0
 21
150.36
 31
0.0
  0
LINE
  5
7D4
330
1E
100
AcDbEntity
  8
0
100
AcDbLine
 10
512.0
 20
150.36
 30
0.0
 11
512.0
 21
141.08
 31
0.0
  0
LINE
  5
7D5
330
1E
100
AcDbEntity
  8
0
100
AcDbLine
 10
512.0
 20
150.36
 30
0.0
 11
512.0
 21
158.52
 31
0.0
  0
LINE
  5
7D6
330
1E
100
AcDbEntity
  8
0
100
AcDbLine
 10
512.0
 20
150.36
 30
0.0
 11
512.0
 21
143.0
 31
0.0
  0
LINE
  5
7D7
330
1E
100
AcDbEntity
  8
0
100
AcDbLine
 10
512.0
 20
158.52
 30
0.0
 11
512.0
 21
150.36
 31
0.0
  0
LINE
  5
7D8
330
1E
100
AcDbEntity
  8
0
100
AcDbLine
 10
512.0
 20
158.52
 30
0.0
 11
512.0
 21
164.7599999999999
 31
0.0
  0
LINE
  5
7D9
330
1E
100
AcDbEntity
  8
0
100
AcDbLine
 10
512.72
 20
150.8399999999999
 30
0.0
 11
512.72
 21
141.24
 31
0.0
  0
LINE
  5
7DA
330
1E
100
AcDbEntity
  8
0
100
AcDbLine
 10
512.72
 20
150.8399999999999
 30
0.0
 11
512.72
 21
159.3199999999999
 31
0.0
  0
LINE
  5
7DB
330
1E
100
AcDbEntity
  8
0
100
AcDbLine
 10
512.72
 20
159.3199999999999
 30
0.0
 11
512.72
 21
150.8399999999999
 31
0.0
  0
LINE
  5
7DC
330
1E
100
AcDbEntity
  8
0
100
AcDbLine
 10
512.72
 20
159.3199999999999
 30
0.0
 11
512.72
 21
165.72
 31
0.0
  0
LINE
  5
7DD
330
1E
100
AcDbEntity
  8
0
100
AcDbLine
 10
524.0
 20
141.24
 30
0.0
 11
524.0
 21
131.0
 31
0.0
  0
LINE
  5
7DE
330
1E
100
AcDbEntity
  8
0
100
AcDbLine
 10
524.0
 20
141.24
 30
0.0
 11
524.0
 21
150.8399999999999
 31
0.0
  0
LINE
  5
7DF
330
1E
100
AcDbEntity
  8
0
100
AcDbLine
 10
524.0
 20
150.8399999999999
 30
0.0
 11
524.0
 21
141.24
 31
0.0
  0
LINE
  5
7E0
330
1E
100
AcDbEntity
  8
0
100
AcDbLine
 10
524.0
 20
150.8399999999999
 30
0.0
 11
524.0
 21
159.3199999999999
 31
0.0
  0
LINE
  5
7E1
330
1E
100
AcDbEntity
  8
0
100
AcDbLine
 10
512.0
 20
164.7599999999999
 30
0.0
 11
512.0
 21
158.52
 31
0.0
  0
LINE
  5
7E2
330
1E
100
AcDbEntity
  8
0
100
AcDbLine
 10
512.0
 20
164.7599999999999
 30
0.0
 11
512.0
 21
168.5999999999999
 31
0.0
  0
LINE
  5
7E3
330
1E
100
AcDbEntity
  8
0
100
AcDbLine
 10
512.0
 20
168.5999999999999
 30
0.0
 11
512.0
 21
164.7599999999999
 31
0.0
  0
LINE
  5
7E4
330
1E
100
AcDbEntity
  8
0
100
AcDbLine
 10
512.0
 20
168.5999999999999
 30
0.0
 11
512.0
 21
170.0399999999999
 31
0.0
  0
LINE
  5
7E5
330
1E
100
AcDbEntity
  8
0
100
AcDbLine
 10
512.72
 20
165.72
 30
0.0
 11
512.72
 21
159.3199999999999
 31
0.0
  0
LINE
  5
7E6
330
1E
100
AcDbEntity
  8
0
100
AcDbLine
 10
512.72
 20
165.72
 30
0.0
 11
512.72
 21
169.5599999999999
 31
0.0
  0
LINE
  5
7E7
330
1E
100
AcDbEntity
  8
0
100
AcDbLine
 10
512.72
 20
169.5599999999999
 30
0.0
 11
512.72
 21
165.72
 31
0.0
  0
LINE
  5
7E8
330
1E
100
AcDbEntity
  8
0
100
AcDbLine
 10
512.72
 20
169.5599999999999
 30
0.0
 11
512.72
 21
171.0
 31
0.0
  0
LINE
  5
7E9
330
1E
100
AcDbEntity
  8
0
100
AcDbLine
 10
524.0
 20
159.3199999999999
 30
0.0
 11
524.0
 21
150.8399999999999
 31
0.0
  0
LINE
  5
7EA
330
1E
100
AcDbEntity
  8
0
100
AcDbLine
 10
524.0
 20
159.3199999999999
 30
0.0
 11
524.0
 21
165.72
 31
0.0
  0
LINE
  5
7EB
330
1E
100
AcDbEntity
  8
0
100
AcDbLine
 10
524.0
 20
165.72
 30
0.0
 11
524.0
 21
159.3199999999999
 31
0.0
  0
LINE
  5
7EC
330
1E
100
AcDbEntity
  8
0
100
AcDbLine
 10
524.0
 20
165.72
 30
0.0
 11
524.0
 21
169.5599999999999
 31
0.0
  0
LINE
  5
7ED
330
1E
100
AcDbEntity
  8
0
100
AcDbLine
 10
512.0
 20
170.0399999999999
 30
0.0
 11
512.0
 21
168.5999999999999
 31
0.0
  0
LINE
  5
7EE
330
1E
100
AcDbEntity
  8
0
100
AcDbLine
 10
512.0
 20
170.0399999999999
 30
0.0
 11
512.72
 21
171.0
 31
0.0
  0
LINE
  5
7EF
330
1E
100
AcDbEntity
  8
0
100
AcDbLine
 10
512.72
 20
171.0
 30
0.0
 11
512.72
 21
169.5599999999999
 31
0.0
  0
LINE
  5
7F0
330
1E
100
AcDbEntity
  8
0
100
AcDbLine
 10
512.72
 20
171.0
 30
0.0
 11
524.0
 21
171.0
 31
0.0
  0
LINE
  5
7F1
330
1E
100
AcDbEntity
  8
0
100
AcDbLine
 10
524.0
 20
169.5599999999999
 30
0.0
 11
524.0
 21
165.72
 31
0.0
  0
LINE
  5
7F2
330
1E
100
AcDbEntity
  8
0
100
AcDbLine
 10
524.0
 20
169.5599999999999
 30
0.0
 11
524.0
 21
171.0
 31
0.0
  0
LINE
  5
7F3
330
1E
100
AcDbEntity
  8
0
100
AcDbLine
 10
524.0
 20
171.0
 30
0.0
 11
524.0
 21
169.5599999999999
 31
0.0
  0
LINE
  5
7F4
330
1E
100
AcDbEntity
  8
0
100
AcDbLine
 10
524.0
 20
131.0
 30
0.0
 11
524.0
 21
120.76
 31
0.0
  0
LINE
  5
7F5
330
1E
100
AcDbEntity
  8
0
100
AcDbLine
 10
524.0
 20
131.0
 30
0.0
 11
524.0
 21
141.24
 31
0.0
  0
LINE
  5
7F6
330
1E
100
AcDbEntity
  8
0
100
AcDbLine
 10
524.0
 20
120.76
 30
0.0
 11
524.0
 21
111.1599999999999
 31
0.0
  0
LINE
  5
7F7
330
1E
100
AcDbEntity
  8
0
100
AcDbLine
 10
524.0
 20
120.76
 30
0.0
 11
524.0
 21
131.0
 31
0.0
  0
LINE
  5
7F8
330
1E
100
AcDbEntity
  8
0
100
AcDbLine
 10
524.0
 20
111.1599999999999
 30
0.0
 11
524.0
 21
102.68
 31
0.0
  0
LINE
  5
7F9
330
1E
100
AcDbEntity
  8
0
100
AcDbLine
 10
524.0
 20
111.1599999999999
 30
0.0
 11
524.0
 21
120.76
 31
0.0
  0
LINE
  5
7FA
330
1E
100
AcDbEntity
  8
0
100
AcDbLine
 10
524.0
 20
102.68
 30
0.0
 11
524.0
 21
96.28
 31
0.0
  0
LINE
  5
7FB
330
1E
100
AcDbEntity
  8
0
100
AcDbLine
 10
524.0
 20
102.68
 30
0.0
 11
524.0
 21
111.1599999999999
 31
0.0
  0
LINE
  5
7FC
330
1E
100
AcDbEntity
  8
0
100
AcDbLine
 10
524.0
 20
96.28
 30
0.0
 11
524.0
 21
92.43999999999999
 31
0.0
  0
LINE
  5
7FD
330
1E
100
AcDbEntity
  8
0
100
AcDbLine
 10
524.0
 20
96.28
 30
0.0
 11
524.0
 21
102.68
 31
0.0
  0
LINE
  5
7FE
330
1E
100
AcDbEntity
  8
0
100
AcDbLine
 10
524.0
 20
92.43999999999999
 30
0.0
 11
524.0
 21
91.0
 31
0.0
  0
LINE
  5
7FF
330
1E
100
AcDbEntity
  8
0
100
AcDbLine
 10
524.0
 20
92.43999999999999
 30
0.0
 11
524.0
 21
96.28
 31
0.0
  0
ENDSEC
  0
SECTION
  2
OBJECTS
  0
DICTIONARY
  5
C
330
0
100
AcDbDictionary
281
     1
  3
ACAD_GROUP
350
D
  3
ACAD_LAYOUT
350
19
  3
ACAD_MLINESTYLE
350
16
  3
ACAD_PLOTSETTINGS
350
18
  3
ACAD_PLOTSTYLENAME
350
E
  3
AcDbVariableDictionary
350
804
  0
DICTIONARY
  5
D
102
{ACAD_REACTORS
330
C
102
}
330
C
100
AcDbDictionary
281
     1
  0
DICTIONARY
  5
19
102
{ACAD_REACTORS
330
C
102
}
330
C
100
AcDbDictionary
281
     1
  3
Layout1
350
1D
  3
Model
350
21
  0
DICTIONARY
  5
16
102
{ACAD_REACTORS
330
C
102
}
330
C
100
AcDbDictionary
281
     1
  3
Standard
350
17
  0
DICTIONARY
  5
18
102
{ACAD_REACTORS
330
C
102
}
330
C
100
AcDbDictionary
281
     1
  0
ACDBDICTIONARYWDFLT
  5
E
102
{ACAD_REACTORS
330
C
102
}
330
C
100
AcDbDictionary
281
     1
  3
Normal
350
F
100
AcDbDictionaryWithDefault
340
F
  0
DICTIONARY
  5
804
102
{ACAD_REACTORS
330
C
102
}
330
C
100
AcDbDictionary
281
     1
  3
DIMASSOC
350
805
  0
LAYOUT
  5
1D
102
{ACAD_REACTORS
330
19
102
}
330
19
100
AcDbPlotSettings
  1

  2
hp deskjet 980c series
  4

  6

 40
0.0
 41
0.0
 42
0.0
 43
0.0
 44
0.0
 45
0.0
 46
0.0
 47
0.0
 48
0.0
 49
0.0
140
0.0
141
0.0
142
1.0
143
1.0
 70
   688
 72
     0
 73
     0
 74
     5
  7

 75
    16
147
1.0
148
0.0
149
0.0
100
AcDbLayout
  1
Layout1
 70
     1
 71
     1
 10
0.0
 20
0.0
 11
12.0
 21
9.0
 12
0.0
 22
0.0
 32
0.0
 14
1.000000000000000E+20
 24
1.000000000000000E+20
 34
1.000000000000000E+20
 15
-1.000000000000000E+20
 25
-1.000000000000000E+20
 35
-1.000000000000000E+20
146
0.0
 13
0.0
 23
0.0
 33
0.0
 16
1.0
 26
0.0
 36
0.0
 17
0.0
 27
1.0
 37
0.0
 76
     0
330
1A
  0
LAYOUT
  5
21
102
{ACAD_REACTORS
330
19
102
}
330
19
100
AcDbPlotSettings
  1

  2
hp deskjet 980c series
  4

  6

 40
0.0
 41
0.0
 42
0.0
 43
0.0
 44
0.0
 45
0.0
 46
0.0
 47
0.0
 48
0.0
 49
0.0
140
0.0
141
0.0
142
1.0
143
1.0
 70
  1712
 72
     0
 73
     0
 74
     0
  7

 75
     0
147
1.0
148
0.0
149
0.0
100
AcDbLayout
  1
Model
 70
     1
 71
     0
 10
0.0
 20
0.0
 11
12.0
 21
9.0
 12
0.0
 22
0.0
 32
0.0
 14
0.0
 24
0.0
 34
0.0
 15
0.0
 25
0.0
 35
0.0
146
0.0
 13
0.0
 23
0.0
 33
0.0
 16
1.0
 26
0.0
 36
0.0
 17
0.0
 27
1.0
 37
0.0
 76
     0
330
1E
  0
MLINESTYLE
  5
17
102
{ACAD_REACTORS
330
16
102
}
330
16
100
AcDbMlineStyle
  2
STANDARD
 70
     0
  3

 62
   256
 51
90.0
 52
90.0
 71
     2
 49
0.5
 62
   256
  6
BYLAYER
 49
-0.5
 62
   256
  6
BYLAYER
  0
ACDBPLACEHOLDER
  5
F
102
{ACAD_REACTORS
330
E
102
}
330
E
  0
DICTIONARYVAR
  5
805
102
{ACAD_REACTORS
330
804
102
}
330
804
100
DictionaryVariables
280
     0
  1
1
  0
ENDSEC
  0
EOF
