  0
SECTION
  2
HEADER
  9
$ACADVER
  1
AC1015
  9
$ACADMAINTVER
 70
    13
  9
$DWGCODEPAGE
  3
ANSI_1252
  9
$INSBASE
 10
0.0
 20
0.0
 30
0.0
  9
$EXTMIN
 10
-0.0000000000000061
 20
-0.0192500000000054
 30
0.0
  9
$EXTMAX
 10
218.0
 20
155.01925
 30
0.0
  9
$LIMMIN
 10
0.0
 20
0.0
  9
$LIMMAX
 10
12.0
 20
9.0
  9
$ORTHOMODE
 70
     0
  9
$REGENMODE
 70
     1
  9
$FILLMODE
 70
     1
  9
$QTEXTMODE
 70
     0
  9
$MIRRTEXT
 70
     1
  9
$LTSCALE
 40
1.0
  9
$ATTMODE
 70
     1
  9
$TEXTSIZE
 40
0.2
  9
$TRACEWID
 40
0.05
  9
$TEXTSTYLE
  7
Standard
  9
$CLAYER
  8
0
  9
$CELTYPE
  6
Continuous
  9
$CECOLOR
 62
   256
  9
$CELTSCALE
 40
1.0
  9
$DISPSILH
 70
     0
  9
$DIMSCALE
 40
1.0
  9
$DIMASZ
 40
0.18
  9
$DIMEXO
 40
0.0625
  9
$DIMDLI
 40
0.38
  9
$DIMRND
 40
0.0
  9
$DIMDLE
 40
0.0
  9
$DIMEXE
 40
0.18
  9
$DIMTP
 40
0.0
  9
$DIMTM
 40
0.0
  9
$DIMTXT
 40
0.18
  9
$DIMCEN
 40
0.09
  9
$DIMTSZ
 40
0.0
  9
$DIMTOL
 70
     0
  9
$DIMLIM
 70
     0
  9
$DIMTIH
 70
     1
  9
$DIMTOH
 70
     1
  9
$DIMSE1
 70
     0
  9
$DIMSE2
 70
     0
  9
$DIMTAD
 70
     0
  9
$DIMZIN
 70
     0
  9
$DIMBLK
  1

  9
$DIMASO
 70
     1
  9
$DIMSHO
 70
     1
  9
$DIMPOST
  1

  9
$DIMAPOST
  1

  9
$DIMALT
 70
     0
  9
$DIMALTD
 70
     2
  9
$DIMALTF
 40
25.4
  9
$DIMLFAC
 40
1.0
  9
$DIMTOFL
 70
     0
  9
$DIMTVP
 40
0.0
  9
$DIMTIX
 70
     0
  9
$DIMSOXD
 70
     0
  9
$DIMSAH
 70
     0
  9
$DIMBLK1
  1

  9
$DIMBLK2
  1

  9
$DIMSTYLE
  2
Standard
  9
$DIMCLRD
 70
     0
  9
$DIMCLRE
 70
     0
  9
$DIMCLRT
 70
     0
  9
$DIMTFAC
 40
1.0
  9
$DIMGAP
 40
0.09
  9
$DIMJUST
 70
     0
  9
$DIMSD1
 70
     0
  9
$DIMSD2
 70
     0
  9
$DIMTOLJ
 70
     1
  9
$DIMTZIN
 70
     0
  9
$DIMALTZ
 70
     0
  9
$DIMALTTZ
 70
     0
  9
$DIMUPT
 70
     0
  9
$DIMDEC
 70
     4
  9
$DIMTDEC
 70
     4
  9
$DIMALTU
 70
     2
  9
$DIMALTTD
 70
     2
  9
$DIMTXSTY
  7
Standard
  9
$DIMAUNIT
 70
     0
  9
$DIMADEC
 70
     0
  9
$DIMALTRND
 40
0.0
  9
$DIMAZIN
 70
     0
  9
$DIMDSEP
 70
    46
  9
$DIMATFIT
 70
     3
  9
$DIMFRAC
 70
     0
  9
$DIMLDRBLK
  1

  9
$DIMLUNIT
 70
     2
  9
$DIMLWD
 70
    -2
  9
$DIMLWE
 70
    -2
  9
$DIMTMOVE
 70
     0
  9
$LUNITS
 70
     2
  9
$LUPREC
 70
     4
  9
$SKETCHINC
 40
0.1
  9
$FILLETRAD
 40
0.0
  9
$AUNITS
 70
     0
  9
$AUPREC
 70
     0
  9
$MENU
  1
.
  9
$ELEVATION
 40
0.0
  9
$PELEVATION
 40
0.0
  9
$THICKNESS
 40
0.0
  9
$LIMCHECK
 70
     0
  9
$CHAMFERA
 40
0.0
  9
$CHAMFERB
 40
0.0
  9
$CHAMFERC
 40
0.0
  9
$CHAMFERD
 40
0.0
  9
$SKPOLY
 70
     0
  9
$TDCREATE
 40
2454736.826430659
  9
$TDUCREATE
 40
2454736.743097326
  9
$TDUPDATE
 40
2454736.829954062
  9
$TDUUPDATE
 40
2454736.746620729
  9
$TDINDWG
 40
0.0035234028
  9
$TDUSRTIMER
 40
0.0035234028
  9
$USRTIMER
 70
     1
  9
$ANGBASE
 50
0.0
  9
$ANGDIR
 70
     0
  9
$PDMODE
 70
     0
  9
$PDSIZE
 40
0.0
  9
$PLINEWID
 40
0.0
  9
$SPLFRAME
 70
     0
  9
$SPLINETYPE
 70
     6
  9
$SPLINESEGS
 70
     8
  9
$HANDSEED
  5
162
  9
$SURFTAB1
 70
     6
  9
$SURFTAB2
 70
     6
  9
$SURFTYPE
 70
     6
  9
$SURFU
 70
     6
  9
$SURFV
 70
     6
  9
$UCSBASE
  2

  9
$UCSNAME
  2

  9
$UCSORG
 10
0.0
 20
0.0
 30
0.0
  9
$UCSXDIR
 10
1.0
 20
0.0
 30
0.0
  9
$UCSYDIR
 10
0.0
 20
1.0
 30
0.0
  9
$UCSORTHOREF
  2

  9
$UCSORTHOVIEW
 70
     1
  9
$UCSORGTOP
 10
0.0
 20
0.0
 30
0.0
  9
$UCSORGBOTTOM
 10
0.0
 20
0.0
 30
0.0
  9
$UCSORGLEFT
 10
0.0
 20
0.0
 30
0.0
  9
$UCSORGRIGHT
 10
0.0
 20
0.0
 30
0.0
  9
$UCSORGFRONT
 10
0.0
 20
0.0
 30
0.0
  9
$UCSORGBACK
 10
0.0
 20
0.0
 30
0.0
  9
$PUCSBASE
  2

  9
$PUCSNAME
  2

  9
$PUCSORG
 10
0.0
 20
0.0
 30
0.0
  9
$PUCSXDIR
 10
1.0
 20
0.0
 30
0.0
  9
$PUCSYDIR
 10
0.0
 20
1.0
 30
0.0
  9
$PUCSORTHOREF
  2

  9
$PUCSORTHOVIEW
 70
     0
  9
$PUCSORGTOP
 10
0.0
 20
0.0
 30
0.0
  9
$PUCSORGBOTTOM
 10
0.0
 20
0.0
 30
0.0
  9
$PUCSORGLEFT
 10
0.0
 20
0.0
 30
0.0
  9
$PUCSORGRIGHT
 10
0.0
 20
0.0
 30
0.0
  9
$PUCSORGFRONT
 10
0.0
 20
0.0
 30
0.0
  9
$PUCSORGBACK
 10
0.0
 20
0.0
 30
0.0
  9
$USERI1
 70
     0
  9
$USERI2
 70
     0
  9
$USERI3
 70
     0
  9
$USERI4
 70
     0
  9
$USERI5
 70
     0
  9
$USERR1
 40
0.0
  9
$USERR2
 40
0.0
  9
$USERR3
 40
0.0
  9
$USERR4
 40
0.0
  9
$USERR5
 40
0.0
  9
$WORLDVIEW
 70
     1
  9
$SHADEDGE
 70
     3
  9
$SHADEDIF
 70
    70
  9
$TILEMODE
 70
     1
  9
$MAXACTVP
 70
    64
  9
$PINSBASE
 10
0.0
 20
0.0
 30
0.0
  9
$PLIMCHECK
 70
     0
  9
$PEXTMIN
 10
1.000000000000000E+20
 20
1.000000000000000E+20
 30
1.000000000000000E+20
  9
$PEXTMAX
 10
-1.000000000000000E+20
 20
-1.000000000000000E+20
 30
-1.000000000000000E+20
  9
$PLIMMIN
 10
0.0
 20
0.0
  9
$PLIMMAX
 10
12.0
 20
9.0
  9
$UNITMODE
 70
     0
  9
$VISRETAIN
 70
     1
  9
$PLINEGEN
 70
     0
  9
$PSLTSCALE
 70
     1
  9
$TREEDEPTH
 70
  3020
  9
$CMLSTYLE
  2
Standard
  9
$CMLJUST
 70
     0
  9
$CMLSCALE
 40
1.0
  9
$PROXYGRAPHICS
 70
     1
  9
$MEASUREMENT
 70
     0
  9
$CELWEIGHT
370
    -1
  9
$ENDCAPS
280
     0
  9
$JOINSTYLE
280
     0
  9
$LWDISPLAY
290
     0
  9
$INSUNITS
 70
     0
  9
$HYPERLINKBASE
  1

  9
$STYLESHEET
  1

  9
$XEDIT
290
     1
  9
$CEPSNTYPE
380
     0
  9
$PSTYLEMODE
290
     1
  9
$FINGERPRINTGUID
  2
{058E8DBB-F126-4FF8-8114-ADB21C94E59F}
  9
$VERSIONGUID
  2
{6FAB7618-06F2-485D-9B19-8FE323BCF7BF}
  9
$EXTNAMES
290
     1
  9
$PSVPSCALE
 40
0.0
  9
$OLESTARTUP
290
     0
  0
ENDSEC
  0
SECTION
  2
CLASSES
  0
CLASS
  1
ACDBDICTIONARYWDFLT
  2
AcDbDictionaryWithDefault
  3
AutoCAD 2000
 90
        0
280
     0
281
     0
  0
CLASS
  1
ACDBPLACEHOLDER
  2
AcDbPlaceHolder
  3
AutoCAD 2000
 90
        0
280
     0
281
     0
  0
CLASS
  1
LAYOUT
  2
AcDbLayout
  3
AutoCAD 2000
 90
        0
280
     0
281
     0
  0
CLASS
  1
DICTIONARYVAR
  2
AcDbDictionaryVar
  3
AutoCAD 2000
 90
        0
280
     0
281
     0
  0
ENDSEC
  0
SECTION
  2
TABLES
  0
TABLE
  2
VPORT
  5
8
330
0
100
AcDbSymbolTable
 70
     2
  0
VPORT
  5
161
330
8
100
AcDbSymbolTableRecord
100
AcDbViewportTableRecord
  2
*Active
 70
     0
 10
0.0
 20
0.0
 11
1.0
 21
1.0
 12
109.0
 22
77.5
 13
0.0
 23
0.0
 14
1.0
 24
1.0
 15
0.0
 25
0.0
 16
0.0
 26
0.0
 36
1.0
 17
0.0
 27
0.0
 37
0.0
 40
156.2280537084398
 41
2.078104993597951
 42
50.0
 43
0.0
 44
0.0
 50
0.0
 51
0.0
 71
     0
 72
   100
 73
     1
 74
     3
 75
     0
 76
     0
 77
     0
 78
     0
281
     0
 65
     1
110
0.0
120
0.0
130
0.0
111
1.0
121
0.0
131
0.0
112
0.0
122
1.0
132
0.0
 79
     1
146
0.0
  0
ENDTAB
  0
TABLE
  2
LTYPE
  5
5
330
0
100
AcDbSymbolTable
 70
     1
  0
LTYPE
  5
13
330
5
100
AcDbSymbolTableRecord
100
AcDbLinetypeTableRecord
  2
ByBlock
 70
     0
  3

 72
    65
 73
     0
 40
0.0
  0
LTYPE
  5
14
330
5
100
AcDbSymbolTableRecord
100
AcDbLinetypeTableRecord
  2
ByLayer
 70
     0
  3

 72
    65
 73
     0
 40
0.0
  0
LTYPE
  5
15
330
5
100
AcDbSymbolTableRecord
100
AcDbLinetypeTableRecord
  2
Continuous
 70
     0
  3
Solid line
 72
    65
 73
     0
 40
0.0
  0
ENDTAB
  0
TABLE
  2
LAYER
  5
2
330
0
100
AcDbSymbolTable
 70
     1
  0
LAYER
  5
10
330
2
100
AcDbSymbolTableRecord
100
AcDbLayerTableRecord
  2
0
 70
     0
 62
     7
  6
Continuous
370
    -3
390
F
  0
ENDTAB
  0
TABLE
  2
STYLE
  5
3
330
0
100
AcDbSymbolTable
 70
     1
  0
STYLE
  5
11
330
3
100
AcDbSymbolTableRecord
100
AcDbTextStyleTableRecord
  2
Standard
 70
     0
 40
0.0
 41
1.0
 50
0.0
 71
     0
 42
0.2
  3
txt
  4

  0
ENDTAB
  0
TABLE
  2
VIEW
  5
6
330
0
100
AcDbSymbolTable
 70
     0
  0
ENDTAB
  0
TABLE
  2
UCS
  5
7
330
0
100
AcDbSymbolTable
 70
     0
  0
ENDTAB
  0
TABLE
  2
APPID
  5
9
330
0
100
AcDbSymbolTable
 70
     1
  0
APPID
  5
12
330
9
100
AcDbSymbolTableRecord
100
AcDbRegAppTableRecord
  2
ACAD
 70
     0
  0
ENDTAB
  0
TABLE
  2
DIMSTYLE
  5
A
330
0
100
AcDbSymbolTable
 70
     1
100
AcDbDimStyleTable
 71
     0
  0
DIMSTYLE
105
158
330
A
100
AcDbSymbolTableRecord
100
AcDbDimStyleTableRecord
  2
Standard
 70
     0
340
11
  0
ENDTAB
  0
TABLE
  2
BLOCK_RECORD
  5
1
330
0
100
AcDbSymbolTable
 70
     0
  0
BLOCK_RECORD
  5
1E
330
1
100
AcDbSymbolTableRecord
100
AcDbBlockTableRecord
  2
*Model_Space
340
21
  0
BLOCK_RECORD
  5
1A
330
1
100
AcDbSymbolTableRecord
100
AcDbBlockTableRecord
  2
*Paper_Space
340
1D
  0
ENDTAB
  0
ENDSEC
  0
SECTION
  2
BLOCKS
  0
BLOCK
  5
1F
330
1E
100
AcDbEntity
  8
0
100
AcDbBlockBegin
  2
*Model_Space
 70
     0
 10
0.0
 20
0.0
 30
0.0
  3
*Model_Space
  1

  0
ENDBLK
  5
20
330
1E
100
AcDbEntity
  8
0
100
AcDbBlockEnd
  0
BLOCK
  5
1B
330
1A
100
AcDbEntity
 67
     1
  8
0
100
AcDbBlockBegin
  2
*Paper_Space
 70
     0
 10
0.0
 20
0.0
 30
0.0
  3
*Paper_Space
  1

  0
ENDBLK
  5
1C
330
1A
100
AcDbEntity
 67
     1
  8
0
100
AcDbBlockEnd
  0
ENDSEC
  0
SECTION
  2
ENTITIES
  0
LINE
  5
22
330
1E
100
AcDbEntity
  8
0
100
AcDbLine
 10
17.136
 20
91.50724999999999
 30
0.0
 11
25.296
 21
88.24324999999999
 31
0.0
  0
LINE
  5
23
330
1E
100
AcDbEntity
  8
0
100
AcDbLine
 10
10.60799999999999
 20
97.62725000000001
 30
0.0
 11
17.544
 21
92.32325000000001
 31
0.0
  0
LINE
  5
24
330
1E
100
AcDbEntity
  8
0
100
AcDbLine
 10
9.92799999999999
 20
96.94725
 30
0.0
 11
17.136
 21
91.50724999999999
 31
0.0
  0
LINE
  5
25
330
1E
100
AcDbEntity
  8
0
100
AcDbLine
 10
9.92799999999999
 20
96.94725
 30
0.0
 11
17.136
 21
91.50724999999999
 31
0.0
  0
LINE
  5
26
330
1E
100
AcDbEntity
  8
0
100
AcDbLine
 10
17.544
 20
92.32325000000001
 30
0.0
 11
25.432
 21
89.05925000000001
 31
0.0
  0
LINE
  5
27
330
1E
100
AcDbEntity
  8
0
100
AcDbLine
 10
17.136
 20
91.50724999999999
 30
0.0
 11
25.296
 21
88.24324999999999
 31
0.0
  0
LINE
  5
28
330
1E
100
AcDbEntity
  8
0
100
AcDbLine
 10
1.223999999999989
 20
112.3152499999999
 30
0.0
 11
4.488
 21
104.1552499999999
 31
0.0
  0
LINE
  5
29
330
1E
100
AcDbEntity
  8
0
100
AcDbLine
 10
2.039999999999989
 20
112.45125
 30
0.0
 11
5.30399999999999
 21
104.5632499999999
 31
0.0
  0
LINE
  5
2A
330
1E
100
AcDbEntity
  8
0
100
AcDbLine
 10
1.223999999999989
 20
112.3152499999999
 30
0.0
 11
4.488
 21
104.1552499999999
 31
0.0
  0
LINE
  5
2B
330
1E
100
AcDbEntity
  8
0
100
AcDbLine
 10
5.30399999999999
 20
104.5632499999999
 30
0.0
 11
10.60799999999999
 21
97.62725000000001
 31
0.0
  0
LINE
  5
2C
330
1E
100
AcDbEntity
  8
0
100
AcDbLine
 10
4.488
 20
104.1552499999999
 30
0.0
 11
9.92799999999999
 21
96.94725
 31
0.0
  0
LINE
  5
2D
330
1E
100
AcDbEntity
  8
0
100
AcDbLine
 10
0.8159999999999939
 20
121.01925
 30
0.0
 11
2.039999999999989
 21
129.58725
 31
0.0
  0
LINE
  5
2E
330
1E
100
AcDbEntity
  8
0
100
AcDbLine
 10
0.8159999999999939
 20
121.01925
 30
0.0
 11
2.039999999999989
 21
112.45125
 31
0.0
  0
LINE
  5
2F
330
1E
100
AcDbEntity
  8
0
100
AcDbLine
 10
2.039999999999989
 20
129.58725
 30
0.0
 11
5.30399999999999
 21
137.4752499999999
 31
0.0
  0
LINE
  5
30
330
1E
100
AcDbEntity
  8
0
100
AcDbLine
 10
1.223999999999989
 20
129.72325
 30
0.0
 11
4.488
 21
137.88325
 31
0.0
  0
LINE
  5
31
330
1E
100
AcDbEntity
  8
0
100
AcDbLine
 10
-0.0000000000000061
 20
121.01925
 30
0.0
 11
1.223999999999989
 21
129.72325
 31
0.0
  0
LINE
  5
32
330
1E
100
AcDbEntity
  8
0
100
AcDbLine
 10
-0.0000000000000061
 20
121.01925
 30
0.0
 11
1.223999999999989
 21
112.3152499999999
 31
0.0
  0
LINE
  5
33
330
1E
100
AcDbEntity
  8
0
100
AcDbLine
 10
5.30399999999999
 20
137.4752499999999
 30
0.0
 11
10.60799999999999
 21
144.4112499999999
 31
0.0
  0
LINE
  5
34
330
1E
100
AcDbEntity
  8
0
100
AcDbLine
 10
4.488
 20
137.88325
 30
0.0
 11
9.92799999999999
 21
145.09125
 31
0.0
  0
LINE
  5
35
330
1E
100
AcDbEntity
  8
0
100
AcDbLine
 10
1.223999999999989
 20
129.72325
 30
0.0
 11
4.488
 21
137.88325
 31
0.0
  0
LINE
  5
36
330
1E
100
AcDbEntity
  8
0
100
AcDbLine
 10
9.56
 20
127.57125
 30
0.0
 11
12.056
 21
133.6032499999999
 31
0.0
  0
LINE
  5
37
330
1E
100
AcDbEntity
  8
0
100
AcDbLine
 10
8.935999999999991
 20
127.67525
 30
0.0
 11
11.43199999999999
 21
133.9152499999999
 31
0.0
  0
LINE
  5
38
330
1E
100
AcDbEntity
  8
0
100
AcDbLine
 10
9.92799999999999
 20
145.09125
 30
0.0
 11
17.136
 21
150.53125
 31
0.0
  0
LINE
  5
39
330
1E
100
AcDbEntity
  8
0
100
AcDbLine
 10
10.60799999999999
 20
144.4112499999999
 30
0.0
 11
17.544
 21
149.71525
 31
0.0
  0
LINE
  5
3A
330
1E
100
AcDbEntity
  8
0
100
AcDbLine
 10
11.43199999999999
 20
133.9152499999999
 30
0.0
 11
15.592
 21
139.4272499999999
 31
0.0
  0
LINE
  5
3B
330
1E
100
AcDbEntity
  8
0
100
AcDbLine
 10
8.623999999999989
 20
121.01925
 30
0.0
 11
9.56
 21
114.46725
 31
0.0
  0
LINE
  5
3C
330
1E
100
AcDbEntity
  8
0
100
AcDbLine
 10
8.623999999999989
 20
121.01925
 30
0.0
 11
9.56
 21
127.57125
 31
0.0
  0
LINE
  5
3D
330
1E
100
AcDbEntity
  8
0
100
AcDbLine
 10
9.56
 20
114.46725
 30
0.0
 11
12.056
 21
108.43525
 31
0.0
  0
LINE
  5
3E
330
1E
100
AcDbEntity
  8
0
100
AcDbLine
 10
7.99999999999999
 20
121.01925
 30
0.0
 11
8.935999999999991
 21
114.36325
 31
0.0
  0
LINE
  5
3F
330
1E
100
AcDbEntity
  8
0
100
AcDbLine
 10
7.99999999999999
 20
121.01925
 30
0.0
 11
8.935999999999991
 21
127.67525
 31
0.0
  0
LINE
  5
40
330
1E
100
AcDbEntity
  8
0
100
AcDbLine
 10
8.935999999999991
 20
114.36325
 30
0.0
 11
11.43199999999999
 21
108.12325
 31
0.0
  0
LINE
  5
41
330
1E
100
AcDbEntity
  8
0
100
AcDbLine
 10
12.056
 20
133.6032499999999
 30
0.0
 11
16.112
 21
138.90725
 31
0.0
  0
LINE
  5
42
330
1E
100
AcDbEntity
  8
0
100
AcDbLine
 10
16.112
 20
138.90725
 30
0.0
 11
21.41599999999999
 21
142.9632499999999
 31
0.0
  0
LINE
  5
43
330
1E
100
AcDbEntity
  8
0
100
AcDbLine
 10
17.544
 20
149.71525
 30
0.0
 11
25.432
 21
152.97925
 31
0.0
  0
LINE
  5
44
330
1E
100
AcDbEntity
  8
0
100
AcDbLine
 10
17.136
 20
150.53125
 30
0.0
 11
25.296
 21
153.79525
 31
0.0
  0
LINE
  5
45
330
1E
100
AcDbEntity
  8
0
100
AcDbLine
 10
21.10399999999999
 20
143.58725
 30
0.0
 11
27.344
 21
146.0832499999999
 31
0.0
  0
LINE
  5
46
330
1E
100
AcDbEntity
  8
0
100
AcDbLine
 10
12.056
 20
108.43525
 30
0.0
 11
16.112
 21
103.1312499999999
 31
0.0
  0
LINE
  5
47
330
1E
100
AcDbEntity
  8
0
100
AcDbLine
 10
16.112
 20
103.1312499999999
 30
0.0
 11
21.41599999999999
 21
99.07524999999999
 31
0.0
  0
LINE
  5
48
330
1E
100
AcDbEntity
  8
0
100
AcDbLine
 10
11.43199999999999
 20
108.12325
 30
0.0
 11
15.592
 21
102.6112499999999
 31
0.0
  0
LINE
  5
49
330
1E
100
AcDbEntity
  8
0
100
AcDbLine
 10
15.592
 20
102.6112499999999
 30
0.0
 11
21.10399999999999
 21
98.45125000000001
 31
0.0
  0
LINE
  5
4A
330
1E
100
AcDbEntity
  8
0
100
AcDbLine
 10
34.0
 20
95.01924999999999
 30
0.0
 11
98.0
 21
95.01924999999999
 31
0.0
  0
LINE
  5
4B
330
1E
100
AcDbEntity
  8
0
100
AcDbLine
 10
34.0
 20
95.64325
 30
0.0
 11
104.282
 21
95.64325
 31
0.0
  0
LINE
  5
4C
330
1E
100
AcDbEntity
  8
0
100
AcDbLine
 10
34.0
 20
95.64325
 30
0.0
 11
104.282
 21
95.64325
 31
0.0
  0
LINE
  5
4D
330
1E
100
AcDbEntity
  8
0
100
AcDbLine
 10
25.432
 20
89.05925000000001
 30
0.0
 11
34.0
 21
87.83525
 31
0.0
  0
LINE
  5
4E
330
1E
100
AcDbEntity
  8
0
100
AcDbLine
 10
25.296
 20
88.24324999999999
 30
0.0
 11
34.0
 21
87.01925000000001
 31
0.0
  0
LINE
  5
4F
330
1E
100
AcDbEntity
  8
0
100
AcDbLine
 10
34.0
 20
87.83525
 30
0.0
 11
42.56800000000001
 21
89.05925000000001
 31
0.0
  0
LINE
  5
50
330
1E
100
AcDbEntity
  8
0
100
AcDbLine
 10
34.0
 20
87.01925000000001
 30
0.0
 11
42.70399999999999
 21
88.24324999999999
 31
0.0
  0
LINE
  5
51
330
1E
100
AcDbEntity
  8
0
100
AcDbLine
 10
101.5
 20
59.98075
 30
0.0
 11
101.5
 21
-0.0192500000000018
 31
0.0
  0
LINE
  5
52
330
1E
100
AcDbEntity
  8
0
100
AcDbLine
 10
101.5
 20
59.98075
 30
0.0
 11
101.8
 21
59.98075
 31
0.0
  0
LINE
  5
53
330
1E
100
AcDbEntity
  8
0
100
AcDbLine
 10
101.5
 20
-0.0192500000000054
 30
0.0
 11
101.8629999999999
 21
0.0069499999999941
 31
0.0
  0
LINE
  5
54
330
1E
100
AcDbEntity
  8
0
100
AcDbLine
 10
101.5
 20
-0.0192500000000054
 30
0.0
 11
101.5
 21
59.98075
 31
0.0
  0
LINE
  5
55
330
1E
100
AcDbEntity
  8
0
100
AcDbLine
 10
101.5
 20
-0.0192500000000054
 30
0.0
 11
101.8629999999999
 21
0.0069499999999938
 31
0.0
  0
LINE
  5
56
330
1E
100
AcDbEntity
  8
0
100
AcDbLine
 10
101.8629999999999
 20
0.0069499999999938
 30
0.0
 11
102.5379999999999
 21
0.0819499999999948
 31
0.0
  0
LINE
  5
57
330
1E
100
AcDbEntity
  8
0
100
AcDbLine
 10
101.8
 20
59.98075
 30
0.0
 11
102.4999999999999
 21
59.98075
 31
0.0
  0
LINE
  5
58
330
1E
100
AcDbEntity
  8
0
100
AcDbLine
 10
102.5379999999999
 20
0.0819499999999948
 30
0.0
 11
103.776
 21
0.456749999999993
 31
0.0
  0
LINE
  5
59
330
1E
100
AcDbEntity
  8
0
100
AcDbLine
 10
103.776
 20
0.456749999999993
 30
0.0
 11
105.2769999999999
 21
1.13144999999999
 31
0.0
  0
LINE
  5
5A
330
1E
100
AcDbEntity
  8
0
100
AcDbLine
 10
105.2769999999999
 20
1.13144999999999
 30
0.0
 11
107.077
 21
2.25594999999999
 31
0.0
  0
LINE
  5
5B
330
1E
100
AcDbEntity
  8
0
100
AcDbLine
 10
105.4999999999999
 20
43.01924999999999
 30
0.0
 11
105.6
 21
42.01925
 31
0.0
  0
LINE
  5
5C
330
1E
100
AcDbEntity
  8
0
100
AcDbLine
 10
105.4999999999999
 20
43.01924999999999
 30
0.0
 11
105.4999999999999
 21
93.51924999999999
 31
0.0
  0
LINE
  5
5D
330
1E
100
AcDbEntity
  8
0
100
AcDbLine
 10
105.0
 20
43.01924999999999
 30
0.0
 11
105.0999999999999
 21
42.01925
 31
0.0
  0
LINE
  5
5E
330
1E
100
AcDbEntity
  8
0
100
AcDbLine
 10
105.0
 20
43.01924999999999
 30
0.0
 11
105.0
 21
93.51924999999999
 31
0.0
  0
LINE
  5
5F
330
1E
100
AcDbEntity
  8
0
100
AcDbLine
 10
105.0999999999999
 20
42.01925
 30
0.0
 11
105.4999999999999
 21
41.01925
 31
0.0
  0
LINE
  5
60
330
1E
100
AcDbEntity
  8
0
100
AcDbLine
 10
105.6
 20
42.01925
 30
0.0
 11
105.9
 21
41.21925
 31
0.0
  0
LINE
  5
61
330
1E
100
AcDbEntity
  8
0
100
AcDbLine
 10
105.9
 20
41.21925
 30
0.0
 11
106.4999999999999
 21
40.51924999999999
 31
0.0
  0
LINE
  5
62
330
1E
100
AcDbEntity
  8
0
100
AcDbLine
 10
106.4999999999999
 20
40.51924999999999
 30
0.0
 11
107.2999999999999
 21
39.91925
 31
0.0
  0
LINE
  5
63
330
1E
100
AcDbEntity
  8
0
100
AcDbLine
 10
105.4999999999999
 20
41.01925
 30
0.0
 11
106.2
 21
40.21925
 31
0.0
  0
LINE
  5
64
330
1E
100
AcDbEntity
  8
0
100
AcDbLine
 10
106.2
 20
40.21925
 30
0.0
 11
107.0
 21
39.51925
 31
0.0
  0
LINE
  5
65
330
1E
100
AcDbEntity
  8
0
100
AcDbLine
 10
107.0
 20
39.51925
 30
0.0
 11
108.0
 21
39.11925
 31
0.0
  0
LINE
  5
66
330
1E
100
AcDbEntity
  8
0
100
AcDbLine
 10
107.077
 20
2.25594999999999
 30
0.0
 11
109.0279999999999
 21
4.24244999999999
 31
0.0
  0
LINE
  5
67
330
1E
100
AcDbEntity
  8
0
100
AcDbLine
 10
110.7909999999999
 20
5.59184999999999
 30
0.0
 11
112.629
 21
6.79124999999999
 31
0.0
  0
LINE
  5
68
330
1E
100
AcDbEntity
  8
0
100
AcDbLine
 10
109.0279999999999
 20
4.24244999999999
 30
0.0
 11
110.7909999999999
 21
5.59184999999999
 31
0.0
  0
LINE
  5
69
330
1E
100
AcDbEntity
  8
0
100
AcDbLine
 10
112.629
 20
6.79124999999999
 30
0.0
 11
114.43
 21
7.99074999999999
 31
0.0
  0
LINE
  5
6A
330
1E
100
AcDbEntity
  8
0
100
AcDbLine
 10
110.7909999999999
 20
5.59184999999999
 30
0.0
 11
112.629
 21
6.79124999999999
 31
0.0
  0
LINE
  5
6B
330
1E
100
AcDbEntity
  8
0
100
AcDbLine
 10
112.629
 20
6.79124999999999
 30
0.0
 11
114.43
 21
7.99074999999999
 31
0.0
  0
LINE
  5
6C
330
1E
100
AcDbEntity
  8
0
100
AcDbLine
 10
114.43
 20
7.99074999999999
 30
0.0
 11
115.5179999999999
 21
9.04025
 31
0.0
  0
LINE
  5
6D
330
1E
100
AcDbEntity
  8
0
100
AcDbLine
 10
115.5179999999999
 20
9.04025
 30
0.0
 11
116.231
 21
9.75244999999999
 31
0.0
  0
LINE
  5
6E
330
1E
100
AcDbEntity
  8
0
100
AcDbLine
 10
107.2999999999999
 20
39.91925
 30
0.0
 11
108.0999999999999
 21
39.61925
 31
0.0
  0
LINE
  5
6F
330
1E
100
AcDbEntity
  8
0
100
AcDbLine
 10
108.0999999999999
 20
39.61925
 30
0.0
 11
109.0
 21
39.51925
 31
0.0
  0
LINE
  5
70
330
1E
100
AcDbEntity
  8
0
100
AcDbLine
 10
108.0
 20
39.11925
 30
0.0
 11
109.0
 21
39.01925
 31
0.0
  0
LINE
  5
71
330
1E
100
AcDbEntity
  8
0
100
AcDbLine
 10
109.8999999999999
 20
39.61925
 30
0.0
 11
110.6999999999999
 21
39.91925
 31
0.0
  0
LINE
  5
72
330
1E
100
AcDbEntity
  8
0
100
AcDbLine
 10
109.0
 20
39.51925
 30
0.0
 11
109.8999999999999
 21
39.61925
 31
0.0
  0
LINE
  5
73
330
1E
100
AcDbEntity
  8
0
100
AcDbLine
 10
109.0
 20
39.01925
 30
0.0
 11
110.0
 21
39.11925
 31
0.0
  0
LINE
  5
74
330
1E
100
AcDbEntity
  8
0
100
AcDbLine
 10
110.6999999999999
 20
39.91925
 30
0.0
 11
111.4999999999999
 21
40.51924999999999
 31
0.0
  0
LINE
  5
75
330
1E
100
AcDbEntity
  8
0
100
AcDbLine
 10
111.0
 20
39.51925
 30
0.0
 11
111.8
 21
40.21925
 31
0.0
  0
LINE
  5
76
330
1E
100
AcDbEntity
  8
0
100
AcDbLine
 10
111.8
 20
40.21925
 30
0.0
 11
112.5
 21
41.01925
 31
0.0
  0
LINE
  5
77
330
1E
100
AcDbEntity
  8
0
100
AcDbLine
 10
110.0
 20
39.11925
 30
0.0
 11
111.0
 21
39.51925
 31
0.0
  0
LINE
  5
78
330
1E
100
AcDbEntity
  8
0
100
AcDbLine
 10
112.5
 20
43.01924999999999
 30
0.0
 11
112.5
 21
93.51924999999999
 31
0.0
  0
LINE
  5
79
330
1E
100
AcDbEntity
  8
0
100
AcDbLine
 10
112.4
 20
42.01925
 30
0.0
 11
112.5
 21
43.01924999999999
 31
0.0
  0
LINE
  5
7A
330
1E
100
AcDbEntity
  8
0
100
AcDbLine
 10
112.0999999999999
 20
41.21925
 30
0.0
 11
112.4
 21
42.01925
 31
0.0
  0
LINE
  5
7B
330
1E
100
AcDbEntity
  8
0
100
AcDbLine
 10
113.0
 20
43.01924999999999
 30
0.0
 11
113.0
 21
93.51924999999999
 31
0.0
  0
LINE
  5
7C
330
1E
100
AcDbEntity
  8
0
100
AcDbLine
 10
112.9
 20
42.01925
 30
0.0
 11
113.0
 21
43.01924999999999
 31
0.0
  0
LINE
  5
7D
330
1E
100
AcDbEntity
  8
0
100
AcDbLine
 10
112.5
 20
41.01925
 30
0.0
 11
112.9
 21
42.01925
 31
0.0
  0
LINE
  5
7E
330
1E
100
AcDbEntity
  8
0
100
AcDbLine
 10
111.4999999999999
 20
40.51924999999999
 30
0.0
 11
112.0999999999999
 21
41.21925
 31
0.0
  0
LINE
  5
7F
330
1E
100
AcDbEntity
  8
0
100
AcDbLine
 10
114.2
 20
59.98075
 30
0.0
 11
116.4
 21
59.98075
 31
0.0
  0
LINE
  5
80
330
1E
100
AcDbEntity
  8
0
100
AcDbLine
 10
113.0
 20
59.98075
 30
0.0
 11
114.3
 21
59.98075
 31
0.0
  0
LINE
  5
81
330
1E
100
AcDbEntity
  8
0
100
AcDbLine
 10
113.0
 20
59.98075
 30
0.0
 11
114.2
 21
59.98075
 31
0.0
  0
LINE
  5
82
330
1E
100
AcDbEntity
  8
0
100
AcDbLine
 10
114.3
 20
59.98075
 30
0.0
 11
115.5
 21
59.98075
 31
0.0
  0
LINE
  5
83
330
1E
100
AcDbEntity
  8
0
100
AcDbLine
 10
115.5
 20
59.98075
 30
0.0
 11
116.2
 21
59.98075
 31
0.0
  0
LINE
  5
84
330
1E
100
AcDbEntity
  8
0
100
AcDbLine
 10
116.5
 20
59.98075
 30
0.0
 11
118.1
 21
59.98075
 31
0.0
  0
LINE
  5
85
330
1E
100
AcDbEntity
  8
0
100
AcDbLine
 10
116.5
 20
59.98075
 30
0.0
 11
116.5
 21
9.980749999999989
 31
0.0
  0
LINE
  5
86
330
1E
100
AcDbEntity
  8
0
100
AcDbLine
 10
116.4
 20
59.98075
 30
0.0
 11
118.1
 21
59.98075
 31
0.0
  0
LINE
  5
87
330
1E
100
AcDbEntity
  8
0
100
AcDbLine
 10
118.1
 20
59.98075
 30
0.0
 11
119.1
 21
59.98075
 31
0.0
  0
LINE
  5
88
330
1E
100
AcDbEntity
  8
0
100
AcDbLine
 10
119.5
 20
59.98075
 30
0.0
 11
120.5
 21
89.98025
 31
0.0
  0
LINE
  5
89
330
1E
100
AcDbEntity
  8
0
100
AcDbLine
 10
119.1
 20
59.98075
 30
0.0
 11
119.5
 21
59.98075
 31
0.0
  0
LINE
  5
8A
330
1E
100
AcDbEntity
  8
0
100
AcDbLine
 10
116.5
 20
9.980749999999989
 30
0.0
 11
116.5
 21
59.98075
 31
0.0
  0
LINE
  5
8B
330
1E
100
AcDbEntity
  8
0
100
AcDbLine
 10
116.2
 20
59.98075
 30
0.0
 11
116.5
 21
59.98075
 31
0.0
  0
LINE
  5
8C
330
1E
100
AcDbEntity
  8
0
100
AcDbLine
 10
116.231
 20
9.75244999999999
 30
0.0
 11
116.5
 21
9.980749999999989
 31
0.0
  0
LINE
  5
8D
330
1E
100
AcDbEntity
  8
0
100
AcDbLine
 10
107.077
 20
2.25594999999999
 30
0.0
 11
109.0279999999999
 21
4.24244999999999
 31
0.0
  0
LINE
  5
8E
330
1E
100
AcDbEntity
  8
0
100
AcDbLine
 10
105.2769999999999
 20
1.13144999999999
 30
0.0
 11
107.077
 21
2.25594999999999
 31
0.0
  0
LINE
  5
8F
330
1E
100
AcDbEntity
  8
0
100
AcDbLine
 10
103.7
 20
59.98075
 30
0.0
 11
105.0
 21
59.98075
 31
0.0
  0
LINE
  5
90
330
1E
100
AcDbEntity
  8
0
100
AcDbLine
 10
103.776
 20
0.456749999999994
 30
0.0
 11
105.2769999999999
 21
1.13144999999999
 31
0.0
  0
LINE
  5
91
330
1E
100
AcDbEntity
  8
0
100
AcDbLine
 10
102.4999999999999
 20
59.98075
 30
0.0
 11
103.7
 21
59.98075
 31
0.0
  0
LINE
  5
92
330
1E
100
AcDbEntity
  8
0
100
AcDbLine
 10
102.5379999999999
 20
0.0819499999999952
 30
0.0
 11
103.776
 21
0.456749999999994
 31
0.0
  0
LINE
  5
93
330
1E
100
AcDbEntity
  8
0
100
AcDbLine
 10
101.8629999999999
 20
0.0069499999999941
 30
0.0
 11
102.5379999999999
 21
0.0819499999999952
 31
0.0
  0
LINE
  5
94
330
1E
100
AcDbEntity
  8
0
100
AcDbLine
 10
103.8
 20
59.98075
 30
0.0
 11
105.0
 21
59.98075
 31
0.0
  0
LINE
  5
95
330
1E
100
AcDbEntity
  8
0
100
AcDbLine
 10
101.6
 20
59.98075
 30
0.0
 11
103.8
 21
59.98075
 31
0.0
  0
LINE
  5
96
330
1E
100
AcDbEntity
  8
0
100
AcDbLine
 10
99.90000000000001
 20
59.98075
 30
0.0
 11
101.6
 21
59.98075
 31
0.0
  0
LINE
  5
97
330
1E
100
AcDbEntity
  8
0
100
AcDbLine
 10
99.90000000000001
 20
59.98075
 30
0.0
 11
101.5
 21
59.98075
 31
0.0
  0
LINE
  5
98
330
1E
100
AcDbEntity
  8
0
100
AcDbLine
 10
98.9
 20
59.98075
 30
0.0
 11
99.90000000000001
 21
59.98075
 31
0.0
  0
LINE
  5
99
330
1E
100
AcDbEntity
  8
0
100
AcDbLine
 10
98.50000000000001
 20
59.98075
 30
0.0
 11
98.9
 21
59.98075
 31
0.0
  0
LINE
  5
9A
330
1E
100
AcDbEntity
  8
0
100
AcDbLine
 10
184.0
 20
87.83525
 30
0.0
 11
192.5679999999999
 21
89.05925000000001
 31
0.0
  0
LINE
  5
9B
330
1E
100
AcDbEntity
  8
0
100
AcDbLine
 10
192.704
 20
88.24324999999999
 30
0.0
 11
200.864
 21
91.50724999999999
 31
0.0
  0
LINE
  5
9C
330
1E
100
AcDbEntity
  8
0
100
AcDbLine
 10
192.704
 20
88.24324999999999
 30
0.0
 11
200.864
 21
91.50724999999999
 31
0.0
  0
LINE
  5
9D
330
1E
100
AcDbEntity
  8
0
100
AcDbLine
 10
184.0
 20
87.01925000000001
 30
0.0
 11
192.704
 21
88.24324999999999
 31
0.0
  0
LINE
  5
9E
330
1E
100
AcDbEntity
  8
0
100
AcDbLine
 10
175.2959999999999
 20
88.24324999999999
 30
0.0
 11
184.0
 21
87.01925000000001
 31
0.0
  0
LINE
  5
9F
330
1E
100
AcDbEntity
  8
0
100
AcDbLine
 10
42.56800000000001
 20
89.05925000000001
 30
0.0
 11
50.456
 21
92.32325000000001
 31
0.0
  0
LINE
  5
A0
330
1E
100
AcDbEntity
  8
0
100
AcDbLine
 10
50.456
 20
92.32325000000001
 30
0.0
 11
53.98153846153849
 21
95.01924999999999
 31
0.0
  0
LINE
  5
A1
330
1E
100
AcDbEntity
  8
0
100
AcDbLine
 10
50.864
 20
91.50724999999999
 30
0.0
 11
55.5174
 21
95.01924999999999
 31
0.0
  0
LINE
  5
A2
330
1E
100
AcDbEntity
  8
0
100
AcDbLine
 10
113.0
 20
89.98025
 30
0.0
 11
114.7
 21
89.98025
 31
0.0
  0
LINE
  5
A3
330
1E
100
AcDbEntity
  8
0
100
AcDbLine
 10
114.7
 20
89.98025
 30
0.0
 11
117.1
 21
89.98025
 31
0.0
  0
LINE
  5
A4
330
1E
100
AcDbEntity
  8
0
100
AcDbLine
 10
117.1
 20
89.98025
 30
0.0
 11
119.0
 21
89.98025
 31
0.0
  0
LINE
  5
A5
330
1E
100
AcDbEntity
  8
0
100
AcDbLine
 10
119.0
 20
89.98025
 30
0.0
 11
120.1
 21
89.98025
 31
0.0
  0
LINE
  5
A6
330
1E
100
AcDbEntity
  8
0
100
AcDbLine
 10
103.2999999999999
 20
89.98025
 30
0.0
 11
105.0
 21
89.98025
 31
0.0
  0
LINE
  5
A7
330
1E
100
AcDbEntity
  8
0
100
AcDbLine
 10
100.9
 20
89.98025
 30
0.0
 11
103.2999999999999
 21
89.98025
 31
0.0
  0
LINE
  5
A8
330
1E
100
AcDbEntity
  8
0
100
AcDbLine
 10
99.0
 20
89.98025
 30
0.0
 11
100.9
 21
89.98025
 31
0.0
  0
LINE
  5
A9
330
1E
100
AcDbEntity
  8
0
100
AcDbLine
 10
97.9
 20
89.98025
 30
0.0
 11
99.0
 21
89.98025
 31
0.0
  0
LINE
  5
AA
330
1E
100
AcDbEntity
  8
0
100
AcDbLine
 10
97.5
 20
89.98025
 30
0.0
 11
98.50000000000001
 21
59.98075
 31
0.0
  0
LINE
  5
AB
330
1E
100
AcDbEntity
  8
0
100
AcDbLine
 10
97.5
 20
89.98025
 30
0.0
 11
97.9
 21
89.98025
 31
0.0
  0
LINE
  5
AC
330
1E
100
AcDbEntity
  8
0
100
AcDbLine
 10
103.5439999999999
 20
90.34024999999999
 30
0.0
 11
105.0
 21
90.34024999999999
 31
0.0
  0
LINE
  5
AD
330
1E
100
AcDbEntity
  8
0
100
AcDbLine
 10
101.212
 20
90.34024999999999
 30
0.0
 11
103.5439999999999
 21
90.34024999999999
 31
0.0
  0
LINE
  5
AE
330
1E
100
AcDbEntity
  8
0
100
AcDbLine
 10
99.45200000000001
 20
90.34024999999999
 30
0.0
 11
101.212
 21
90.34024999999999
 31
0.0
  0
LINE
  5
AF
330
1E
100
AcDbEntity
  8
0
100
AcDbLine
 10
98.396
 20
90.34024999999999
 30
0.0
 11
99.45200000000001
 21
90.34024999999999
 31
0.0
  0
LINE
  5
B0
330
1E
100
AcDbEntity
  8
0
100
AcDbLine
 10
113.0
 20
90.34024999999999
 30
0.0
 11
114.456
 21
90.34024999999999
 31
0.0
  0
LINE
  5
B1
330
1E
100
AcDbEntity
  8
0
100
AcDbLine
 10
114.456
 20
90.34024999999999
 30
0.0
 11
116.788
 21
90.34024999999999
 31
0.0
  0
LINE
  5
B2
330
1E
100
AcDbEntity
  8
0
100
AcDbLine
 10
116.788
 20
90.34024999999999
 30
0.0
 11
118.5479999999999
 21
90.34024999999999
 31
0.0
  0
LINE
  5
B3
330
1E
100
AcDbEntity
  8
0
100
AcDbLine
 10
118.5479999999999
 20
90.34024999999999
 30
0.0
 11
119.6039999999999
 21
90.34024999999999
 31
0.0
  0
LINE
  5
B4
330
1E
100
AcDbEntity
  8
0
100
AcDbLine
 10
119.6039999999999
 20
90.34024999999999
 30
0.0
 11
120.0
 21
90.34024999999999
 31
0.0
  0
LINE
  5
B5
330
1E
100
AcDbEntity
  8
0
100
AcDbLine
 10
119.7359999999999
 20
89.98025
 30
0.0
 11
120.0
 21
90.34024999999999
 31
0.0
  0
LINE
  5
B6
330
1E
100
AcDbEntity
  8
0
100
AcDbLine
 10
120.1
 20
89.98025
 30
0.0
 11
120.5
 21
89.98025
 31
0.0
  0
LINE
  5
B7
330
1E
100
AcDbEntity
  8
0
100
AcDbLine
 10
120.0
 20
90.34024999999999
 30
0.0
 11
120.0
 21
95.01924999999999
 31
0.0
  0
LINE
  5
B8
330
1E
100
AcDbEntity
  8
0
100
AcDbLine
 10
98.0
 20
90.34024999999999
 30
0.0
 11
98.26399999999999
 21
89.98025
 31
0.0
  0
LINE
  5
B9
330
1E
100
AcDbEntity
  8
0
100
AcDbLine
 10
98.0
 20
90.34024999999999
 30
0.0
 11
98.0
 21
95.01924999999999
 31
0.0
  0
LINE
  5
BA
330
1E
100
AcDbEntity
  8
0
100
AcDbLine
 10
98.0
 20
90.34024999999999
 30
0.0
 11
98.396
 21
90.34024999999999
 31
0.0
  0
LINE
  5
BB
330
1E
100
AcDbEntity
  8
0
100
AcDbLine
 10
175.432
 20
89.05925000000001
 30
0.0
 11
184.0
 21
87.83525
 31
0.0
  0
LINE
  5
BC
330
1E
100
AcDbEntity
  8
0
100
AcDbLine
 10
105.4999999999999
 20
93.51924999999999
 30
0.0
 11
105.4999999999999
 21
94.51925000000001
 31
0.0
  0
LINE
  5
BD
330
1E
100
AcDbEntity
  8
0
100
AcDbLine
 10
105.4999999999999
 20
93.51924999999999
 30
0.0
 11
105.4999999999999
 21
43.01924999999999
 31
0.0
  0
LINE
  5
BE
330
1E
100
AcDbEntity
  8
0
100
AcDbLine
 10
105.0
 20
93.51924999999999
 30
0.0
 11
105.0
 21
43.01924999999999
 31
0.0
  0
LINE
  5
BF
330
1E
100
AcDbEntity
  8
0
100
AcDbLine
 10
104.9
 20
94.41925000000001
 30
0.0
 11
105.0
 21
93.51924999999999
 31
0.0
  0
LINE
  5
C0
330
1E
100
AcDbEntity
  8
0
100
AcDbLine
 10
112.5
 20
93.51924999999999
 30
0.0
 11
112.5
 21
43.01924999999999
 31
0.0
  0
LINE
  5
C1
330
1E
100
AcDbEntity
  8
0
100
AcDbLine
 10
112.5
 20
93.51924999999999
 30
0.0
 11
112.5
 21
94.51925000000001
 31
0.0
  0
LINE
  5
C2
330
1E
100
AcDbEntity
  8
0
100
AcDbLine
 10
113.0
 20
93.51924999999999
 30
0.0
 11
113.0
 21
43.01924999999999
 31
0.0
  0
LINE
  5
C3
330
1E
100
AcDbEntity
  8
0
100
AcDbLine
 10
113.0
 20
93.51924999999999
 30
0.0
 11
113.1
 21
94.41925000000001
 31
0.0
  0
LINE
  5
C4
330
1E
100
AcDbEntity
  8
0
100
AcDbLine
 10
105.4999999999999
 20
94.51925000000001
 30
0.0
 11
105.4999999999999
 21
93.51924999999999
 31
0.0
  0
LINE
  5
C5
330
1E
100
AcDbEntity
  8
0
100
AcDbLine
 10
112.5
 20
94.51925000000001
 30
0.0
 11
112.5
 21
93.51924999999999
 31
0.0
  0
LINE
  5
C6
330
1E
100
AcDbEntity
  8
0
100
AcDbLine
 10
112.5
 20
94.51925000000001
 30
0.0
 11
112.9
 21
95.41925
 31
0.0
  0
LINE
  5
C7
330
1E
100
AcDbEntity
  8
0
100
AcDbLine
 10
113.1
 20
94.41925000000001
 30
0.0
 11
113.4
 21
95.21925000000001
 31
0.0
  0
LINE
  5
C8
330
1E
100
AcDbEntity
  8
0
100
AcDbLine
 10
164.018461538462
 20
95.01924999999999
 30
0.0
 11
167.544
 21
92.32325000000001
 31
0.0
  0
LINE
  5
C9
330
1E
100
AcDbEntity
  8
0
100
AcDbLine
 10
167.544
 20
92.32325000000001
 30
0.0
 11
175.432
 21
89.05925000000001
 31
0.0
  0
LINE
  5
CA
330
1E
100
AcDbEntity
  8
0
100
AcDbLine
 10
167.1359999999999
 20
91.50724999999999
 30
0.0
 11
175.2959999999999
 21
88.24324999999999
 31
0.0
  0
LINE
  5
CB
330
1E
100
AcDbEntity
  8
0
100
AcDbLine
 10
162.4825999999999
 20
95.01924999999999
 30
0.0
 11
167.1359999999999
 21
91.50724999999999
 31
0.0
  0
LINE
  5
CC
330
1E
100
AcDbEntity
  8
0
100
AcDbLine
 10
162.4825999999999
 20
95.01924999999999
 30
0.0
 11
167.1359999999999
 21
91.50724999999999
 31
0.0
  0
LINE
  5
CD
330
1E
100
AcDbEntity
  8
0
100
AcDbLine
 10
167.1359999999999
 20
91.50724999999999
 30
0.0
 11
175.2959999999999
 21
88.24324999999999
 31
0.0
  0
LINE
  5
CE
330
1E
100
AcDbEntity
  8
0
100
AcDbLine
 10
192.5679999999999
 20
89.05925000000001
 30
0.0
 11
200.456
 21
92.32325000000001
 31
0.0
  0
LINE
  5
CF
330
1E
100
AcDbEntity
  8
0
100
AcDbLine
 10
200.456
 20
92.32325000000001
 30
0.0
 11
207.392
 21
97.62725000000001
 31
0.0
  0
LINE
  5
D0
330
1E
100
AcDbEntity
  8
0
100
AcDbLine
 10
200.864
 20
91.50724999999999
 30
0.0
 11
208.0719999999999
 21
96.94725
 31
0.0
  0
LINE
  5
D1
330
1E
100
AcDbEntity
  8
0
100
AcDbLine
 10
105.0999999999999
 20
95.41925
 30
0.0
 11
105.4999999999999
 21
94.51925000000001
 31
0.0
  0
LINE
  5
D2
330
1E
100
AcDbEntity
  8
0
100
AcDbLine
 10
104.6
 20
95.21925000000001
 30
0.0
 11
104.9
 21
94.41925000000001
 31
0.0
  0
LINE
  5
D3
330
1E
100
AcDbEntity
  8
0
100
AcDbLine
 10
112.9
 20
95.41925
 30
0.0
 11
113.5999999999999
 21
96.31925
 31
0.0
  0
LINE
  5
D4
330
1E
100
AcDbEntity
  8
0
100
AcDbLine
 10
113.4
 20
95.21925000000001
 30
0.0
 11
114.0
 21
96.01925000000001
 31
0.0
  0
LINE
  5
D5
330
1E
100
AcDbEntity
  8
0
100
AcDbLine
 10
98.0
 20
95.01924999999999
 30
0.0
 11
98.0
 21
90.34024999999999
 31
0.0
  0
LINE
  5
D6
330
1E
100
AcDbEntity
  8
0
100
AcDbLine
 10
120.0
 20
95.01924999999999
 30
0.0
 11
120.0
 21
90.34024999999999
 31
0.0
  0
LINE
  5
D7
330
1E
100
AcDbEntity
  8
0
100
AcDbLine
 10
184.0
 20
95.64325
 30
0.0
 11
190.552
 21
96.57925
 31
0.0
  0
LINE
  5
D8
330
1E
100
AcDbEntity
  8
0
100
AcDbLine
 10
184.0
 20
95.01924999999999
 30
0.0
 11
190.6559999999999
 21
95.95525
 31
0.0
  0
LINE
  5
D9
330
1E
100
AcDbEntity
  8
0
100
AcDbLine
 10
190.6559999999999
 20
95.95525
 30
0.0
 11
196.8959999999999
 21
98.45125000000001
 31
0.0
  0
LINE
  5
DA
330
1E
100
AcDbEntity
  8
0
100
AcDbLine
 10
113.7179999999999
 20
95.64325
 30
0.0
 11
184.0
 21
95.64325
 31
0.0
  0
LINE
  5
DB
330
1E
100
AcDbEntity
  8
0
100
AcDbLine
 10
120.0
 20
95.01924999999999
 30
0.0
 11
184.0
 21
95.01924999999999
 31
0.0
  0
LINE
  5
DC
330
1E
100
AcDbEntity
  8
0
100
AcDbLine
 10
50.864
 20
91.50724999999999
 30
0.0
 11
55.5174
 21
95.01924999999999
 31
0.0
  0
LINE
  5
DD
330
1E
100
AcDbEntity
  8
0
100
AcDbLine
 10
42.70399999999999
 20
88.24324999999999
 30
0.0
 11
50.864
 21
91.50724999999999
 31
0.0
  0
LINE
  5
DE
330
1E
100
AcDbEntity
  8
0
100
AcDbLine
 10
42.70399999999999
 20
88.24324999999999
 30
0.0
 11
50.864
 21
91.50724999999999
 31
0.0
  0
LINE
  5
DF
330
1E
100
AcDbEntity
  8
0
100
AcDbLine
 10
34.0
 20
95.01924999999999
 30
0.0
 11
98.0
 21
95.01924999999999
 31
0.0
  0
LINE
  5
E0
330
1E
100
AcDbEntity
  8
0
100
AcDbLine
 10
25.432
 20
152.97925
 30
0.0
 11
34.0
 21
154.2032499999999
 31
0.0
  0
LINE
  5
E1
330
1E
100
AcDbEntity
  8
0
100
AcDbLine
 10
25.296
 20
153.79525
 30
0.0
 11
34.0
 21
155.01925
 31
0.0
  0
LINE
  5
E2
330
1E
100
AcDbEntity
  8
0
100
AcDbLine
 10
21.41599999999999
 20
142.9632499999999
 30
0.0
 11
27.448
 21
145.4592499999999
 31
0.0
  0
LINE
  5
E3
330
1E
100
AcDbEntity
  8
0
100
AcDbLine
 10
27.448
 20
145.4592499999999
 30
0.0
 11
34.0
 21
146.3952499999999
 31
0.0
  0
LINE
  5
E4
330
1E
100
AcDbEntity
  8
0
100
AcDbLine
 10
27.344
 20
146.0832499999999
 30
0.0
 11
34.0
 21
147.01925
 31
0.0
  0
LINE
  5
E5
330
1E
100
AcDbEntity
  8
0
100
AcDbLine
 10
21.41599999999999
 20
99.07524999999999
 30
0.0
 11
27.448
 21
96.57925
 31
0.0
  0
LINE
  5
E6
330
1E
100
AcDbEntity
  8
0
100
AcDbLine
 10
34.0
 20
146.3952499999999
 30
0.0
 11
109.0
 21
146.3952499999999
 31
0.0
  0
LINE
  5
E7
330
1E
100
AcDbEntity
  8
0
100
AcDbLine
 10
34.0
 20
147.01925
 30
0.0
 11
109.0
 21
147.01925
 31
0.0
  0
LINE
  5
E8
330
1E
100
AcDbEntity
  8
0
100
AcDbLine
 10
34.0
 20
147.01925
 30
0.0
 11
109.0
 21
147.01925
 31
0.0
  0
LINE
  5
E9
330
1E
100
AcDbEntity
  8
0
100
AcDbLine
 10
34.0
 20
146.3952499999999
 30
0.0
 11
109.0
 21
146.3952499999999
 31
0.0
  0
LINE
  5
EA
330
1E
100
AcDbEntity
  8
0
100
AcDbLine
 10
42.56800000000001
 20
152.97925
 30
0.0
 11
50.456
 21
149.71525
 31
0.0
  0
LINE
  5
EB
330
1E
100
AcDbEntity
  8
0
100
AcDbLine
 10
34.0
 20
154.2032499999999
 30
0.0
 11
42.56800000000001
 21
152.97925
 31
0.0
  0
LINE
  5
EC
330
1E
100
AcDbEntity
  8
0
100
AcDbLine
 10
85.4
 20
114.71925
 30
0.0
 11
87.79999999999999
 21
108.8192499999999
 31
0.0
  0
LINE
  5
ED
330
1E
100
AcDbEntity
  8
0
100
AcDbLine
 10
84.50000000000001
 20
121.01925
 30
0.0
 11
85.4
 21
114.71925
 31
0.0
  0
LINE
  5
EE
330
1E
100
AcDbEntity
  8
0
100
AcDbLine
 10
84.50000000000001
 20
121.01925
 30
0.0
 11
85.4
 21
127.3192499999999
 31
0.0
  0
LINE
  5
EF
330
1E
100
AcDbEntity
  8
0
100
AcDbLine
 10
84.9
 20
114.6192499999999
 30
0.0
 11
87.3
 21
108.6192499999999
 31
0.0
  0
LINE
  5
F0
330
1E
100
AcDbEntity
  8
0
100
AcDbLine
 10
96.79999999999999
 20
99.81925
 30
0.0
 11
102.7
 21
97.41925000000001
 31
0.0
  0
LINE
  5
F1
330
1E
100
AcDbEntity
  8
0
100
AcDbLine
 10
87.79999999999999
 20
108.8192499999999
 30
0.0
 11
91.69999999999999
 21
103.7192499999999
 31
0.0
  0
LINE
  5
F2
330
1E
100
AcDbEntity
  8
0
100
AcDbLine
 10
91.69999999999999
 20
103.7192499999999
 30
0.0
 11
96.79999999999999
 21
99.81925
 31
0.0
  0
LINE
  5
F3
330
1E
100
AcDbEntity
  8
0
100
AcDbLine
 10
91.3
 20
103.3192499999999
 30
0.0
 11
96.6
 21
99.31924999999999
 31
0.0
  0
LINE
  5
F4
330
1E
100
AcDbEntity
  8
0
100
AcDbLine
 10
87.3
 20
108.6192499999999
 30
0.0
 11
91.3
 21
103.3192499999999
 31
0.0
  0
LINE
  5
F5
330
1E
100
AcDbEntity
  8
0
100
AcDbLine
 10
96.6
 20
99.31924999999999
 30
0.0
 11
102.6
 21
96.91925000000001
 31
0.0
  0
LINE
  5
F6
330
1E
100
AcDbEntity
  8
0
100
AcDbLine
 10
102.6
 20
96.91925000000001
 30
0.0
 11
103.2999999999999
 21
96.51925
 31
0.0
  0
LINE
  5
F7
330
1E
100
AcDbEntity
  8
0
100
AcDbLine
 10
87.79999999999999
 20
133.2192499999999
 30
0.0
 11
91.69999999999999
 21
138.31925
 31
0.0
  0
LINE
  5
F8
330
1E
100
AcDbEntity
  8
0
100
AcDbLine
 10
85.4
 20
127.3192499999999
 30
0.0
 11
87.79999999999999
 21
133.2192499999999
 31
0.0
  0
LINE
  5
F9
330
1E
100
AcDbEntity
  8
0
100
AcDbLine
 10
91.69999999999999
 20
138.31925
 30
0.0
 11
96.79999999999999
 21
142.2192499999999
 31
0.0
  0
LINE
  5
FA
330
1E
100
AcDbEntity
  8
0
100
AcDbLine
 10
91.3
 20
138.7192499999999
 30
0.0
 11
96.6
 21
142.7192499999999
 31
0.0
  0
LINE
  5
FB
330
1E
100
AcDbEntity
  8
0
100
AcDbLine
 10
96.79999999999999
 20
142.2192499999999
 30
0.0
 11
102.7
 21
144.6192499999999
 31
0.0
  0
LINE
  5
FC
330
1E
100
AcDbEntity
  8
0
100
AcDbLine
 10
96.6
 20
142.7192499999999
 30
0.0
 11
102.6
 21
145.1192499999999
 31
0.0
  0
LINE
  5
FD
330
1E
100
AcDbEntity
  8
0
100
AcDbLine
 10
87.3
 20
133.41925
 30
0.0
 11
91.3
 21
138.7192499999999
 31
0.0
  0
LINE
  5
FE
330
1E
100
AcDbEntity
  8
0
100
AcDbLine
 10
84.9
 20
127.41925
 30
0.0
 11
87.3
 21
133.41925
 31
0.0
  0
LINE
  5
FF
330
1E
100
AcDbEntity
  8
0
100
AcDbLine
 10
84.0
 20
121.01925
 30
0.0
 11
84.9
 21
127.41925
 31
0.0
  0
LINE
  5
100
330
1E
100
AcDbEntity
  8
0
100
AcDbLine
 10
84.0
 20
121.01925
 30
0.0
 11
84.9
 21
114.6192499999999
 31
0.0
  0
LINE
  5
102
330
1E
100
AcDbEntity
  8
0
100
AcDbLine
 10
102.7
 20
144.6192499999999
 30
0.0
 11
109.0
 21
145.51925
 31
0.0
  0
LINE
  5
103
330
1E
100
AcDbEntity
  8
0
100
AcDbLine
 10
102.7
 20
97.41925000000001
 30
0.0
 11
103.6
 21
96.91925000000001
 31
0.0
  0
LINE
  5
104
330
1E
100
AcDbEntity
  8
0
100
AcDbLine
 10
103.6
 20
96.91925000000001
 30
0.0
 11
104.4
 21
96.31925
 31
0.0
  0
LINE
  5
105
330
1E
100
AcDbEntity
  8
0
100
AcDbLine
 10
103.2999999999999
 20
96.51925
 30
0.0
 11
104.0
 21
96.01925000000001
 31
0.0
  0
LINE
  5
106
330
1E
100
AcDbEntity
  8
0
100
AcDbLine
 10
104.4
 20
96.31925
 30
0.0
 11
105.0999999999999
 21
95.41925
 31
0.0
  0
LINE
  5
107
330
1E
100
AcDbEntity
  8
0
100
AcDbLine
 10
104.0
 20
96.01925000000001
 30
0.0
 11
104.6
 21
95.21925000000001
 31
0.0
  0
LINE
  5
108
330
1E
100
AcDbEntity
  8
0
100
AcDbLine
 10
109.0
 20
145.51925
 30
0.0
 11
115.3
 21
144.6192499999999
 31
0.0
  0
LINE
  5
109
330
1E
100
AcDbEntity
  8
0
100
AcDbLine
 10
102.6
 20
145.1192499999999
 30
0.0
 11
109.0
 21
146.0192499999999
 31
0.0
  0
LINE
  5
10A
330
1E
100
AcDbEntity
  8
0
100
AcDbLine
 10
109.0
 20
146.0192499999999
 30
0.0
 11
115.4
 21
145.1192499999999
 31
0.0
  0
LINE
  5
10B
330
1E
100
AcDbEntity
  8
0
100
AcDbLine
 10
113.5999999999999
 20
96.31925
 30
0.0
 11
114.4
 21
96.91925000000001
 31
0.0
  0
LINE
  5
10C
330
1E
100
AcDbEntity
  8
0
100
AcDbLine
 10
114.4
 20
96.91925000000001
 30
0.0
 11
115.3
 21
97.41925000000001
 31
0.0
  0
LINE
  5
10D
330
1E
100
AcDbEntity
  8
0
100
AcDbLine
 10
114.7
 20
96.51925
 30
0.0
 11
115.4
 21
96.91925000000001
 31
0.0
  0
LINE
  5
10E
330
1E
100
AcDbEntity
  8
0
100
AcDbLine
 10
114.0
 20
96.01925000000001
 30
0.0
 11
114.7
 21
96.51925
 31
0.0
  0
LINE
  5
10F
330
1E
100
AcDbEntity
  8
0
100
AcDbLine
 10
121.1999999999999
 20
99.81925
 30
0.0
 11
126.2999999999999
 21
103.7192499999999
 31
0.0
  0
LINE
  5
110
330
1E
100
AcDbEntity
  8
0
100
AcDbLine
 10
115.3
 20
97.41925000000001
 30
0.0
 11
121.1999999999999
 21
99.81925
 31
0.0
  0
LINE
  5
111
330
1E
100
AcDbEntity
  8
0
100
AcDbLine
 10
121.4
 20
99.31924999999999
 30
0.0
 11
126.7
 21
103.3192499999999
 31
0.0
  0
LINE
  5
112
330
1E
100
AcDbEntity
  8
0
100
AcDbLine
 10
126.2999999999999
 20
103.7192499999999
 30
0.0
 11
130.1999999999999
 21
108.8192499999999
 31
0.0
  0
LINE
  5
113
330
1E
100
AcDbEntity
  8
0
100
AcDbLine
 10
126.7
 20
103.3192499999999
 30
0.0
 11
130.6999999999999
 21
108.6192499999999
 31
0.0
  0
LINE
  5
114
330
1E
100
AcDbEntity
  8
0
100
AcDbLine
 10
115.3
 20
144.6192499999999
 30
0.0
 11
121.1999999999999
 21
142.2192499999999
 31
0.0
  0
LINE
  5
115
330
1E
100
AcDbEntity
  8
0
100
AcDbLine
 10
130.1999999999999
 20
133.2192499999999
 30
0.0
 11
132.6
 21
127.3192499999999
 31
0.0
  0
LINE
  5
116
330
1E
100
AcDbEntity
  8
0
100
AcDbLine
 10
132.6
 20
127.3192499999999
 30
0.0
 11
133.4999999999999
 21
121.01925
 31
0.0
  0
LINE
  5
117
330
1E
100
AcDbEntity
  8
0
100
AcDbLine
 10
126.2999999999999
 20
138.31925
 30
0.0
 11
130.1999999999999
 21
133.2192499999999
 31
0.0
  0
LINE
  5
118
330
1E
100
AcDbEntity
  8
0
100
AcDbLine
 10
126.7
 20
138.7192499999999
 30
0.0
 11
130.6999999999999
 21
133.41925
 31
0.0
  0
LINE
  5
119
330
1E
100
AcDbEntity
  8
0
100
AcDbLine
 10
130.6999999999999
 20
133.41925
 30
0.0
 11
133.0999999999999
 21
127.41925
 31
0.0
  0
LINE
  5
11A
330
1E
100
AcDbEntity
  8
0
100
AcDbLine
 10
121.1999999999999
 20
142.2192499999999
 30
0.0
 11
126.2999999999999
 21
138.31925
 31
0.0
  0
LINE
  5
11B
330
1E
100
AcDbEntity
  8
0
100
AcDbLine
 10
121.4
 20
142.7192499999999
 30
0.0
 11
126.7
 21
138.7192499999999
 31
0.0
  0
LINE
  5
11C
330
1E
100
AcDbEntity
  8
0
100
AcDbLine
 10
115.4
 20
145.1192499999999
 30
0.0
 11
121.4
 21
142.7192499999999
 31
0.0
  0
LINE
  5
11D
330
1E
100
AcDbEntity
  8
0
100
AcDbLine
 10
130.1999999999999
 20
108.8192499999999
 30
0.0
 11
132.6
 21
114.71925
 31
0.0
  0
LINE
  5
11E
330
1E
100
AcDbEntity
  8
0
100
AcDbLine
 10
133.0999999999999
 20
127.41925
 30
0.0
 11
134.0
 21
121.01925
 31
0.0
  0
LINE
  5
120
330
1E
100
AcDbEntity
  8
0
100
AcDbLine
 10
132.6
 20
114.71925
 30
0.0
 11
133.4999999999999
 21
121.01925
 31
0.0
  0
LINE
  5
121
330
1E
100
AcDbEntity
  8
0
100
AcDbLine
 10
130.6999999999999
 20
108.6192499999999
 30
0.0
 11
133.0999999999999
 21
114.6192499999999
 31
0.0
  0
LINE
  5
122
330
1E
100
AcDbEntity
  8
0
100
AcDbLine
 10
133.0999999999999
 20
114.6192499999999
 30
0.0
 11
134.0
 21
121.01925
 31
0.0
  0
LINE
  5
123
330
1E
100
AcDbEntity
  8
0
100
AcDbLine
 10
115.4
 20
96.91925000000001
 30
0.0
 11
121.4
 21
99.31924999999999
 31
0.0
  0
LINE
  5
124
330
1E
100
AcDbEntity
  8
0
100
AcDbLine
 10
190.552
 20
96.57925
 30
0.0
 11
196.584
 21
99.07524999999999
 31
0.0
  0
LINE
  5
125
330
1E
100
AcDbEntity
  8
0
100
AcDbLine
 10
201.888
 20
103.1312499999999
 30
0.0
 11
205.944
 21
108.43525
 31
0.0
  0
LINE
  5
126
330
1E
100
AcDbEntity
  8
0
100
AcDbLine
 10
196.584
 20
99.07524999999999
 30
0.0
 11
201.888
 21
103.1312499999999
 31
0.0
  0
LINE
  5
127
330
1E
100
AcDbEntity
  8
0
100
AcDbLine
 10
205.944
 20
133.6032499999999
 30
0.0
 11
208.44
 21
127.57125
 31
0.0
  0
LINE
  5
128
330
1E
100
AcDbEntity
  8
0
100
AcDbLine
 10
208.44
 20
127.57125
 30
0.0
 11
209.3759999999999
 21
121.01925
 31
0.0
  0
LINE
  5
129
330
1E
100
AcDbEntity
  8
0
100
AcDbLine
 10
209.064
 20
127.67525
 30
0.0
 11
210.0
 21
121.01925
 31
0.0
  0
LINE
  5
12A
330
1E
100
AcDbEntity
  8
0
100
AcDbLine
 10
206.5679999999999
 20
133.9152499999999
 30
0.0
 11
209.064
 21
127.67525
 31
0.0
  0
LINE
  5
12B
330
1E
100
AcDbEntity
  8
0
100
AcDbLine
 10
208.44
 20
114.46725
 30
0.0
 11
209.3759999999999
 21
121.01925
 31
0.0
  0
LINE
  5
12C
330
1E
100
AcDbEntity
  8
0
100
AcDbLine
 10
205.944
 20
108.43525
 30
0.0
 11
208.44
 21
114.46725
 31
0.0
  0
LINE
  5
12D
330
1E
100
AcDbEntity
  8
0
100
AcDbLine
 10
206.5679999999999
 20
108.12325
 30
0.0
 11
209.064
 21
114.36325
 31
0.0
  0
LINE
  5
12E
330
1E
100
AcDbEntity
  8
0
100
AcDbLine
 10
202.408
 20
102.6112499999999
 30
0.0
 11
206.5679999999999
 21
108.12325
 31
0.0
  0
LINE
  5
12F
330
1E
100
AcDbEntity
  8
0
100
AcDbLine
 10
196.8959999999999
 20
98.45125000000001
 30
0.0
 11
202.408
 21
102.6112499999999
 31
0.0
  0
LINE
  5
130
330
1E
100
AcDbEntity
  8
0
100
AcDbLine
 10
212.6959999999999
 20
104.5632499999999
 30
0.0
 11
215.96
 21
112.45125
 31
0.0
  0
LINE
  5
131
330
1E
100
AcDbEntity
  8
0
100
AcDbLine
 10
207.392
 20
97.62725000000001
 30
0.0
 11
212.6959999999999
 21
104.5632499999999
 31
0.0
  0
LINE
  5
132
330
1E
100
AcDbEntity
  8
0
100
AcDbLine
 10
215.96
 20
112.45125
 30
0.0
 11
217.184
 21
121.01925
 31
0.0
  0
LINE
  5
133
330
1E
100
AcDbEntity
  8
0
100
AcDbLine
 10
213.512
 20
104.1552499999999
 30
0.0
 11
216.7759999999999
 21
112.3152499999999
 31
0.0
  0
LINE
  5
134
330
1E
100
AcDbEntity
  8
0
100
AcDbLine
 10
208.0719999999999
 20
96.94725
 30
0.0
 11
213.512
 21
104.1552499999999
 31
0.0
  0
LINE
  5
135
330
1E
100
AcDbEntity
  8
0
100
AcDbLine
 10
216.7759999999999
 20
112.3152499999999
 30
0.0
 11
218.0
 21
121.01925
 31
0.0
  0
LINE
  5
136
330
1E
100
AcDbEntity
  8
0
100
AcDbLine
 10
215.96
 20
129.58725
 30
0.0
 11
217.184
 21
121.01925
 31
0.0
  0
LINE
  5
137
330
1E
100
AcDbEntity
  8
0
100
AcDbLine
 10
212.6959999999999
 20
137.4752499999999
 30
0.0
 11
215.96
 21
129.58725
 31
0.0
  0
LINE
  5
138
330
1E
100
AcDbEntity
  8
0
100
AcDbLine
 10
216.7759999999999
 20
129.72325
 30
0.0
 11
218.0
 21
121.01925
 31
0.0
  0
LINE
  5
139
330
1E
100
AcDbEntity
  8
0
100
AcDbLine
 10
196.584
 20
142.9632499999999
 30
0.0
 11
201.888
 21
138.90725
 31
0.0
  0
LINE
  5
13A
330
1E
100
AcDbEntity
  8
0
100
AcDbLine
 10
201.888
 20
138.90725
 30
0.0
 11
205.944
 21
133.6032499999999
 31
0.0
  0
LINE
  5
13B
330
1E
100
AcDbEntity
  8
0
100
AcDbLine
 10
202.408
 20
139.4272499999999
 30
0.0
 11
206.5679999999999
 21
133.9152499999999
 31
0.0
  0
LINE
  5
13C
330
1E
100
AcDbEntity
  8
0
100
AcDbLine
 10
196.8959999999999
 20
143.58725
 30
0.0
 11
202.408
 21
139.4272499999999
 31
0.0
  0
LINE
  5
13D
330
1E
100
AcDbEntity
  8
0
100
AcDbLine
 10
190.552
 20
145.4592499999999
 30
0.0
 11
196.584
 21
142.9632499999999
 31
0.0
  0
LINE
  5
13E
330
1E
100
AcDbEntity
  8
0
100
AcDbLine
 10
184.0
 20
146.3952499999999
 30
0.0
 11
190.552
 21
145.4592499999999
 31
0.0
  0
LINE
  5
13F
330
1E
100
AcDbEntity
  8
0
100
AcDbLine
 10
190.6559999999999
 20
146.0832499999999
 30
0.0
 11
196.8959999999999
 21
143.58725
 31
0.0
  0
LINE
  5
140
330
1E
100
AcDbEntity
  8
0
100
AcDbLine
 10
207.392
 20
144.4112499999999
 30
0.0
 11
212.6959999999999
 21
137.4752499999999
 31
0.0
  0
LINE
  5
141
330
1E
100
AcDbEntity
  8
0
100
AcDbLine
 10
208.0719999999999
 20
145.09125
 30
0.0
 11
213.512
 21
137.88325
 31
0.0
  0
LINE
  5
142
330
1E
100
AcDbEntity
  8
0
100
AcDbLine
 10
213.512
 20
137.88325
 30
0.0
 11
216.7759999999999
 21
129.72325
 31
0.0
  0
LINE
  5
143
330
1E
100
AcDbEntity
  8
0
100
AcDbLine
 10
164.018461538462
 20
147.01925
 30
0.0
 11
167.544
 21
149.71525
 31
0.0
  0
LINE
  5
144
330
1E
100
AcDbEntity
  8
0
100
AcDbLine
 10
162.4825999999999
 20
147.01925
 30
0.0
 11
167.1359999999999
 21
150.53125
 31
0.0
  0
LINE
  5
145
330
1E
100
AcDbEntity
  8
0
100
AcDbLine
 10
109.0
 20
146.3952499999999
 30
0.0
 11
184.0
 21
146.3952499999999
 31
0.0
  0
LINE
  5
146
330
1E
100
AcDbEntity
  8
0
100
AcDbLine
 10
200.456
 20
149.71525
 30
0.0
 11
207.392
 21
144.4112499999999
 31
0.0
  0
LINE
  5
147
330
1E
100
AcDbEntity
  8
0
100
AcDbLine
 10
200.864
 20
150.53125
 30
0.0
 11
208.0719999999999
 21
145.09125
 31
0.0
  0
LINE
  5
148
330
1E
100
AcDbEntity
  8
0
100
AcDbLine
 10
167.544
 20
149.71525
 30
0.0
 11
175.432
 21
152.97925
 31
0.0
  0
LINE
  5
149
330
1E
100
AcDbEntity
  8
0
100
AcDbLine
 10
167.1359999999999
 20
150.53125
 30
0.0
 11
175.2959999999999
 21
153.79525
 31
0.0
  0
LINE
  5
14A
330
1E
100
AcDbEntity
  8
0
100
AcDbLine
 10
109.0
 20
147.01925
 30
0.0
 11
184.0
 21
147.01925
 31
0.0
  0
LINE
  5
14B
330
1E
100
AcDbEntity
  8
0
100
AcDbLine
 10
50.456
 20
149.71525
 30
0.0
 11
53.98153846153849
 21
147.01925
 31
0.0
  0
LINE
  5
14C
330
1E
100
AcDbEntity
  8
0
100
AcDbLine
 10
192.5679999999999
 20
152.97925
 30
0.0
 11
200.456
 21
149.71525
 31
0.0
  0
LINE
  5
14D
330
1E
100
AcDbEntity
  8
0
100
AcDbLine
 10
184.0
 20
154.2032499999999
 30
0.0
 11
192.5679999999999
 21
152.97925
 31
0.0
  0
LINE
  5
14E
330
1E
100
AcDbEntity
  8
0
100
AcDbLine
 10
192.704
 20
153.79525
 30
0.0
 11
200.864
 21
150.53125
 31
0.0
  0
LINE
  5
14F
330
1E
100
AcDbEntity
  8
0
100
AcDbLine
 10
175.432
 20
152.97925
 30
0.0
 11
184.0
 21
154.2032499999999
 31
0.0
  0
LINE
  5
150
330
1E
100
AcDbEntity
  8
0
100
AcDbLine
 10
184.0
 20
155.01925
 30
0.0
 11
192.704
 21
153.79525
 31
0.0
  0
LINE
  5
151
330
1E
100
AcDbEntity
  8
0
100
AcDbLine
 10
175.2959999999999
 20
153.79525
 30
0.0
 11
184.0
 21
155.01925
 31
0.0
  0
LINE
  5
152
330
1E
100
AcDbEntity
  8
0
100
AcDbLine
 10
50.864
 20
150.53125
 30
0.0
 11
55.5174
 21
147.01925
 31
0.0
  0
LINE
  5
153
330
1E
100
AcDbEntity
  8
0
100
AcDbLine
 10
42.70399999999999
 20
153.79525
 30
0.0
 11
50.864
 21
150.53125
 31
0.0
  0
LINE
  5
154
330
1E
100
AcDbEntity
  8
0
100
AcDbLine
 10
34.0
 20
155.01925
 30
0.0
 11
42.70399999999999
 21
153.79525
 31
0.0
  0
LINE
  5
155
330
1E
100
AcDbEntity
  8
0
100
AcDbLine
 10
27.448
 20
96.57925
 30
0.0
 11
34.0
 21
95.64325
 31
0.0
  0
LINE
  5
156
330
1E
100
AcDbEntity
  8
0
100
AcDbLine
 10
27.344
 20
95.95525
 30
0.0
 11
34.0
 21
95.01924999999999
 31
0.0
  0
LINE
  5
157
330
1E
100
AcDbEntity
  8
0
100
AcDbLine
 10
21.10399999999999
 20
98.45125000000001
 30
0.0
 11
27.344
 21
95.95525
 31
0.0
  0
LINE
  5
15C
330
1E
100
AcDbEntity
  8
0
100
AcDbLine
 10
184.0
 20
147.01925
 30
0.0
 11
190.6559999999999
 21
146.0832499999999
 31
0.0
  0
LINE
  5
15D
330
1E
100
AcDbEntity
  8
0
100
AcDbLine
 10
210.0
 20
121.01925
 30
0.0
 11
209.064
 21
114.36325
 31
0.0
  0
LINE
  5
15E
330
1E
100
AcDbEntity
  8
0
100
AcDbLine
 10
21.10399999999999
 20
143.58725
 30
0.0
 11
15.592
 21
139.4272499999999
 31
0.0
  0
ENDSEC
  0
SECTION
  2
OBJECTS
  0
DICTIONARY
  5
C
330
0
100
AcDbDictionary
281
     1
  3
ACAD_GROUP
350
D
  3
ACAD_LAYOUT
350
19
  3
ACAD_MLINESTYLE
350
16
  3
ACAD_PLOTSETTINGS
350
18
  3
ACAD_PLOTSTYLENAME
350
E
  3
AcDbVariableDictionary
350
15F
  0
DICTIONARY
  5
D
102
{ACAD_REACTORS
330
C
102
}
330
C
100
AcDbDictionary
281
     1
  0
DICTIONARY
  5
19
102
{ACAD_REACTORS
330
C
102
}
330
C
100
AcDbDictionary
281
     1
  3
Layout1
350
1D
  3
Model
350
21
  0
DICTIONARY
  5
16
102
{ACAD_REACTORS
330
C
102
}
330
C
100
AcDbDictionary
281
     1
  3
Standard
350
17
  0
DICTIONARY
  5
18
102
{ACAD_REACTORS
330
C
102
}
330
C
100
AcDbDictionary
281
     1
  0
ACDBDICTIONARYWDFLT
  5
E
102
{ACAD_REACTORS
330
C
102
}
330
C
100
AcDbDictionary
281
     1
  3
Normal
350
F
100
AcDbDictionaryWithDefault
340
F
  0
DICTIONARY
  5
15F
102
{ACAD_REACTORS
330
C
102
}
330
C
100
AcDbDictionary
281
     1
  3
DIMASSOC
350
160
  0
LAYOUT
  5
1D
102
{ACAD_REACTORS
330
19
102
}
330
19
100
AcDbPlotSettings
  1

  2
hp deskjet 980c series
  4

  6

 40
0.0
 41
0.0
 42
0.0
 43
0.0
 44
0.0
 45
0.0
 46
0.0
 47
0.0
 48
0.0
 49
0.0
140
0.0
141
0.0
142
1.0
143
1.0
 70
   688
 72
     0
 73
     0
 74
     5
  7

 75
    16
147
1.0
148
0.0
149
0.0
100
AcDbLayout
  1
Layout1
 70
     1
 71
     1
 10
0.0
 20
0.0
 11
12.0
 21
9.0
 12
0.0
 22
0.0
 32
0.0
 14
1.000000000000000E+20
 24
1.000000000000000E+20
 34
1.000000000000000E+20
 15
-1.000000000000000E+20
 25
-1.000000000000000E+20
 35
-1.000000000000000E+20
146
0.0
 13
0.0
 23
0.0
 33
0.0
 16
1.0
 26
0.0
 36
0.0
 17
0.0
 27
1.0
 37
0.0
 76
     0
330
1A
  0
LAYOUT
  5
21
102
{ACAD_REACTORS
330
19
102
}
330
19
100
AcDbPlotSettings
  1

  2
hp deskjet 980c series
  4

  6

 40
0.0
 41
0.0
 42
0.0
 43
0.0
 44
0.0
 45
0.0
 46
0.0
 47
0.0
 48
0.0
 49
0.0
140
0.0
141
0.0
142
1.0
143
1.0
 70
  1712
 72
     0
 73
     0
 74
     0
  7

 75
     0
147
1.0
148
0.0
149
0.0
100
AcDbLayout
  1
Model
 70
     1
 71
     0
 10
0.0
 20
0.0
 11
12.0
 21
9.0
 12
0.0
 22
0.0
 32
0.0
 14
0.0
 24
0.0
 34
0.0
 15
0.0
 25
0.0
 35
0.0
146
0.0
 13
0.0
 23
0.0
 33
0.0
 16
1.0
 26
0.0
 36
0.0
 17
0.0
 27
1.0
 37
0.0
 76
     0
330
1E
  0
MLINESTYLE
  5
17
102
{ACAD_REACTORS
330
16
102
}
330
16
100
AcDbMlineStyle
  2
STANDARD
 70
     0
  3

 62
   256
 51
90.0
 52
90.0
 71
     2
 49
0.5
 62
   256
  6
BYLAYER
 49
-0.5
 62
   256
  6
BYLAYER
  0
ACDBPLACEHOLDER
  5
F
102
{ACAD_REACTORS
330
E
102
}
330
E
  0
DICTIONARYVAR
  5
160
102
{ACAD_REACTORS
330
15F
102
}
330
15F
100
DictionaryVariables
280
     0
  1
1
  0
ENDSEC
  0
EOF
