  0
SECTION
  2
HEADER
  9
$ACADVER
  1
AC1015
  9
$ACADMAINTVER
 70
    13
  9
$DWGCODEPAGE
  3
ANSI_1252
  9
$INSBASE
 10
0.0
 20
0.0
 30
0.0
  9
$EXTMIN
 10
0.0000000000000045
 20
-0.0192500000000002
 30
0.0
  9
$EXTMAX
 10
185.0
 20
207.01925
 30
0.0
  9
$LIMMIN
 10
0.0
 20
0.0
  9
$LIMMAX
 10
12.0
 20
9.0
  9
$ORTHOMODE
 70
     0
  9
$REGENMODE
 70
     1
  9
$FILLMODE
 70
     1
  9
$QTEXTMODE
 70
     0
  9
$MIRRTEXT
 70
     1
  9
$LTSCALE
 40
1.0
  9
$ATTMODE
 70
     1
  9
$TEXTSIZE
 40
0.2
  9
$TRACEWID
 40
0.05
  9
$TEXTSTYLE
  7
Standard
  9
$CLAYER
  8
0
  9
$CELTYPE
  6
Continuous
  9
$CECOLOR
 62
   256
  9
$CELTSCALE
 40
1.0
  9
$DISPSILH
 70
     0
  9
$DIMSCALE
 40
1.0
  9
$DIMASZ
 40
0.18
  9
$DIMEXO
 40
0.0625
  9
$DIMDLI
 40
0.38
  9
$DIMRND
 40
0.0
  9
$DIMDLE
 40
0.0
  9
$DIMEXE
 40
0.18
  9
$DIMTP
 40
0.0
  9
$DIMTM
 40
0.0
  9
$DIMTXT
 40
0.18
  9
$DIMCEN
 40
0.09
  9
$DIMTSZ
 40
0.0
  9
$DIMTOL
 70
     0
  9
$DIMLIM
 70
     0
  9
$DIMTIH
 70
     1
  9
$DIMTOH
 70
     1
  9
$DIMSE1
 70
     0
  9
$DIMSE2
 70
     0
  9
$DIMTAD
 70
     0
  9
$DIMZIN
 70
     0
  9
$DIMBLK
  1

  9
$DIMASO
 70
     1
  9
$DIMSHO
 70
     1
  9
$DIMPOST
  1

  9
$DIMAPOST
  1

  9
$DIMALT
 70
     0
  9
$DIMALTD
 70
     2
  9
$DIMALTF
 40
25.4
  9
$DIMLFAC
 40
1.0
  9
$DIMTOFL
 70
     0
  9
$DIMTVP
 40
0.0
  9
$DIMTIX
 70
     0
  9
$DIMSOXD
 70
     0
  9
$DIMSAH
 70
     0
  9
$DIMBLK1
  1

  9
$DIMBLK2
  1

  9
$DIMSTYLE
  2
Standard
  9
$DIMCLRD
 70
     0
  9
$DIMCLRE
 70
     0
  9
$DIMCLRT
 70
     0
  9
$DIMTFAC
 40
1.0
  9
$DIMGAP
 40
0.09
  9
$DIMJUST
 70
     0
  9
$DIMSD1
 70
     0
  9
$DIMSD2
 70
     0
  9
$DIMTOLJ
 70
     1
  9
$DIMTZIN
 70
     0
  9
$DIMALTZ
 70
     0
  9
$DIMALTTZ
 70
     0
  9
$DIMUPT
 70
     0
  9
$DIMDEC
 70
     4
  9
$DIMTDEC
 70
     4
  9
$DIMALTU
 70
     2
  9
$DIMALTTD
 70
     2
  9
$DIMTXSTY
  7
Standard
  9
$DIMAUNIT
 70
     0
  9
$DIMADEC
 70
     0
  9
$DIMALTRND
 40
0.0
  9
$DIMAZIN
 70
     0
  9
$DIMDSEP
 70
    46
  9
$DIMATFIT
 70
     3
  9
$DIMFRAC
 70
     0
  9
$DIMLDRBLK
  1

  9
$DIMLUNIT
 70
     2
  9
$DIMLWD
 70
    -2
  9
$DIMLWE
 70
    -2
  9
$DIMTMOVE
 70
     0
  9
$LUNITS
 70
     2
  9
$LUPREC
 70
     4
  9
$SKETCHINC
 40
0.1
  9
$FILLETRAD
 40
0.0
  9
$AUNITS
 70
     0
  9
$AUPREC
 70
     0
  9
$MENU
  1
.
  9
$ELEVATION
 40
0.0
  9
$PELEVATION
 40
0.0
  9
$THICKNESS
 40
0.0
  9
$LIMCHECK
 70
     0
  9
$CHAMFERA
 40
0.0
  9
$CHAMFERB
 40
0.0
  9
$CHAMFERC
 40
0.0
  9
$CHAMFERD
 40
0.0
  9
$SKPOLY
 70
     0
  9
$TDCREATE
 40
2454736.667601273
  9
$TDUCREATE
 40
2454736.584267940
  9
$TDUPDATE
 40
2454736.668165682
  9
$TDUUPDATE
 40
2454736.584832349
  9
$TDINDWG
 40
0.0005644097
  9
$TDUSRTIMER
 40
0.0005644097
  9
$USRTIMER
 70
     1
  9
$ANGBASE
 50
0.0
  9
$ANGDIR
 70
     0
  9
$PDMODE
 70
     0
  9
$PDSIZE
 40
0.0
  9
$PLINEWID
 40
0.0
  9
$SPLFRAME
 70
     0
  9
$SPLINETYPE
 70
     6
  9
$SPLINESEGS
 70
     8
  9
$HANDSEED
  5
260
  9
$SURFTAB1
 70
     6
  9
$SURFTAB2
 70
     6
  9
$SURFTYPE
 70
     6
  9
$SURFU
 70
     6
  9
$SURFV
 70
     6
  9
$UCSBASE
  2

  9
$UCSNAME
  2

  9
$UCSORG
 10
0.0
 20
0.0
 30
0.0
  9
$UCSXDIR
 10
1.0
 20
0.0
 30
0.0
  9
$UCSYDIR
 10
0.0
 20
1.0
 30
0.0
  9
$UCSORTHOREF
  2

  9
$UCSORTHOVIEW
 70
     1
  9
$UCSORGTOP
 10
0.0
 20
0.0
 30
0.0
  9
$UCSORGBOTTOM
 10
0.0
 20
0.0
 30
0.0
  9
$UCSORGLEFT
 10
0.0
 20
0.0
 30
0.0
  9
$UCSORGRIGHT
 10
0.0
 20
0.0
 30
0.0
  9
$UCSORGFRONT
 10
0.0
 20
0.0
 30
0.0
  9
$UCSORGBACK
 10
0.0
 20
0.0
 30
0.0
  9
$PUCSBASE
  2

  9
$PUCSNAME
  2

  9
$PUCSORG
 10
0.0
 20
0.0
 30
0.0
  9
$PUCSXDIR
 10
1.0
 20
0.0
 30
0.0
  9
$PUCSYDIR
 10
0.0
 20
1.0
 30
0.0
  9
$PUCSORTHOREF
  2

  9
$PUCSORTHOVIEW
 70
     0
  9
$PUCSORGTOP
 10
0.0
 20
0.0
 30
0.0
  9
$PUCSORGBOTTOM
 10
0.0
 20
0.0
 30
0.0
  9
$PUCSORGLEFT
 10
0.0
 20
0.0
 30
0.0
  9
$PUCSORGRIGHT
 10
0.0
 20
0.0
 30
0.0
  9
$PUCSORGFRONT
 10
0.0
 20
0.0
 30
0.0
  9
$PUCSORGBACK
 10
0.0
 20
0.0
 30
0.0
  9
$USERI1
 70
     0
  9
$USERI2
 70
     0
  9
$USERI3
 70
     0
  9
$USERI4
 70
     0
  9
$USERI5
 70
     0
  9
$USERR1
 40
0.0
  9
$USERR2
 40
0.0
  9
$USERR3
 40
0.0
  9
$USERR4
 40
0.0
  9
$USERR5
 40
0.0
  9
$WORLDVIEW
 70
     1
  9
$SHADEDGE
 70
     3
  9
$SHADEDIF
 70
    70
  9
$TILEMODE
 70
     1
  9
$MAXACTVP
 70
    64
  9
$PINSBASE
 10
0.0
 20
0.0
 30
0.0
  9
$PLIMCHECK
 70
     0
  9
$PEXTMIN
 10
1.000000000000000E+20
 20
1.000000000000000E+20
 30
1.000000000000000E+20
  9
$PEXTMAX
 10
-1.000000000000000E+20
 20
-1.000000000000000E+20
 30
-1.000000000000000E+20
  9
$PLIMMIN
 10
0.0
 20
0.0
  9
$PLIMMAX
 10
12.0
 20
9.0
  9
$UNITMODE
 70
     0
  9
$VISRETAIN
 70
     1
  9
$PLINEGEN
 70
     0
  9
$PSLTSCALE
 70
     1
  9
$TREEDEPTH
 70
  3020
  9
$CMLSTYLE
  2
Standard
  9
$CMLJUST
 70
     0
  9
$CMLSCALE
 40
1.0
  9
$PROXYGRAPHICS
 70
     1
  9
$MEASUREMENT
 70
     0
  9
$CELWEIGHT
370
    -1
  9
$ENDCAPS
280
     0
  9
$JOINSTYLE
280
     0
  9
$LWDISPLAY
290
     0
  9
$INSUNITS
 70
     0
  9
$HYPERLINKBASE
  1

  9
$STYLESHEET
  1

  9
$XEDIT
290
     1
  9
$CEPSNTYPE
380
     0
  9
$PSTYLEMODE
290
     1
  9
$FINGERPRINTGUID
  2
{6C75E6BE-BA39-40C3-9E1C-70565E66E9C0}
  9
$VERSIONGUID
  2
{0FA631C8-8636-429D-AB94-C9D1785BD988}
  9
$EXTNAMES
290
     1
  9
$PSVPSCALE
 40
0.0
  9
$OLESTARTUP
290
     0
  0
ENDSEC
  0
SECTION
  2
CLASSES
  0
CLASS
  1
ACDBDICTIONARYWDFLT
  2
AcDbDictionaryWithDefault
  3
AutoCAD 2000
 90
        0
280
     0
281
     0
  0
CLASS
  1
ACDBPLACEHOLDER
  2
AcDbPlaceHolder
  3
AutoCAD 2000
 90
        0
280
     0
281
     0
  0
CLASS
  1
LAYOUT
  2
AcDbLayout
  3
AutoCAD 2000
 90
        0
280
     0
281
     0
  0
CLASS
  1
DICTIONARYVAR
  2
AcDbDictionaryVar
  3
AutoCAD 2000
 90
        0
280
     0
281
     0
  0
ENDSEC
  0
SECTION
  2
TABLES
  0
TABLE
  2
VPORT
  5
8
330
0
100
AcDbSymbolTable
 70
     2
  0
VPORT
  5
25F
330
8
100
AcDbSymbolTableRecord
100
AcDbViewportTableRecord
  2
*Active
 70
     0
 10
0.0
 20
0.0
 11
1.0
 21
1.0
 12
92.5
 22
103.4999999999999
 13
0.0
 23
0.0
 14
1.0
 24
1.0
 15
0.0
 25
0.0
 16
0.0
 26
0.0
 36
1.0
 17
0.0
 27
0.0
 37
0.0
 40
208.627030690537
 41
2.078104993597951
 42
50.0
 43
0.0
 44
0.0
 50
0.0
 51
0.0
 71
     0
 72
   100
 73
     1
 74
     3
 75
     0
 76
     0
 77
     0
 78
     0
281
     0
 65
     1
110
0.0
120
0.0
130
0.0
111
1.0
121
0.0
131
0.0
112
0.0
122
1.0
132
0.0
 79
     1
146
0.0
  0
ENDTAB
  0
TABLE
  2
LTYPE
  5
5
330
0
100
AcDbSymbolTable
 70
     1
  0
LTYPE
  5
13
330
5
100
AcDbSymbolTableRecord
100
AcDbLinetypeTableRecord
  2
ByBlock
 70
     0
  3

 72
    65
 73
     0
 40
0.0
  0
LTYPE
  5
14
330
5
100
AcDbSymbolTableRecord
100
AcDbLinetypeTableRecord
  2
ByLayer
 70
     0
  3

 72
    65
 73
     0
 40
0.0
  0
LTYPE
  5
15
330
5
100
AcDbSymbolTableRecord
100
AcDbLinetypeTableRecord
  2
Continuous
 70
     0
  3
Solid line
 72
    65
 73
     0
 40
0.0
  0
ENDTAB
  0
TABLE
  2
LAYER
  5
2
330
0
100
AcDbSymbolTable
 70
     1
  0
LAYER
  5
10
330
2
100
AcDbSymbolTableRecord
100
AcDbLayerTableRecord
  2
0
 70
     0
 62
     7
  6
Continuous
370
    -3
390
F
  0
ENDTAB
  0
TABLE
  2
STYLE
  5
3
330
0
100
AcDbSymbolTable
 70
     1
  0
STYLE
  5
11
330
3
100
AcDbSymbolTableRecord
100
AcDbTextStyleTableRecord
  2
Standard
 70
     0
 40
0.0
 41
1.0
 50
0.0
 71
     0
 42
0.2
  3
txt
  4

  0
ENDTAB
  0
TABLE
  2
VIEW
  5
6
330
0
100
AcDbSymbolTable
 70
     0
  0
ENDTAB
  0
TABLE
  2
UCS
  5
7
330
0
100
AcDbSymbolTable
 70
     0
  0
ENDTAB
  0
TABLE
  2
APPID
  5
9
330
0
100
AcDbSymbolTable
 70
     1
  0
APPID
  5
12
330
9
100
AcDbSymbolTableRecord
100
AcDbRegAppTableRecord
  2
ACAD
 70
     0
  0
ENDTAB
  0
TABLE
  2
DIMSTYLE
  5
A
330
0
100
AcDbSymbolTable
 70
     1
100
AcDbDimStyleTable
 71
     0
  0
DIMSTYLE
105
257
330
A
100
AcDbSymbolTableRecord
100
AcDbDimStyleTableRecord
  2
Standard
 70
     0
340
11
  0
ENDTAB
  0
TABLE
  2
BLOCK_RECORD
  5
1
330
0
100
AcDbSymbolTable
 70
     0
  0
BLOCK_RECORD
  5
1E
330
1
100
AcDbSymbolTableRecord
100
AcDbBlockTableRecord
  2
*Model_Space
340
21
  0
BLOCK_RECORD
  5
1A
330
1
100
AcDbSymbolTableRecord
100
AcDbBlockTableRecord
  2
*Paper_Space
340
1D
  0
ENDTAB
  0
ENDSEC
  0
SECTION
  2
BLOCKS
  0
BLOCK
  5
1F
330
1E
100
AcDbEntity
  8
0
100
AcDbBlockBegin
  2
*Model_Space
 70
     0
 10
0.0
 20
0.0
 30
0.0
  3
*Model_Space
  1

  0
ENDBLK
  5
20
330
1E
100
AcDbEntity
  8
0
100
AcDbBlockEnd
  0
BLOCK
  5
1B
330
1A
100
AcDbEntity
 67
     1
  8
0
100
AcDbBlockBegin
  2
*Paper_Space
 70
     0
 10
0.0
 20
0.0
 30
0.0
  3
*Paper_Space
  1

  0
ENDBLK
  5
1C
330
1A
100
AcDbEntity
 67
     1
  8
0
100
AcDbBlockEnd
  0
ENDSEC
  0
SECTION
  2
ENTITIES
  0
LINE
  5
22
330
1E
100
AcDbEntity
  8
0
100
AcDbLine
 10
17.0302
 20
120.6462499999999
 30
0.0
 11
20.0083
 21
120.12125
 31
0.0
  0
LINE
  5
23
330
1E
100
AcDbEntity
  8
0
100
AcDbLine
 10
22.74999999999999
 20
119.63725
 30
0.0
 11
25.1608
 21
119.2122499999999
 31
0.0
  0
LINE
  5
24
330
1E
100
AcDbEntity
  8
0
100
AcDbLine
 10
20.0083
 20
120.12125
 30
0.0
 11
22.74999999999999
 21
119.63725
 31
0.0
  0
LINE
  5
25
330
1E
100
AcDbEntity
  8
0
100
AcDbLine
 10
27.0044
 20
118.8872499999999
 30
0.0
 11
28.1388
 21
118.6872499999999
 31
0.0
  0
LINE
  5
26
330
1E
100
AcDbEntity
  8
0
100
AcDbLine
 10
25.1608
 20
119.2122499999999
 30
0.0
 11
27.0044
 21
118.8872499999999
 31
0.0
  0
LINE
  5
27
330
1E
100
AcDbEntity
  8
0
100
AcDbLine
 10
28.56429999999999
 20
118.6122499999999
 30
0.0
 11
28.913
 21
118.9312499999999
 31
0.0
  0
LINE
  5
28
330
1E
100
AcDbEntity
  8
0
100
AcDbLine
 10
28.1388
 20
118.6872499999999
 30
0.0
 11
28.56429999999999
 21
118.6122499999999
 31
0.0
  0
LINE
  5
29
330
1E
100
AcDbEntity
  8
0
100
AcDbLine
 10
28.913
 20
118.9312499999999
 30
0.0
 11
29.63382320919929
 21
123.01925
 31
0.0
  0
LINE
  5
2A
330
1E
100
AcDbEntity
  8
0
100
AcDbLine
 10
28.4876
 20
119.00625
 30
0.0
 11
28.913
 21
118.9312499999999
 31
0.0
  0
LINE
  5
2B
330
1E
100
AcDbEntity
  8
0
100
AcDbLine
 10
27.3531
 20
119.20625
 30
0.0
 11
28.4876
 21
119.00625
 31
0.0
  0
LINE
  5
2C
330
1E
100
AcDbEntity
  8
0
100
AcDbLine
 10
25.46229999999999
 20
119.5402499999999
 30
0.0
 11
27.3531
 21
119.20625
 31
0.0
  0
LINE
  5
2D
330
1E
100
AcDbEntity
  8
0
100
AcDbLine
 10
22.9569
 20
119.9812499999999
 30
0.0
 11
25.46229999999999
 21
119.5402499999999
 31
0.0
  0
LINE
  5
2E
330
1E
100
AcDbEntity
  8
0
100
AcDbLine
 10
20.1207
 20
120.48125
 30
0.0
 11
22.9569
 21
119.9812499999999
 31
0.0
  0
LINE
  5
2F
330
1E
100
AcDbEntity
  8
0
100
AcDbLine
 10
17.0953
 20
121.0152499999999
 30
0.0
 11
20.1207
 21
120.48125
 31
0.0
  0
LINE
  5
30
330
1E
100
AcDbEntity
  8
0
100
AcDbLine
 10
11.2338
 20
122.0482499999999
 30
0.0
 11
14.07
 21
121.54825
 31
0.0
  0
LINE
  5
31
330
1E
100
AcDbEntity
  8
0
100
AcDbLine
 10
5.92159
 20
122.6042499999999
 30
0.0
 11
7.05608
 21
122.40425
 31
0.0
  0
LINE
  5
32
330
1E
100
AcDbEntity
  8
0
100
AcDbLine
 10
6.837579999999999
 20
122.82425
 30
0.0
 11
8.72841
 21
122.49025
 31
0.0
  0
LINE
  5
33
330
1E
100
AcDbEntity
  8
0
100
AcDbLine
 10
5.49615
 20
122.6792499999999
 30
0.0
 11
5.92159
 21
122.6042499999999
 31
0.0
  0
LINE
  5
34
330
1E
100
AcDbEntity
  8
0
100
AcDbLine
 10
8.72841
 20
122.49025
 30
0.0
 11
11.2338
 21
122.0482499999999
 31
0.0
  0
LINE
  5
35
330
1E
100
AcDbEntity
  8
0
100
AcDbLine
 10
7.05608
 20
122.40425
 30
0.0
 11
8.899640000000008
 21
122.0792499999999
 31
0.0
  0
LINE
  5
36
330
1E
100
AcDbEntity
  8
0
100
AcDbLine
 10
8.899640000000008
 20
122.0792499999999
 30
0.0
 11
11.31049999999999
 21
121.65425
 31
0.0
  0
LINE
  5
37
330
1E
100
AcDbEntity
  8
0
100
AcDbLine
 10
14.07
 20
121.54825
 30
0.0
 11
17.0953
 21
121.0152499999999
 31
0.0
  0
LINE
  5
38
330
1E
100
AcDbEntity
  8
0
100
AcDbLine
 10
11.31049999999999
 20
121.65425
 30
0.0
 11
14.05219999999999
 21
121.1712499999999
 31
0.0
  0
LINE
  5
39
330
1E
100
AcDbEntity
  8
0
100
AcDbLine
 10
14.05219999999999
 20
121.1712499999999
 30
0.0
 11
17.0302
 21
120.6462499999999
 31
0.0
  0
LINE
  5
3A
330
1E
100
AcDbEntity
  8
0
100
AcDbLine
 10
85.0
 20
123.01925
 30
0.0
 11
93.28219999999999
 21
123.01925
 31
0.0
  0
LINE
  5
3B
330
1E
100
AcDbEntity
  8
0
100
AcDbLine
 10
93.28219999999999
 20
123.01925
 30
0.0
 11
101.0
 21
123.01925
 31
0.0
  0
LINE
  5
3C
330
1E
100
AcDbEntity
  8
0
100
AcDbLine
 10
29.38237439387489
 20
123.01925
 30
0.0
 11
85.0
 21
123.01925
 31
0.0
  0
LINE
  5
3D
330
1E
100
AcDbEntity
  8
0
100
AcDbLine
 10
0.0000000000000045
 20
144.51925
 30
0.0
 11
0.500000000000004
 21
136.0192499999999
 31
0.0
  0
LINE
  5
3E
330
1E
100
AcDbEntity
  8
0
100
AcDbLine
 10
5.703079999999999
 20
123.0242499999999
 30
0.0
 11
6.837579999999999
 21
122.82425
 31
0.0
  0
LINE
  5
3F
330
1E
100
AcDbEntity
  8
0
100
AcDbLine
 10
5.277639999999999
 20
123.0992499999999
 30
0.0
 11
5.72132667366189
 21
125.615307062749
 31
0.0
  0
LINE
  5
40
330
1E
100
AcDbEntity
  8
0
100
AcDbLine
 10
5.277639999999999
 20
123.0992499999999
 30
0.0
 11
5.49615
 21
122.6792499999999
 31
0.0
  0
LINE
  5
41
330
1E
100
AcDbEntity
  8
0
100
AcDbLine
 10
5.277639999999999
 20
123.0992499999999
 30
0.0
 11
5.703079999999999
 21
123.0242499999999
 31
0.0
  0
LINE
  5
42
330
1E
100
AcDbEntity
  8
0
100
AcDbLine
 10
5.277639999999999
 20
123.0992499999999
 30
0.0
 11
5.72132667366189
 21
125.615307062749
 31
0.0
  0
LINE
  5
43
330
1E
100
AcDbEntity
  8
0
100
AcDbLine
 10
5.0
 20
126.01925
 30
0.0
 11
5.72132667366189
 21
125.615307062749
 31
0.0
  0
LINE
  5
44
330
1E
100
AcDbEntity
  8
0
100
AcDbLine
 10
5.0
 20
126.01925
 30
0.0
 11
5.72132667366189
 21
125.615307062749
 31
0.0
  0
LINE
  5
45
330
1E
100
AcDbEntity
  8
0
100
AcDbLine
 10
3.0
 20
128.01925
 30
0.0
 11
5.0
 21
126.01925
 31
0.0
  0
LINE
  5
46
330
1E
100
AcDbEntity
  8
0
100
AcDbLine
 10
1.5
 20
131.01925
 30
0.0
 11
3.0
 21
128.01925
 31
0.0
  0
LINE
  5
47
330
1E
100
AcDbEntity
  8
0
100
AcDbLine
 10
0.0000000000000046
 20
146.0192499999999
 30
0.0
 11
0.5792610000000051
 21
146.0192499999999
 31
0.0
  0
LINE
  5
48
330
1E
100
AcDbEntity
  8
0
100
AcDbLine
 10
0.0000000000000047
 20
146.0192499999999
 30
0.0
 11
1.0
 21
147.01925
 31
0.0
  0
LINE
  5
49
330
1E
100
AcDbEntity
  8
0
100
AcDbLine
 10
2.277570000000009
 20
146.0192499999999
 30
0.0
 11
4.979190000000009
 21
146.0192499999999
 31
0.0
  0
LINE
  5
4A
330
1E
100
AcDbEntity
  8
0
100
AcDbLine
 10
0.5792610000000041
 20
146.0192499999999
 30
0.0
 11
2.277570000000009
 21
146.0192499999999
 31
0.0
  0
LINE
  5
4B
330
1E
100
AcDbEntity
  8
0
100
AcDbLine
 10
0.5792610000000051
 20
146.0192499999999
 30
0.0
 11
2.277570000000009
 21
146.0192499999999
 31
0.0
  0
LINE
  5
4C
330
1E
100
AcDbEntity
  8
0
100
AcDbLine
 10
4.979190000000009
 20
146.0192499999999
 30
0.0
 11
8.500000000000008
 21
146.0192499999999
 31
0.0
  0
LINE
  5
4D
330
1E
100
AcDbEntity
  8
0
100
AcDbLine
 10
8.500000000000008
 20
146.0192499999999
 30
0.0
 11
12.6001
 21
146.0192499999999
 31
0.0
  0
LINE
  5
4E
330
1E
100
AcDbEntity
  8
0
100
AcDbLine
 10
12.6001
 20
146.0192499999999
 30
0.0
 11
17.0
 21
146.0192499999999
 31
0.0
  0
LINE
  5
4F
330
1E
100
AcDbEntity
  8
0
100
AcDbLine
 10
17.0
 20
146.0192499999999
 30
0.0
 11
85.0
 21
146.0192499999999
 31
0.0
  0
LINE
  5
50
330
1E
100
AcDbEntity
  8
0
100
AcDbLine
 10
17.0
 20
146.0192499999999
 30
0.0
 11
85.0
 21
146.0192499999999
 31
0.0
  0
LINE
  5
51
330
1E
100
AcDbEntity
  8
0
100
AcDbLine
 10
0.500000000000004
 20
136.0192499999999
 30
0.0
 11
1.5
 21
131.01925
 31
0.0
  0
LINE
  5
52
330
1E
100
AcDbEntity
  8
0
100
AcDbLine
 10
0.0000000000000045
 20
144.51925
 30
0.0
 11
0.0000000000000046
 21
146.0192499999999
 31
0.0
  0
LINE
  5
53
330
1E
100
AcDbEntity
  8
0
100
AcDbLine
 10
0.0000000000000045
 20
144.51925
 30
0.0
 11
0.500000000000004
 21
136.0192499999999
 31
0.0
  0
LINE
  5
54
330
1E
100
AcDbEntity
  8
0
100
AcDbLine
 10
17.0
 20
147.01925
 30
0.0
 11
85.0
 21
147.01925
 31
0.0
  0
LINE
  5
55
330
1E
100
AcDbEntity
  8
0
100
AcDbLine
 10
17.0
 20
147.01925
 30
0.0
 11
85.0
 21
147.01925
 31
0.0
  0
LINE
  5
56
330
1E
100
AcDbEntity
  8
0
100
AcDbLine
 10
12.8589
 20
147.01925
 30
0.0
 11
17.0
 21
147.01925
 31
0.0
  0
LINE
  5
57
330
1E
100
AcDbEntity
  8
0
100
AcDbLine
 10
9.000000000000008
 20
147.01925
 30
0.0
 11
12.8589
 21
147.01925
 31
0.0
  0
LINE
  5
58
330
1E
100
AcDbEntity
  8
0
100
AcDbLine
 10
5.686290000000009
 20
147.01925
 30
0.0
 11
9.000000000000008
 21
147.01925
 31
0.0
  0
LINE
  5
59
330
1E
100
AcDbEntity
  8
0
100
AcDbLine
 10
3.143590000000009
 20
147.01925
 30
0.0
 11
5.686290000000009
 21
147.01925
 31
0.0
  0
LINE
  5
5A
330
1E
100
AcDbEntity
  8
0
100
AcDbLine
 10
1.54519
 20
147.01925
 30
0.0
 11
3.143590000000009
 21
147.01925
 31
0.0
  0
LINE
  5
5B
330
1E
100
AcDbEntity
  8
0
100
AcDbLine
 10
1.0
 20
147.01925
 30
0.0
 11
1.54519
 21
147.01925
 31
0.0
  0
LINE
  5
5C
330
1E
100
AcDbEntity
  8
0
100
AcDbLine
 10
0.0000000000000046
 20
146.0192499999999
 30
0.0
 11
1.0
 21
147.01925
 31
0.0
  0
LINE
  5
5D
330
1E
100
AcDbEntity
  8
0
100
AcDbLine
 10
0.0000000000000046
 20
146.0192499999999
 30
0.0
 11
0.5792610000000051
 21
146.0192499999999
 31
0.0
  0
LINE
  5
5E
330
1E
100
AcDbEntity
  8
0
100
AcDbLine
 10
85.0
 20
147.01925
 30
0.0
 11
89.39989999999999
 21
147.01925
 31
0.0
  0
LINE
  5
5F
330
1E
100
AcDbEntity
  8
0
100
AcDbLine
 10
85.0
 20
146.0192499999999
 30
0.0
 11
89.14109999999999
 21
146.0192499999999
 31
0.0
  0
LINE
  5
60
330
1E
100
AcDbEntity
  8
0
100
AcDbLine
 10
36.0
 20
190.0192499999999
 30
0.0
 11
86.5
 21
190.0192499999999
 31
0.0
  0
LINE
  5
9A
330
1E
100
AcDbEntity
  8
0
100
AcDbLine
 10
88.40000000000001
 20
190.0192499999999
 30
0.0
 11
89.1575
 21
190.0192499999999
 31
0.0
  0
LINE
  5
9B
330
1E
100
AcDbEntity
  8
0
100
AcDbLine
 10
88.40000000000001
 20
190.0192499999999
 30
0.0
 11
89.0
 21
190.0192499999999
 31
0.0
  0
LINE
  5
9C
330
1E
100
AcDbEntity
  8
0
100
AcDbLine
 10
87.5
 20
190.0192499999999
 30
0.0
 11
88.40000000000001
 21
190.0192499999999
 31
0.0
  0
LINE
  5
9D
330
1E
100
AcDbEntity
  8
0
100
AcDbLine
 10
86.5
 20
190.0192499999999
 30
0.0
 11
87.5
 21
190.0192499999999
 31
0.0
  0
LINE
  5
9E
330
1E
100
AcDbEntity
  8
0
100
AcDbLine
 10
36.0
 20
190.0192499999999
 30
0.0
 11
86.5
 21
190.0192499999999
 31
0.0
  0
LINE
  5
9F
330
1E
100
AcDbEntity
  8
0
100
AcDbLine
 10
35.0
 20
190.0192499999999
 30
0.0
 11
36.0
 21
190.0192499999999
 31
0.0
  0
LINE
  5
A0
330
1E
100
AcDbEntity
  8
0
100
AcDbLine
 10
34.2
 20
190.0192499999999
 30
0.0
 11
35.0
 21
190.0192499999999
 31
0.0
  0
LINE
  5
A1
330
1E
100
AcDbEntity
  8
0
100
AcDbLine
 10
33.5
 20
190.0192499999999
 30
0.0
 11
34.2
 21
190.0192499999999
 31
0.0
  0
LINE
  5
A2
330
1E
100
AcDbEntity
  8
0
100
AcDbLine
 10
32.9
 20
190.0192499999999
 30
0.0
 11
33.5
 21
190.0192499999999
 31
0.0
  0
LINE
  5
A3
330
1E
100
AcDbEntity
  8
0
100
AcDbLine
 10
32.6
 20
190.0192499999999
 30
0.0
 11
32.9
 21
190.0192499999999
 31
0.0
  0
LINE
  5
A4
330
1E
100
AcDbEntity
  8
0
100
AcDbLine
 10
36.0
 20
190.51925
 30
0.0
 11
86.5
 21
190.51925
 31
0.0
  0
LINE
  5
A5
330
1E
100
AcDbEntity
  8
0
100
AcDbLine
 10
88.2
 20
190.51925
 30
0.0
 11
89.0
 21
190.51925
 31
0.0
  0
LINE
  5
A6
330
1E
100
AcDbEntity
  8
0
100
AcDbLine
 10
87.4
 20
190.51925
 30
0.0
 11
88.2
 21
190.51925
 31
0.0
  0
LINE
  5
A7
330
1E
100
AcDbEntity
  8
0
100
AcDbLine
 10
86.5
 20
190.51925
 30
0.0
 11
87.4
 21
190.51925
 31
0.0
  0
LINE
  5
A8
330
1E
100
AcDbEntity
  8
0
100
AcDbLine
 10
36.0
 20
190.51925
 30
0.0
 11
86.5
 21
190.51925
 31
0.0
  0
LINE
  5
A9
330
1E
100
AcDbEntity
  8
0
100
AcDbLine
 10
35.0
 20
190.51925
 30
0.0
 11
36.0
 21
190.51925
 31
0.0
  0
LINE
  5
AA
330
1E
100
AcDbEntity
  8
0
100
AcDbLine
 10
34.0
 20
190.51925
 30
0.0
 11
35.0
 21
190.51925
 31
0.0
  0
LINE
  5
AB
330
1E
100
AcDbEntity
  8
0
100
AcDbLine
 10
33.2
 20
190.51925
 30
0.0
 11
34.0
 21
190.51925
 31
0.0
  0
LINE
  5
AC
330
1E
100
AcDbEntity
  8
0
100
AcDbLine
 10
32.5
 20
190.51925
 30
0.0
 11
33.2
 21
190.51925
 31
0.0
  0
LINE
  5
AD
330
1E
100
AcDbEntity
  8
0
100
AcDbLine
 10
88.2
 20
206.51925
 30
0.0
 11
89.0
 21
206.51925
 31
0.0
  0
LINE
  5
AE
330
1E
100
AcDbEntity
  8
0
100
AcDbLine
 10
87.4
 20
206.51925
 30
0.0
 11
88.2
 21
206.51925
 31
0.0
  0
LINE
  5
AF
330
1E
100
AcDbEntity
  8
0
100
AcDbLine
 10
86.5
 20
206.51925
 30
0.0
 11
87.4
 21
206.51925
 31
0.0
  0
LINE
  5
B0
330
1E
100
AcDbEntity
  8
0
100
AcDbLine
 10
36.0
 20
206.51925
 30
0.0
 11
86.5
 21
206.51925
 31
0.0
  0
LINE
  5
B1
330
1E
100
AcDbEntity
  8
0
100
AcDbLine
 10
35.0
 20
206.51925
 30
0.0
 11
36.0
 21
206.51925
 31
0.0
  0
LINE
  5
B2
330
1E
100
AcDbEntity
  8
0
100
AcDbLine
 10
34.0
 20
206.51925
 30
0.0
 11
35.0
 21
206.51925
 31
0.0
  0
LINE
  5
B3
330
1E
100
AcDbEntity
  8
0
100
AcDbLine
 10
33.2
 20
206.51925
 30
0.0
 11
34.0
 21
206.51925
 31
0.0
  0
LINE
  5
B4
330
1E
100
AcDbEntity
  8
0
100
AcDbLine
 10
32.5
 20
206.51925
 30
0.0
 11
33.2
 21
206.51925
 31
0.0
  0
LINE
  5
B5
330
1E
100
AcDbEntity
  8
0
100
AcDbLine
 10
88.40000000000001
 20
207.01925
 30
0.0
 11
89.29999999999999
 21
207.01925
 31
0.0
  0
LINE
  5
B6
330
1E
100
AcDbEntity
  8
0
100
AcDbLine
 10
87.5
 20
207.01925
 30
0.0
 11
88.40000000000001
 21
207.01925
 31
0.0
  0
LINE
  5
B7
330
1E
100
AcDbEntity
  8
0
100
AcDbLine
 10
86.5
 20
207.01925
 30
0.0
 11
87.5
 21
207.01925
 31
0.0
  0
LINE
  5
B8
330
1E
100
AcDbEntity
  8
0
100
AcDbLine
 10
36.0
 20
207.01925
 30
0.0
 11
86.5
 21
207.01925
 31
0.0
  0
LINE
  5
B9
330
1E
100
AcDbEntity
  8
0
100
AcDbLine
 10
35.0
 20
207.01925
 30
0.0
 11
36.0
 21
207.01925
 31
0.0
  0
LINE
  5
BA
330
1E
100
AcDbEntity
  8
0
100
AcDbLine
 10
34.2
 20
207.01925
 30
0.0
 11
35.0
 21
207.01925
 31
0.0
  0
LINE
  5
BB
330
1E
100
AcDbEntity
  8
0
100
AcDbLine
 10
33.5
 20
207.01925
 30
0.0
 11
34.2
 21
207.01925
 31
0.0
  0
LINE
  5
BC
330
1E
100
AcDbEntity
  8
0
100
AcDbLine
 10
32.9
 20
207.01925
 30
0.0
 11
33.5
 21
207.01925
 31
0.0
  0
LINE
  5
BD
330
1E
100
AcDbEntity
  8
0
100
AcDbLine
 10
32.6
 20
207.01925
 30
0.0
 11
32.9
 21
207.01925
 31
0.0
  0
LINE
  5
BE
330
1E
100
AcDbEntity
  8
0
100
AcDbLine
 10
32.5
 20
207.01925
 30
0.0
 11
32.6
 21
207.01925
 31
0.0
  0
LINE
  5
BF
330
1E
100
AcDbEntity
  8
0
100
AcDbLine
 10
32.1
 20
206.51925
 30
0.0
 11
32.5
 21
206.51925
 31
0.0
  0
LINE
  5
C0
330
1E
100
AcDbEntity
  8
0
100
AcDbLine
 10
32.0
 20
206.51925
 30
0.0
 11
32.1
 21
206.51925
 31
0.0
  0
LINE
  5
C1
330
1E
100
AcDbEntity
  8
0
100
AcDbLine
 10
32.0
 20
206.51925
 30
0.0
 11
32.5
 21
207.01925
 31
0.0
  0
LINE
  5
C2
330
1E
100
AcDbEntity
  8
0
100
AcDbLine
 10
32.1
 20
190.51925
 30
0.0
 11
32.5
 21
190.51925
 31
0.0
  0
LINE
  5
C3
330
1E
100
AcDbEntity
  8
0
100
AcDbLine
 10
32.0
 20
190.51925
 30
0.0
 11
32.1
 21
190.51925
 31
0.0
  0
LINE
  5
C4
330
1E
100
AcDbEntity
  8
0
100
AcDbLine
 10
32.0
 20
190.51925
 30
0.0
 11
32.5
 21
190.0192499999999
 31
0.0
  0
LINE
  5
C5
330
1E
100
AcDbEntity
  8
0
100
AcDbLine
 10
32.0
 20
190.51925
 30
0.0
 11
32.0
 21
206.51925
 31
0.0
  0
LINE
  5
C6
330
1E
100
AcDbEntity
  8
0
100
AcDbLine
 10
32.5
 20
190.0192499999999
 30
0.0
 11
32.6
 21
190.0192499999999
 31
0.0
  0
LINE
  5
C7
330
1E
100
AcDbEntity
  8
0
100
AcDbLine
 10
89.14109999999999
 20
146.0192499999999
 30
0.0
 11
93.0
 21
146.0192499999999
 31
0.0
  0
LINE
  5
C8
330
1E
100
AcDbEntity
  8
0
100
AcDbLine
 10
89.39989999999999
 20
147.01925
 30
0.0
 11
93.49999999999999
 21
147.01925
 31
0.0
  0
LINE
  5
C9
330
1E
100
AcDbEntity
  8
0
100
AcDbLine
 10
93.49999999999999
 20
147.01925
 30
0.0
 11
97.0208
 21
147.01925
 31
0.0
  0
LINE
  5
CA
330
1E
100
AcDbEntity
  8
0
100
AcDbLine
 10
93.0
 20
146.0192499999999
 30
0.0
 11
96.3137
 21
146.0192499999999
 31
0.0
  0
LINE
  5
CB
330
1E
100
AcDbEntity
  8
0
100
AcDbLine
 10
101.0
 20
131.01925
 30
0.0
 11
101.0
 21
128.01925
 31
0.0
  0
LINE
  5
CC
330
1E
100
AcDbEntity
  8
0
100
AcDbLine
 10
101.0
 20
131.01925
 30
0.0
 11
101.0
 21
136.0192499999999
 31
0.0
  0
LINE
  5
CD
330
1E
100
AcDbEntity
  8
0
100
AcDbLine
 10
101.0
 20
128.01925
 30
0.0
 11
101.0
 21
126.01925
 31
0.0
  0
LINE
  5
CE
330
1E
100
AcDbEntity
  8
0
100
AcDbLine
 10
101.0
 20
128.01925
 30
0.0
 11
101.0
 21
131.01925
 31
0.0
  0
LINE
  5
CF
330
1E
100
AcDbEntity
  8
0
100
AcDbLine
 10
101.0
 20
126.01925
 30
0.0
 11
101.0
 21
124.61925
 31
0.0
  0
LINE
  5
D0
330
1E
100
AcDbEntity
  8
0
100
AcDbLine
 10
101.0
 20
126.01925
 30
0.0
 11
101.0
 21
128.01925
 31
0.0
  0
LINE
  5
D1
330
1E
100
AcDbEntity
  8
0
100
AcDbLine
 10
101.0
 20
124.61925
 30
0.0
 11
101.0
 21
123.61925
 31
0.0
  0
LINE
  5
D2
330
1E
100
AcDbEntity
  8
0
100
AcDbLine
 10
101.0
 20
124.61925
 30
0.0
 11
101.0
 21
126.01925
 31
0.0
  0
LINE
  5
D3
330
1E
100
AcDbEntity
  8
0
100
AcDbLine
 10
101.0
 20
123.61925
 30
0.0
 11
101.0
 21
123.3192499999999
 31
0.0
  0
LINE
  5
D4
330
1E
100
AcDbEntity
  8
0
100
AcDbLine
 10
101.0
 20
123.61925
 30
0.0
 11
101.0
 21
124.61925
 31
0.0
  0
LINE
  5
D5
330
1E
100
AcDbEntity
  8
0
100
AcDbLine
 10
101.0
 20
123.3192499999999
 30
0.0
 11
101.0
 21
123.21925
 31
0.0
  0
LINE
  5
D6
330
1E
100
AcDbEntity
  8
0
100
AcDbLine
 10
101.0
 20
123.3192499999999
 30
0.0
 11
101.0
 21
123.61925
 31
0.0
  0
LINE
  5
D7
330
1E
100
AcDbEntity
  8
0
100
AcDbLine
 10
101.0
 20
123.21925
 30
0.0
 11
101.0
 21
123.1192499999999
 31
0.0
  0
LINE
  5
D8
330
1E
100
AcDbEntity
  8
0
100
AcDbLine
 10
101.0
 20
123.21925
 30
0.0
 11
101.0
 21
123.3192499999999
 31
0.0
  0
LINE
  5
D9
330
1E
100
AcDbEntity
  8
0
100
AcDbLine
 10
101.0
 20
123.1192499999999
 30
0.0
 11
101.0
 21
123.01925
 31
0.0
  0
LINE
  5
DA
330
1E
100
AcDbEntity
  8
0
100
AcDbLine
 10
101.0
 20
123.1192499999999
 30
0.0
 11
101.0
 21
123.21925
 31
0.0
  0
LINE
  5
DB
330
1E
100
AcDbEntity
  8
0
100
AcDbLine
 10
101.0
 20
127.57125
 30
0.0
 11
101.0
 21
121.01925
 31
0.0
  0
LINE
  5
DC
330
1E
100
AcDbEntity
  8
0
100
AcDbLine
 10
101.0
 20
127.57125
 30
0.0
 11
101.0
 21
133.6032499999999
 31
0.0
  0
LINE
  5
DD
330
1E
100
AcDbEntity
  8
0
100
AcDbLine
 10
101.0
 20
136.0192499999999
 30
0.0
 11
101.0
 21
131.01925
 31
0.0
  0
LINE
  5
DE
330
1E
100
AcDbEntity
  8
0
100
AcDbLine
 10
101.0
 20
136.0192499999999
 30
0.0
 11
101.0
 21
144.51925
 31
0.0
  0
LINE
  5
DF
330
1E
100
AcDbEntity
  8
0
100
AcDbLine
 10
101.0
 20
133.6032499999999
 30
0.0
 11
101.0
 21
127.57125
 31
0.0
  0
LINE
  5
E0
330
1E
100
AcDbEntity
  8
0
100
AcDbLine
 10
101.0
 20
133.6032499999999
 30
0.0
 11
101.0
 21
138.90725
 31
0.0
  0
LINE
  5
E1
330
1E
100
AcDbEntity
  8
0
100
AcDbLine
 10
101.0
 20
138.90725
 30
0.0
 11
101.0
 21
133.6032499999999
 31
0.0
  0
LINE
  5
E2
330
1E
100
AcDbEntity
  8
0
100
AcDbLine
 10
101.0
 20
138.90725
 30
0.0
 11
101.0
 21
142.9632499999999
 31
0.0
  0
LINE
  5
E3
330
1E
100
AcDbEntity
  8
0
100
AcDbLine
 10
100.455
 20
146.0192499999999
 30
0.0
 11
101.0
 21
146.0192499999999
 31
0.0
  0
LINE
  5
E4
330
1E
100
AcDbEntity
  8
0
100
AcDbLine
 10
98.8564
 20
146.0192499999999
 30
0.0
 11
100.455
 21
146.0192499999999
 31
0.0
  0
LINE
  5
E5
330
1E
100
AcDbEntity
  8
0
100
AcDbLine
 10
96.3137
 20
146.0192499999999
 30
0.0
 11
98.8564
 21
146.0192499999999
 31
0.0
  0
LINE
  5
E6
330
1E
100
AcDbEntity
  8
0
100
AcDbLine
 10
101.0
 20
146.0192499999999
 30
0.0
 11
101.0
 21
144.51925
 31
0.0
  0
LINE
  5
E7
330
1E
100
AcDbEntity
  8
0
100
AcDbLine
 10
101.0
 20
146.0192499999999
 30
0.0
 11
101.0
 21
146.3952499999999
 31
0.0
  0
LINE
  5
E8
330
1E
100
AcDbEntity
  8
0
100
AcDbLine
 10
101.0
 20
144.51925
 30
0.0
 11
101.0
 21
136.0192499999999
 31
0.0
  0
LINE
  5
E9
330
1E
100
AcDbEntity
  8
0
100
AcDbLine
 10
101.0
 20
144.51925
 30
0.0
 11
101.0
 21
146.0192499999999
 31
0.0
  0
LINE
  5
EA
330
1E
100
AcDbEntity
  8
0
100
AcDbLine
 10
101.0
 20
142.9632499999999
 30
0.0
 11
101.0
 21
138.90725
 31
0.0
  0
LINE
  5
EB
330
1E
100
AcDbEntity
  8
0
100
AcDbLine
 10
101.0
 20
142.9632499999999
 30
0.0
 11
101.0
 21
145.4592499999999
 31
0.0
  0
LINE
  5
EC
330
1E
100
AcDbEntity
  8
0
100
AcDbLine
 10
101.0
 20
145.4592499999999
 30
0.0
 11
101.0
 21
142.9632499999999
 31
0.0
  0
LINE
  5
ED
330
1E
100
AcDbEntity
  8
0
100
AcDbLine
 10
101.0
 20
145.4592499999999
 30
0.0
 11
101.0
 21
146.3952499999999
 31
0.0
  0
LINE
  5
EE
330
1E
100
AcDbEntity
  8
0
100
AcDbLine
 10
99.72239999999999
 20
147.01925
 30
0.0
 11
101.421
 21
147.01925
 31
0.0
  0
LINE
  5
EF
330
1E
100
AcDbEntity
  8
0
100
AcDbLine
 10
97.0208
 20
147.01925
 30
0.0
 11
99.72239999999999
 21
147.01925
 31
0.0
  0
LINE
  5
F0
330
1E
100
AcDbEntity
  8
0
100
AcDbLine
 10
101.0
 20
146.3952499999999
 30
0.0
 11
101.0
 21
145.4592499999999
 31
0.0
  0
LINE
  5
F1
330
1E
100
AcDbEntity
  8
0
100
AcDbLine
 10
101.0
 20
146.3952499999999
 30
0.0
 11
102.1539999999999
 21
147.01925
 31
0.0
  0
LINE
  5
F2
330
1E
100
AcDbEntity
  8
0
100
AcDbLine
 10
101.0
 20
146.3952499999999
 30
0.0
 11
101.0
 21
146.0192499999999
 31
0.0
  0
LINE
  5
F3
330
1E
100
AcDbEntity
  8
0
100
AcDbLine
 10
96.3
 20
147.01925
 30
0.0
 11
97.0208
 21
147.01925
 31
0.0
  0
LINE
  5
F4
330
1E
100
AcDbEntity
  8
0
100
AcDbLine
 10
89.0
 20
179.10425
 30
0.0
 11
89.0
 21
190.0192499999999
 31
0.0
  0
LINE
  5
F5
330
1E
100
AcDbEntity
  8
0
100
AcDbLine
 10
89.0
 20
179.10425
 30
0.0
 11
89.0
 21
167.0192499999999
 31
0.0
  0
LINE
  5
F6
330
1E
100
AcDbEntity
  8
0
100
AcDbLine
 10
89.0
 20
206.51925
 30
0.0
 11
89.50000000000001
 21
206.51925
 31
0.0
  0
LINE
  5
F8
330
1E
100
AcDbEntity
  8
0
100
AcDbLine
 10
89.0
 20
190.0192499999999
 30
0.0
 11
89.0
 21
179.10425
 31
0.0
  0
LINE
  5
F9
330
1E
100
AcDbEntity
  8
0
100
AcDbLine
 10
89.0
 20
167.0192499999999
 30
0.0
 11
89.9
 21
167.0192499999999
 31
0.0
  0
LINE
  5
FA
330
1E
100
AcDbEntity
  8
0
100
AcDbLine
 10
89.0
 20
167.0192499999999
 30
0.0
 11
89.0
 21
179.10425
 31
0.0
  0
LINE
  5
FB
330
1E
100
AcDbEntity
  8
0
100
AcDbLine
 10
90.0
 20
157.01925
 30
0.0
 11
90.0
 21
167.0192499999999
 31
0.0
  0
LINE
  5
FC
330
1E
100
AcDbEntity
  8
0
100
AcDbLine
 10
96.79999999999999
 20
157.01925
 30
0.0
 11
101.9
 21
157.01925
 31
0.0
  0
LINE
  5
FD
330
1E
100
AcDbEntity
  8
0
100
AcDbLine
 10
92.9
 20
157.01925
 30
0.0
 11
96.79999999999999
 21
157.01925
 31
0.0
  0
LINE
  5
FE
330
1E
100
AcDbEntity
  8
0
100
AcDbLine
 10
90.5
 20
157.01925
 30
0.0
 11
92.9
 21
157.01925
 31
0.0
  0
LINE
  5
FF
330
1E
100
AcDbEntity
  8
0
100
AcDbLine
 10
89.50000000000001
 20
206.51925
 30
0.0
 11
89.9
 21
206.51925
 31
0.0
  0
LINE
  5
102
330
1E
100
AcDbEntity
  8
0
100
AcDbLine
 10
89.9
 20
206.51925
 30
0.0
 11
92.3
 21
206.51925
 31
0.0
  0
LINE
  5
103
330
1E
100
AcDbEntity
  8
0
100
AcDbLine
 10
90.0
 20
167.0192499999999
 30
0.0
 11
90.0
 21
157.01925
 31
0.0
  0
LINE
  5
104
330
1E
100
AcDbEntity
  8
0
100
AcDbLine
 10
92.3
 20
206.51925
 30
0.0
 11
96.3
 21
206.51925
 31
0.0
  0
LINE
  5
105
330
1E
100
AcDbEntity
  8
0
100
AcDbLine
 10
92.3
 20
167.0192499999999
 30
0.0
 11
96.3
 21
167.0192499999999
 31
0.0
  0
LINE
  5
106
330
1E
100
AcDbEntity
  8
0
100
AcDbLine
 10
89.9
 20
167.0192499999999
 30
0.0
 11
92.3
 21
167.0192499999999
 31
0.0
  0
LINE
  5
107
330
1E
100
AcDbEntity
  8
0
100
AcDbLine
 10
89.9
 20
167.0192499999999
 30
0.0
 11
90.0
 21
167.0192499999999
 31
0.0
  0
LINE
  5
108
330
1E
100
AcDbEntity
  8
0
100
AcDbLine
 10
89.9
 20
207.01925
 30
0.0
 11
90.4
 21
207.01925
 31
0.0
  0
LINE
  5
109
330
1E
100
AcDbEntity
  8
0
100
AcDbLine
 10
89.29999999999999
 20
207.01925
 30
0.0
 11
89.9
 21
207.01925
 31
0.0
  0
LINE
  5
10A
330
1E
100
AcDbEntity
  8
0
100
AcDbLine
 10
92.79999999999999
 20
207.01925
 30
0.0
 11
96.70000000000001
 21
207.01925
 31
0.0
  0
LINE
  5
10B
330
1E
100
AcDbEntity
  8
0
100
AcDbLine
 10
90.4
 20
207.01925
 30
0.0
 11
92.79999999999999
 21
207.01925
 31
0.0
  0
LINE
  5
10C
330
1E
100
AcDbEntity
  8
0
100
AcDbLine
 10
96.3
 20
206.51925
 30
0.0
 11
101.6
 21
206.51925
 31
0.0
  0
LINE
  5
10D
330
1E
100
AcDbEntity
  8
0
100
AcDbLine
 10
96.70000000000001
 20
207.01925
 30
0.0
 11
101.8
 21
207.01925
 31
0.0
  0
LINE
  5
10E
330
1E
100
AcDbEntity
  8
0
100
AcDbLine
 10
96.3
 20
167.0192499999999
 30
0.0
 11
101.6
 21
167.0192499999999
 31
0.0
  0
LINE
  5
10F
330
1E
100
AcDbEntity
  8
0
100
AcDbLine
 10
89.59999999999999
 20
157.01925
 30
0.0
 11
90.5
 21
157.01925
 31
0.0
  0
LINE
  5
110
330
1E
100
AcDbEntity
  8
0
100
AcDbLine
 10
89.0
 20
155.81925
 30
0.0
 11
89.59999999999999
 21
157.01925
 31
0.0
  0
LINE
  5
111
330
1E
100
AcDbEntity
  8
0
100
AcDbLine
 10
89.0
 20
147.01925
 30
0.0
 11
89.0
 21
155.81925
 31
0.0
  0
LINE
  5
112
330
1E
100
AcDbEntity
  8
0
100
AcDbLine
 10
101.0
 20
123.01925
 30
0.0
 11
101.0
 21
121.01925
 31
0.0
  0
LINE
  5
113
330
1E
100
AcDbEntity
  8
0
100
AcDbLine
 10
101.0
 20
123.01925
 30
0.0
 11
101.0
 21
123.1192499999999
 31
0.0
  0
LINE
  5
114
330
1E
100
AcDbEntity
  8
0
100
AcDbLine
 10
101.0
 20
121.01925
 30
0.0
 11
101.0
 21
114.46725
 31
0.0
  0
LINE
  5
115
330
1E
100
AcDbEntity
  8
0
100
AcDbLine
 10
101.0
 20
121.01925
 30
0.0
 11
101.0
 21
123.01925
 31
0.0
  0
LINE
  5
116
330
1E
100
AcDbEntity
  8
0
100
AcDbLine
 10
101.0
 20
121.01925
 30
0.0
 11
101.0
 21
127.57125
 31
0.0
  0
LINE
  5
117
330
1E
100
AcDbEntity
  8
0
100
AcDbLine
 10
101.0
 20
114.46725
 30
0.0
 11
101.0
 21
121.01925
 31
0.0
  0
LINE
  5
118
330
1E
100
AcDbEntity
  8
0
100
AcDbLine
 10
101.0
 20
114.46725
 30
0.0
 11
101.0
 21
108.43525
 31
0.0
  0
LINE
  5
119
330
1E
100
AcDbEntity
  8
0
100
AcDbLine
 10
101.0
 20
108.43525
 30
0.0
 11
101.0
 21
114.46725
 31
0.0
  0
LINE
  5
11A
330
1E
100
AcDbEntity
  8
0
100
AcDbLine
 10
101.0
 20
108.43525
 30
0.0
 11
101.0
 21
103.1312499999999
 31
0.0
  0
LINE
  5
11B
330
1E
100
AcDbEntity
  8
0
100
AcDbLine
 10
101.0
 20
103.1312499999999
 30
0.0
 11
101.0
 21
108.43525
 31
0.0
  0
LINE
  5
11C
330
1E
100
AcDbEntity
  8
0
100
AcDbLine
 10
101.0
 20
103.1312499999999
 30
0.0
 11
101.0
 21
99.07524999999999
 31
0.0
  0
LINE
  5
11D
330
1E
100
AcDbEntity
  8
0
100
AcDbLine
 10
101.0
 20
99.07524999999999
 30
0.0
 11
101.0
 21
103.1312499999999
 31
0.0
  0
LINE
  5
11E
330
1E
100
AcDbEntity
  8
0
100
AcDbLine
 10
101.0
 20
99.07524999999999
 30
0.0
 11
101.0
 21
96.57925
 31
0.0
  0
LINE
  5
11F
330
1E
100
AcDbEntity
  8
0
100
AcDbLine
 10
101.0
 20
96.57925
 30
0.0
 11
101.0
 21
99.07524999999999
 31
0.0
  0
LINE
  5
120
330
1E
100
AcDbEntity
  8
0
100
AcDbLine
 10
101.0
 20
96.57925
 30
0.0
 11
101.0
 21
95.64325
 31
0.0
  0
LINE
  5
121
330
1E
100
AcDbEntity
  8
0
100
AcDbLine
 10
111.8129999999999
 20
59.98075
 30
0.0
 11
112.213
 21
59.98075
 31
0.0
  0
LINE
  5
122
330
1E
100
AcDbEntity
  8
0
100
AcDbLine
 10
124.2129999999999
 20
0.006949999999999
 30
0.0
 11
126.0129999999999
 21
0.08195
 31
0.0
  0
LINE
  5
123
330
1E
100
AcDbEntity
  8
0
100
AcDbLine
 10
122.3129999999999
 20
-0.0192500000000002
 30
0.0
 11
124.2129999999999
 21
0.006949999999999
 31
0.0
  0
LINE
  5
124
330
1E
100
AcDbEntity
  8
0
100
AcDbLine
 10
114.8129999999999
 20
59.98075
 30
0.0
 11
114.8129999999999
 21
4.242449999999999
 31
0.0
  0
LINE
  5
125
330
1E
100
AcDbEntity
  8
0
100
AcDbLine
 10
114.8129999999999
 20
59.98075
 30
0.0
 11
115.1129999999999
 21
59.98075
 31
0.0
  0
LINE
  5
126
330
1E
100
AcDbEntity
  8
0
100
AcDbLine
 10
115.1129999999999
 20
5.591849999999999
 30
0.0
 11
115.8129999999999
 21
6.791249999999999
 31
0.0
  0
LINE
  5
127
330
1E
100
AcDbEntity
  8
0
100
AcDbLine
 10
114.9129999999999
 20
59.98075
 30
0.0
 11
117.113
 21
59.98075
 31
0.0
  0
LINE
  5
128
330
1E
100
AcDbEntity
  8
0
100
AcDbLine
 10
115.1129999999999
 20
59.98075
 30
0.0
 11
115.8129999999999
 21
59.98075
 31
0.0
  0
LINE
  5
129
330
1E
100
AcDbEntity
  8
0
100
AcDbLine
 10
115.8129999999999
 20
59.98075
 30
0.0
 11
117.0129999999999
 21
59.98075
 31
0.0
  0
LINE
  5
12A
330
1E
100
AcDbEntity
  8
0
100
AcDbLine
 10
115.8129999999999
 20
6.791249999999999
 30
0.0
 11
117.0129999999999
 21
7.99075
 31
0.0
  0
LINE
  5
12B
330
1E
100
AcDbEntity
  8
0
100
AcDbLine
 10
114.8129999999999
 20
4.242449999999999
 30
0.0
 11
115.1129999999999
 21
2.255949999999999
 31
0.0
  0
LINE
  5
12C
330
1E
100
AcDbEntity
  8
0
100
AcDbLine
 10
114.8129999999999
 20
4.242449999999999
 30
0.0
 11
114.8129999999999
 21
59.98075
 31
0.0
  0
LINE
  5
12D
330
1E
100
AcDbEntity
  8
0
100
AcDbLine
 10
114.8129999999999
 20
4.242449999999999
 30
0.0
 11
115.1129999999999
 21
5.591849999999999
 31
0.0
  0
LINE
  5
12E
330
1E
100
AcDbEntity
  8
0
100
AcDbLine
 10
115.1129999999999
 20
2.255949999999999
 30
0.0
 11
115.8129999999999
 21
1.13145
 31
0.0
  0
LINE
  5
12F
330
1E
100
AcDbEntity
  8
0
100
AcDbLine
 10
117.0129999999999
 20
7.99075
 30
0.0
 11
118.613
 21
9.04025
 31
0.0
  0
LINE
  5
130
330
1E
100
AcDbEntity
  8
0
100
AcDbLine
 10
117.113
 20
59.98075
 30
0.0
 11
119.6129999999999
 21
59.98075
 31
0.0
  0
LINE
  5
131
330
1E
100
AcDbEntity
  8
0
100
AcDbLine
 10
117.0129999999999
 20
59.98075
 30
0.0
 11
118.613
 21
59.98075
 31
0.0
  0
LINE
  5
132
330
1E
100
AcDbEntity
  8
0
100
AcDbLine
 10
118.613
 20
59.98075
 30
0.0
 11
120.4129999999999
 21
59.98075
 31
0.0
  0
LINE
  5
133
330
1E
100
AcDbEntity
  8
0
100
AcDbLine
 10
118.613
 20
9.04025
 30
0.0
 11
120.4129999999999
 21
9.752449999999999
 31
0.0
  0
LINE
  5
134
330
1E
100
AcDbEntity
  8
0
100
AcDbLine
 10
115.8129999999999
 20
1.13145
 30
0.0
 11
117.0129999999999
 21
0.456749999999999
 31
0.0
  0
LINE
  5
135
330
1E
100
AcDbEntity
  8
0
100
AcDbLine
 10
117.0129999999999
 20
0.456749999999999
 30
0.0
 11
118.613
 21
0.0819500000000004
 31
0.0
  0
LINE
  5
136
330
1E
100
AcDbEntity
  8
0
100
AcDbLine
 10
127.6129999999999
 20
0.456749999999999
 30
0.0
 11
128.8129999999999
 21
1.13145
 31
0.0
  0
LINE
  5
137
330
1E
100
AcDbEntity
  8
0
100
AcDbLine
 10
126.0129999999999
 20
0.08195
 30
0.0
 11
127.6129999999999
 21
0.456749999999999
 31
0.0
  0
LINE
  5
138
330
1E
100
AcDbEntity
  8
0
100
AcDbLine
 10
129.513
 20
2.255949999999999
 30
0.0
 11
129.813
 21
4.242449999999999
 31
0.0
  0
LINE
  5
139
330
1E
100
AcDbEntity
  8
0
100
AcDbLine
 10
128.8129999999999
 20
1.13145
 30
0.0
 11
129.513
 21
2.255949999999999
 31
0.0
  0
LINE
  5
13A
330
1E
100
AcDbEntity
  8
0
100
AcDbLine
 10
129.513
 20
5.591849999999999
 30
0.0
 11
129.813
 21
4.242449999999999
 31
0.0
  0
LINE
  5
13B
330
1E
100
AcDbEntity
  8
0
100
AcDbLine
 10
129.813
 20
4.242449999999999
 30
0.0
 11
129.813
 21
59.98075
 31
0.0
  0
LINE
  5
13C
330
1E
100
AcDbEntity
  8
0
100
AcDbLine
 10
128.8129999999999
 20
6.791249999999999
 30
0.0
 11
129.513
 21
5.591849999999999
 31
0.0
  0
LINE
  5
13D
330
1E
100
AcDbEntity
  8
0
100
AcDbLine
 10
127.6129999999999
 20
7.99075
 30
0.0
 11
128.8129999999999
 21
6.791249999999999
 31
0.0
  0
LINE
  5
13E
330
1E
100
AcDbEntity
  8
0
100
AcDbLine
 10
126.0129999999999
 20
9.04025
 30
0.0
 11
127.6129999999999
 21
7.99075
 31
0.0
  0
LINE
  5
13F
330
1E
100
AcDbEntity
  8
0
100
AcDbLine
 10
124.2129999999999
 20
9.752449999999999
 30
0.0
 11
126.0129999999999
 21
9.04025
 31
0.0
  0
LINE
  5
140
330
1E
100
AcDbEntity
  8
0
100
AcDbLine
 10
119.6129999999999
 20
59.98075
 30
0.0
 11
122.3129999999999
 21
59.98075
 31
0.0
  0
LINE
  5
141
330
1E
100
AcDbEntity
  8
0
100
AcDbLine
 10
124.2129999999999
 20
59.98075
 30
0.0
 11
126.0129999999999
 21
59.98075
 31
0.0
  0
LINE
  5
142
330
1E
100
AcDbEntity
  8
0
100
AcDbLine
 10
122.3129999999999
 20
9.98075
 30
0.0
 11
124.2129999999999
 21
9.752449999999999
 31
0.0
  0
LINE
  5
143
330
1E
100
AcDbEntity
  8
0
100
AcDbLine
 10
129.513
 20
59.98075
 30
0.0
 11
129.813
 21
59.98075
 31
0.0
  0
LINE
  5
144
330
1E
100
AcDbEntity
  8
0
100
AcDbLine
 10
128.8129999999999
 20
59.98075
 30
0.0
 11
129.513
 21
59.98075
 31
0.0
  0
LINE
  5
145
330
1E
100
AcDbEntity
  8
0
100
AcDbLine
 10
127.6129999999999
 20
59.98075
 30
0.0
 11
128.8129999999999
 21
59.98075
 31
0.0
  0
LINE
  5
146
330
1E
100
AcDbEntity
  8
0
100
AcDbLine
 10
126.0129999999999
 20
59.98075
 30
0.0
 11
127.6129999999999
 21
59.98075
 31
0.0
  0
LINE
  5
147
330
1E
100
AcDbEntity
  8
0
100
AcDbLine
 10
129.7129999999999
 20
59.98075
 30
0.0
 11
131.4129999999999
 21
59.98075
 31
0.0
  0
LINE
  5
148
330
1E
100
AcDbEntity
  8
0
100
AcDbLine
 10
127.5129999999999
 20
59.98075
 30
0.0
 11
129.7129999999999
 21
59.98075
 31
0.0
  0
LINE
  5
149
330
1E
100
AcDbEntity
  8
0
100
AcDbLine
 10
125.0129999999999
 20
59.98075
 30
0.0
 11
127.5129999999999
 21
59.98075
 31
0.0
  0
LINE
  5
14A
330
1E
100
AcDbEntity
  8
0
100
AcDbLine
 10
122.3129999999999
 20
59.98075
 30
0.0
 11
125.0129999999999
 21
59.98075
 31
0.0
  0
LINE
  5
14B
330
1E
100
AcDbEntity
  8
0
100
AcDbLine
 10
122.3129999999999
 20
59.98075
 30
0.0
 11
124.2129999999999
 21
59.98075
 31
0.0
  0
LINE
  5
14C
330
1E
100
AcDbEntity
  8
0
100
AcDbLine
 10
132.4129999999999
 20
59.98075
 30
0.0
 11
132.8129999999999
 21
59.98075
 31
0.0
  0
LINE
  5
14D
330
1E
100
AcDbEntity
  8
0
100
AcDbLine
 10
132.8129999999999
 20
59.98075
 30
0.0
 11
133.8129999999999
 21
89.98025
 31
0.0
  0
LINE
  5
14E
330
1E
100
AcDbEntity
  8
0
100
AcDbLine
 10
131.4129999999999
 20
59.98075
 30
0.0
 11
132.4129999999999
 21
59.98075
 31
0.0
  0
LINE
  5
14F
330
1E
100
AcDbEntity
  8
0
100
AcDbLine
 10
129.813
 20
59.98075
 30
0.0
 11
131.4129999999999
 21
59.98075
 31
0.0
  0
LINE
  5
150
330
1E
100
AcDbEntity
  8
0
100
AcDbLine
 10
129.813
 20
59.98075
 30
0.0
 11
129.813
 21
4.242449999999999
 31
0.0
  0
LINE
  5
151
330
1E
100
AcDbEntity
  8
0
100
AcDbLine
 10
120.4129999999999
 20
59.98075
 30
0.0
 11
122.3129999999999
 21
59.98075
 31
0.0
  0
LINE
  5
152
330
1E
100
AcDbEntity
  8
0
100
AcDbLine
 10
120.4129999999999
 20
9.752449999999999
 30
0.0
 11
122.3129999999999
 21
9.98075
 31
0.0
  0
LINE
  5
153
330
1E
100
AcDbEntity
  8
0
100
AcDbLine
 10
118.613
 20
0.0819500000000004
 30
0.0
 11
120.4129999999999
 21
0.0069499999999993
 31
0.0
  0
LINE
  5
154
330
1E
100
AcDbEntity
  8
0
100
AcDbLine
 10
120.4129999999999
 20
0.0069499999999993
 30
0.0
 11
122.3129999999999
 21
-0.0192500000000002
 31
0.0
  0
LINE
  5
155
330
1E
100
AcDbEntity
  8
0
100
AcDbLine
 10
112.213
 20
59.98075
 30
0.0
 11
113.2129999999999
 21
59.98075
 31
0.0
  0
LINE
  5
156
330
1E
100
AcDbEntity
  8
0
100
AcDbLine
 10
113.2129999999999
 20
59.98075
 30
0.0
 11
114.8129999999999
 21
59.98075
 31
0.0
  0
LINE
  5
157
330
1E
100
AcDbEntity
  8
0
100
AcDbLine
 10
113.2129999999999
 20
59.98075
 30
0.0
 11
114.9129999999999
 21
59.98075
 31
0.0
  0
LINE
  5
158
330
1E
100
AcDbEntity
  8
0
100
AcDbLine
 10
185.0
 20
87.01925000000001
 30
0.0
 11
185.0
 21
88.24324999999999
 31
0.0
  0
LINE
  5
159
330
1E
100
AcDbEntity
  8
0
100
AcDbLine
 10
111.213
 20
89.98025
 30
0.0
 11
112.3129999999999
 21
89.98025
 31
0.0
  0
LINE
  5
15A
330
1E
100
AcDbEntity
  8
0
100
AcDbLine
 10
112.3129999999999
 20
89.98025
 30
0.0
 11
114.2129999999999
 21
89.98025
 31
0.0
  0
LINE
  5
15B
330
1E
100
AcDbEntity
  8
0
100
AcDbLine
 10
114.2129999999999
 20
89.98025
 30
0.0
 11
116.613
 21
89.98025
 31
0.0
  0
LINE
  5
15C
330
1E
100
AcDbEntity
  8
0
100
AcDbLine
 10
116.613
 20
89.98025
 30
0.0
 11
119.3129999999999
 21
89.98025
 31
0.0
  0
LINE
  5
15D
330
1E
100
AcDbEntity
  8
0
100
AcDbLine
 10
128.0129999999999
 20
89.98025
 30
0.0
 11
130.4129999999999
 21
89.98025
 31
0.0
  0
LINE
  5
15E
330
1E
100
AcDbEntity
  8
0
100
AcDbLine
 10
125.3129999999999
 20
89.98025
 30
0.0
 11
128.0129999999999
 21
89.98025
 31
0.0
  0
LINE
  5
15F
330
1E
100
AcDbEntity
  8
0
100
AcDbLine
 10
122.3129999999999
 20
89.98025
 30
0.0
 11
125.3129999999999
 21
89.98025
 31
0.0
  0
LINE
  5
160
330
1E
100
AcDbEntity
  8
0
100
AcDbLine
 10
119.3129999999999
 20
89.98025
 30
0.0
 11
122.3129999999999
 21
89.98025
 31
0.0
  0
LINE
  5
161
330
1E
100
AcDbEntity
  8
0
100
AcDbLine
 10
110.8129999999999
 20
89.98025
 30
0.0
 11
111.8129999999999
 21
59.98075
 31
0.0
  0
LINE
  5
162
330
1E
100
AcDbEntity
  8
0
100
AcDbLine
 10
110.8129999999999
 20
89.98025
 30
0.0
 11
111.213
 21
89.98025
 31
0.0
  0
LINE
  5
163
330
1E
100
AcDbEntity
  8
0
100
AcDbLine
 10
132.3129999999999
 20
89.98025
 30
0.0
 11
133.4129999999999
 21
89.98025
 31
0.0
  0
LINE
  5
164
330
1E
100
AcDbEntity
  8
0
100
AcDbLine
 10
130.4129999999999
 20
89.98025
 30
0.0
 11
132.3129999999999
 21
89.98025
 31
0.0
  0
LINE
  5
165
330
1E
100
AcDbEntity
  8
0
100
AcDbLine
 10
132.9169999999999
 20
90.34024999999999
 30
0.0
 11
133.3129999999999
 21
90.34024999999999
 31
0.0
  0
LINE
  5
166
330
1E
100
AcDbEntity
  8
0
100
AcDbLine
 10
131.8609999999999
 20
90.34024999999999
 30
0.0
 11
132.9169999999999
 21
90.34024999999999
 31
0.0
  0
LINE
  5
167
330
1E
100
AcDbEntity
  8
0
100
AcDbLine
 10
130.1009999999999
 20
90.34024999999999
 30
0.0
 11
131.8609999999999
 21
90.34024999999999
 31
0.0
  0
LINE
  5
168
330
1E
100
AcDbEntity
  8
0
100
AcDbLine
 10
127.7689999999999
 20
90.34024999999999
 30
0.0
 11
130.1009999999999
 21
90.34024999999999
 31
0.0
  0
LINE
  5
169
330
1E
100
AcDbEntity
  8
0
100
AcDbLine
 10
133.4129999999999
 20
89.98025
 30
0.0
 11
133.8129999999999
 21
89.98025
 31
0.0
  0
LINE
  5
16A
330
1E
100
AcDbEntity
  8
0
100
AcDbLine
 10
133.049
 20
89.98025
 30
0.0
 11
133.3129999999999
 21
90.34024999999999
 31
0.0
  0
LINE
  5
16B
330
1E
100
AcDbEntity
  8
0
100
AcDbLine
 10
111.3129999999999
 20
90.34024999999999
 30
0.0
 11
111.3129999999999
 21
95.01924999999999
 31
0.0
  0
LINE
  5
16C
330
1E
100
AcDbEntity
  8
0
100
AcDbLine
 10
111.3129999999999
 20
90.34024999999999
 30
0.0
 11
111.709
 21
90.34024999999999
 31
0.0
  0
LINE
  5
16D
330
1E
100
AcDbEntity
  8
0
100
AcDbLine
 10
111.3129999999999
 20
90.34024999999999
 30
0.0
 11
111.577
 21
89.98025
 31
0.0
  0
LINE
  5
16E
330
1E
100
AcDbEntity
  8
0
100
AcDbLine
 10
111.709
 20
90.34024999999999
 30
0.0
 11
112.765
 21
90.34024999999999
 31
0.0
  0
LINE
  5
16F
330
1E
100
AcDbEntity
  8
0
100
AcDbLine
 10
112.765
 20
90.34024999999999
 30
0.0
 11
114.525
 21
90.34024999999999
 31
0.0
  0
LINE
  5
170
330
1E
100
AcDbEntity
  8
0
100
AcDbLine
 10
114.525
 20
90.34024999999999
 30
0.0
 11
116.857
 21
90.34024999999999
 31
0.0
  0
LINE
  5
171
330
1E
100
AcDbEntity
  8
0
100
AcDbLine
 10
116.857
 20
90.34024999999999
 30
0.0
 11
119.497
 21
90.34024999999999
 31
0.0
  0
LINE
  5
172
330
1E
100
AcDbEntity
  8
0
100
AcDbLine
 10
119.497
 20
90.34024999999999
 30
0.0
 11
122.3129999999999
 21
90.34024999999999
 31
0.0
  0
LINE
  5
173
330
1E
100
AcDbEntity
  8
0
100
AcDbLine
 10
125.129
 20
90.34024999999999
 30
0.0
 11
127.7689999999999
 21
90.34024999999999
 31
0.0
  0
LINE
  5
174
330
1E
100
AcDbEntity
  8
0
100
AcDbLine
 10
122.3129999999999
 20
90.34024999999999
 30
0.0
 11
125.129
 21
90.34024999999999
 31
0.0
  0
LINE
  5
175
330
1E
100
AcDbEntity
  8
0
100
AcDbLine
 10
133.3129999999999
 20
90.34024999999999
 30
0.0
 11
133.3129999999999
 21
95.01924999999999
 31
0.0
  0
LINE
  5
176
330
1E
100
AcDbEntity
  8
0
100
AcDbLine
 10
160.0
 20
87.83525
 30
0.0
 11
160.0
 21
89.05925000000001
 31
0.0
  0
LINE
  5
177
330
1E
100
AcDbEntity
  8
0
100
AcDbLine
 10
160.0
 20
87.83525
 30
0.0
 11
160.84
 21
87.01925000000001
 31
0.0
  0
LINE
  5
178
330
1E
100
AcDbEntity
  8
0
100
AcDbLine
 10
160.0
 20
87.83525
 30
0.0
 11
160.0
 21
105.01925
 31
0.0
  0
LINE
  5
179
330
1E
100
AcDbEntity
  8
0
100
AcDbLine
 10
102.1539999999999
 20
95.01924999999999
 30
0.0
 11
139.846
 21
95.01924999999999
 31
0.0
  0
LINE
  5
17A
330
1E
100
AcDbEntity
  8
0
100
AcDbLine
 10
111.3129999999999
 20
95.01924999999999
 30
0.0
 11
111.3129999999999
 21
90.34024999999999
 31
0.0
  0
LINE
  5
17B
330
1E
100
AcDbEntity
  8
0
100
AcDbLine
 10
133.3129999999999
 20
95.01924999999999
 30
0.0
 11
133.3129999999999
 21
90.34024999999999
 31
0.0
  0
LINE
  5
17C
330
1E
100
AcDbEntity
  8
0
100
AcDbLine
 10
141.0
 20
103.1312499999999
 30
0.0
 11
141.0
 21
108.43525
 31
0.0
  0
LINE
  5
17D
330
1E
100
AcDbEntity
  8
0
100
AcDbLine
 10
141.0
 20
103.1312499999999
 30
0.0
 11
141.0
 21
99.07524999999999
 31
0.0
  0
LINE
  5
17E
330
1E
100
AcDbEntity
  8
0
100
AcDbLine
 10
141.0
 20
99.07524999999999
 30
0.0
 11
141.0
 21
103.1312499999999
 31
0.0
  0
LINE
  5
17F
330
1E
100
AcDbEntity
  8
0
100
AcDbLine
 10
141.0
 20
99.07524999999999
 30
0.0
 11
141.0
 21
96.57925
 31
0.0
  0
LINE
  5
180
330
1E
100
AcDbEntity
  8
0
100
AcDbLine
 10
141.0
 20
96.57925
 30
0.0
 11
141.0
 21
99.07524999999999
 31
0.0
  0
LINE
  5
181
330
1E
100
AcDbEntity
  8
0
100
AcDbLine
 10
141.0
 20
96.57925
 30
0.0
 11
141.0
 21
95.64325
 31
0.0
  0
LINE
  5
182
330
1E
100
AcDbEntity
  8
0
100
AcDbLine
 10
141.0
 20
95.64325
 30
0.0
 11
141.0
 21
96.57925
 31
0.0
  0
LINE
  5
183
330
1E
100
AcDbEntity
  8
0
100
AcDbLine
 10
139.846
 20
95.01924999999999
 30
0.0
 11
141.0
 21
95.64325
 31
0.0
  0
LINE
  5
185
330
1E
100
AcDbEntity
  8
0
100
AcDbLine
 10
141.0
 20
108.43525
 30
0.0
 11
141.0
 21
114.46725
 31
0.0
  0
LINE
  5
186
330
1E
100
AcDbEntity
  8
0
100
AcDbLine
 10
141.0
 20
108.43525
 30
0.0
 11
141.0
 21
103.1312499999999
 31
0.0
  0
LINE
  5
189
330
1E
100
AcDbEntity
  8
0
100
AcDbLine
 10
141.0
 20
114.46725
 30
0.0
 11
141.0
 21
121.01925
 31
0.0
  0
LINE
  5
18A
330
1E
100
AcDbEntity
  8
0
100
AcDbLine
 10
141.0
 20
114.46725
 30
0.0
 11
141.0
 21
108.43525
 31
0.0
  0
LINE
  5
18E
330
1E
100
AcDbEntity
  8
0
100
AcDbLine
 10
141.0
 20
121.01925
 30
0.0
 11
141.0
 21
114.46725
 31
0.0
  0
LINE
  5
18F
330
1E
100
AcDbEntity
  8
0
100
AcDbLine
 10
141.0
 20
121.01925
 30
0.0
 11
141.0
 21
127.57125
 31
0.0
  0
LINE
  5
190
330
1E
100
AcDbEntity
  8
0
100
AcDbLine
 10
160.0
 20
116.9232499999999
 30
0.0
 11
160.0
 21
112.45125
 31
0.0
  0
LINE
  5
191
330
1E
100
AcDbEntity
  8
0
100
AcDbLine
 10
160.0
 20
113.08325
 30
0.0
 11
160.0
 21
104.5632499999999
 31
0.0
  0
LINE
  5
192
330
1E
100
AcDbEntity
  8
0
100
AcDbLine
 10
160.0
 20
109.6912499999999
 30
0.0
 11
160.0
 21
97.62725000000001
 31
0.0
  0
LINE
  5
193
330
1E
100
AcDbEntity
  8
0
100
AcDbLine
 10
160.0
 20
107.1312499999999
 30
0.0
 11
160.0
 21
92.32325000000001
 31
0.0
  0
LINE
  5
194
330
1E
100
AcDbEntity
  8
0
100
AcDbLine
 10
160.0
 20
105.5952499999999
 30
0.0
 11
160.0
 21
89.05925000000001
 31
0.0
  0
LINE
  5
196
330
1E
100
AcDbEntity
  8
0
100
AcDbLine
 10
160.0
 20
112.45125
 30
0.0
 11
160.0
 21
121.01925
 31
0.0
  0
LINE
  5
197
330
1E
100
AcDbEntity
  8
0
100
AcDbLine
 10
160.0
 20
112.45125
 30
0.0
 11
160.0
 21
104.5632499999999
 31
0.0
  0
LINE
  5
198
330
1E
100
AcDbEntity
  8
0
100
AcDbLine
 10
160.0
 20
112.45125
 30
0.0
 11
160.0
 21
116.9232499999999
 31
0.0
  0
LINE
  5
199
330
1E
100
AcDbEntity
  8
0
100
AcDbLine
 10
141.0
 20
127.57125
 30
0.0
 11
141.0
 21
133.6032499999999
 31
0.0
  0
LINE
  5
19A
330
1E
100
AcDbEntity
  8
0
100
AcDbLine
 10
141.0
 20
127.57125
 30
0.0
 11
141.0
 21
121.01925
 31
0.0
  0
LINE
  5
19D
330
1E
100
AcDbEntity
  8
0
100
AcDbLine
 10
160.0
 20
125.11525
 30
0.0
 11
160.0
 21
129.58725
 31
0.0
  0
LINE
  5
19E
330
1E
100
AcDbEntity
  8
0
100
AcDbLine
 10
141.0
 20
133.6032499999999
 30
0.0
 11
141.0
 21
138.90725
 31
0.0
  0
LINE
  5
19F
330
1E
100
AcDbEntity
  8
0
100
AcDbLine
 10
141.0
 20
133.6032499999999
 30
0.0
 11
141.0
 21
127.57125
 31
0.0
  0
LINE
  5
1A2
330
1E
100
AcDbEntity
  8
0
100
AcDbLine
 10
160.0
 20
128.95525
 30
0.0
 11
160.0
 21
137.4752499999999
 31
0.0
  0
LINE
  5
1A3
330
1E
100
AcDbEntity
  8
0
100
AcDbLine
 10
160.0
 20
132.34725
 30
0.0
 11
160.0
 21
144.4112499999999
 31
0.0
  0
LINE
  5
1A5
330
1E
100
AcDbEntity
  8
0
100
AcDbLine
 10
141.0
 20
137.0192499999999
 30
0.0
 11
160.0
 21
137.0192499999999
 31
0.0
  0
LINE
  5
1A6
330
1E
100
AcDbEntity
  8
0
100
AcDbLine
 10
160.0
 20
134.90725
 30
0.0
 11
160.0
 21
149.71525
 31
0.0
  0
LINE
  5
1A7
330
1E
100
AcDbEntity
  8
0
100
AcDbLine
 10
160.0
 20
136.44325
 30
0.0
 11
160.0
 21
152.97925
 31
0.0
  0
LINE
  5
1A8
330
1E
100
AcDbEntity
  8
0
100
AcDbLine
 10
160.0
 20
121.01925
 30
0.0
 11
160.0
 21
129.58725
 31
0.0
  0
LINE
  5
1AA
330
1E
100
AcDbEntity
  8
0
100
AcDbLine
 10
160.0
 20
121.01925
 30
0.0
 11
160.0
 21
112.45125
 31
0.0
  0
LINE
  5
1AB
330
1E
100
AcDbEntity
  8
0
100
AcDbLine
 10
160.0
 20
129.58725
 30
0.0
 11
160.0
 21
137.4752499999999
 31
0.0
  0
LINE
  5
1AD
330
1E
100
AcDbEntity
  8
0
100
AcDbLine
 10
160.0
 20
129.58725
 30
0.0
 11
160.0
 21
125.11525
 31
0.0
  0
LINE
  5
1AE
330
1E
100
AcDbEntity
  8
0
100
AcDbLine
 10
160.0
 20
129.58725
 30
0.0
 11
160.0
 21
121.01925
 31
0.0
  0
LINE
  5
1AF
330
1E
100
AcDbEntity
  8
0
100
AcDbLine
 10
141.0
 20
105.01925
 30
0.0
 11
160.0
 21
105.01925
 31
0.0
  0
LINE
  5
1B0
330
1E
100
AcDbEntity
  8
0
100
AcDbLine
 10
160.0
 20
137.0192499999999
 30
0.0
 11
160.0
 21
137.4752499999999
 31
0.0
  0
LINE
  5
1B1
330
1E
100
AcDbEntity
  8
0
100
AcDbLine
 10
160.0
 20
137.0192499999999
 30
0.0
 11
160.0
 21
152.97925
 31
0.0
  0
LINE
  5
1B2
330
1E
100
AcDbEntity
  8
0
100
AcDbLine
 10
160.0
 20
137.0192499999999
 30
0.0
 11
160.0
 21
149.71525
 31
0.0
  0
LINE
  5
1B3
330
1E
100
AcDbEntity
  8
0
100
AcDbLine
 10
160.0
 20
137.0192499999999
 30
0.0
 11
160.0
 21
144.4112499999999
 31
0.0
  0
LINE
  5
1B4
330
1E
100
AcDbEntity
  8
0
100
AcDbLine
 10
160.0
 20
137.0192499999999
 30
0.0
 11
160.0
 21
154.2032499999999
 31
0.0
  0
LINE
  5
1B5
330
1E
100
AcDbEntity
  8
0
100
AcDbLine
 10
101.421
 20
147.01925
 30
0.0
 11
102.0
 21
147.01925
 31
0.0
  0
LINE
  5
1B6
330
1E
100
AcDbEntity
  8
0
100
AcDbLine
 10
102.0
 20
147.01925
 30
0.0
 11
102.1539999999999
 21
147.01925
 31
0.0
  0
LINE
  5
1B7
330
1E
100
AcDbEntity
  8
0
100
AcDbLine
 10
102.1539999999999
 20
147.01925
 30
0.0
 11
139.846
 21
147.01925
 31
0.0
  0
LINE
  5
1B8
330
1E
100
AcDbEntity
  8
0
100
AcDbLine
 10
141.0
 20
138.90725
 30
0.0
 11
141.0
 21
142.9632499999999
 31
0.0
  0
LINE
  5
1B9
330
1E
100
AcDbEntity
  8
0
100
AcDbLine
 10
141.0
 20
138.90725
 30
0.0
 11
141.0
 21
133.6032499999999
 31
0.0
  0
LINE
  5
1BA
330
1E
100
AcDbEntity
  8
0
100
AcDbLine
 10
141.0
 20
146.3952499999999
 30
0.0
 11
141.0
 21
145.4592499999999
 31
0.0
  0
LINE
  5
1BB
330
1E
100
AcDbEntity
  8
0
100
AcDbLine
 10
141.0
 20
142.9632499999999
 30
0.0
 11
141.0
 21
145.4592499999999
 31
0.0
  0
LINE
  5
1BC
330
1E
100
AcDbEntity
  8
0
100
AcDbLine
 10
141.0
 20
142.9632499999999
 30
0.0
 11
141.0
 21
138.90725
 31
0.0
  0
LINE
  5
1BD
330
1E
100
AcDbEntity
  8
0
100
AcDbLine
 10
141.0
 20
145.4592499999999
 30
0.0
 11
141.0
 21
146.3952499999999
 31
0.0
  0
LINE
  5
1BE
330
1E
100
AcDbEntity
  8
0
100
AcDbLine
 10
141.0
 20
145.4592499999999
 30
0.0
 11
141.0
 21
142.9632499999999
 31
0.0
  0
LINE
  5
1BF
330
1E
100
AcDbEntity
  8
0
100
AcDbLine
 10
139.846
 20
147.01925
 30
0.0
 11
141.0
 21
146.3952499999999
 31
0.0
  0
LINE
  5
1C0
330
1E
100
AcDbEntity
  8
0
100
AcDbLine
 10
139.0
 20
147.01925
 30
0.0
 11
139.0
 21
155.81925
 31
0.0
  0
LINE
  5
1C1
330
1E
100
AcDbEntity
  8
0
100
AcDbLine
 10
160.0
 20
137.4752499999999
 30
0.0
 11
160.0
 21
137.0192499999999
 31
0.0
  0
LINE
  5
1C2
330
1E
100
AcDbEntity
  8
0
100
AcDbLine
 10
160.0
 20
137.4752499999999
 30
0.0
 11
160.0
 21
144.4112499999999
 31
0.0
  0
LINE
  5
1C4
330
1E
100
AcDbEntity
  8
0
100
AcDbLine
 10
160.0
 20
137.4752499999999
 30
0.0
 11
160.0
 21
128.95525
 31
0.0
  0
LINE
  5
1C5
330
1E
100
AcDbEntity
  8
0
100
AcDbLine
 10
160.0
 20
137.4752499999999
 30
0.0
 11
160.0
 21
129.58725
 31
0.0
  0
LINE
  5
1C6
330
1E
100
AcDbEntity
  8
0
100
AcDbLine
 10
160.0
 20
144.4112499999999
 30
0.0
 11
160.0
 21
137.4752499999999
 31
0.0
  0
LINE
  5
1C7
330
1E
100
AcDbEntity
  8
0
100
AcDbLine
 10
160.0
 20
144.4112499999999
 30
0.0
 11
160.0
 21
149.71525
 31
0.0
  0
LINE
  5
1C8
330
1E
100
AcDbEntity
  8
0
100
AcDbLine
 10
160.0
 20
144.4112499999999
 30
0.0
 11
160.0
 21
137.0192499999999
 31
0.0
  0
LINE
  5
1CA
330
1E
100
AcDbEntity
  8
0
100
AcDbLine
 10
160.0
 20
144.4112499999999
 30
0.0
 11
160.0
 21
132.34725
 31
0.0
  0
LINE
  5
1CB
330
1E
100
AcDbEntity
  8
0
100
AcDbLine
 10
160.0
 20
149.71525
 30
0.0
 11
160.0
 21
144.4112499999999
 31
0.0
  0
LINE
  5
1CC
330
1E
100
AcDbEntity
  8
0
100
AcDbLine
 10
160.0
 20
149.71525
 30
0.0
 11
160.0
 21
152.97925
 31
0.0
  0
LINE
  5
1CD
330
1E
100
AcDbEntity
  8
0
100
AcDbLine
 10
160.0
 20
149.71525
 30
0.0
 11
160.0
 21
137.0192499999999
 31
0.0
  0
LINE
  5
1CF
330
1E
100
AcDbEntity
  8
0
100
AcDbLine
 10
160.0
 20
149.71525
 30
0.0
 11
160.0
 21
134.90725
 31
0.0
  0
LINE
  5
1D0
330
1E
100
AcDbEntity
  8
0
100
AcDbLine
 10
160.0
 20
152.97925
 30
0.0
 11
160.0
 21
149.71525
 31
0.0
  0
LINE
  5
1D1
330
1E
100
AcDbEntity
  8
0
100
AcDbLine
 10
160.0
 20
152.97925
 30
0.0
 11
160.0
 21
154.2032499999999
 31
0.0
  0
LINE
  5
1D2
330
1E
100
AcDbEntity
  8
0
100
AcDbLine
 10
160.0
 20
152.97925
 30
0.0
 11
160.0
 21
137.0192499999999
 31
0.0
  0
LINE
  5
1D4
330
1E
100
AcDbEntity
  8
0
100
AcDbLine
 10
160.0
 20
152.97925
 30
0.0
 11
160.0
 21
136.44325
 31
0.0
  0
LINE
  5
1D5
330
1E
100
AcDbEntity
  8
0
100
AcDbLine
 10
101.8
 20
207.01925
 30
0.0
 11
107.6999999999999
 21
207.01925
 31
0.0
  0
LINE
  5
1D6
330
1E
100
AcDbEntity
  8
0
100
AcDbLine
 10
101.6
 20
206.51925
 30
0.0
 11
107.6
 21
206.51925
 31
0.0
  0
LINE
  5
1D7
330
1E
100
AcDbEntity
  8
0
100
AcDbLine
 10
101.6
 20
167.0192499999999
 30
0.0
 11
107.6
 21
167.0192499999999
 31
0.0
  0
LINE
  5
1D8
330
1E
100
AcDbEntity
  8
0
100
AcDbLine
 10
114.0
 20
157.01925
 30
0.0
 11
120.3
 21
157.01925
 31
0.0
  0
LINE
  5
1D9
330
1E
100
AcDbEntity
  8
0
100
AcDbLine
 10
120.3
 20
157.01925
 30
0.0
 11
126.0999999999999
 21
157.01925
 31
0.0
  0
LINE
  5
1DA
330
1E
100
AcDbEntity
  8
0
100
AcDbLine
 10
126.0999999999999
 20
157.01925
 30
0.0
 11
131.1999999999999
 21
157.01925
 31
0.0
  0
LINE
  5
1DB
330
1E
100
AcDbEntity
  8
0
100
AcDbLine
 10
131.1999999999999
 20
157.01925
 30
0.0
 11
135.0999999999999
 21
157.01925
 31
0.0
  0
LINE
  5
1DC
330
1E
100
AcDbEntity
  8
0
100
AcDbLine
 10
138.0
 20
157.01925
 30
0.0
 11
138.0
 21
167.0192499999999
 31
0.0
  0
LINE
  5
1DD
330
1E
100
AcDbEntity
  8
0
100
AcDbLine
 10
135.0999999999999
 20
157.01925
 30
0.0
 11
137.5
 21
157.01925
 31
0.0
  0
LINE
  5
1DE
330
1E
100
AcDbEntity
  8
0
100
AcDbLine
 10
137.5
 20
157.01925
 30
0.0
 11
138.4
 21
157.01925
 31
0.0
  0
LINE
  5
1DF
330
1E
100
AcDbEntity
  8
0
100
AcDbLine
 10
139.0
 20
155.81925
 30
0.0
 11
139.0
 21
147.01925
 31
0.0
  0
LINE
  5
1E0
330
1E
100
AcDbEntity
  8
0
100
AcDbLine
 10
138.4
 20
157.01925
 30
0.0
 11
139.0
 21
155.81925
 31
0.0
  0
LINE
  5
1E1
330
1E
100
AcDbEntity
  8
0
100
AcDbLine
 10
107.6
 20
206.51925
 30
0.0
 11
114.0
 21
206.51925
 31
0.0
  0
LINE
  5
1E2
330
1E
100
AcDbEntity
  8
0
100
AcDbLine
 10
126.356
 20
170.4162499999999
 30
0.0
 11
131.682
 21
171.93825
 31
0.0
  0
LINE
  5
1E3
330
1E
100
AcDbEntity
  8
0
100
AcDbLine
 10
120.5419999999999
 20
168.8392499999999
 30
0.0
 11
126.356
 21
170.4162499999999
 31
0.0
  0
LINE
  5
1E4
330
1E
100
AcDbEntity
  8
0
100
AcDbLine
 10
114.0
 20
167.0192499999999
 30
0.0
 11
120.5419999999999
 21
168.8392499999999
 31
0.0
  0
LINE
  5
1E5
330
1E
100
AcDbEntity
  8
0
100
AcDbLine
 10
138.0
 20
167.0192499999999
 30
0.0
 11
138.0
 21
157.01925
 31
0.0
  0
LINE
  5
1E6
330
1E
100
AcDbEntity
  8
0
100
AcDbLine
 10
137.5
 20
170.51925
 30
0.0
 11
138.0
 21
167.0192499999999
 31
0.0
  0
LINE
  5
1E7
330
1E
100
AcDbEntity
  8
0
100
AcDbLine
 10
131.682
 20
171.93825
 30
0.0
 11
135.7579999999999
 21
173.13525
 31
0.0
  0
LINE
  5
1E8
330
1E
100
AcDbEntity
  8
0
100
AcDbLine
 10
126.4
 20
206.51925
 30
0.0
 11
131.6999999999999
 21
206.51925
 31
0.0
  0
LINE
  5
1E9
330
1E
100
AcDbEntity
  8
0
100
AcDbLine
 10
120.4
 20
206.51925
 30
0.0
 11
126.4
 21
206.51925
 31
0.0
  0
LINE
  5
1EA
330
1E
100
AcDbEntity
  8
0
100
AcDbLine
 10
114.0
 20
206.51925
 30
0.0
 11
120.4
 21
206.51925
 31
0.0
  0
LINE
  5
1EB
330
1E
100
AcDbEntity
  8
0
100
AcDbLine
 10
126.2
 20
207.01925
 30
0.0
 11
131.3
 21
207.01925
 31
0.0
  0
LINE
  5
1EC
330
1E
100
AcDbEntity
  8
0
100
AcDbLine
 10
120.3
 20
207.01925
 30
0.0
 11
126.2
 21
207.01925
 31
0.0
  0
LINE
  5
1ED
330
1E
100
AcDbEntity
  8
0
100
AcDbLine
 10
114.0
 20
207.01925
 30
0.0
 11
120.3
 21
207.01925
 31
0.0
  0
LINE
  5
1EE
330
1E
100
AcDbEntity
  8
0
100
AcDbLine
 10
131.3
 20
207.01925
 30
0.0
 11
135.1999999999999
 21
207.01925
 31
0.0
  0
LINE
  5
1EF
330
1E
100
AcDbEntity
  8
0
100
AcDbLine
 10
135.1999999999999
 20
207.01925
 30
0.0
 11
137.5999999999999
 21
207.01925
 31
0.0
  0
LINE
  5
1F0
330
1E
100
AcDbEntity
  8
0
100
AcDbLine
 10
131.6999999999999
 20
206.51925
 30
0.0
 11
135.6999999999999
 21
206.51925
 31
0.0
  0
LINE
  5
1F1
330
1E
100
AcDbEntity
  8
0
100
AcDbLine
 10
136.7750623999999
 20
173.4190004
 30
0.0
 11
137.5
 21
170.51925
 31
0.0
  0
LINE
  5
1F2
330
1E
100
AcDbEntity
  8
0
100
AcDbLine
 10
137.5999999999999
 20
207.01925
 30
0.0
 11
138.5
 21
207.01925
 31
0.0
  0
LINE
  5
1F3
330
1E
100
AcDbEntity
  8
0
100
AcDbLine
 10
135.6999999999999
 20
206.51925
 30
0.0
 11
138.1
 21
206.51925
 31
0.0
  0
LINE
  5
1F4
330
1E
100
AcDbEntity
  8
0
100
AcDbLine
 10
135.7579999999999
 20
173.13525
 30
0.0
 11
138.095
 21
173.7872499999999
 31
0.0
  0
LINE
  5
1F5
330
1E
100
AcDbEntity
  8
0
100
AcDbLine
 10
139.0
 20
206.51925
 30
0.0
 11
139.0
 21
174.01925
 31
0.0
  0
LINE
  5
1F6
330
1E
100
AcDbEntity
  8
0
100
AcDbLine
 10
139.0
 20
174.01925
 30
0.0
 11
139.0
 21
206.51925
 31
0.0
  0
LINE
  5
1F7
330
1E
100
AcDbEntity
  8
0
100
AcDbLine
 10
138.5
 20
207.01925
 30
0.0
 11
139.0
 21
206.51925
 31
0.0
  0
LINE
  5
1F8
330
1E
100
AcDbEntity
  8
0
100
AcDbLine
 10
138.1
 20
206.51925
 30
0.0
 11
139.0
 21
206.51925
 31
0.0
  0
LINE
  5
1F9
330
1E
100
AcDbEntity
  8
0
100
AcDbLine
 10
138.095
 20
173.7872499999999
 30
0.0
 11
139.0
 21
174.01925
 31
0.0
  0
LINE
  5
1FA
330
1E
100
AcDbEntity
  8
0
100
AcDbLine
 10
107.6999999999999
 20
207.01925
 30
0.0
 11
114.0
 21
207.01925
 31
0.0
  0
LINE
  5
1FB
330
1E
100
AcDbEntity
  8
0
100
AcDbLine
 10
107.6
 20
167.0192499999999
 30
0.0
 11
114.0
 21
167.0192499999999
 31
0.0
  0
LINE
  5
1FC
330
1E
100
AcDbEntity
  8
0
100
AcDbLine
 10
107.6999999999999
 20
157.01925
 30
0.0
 11
114.0
 21
157.01925
 31
0.0
  0
LINE
  5
1FD
330
1E
100
AcDbEntity
  8
0
100
AcDbLine
 10
101.9
 20
157.01925
 30
0.0
 11
107.6999999999999
 21
157.01925
 31
0.0
  0
LINE
  5
1FE
330
1E
100
AcDbEntity
  8
0
100
AcDbLine
 10
160.0
 20
154.2032499999999
 30
0.0
 11
160.0
 21
152.97925
 31
0.0
  0
LINE
  5
1FF
330
1E
100
AcDbEntity
  8
0
100
AcDbLine
 10
160.0
 20
154.2032499999999
 30
0.0
 11
160.84
 21
155.01925
 31
0.0
  0
LINE
  5
200
330
1E
100
AcDbEntity
  8
0
100
AcDbLine
 10
160.0
 20
154.2032499999999
 30
0.0
 11
160.0
 21
137.0192499999999
 31
0.0
  0
LINE
  5
201
330
1E
100
AcDbEntity
  8
0
100
AcDbLine
 10
160.0
 20
105.01925
 30
0.0
 11
160.0
 21
104.5632499999999
 31
0.0
  0
LINE
  5
202
330
1E
100
AcDbEntity
  8
0
100
AcDbLine
 10
160.0
 20
105.01925
 30
0.0
 11
160.0
 21
87.83525
 31
0.0
  0
LINE
  5
203
330
1E
100
AcDbEntity
  8
0
100
AcDbLine
 10
160.0
 20
105.01925
 30
0.0
 11
160.0
 21
89.05925000000001
 31
0.0
  0
LINE
  5
204
330
1E
100
AcDbEntity
  8
0
100
AcDbLine
 10
160.0
 20
105.01925
 30
0.0
 11
160.0
 21
92.32325000000001
 31
0.0
  0
LINE
  5
205
330
1E
100
AcDbEntity
  8
0
100
AcDbLine
 10
160.0
 20
105.01925
 30
0.0
 11
160.0
 21
97.62725000000001
 31
0.0
  0
LINE
  5
206
330
1E
100
AcDbEntity
  8
0
100
AcDbLine
 10
160.0
 20
104.5632499999999
 30
0.0
 11
160.0
 21
97.62725000000001
 31
0.0
  0
LINE
  5
207
330
1E
100
AcDbEntity
  8
0
100
AcDbLine
 10
160.0
 20
104.5632499999999
 30
0.0
 11
160.0
 21
105.01925
 31
0.0
  0
LINE
  5
209
330
1E
100
AcDbEntity
  8
0
100
AcDbLine
 10
160.0
 20
104.5632499999999
 30
0.0
 11
160.0
 21
112.45125
 31
0.0
  0
LINE
  5
20A
330
1E
100
AcDbEntity
  8
0
100
AcDbLine
 10
160.0
 20
104.5632499999999
 30
0.0
 11
160.0
 21
113.08325
 31
0.0
  0
LINE
  5
20B
330
1E
100
AcDbEntity
  8
0
100
AcDbLine
 10
160.0
 20
97.62725000000001
 30
0.0
 11
160.0
 21
92.32325000000001
 31
0.0
  0
LINE
  5
20C
330
1E
100
AcDbEntity
  8
0
100
AcDbLine
 10
160.0
 20
97.62725000000001
 30
0.0
 11
160.0
 21
104.5632499999999
 31
0.0
  0
LINE
  5
20D
330
1E
100
AcDbEntity
  8
0
100
AcDbLine
 10
160.0
 20
97.62725000000001
 30
0.0
 11
160.0
 21
105.01925
 31
0.0
  0
LINE
  5
20F
330
1E
100
AcDbEntity
  8
0
100
AcDbLine
 10
160.0
 20
97.62725000000001
 30
0.0
 11
160.0
 21
109.6912499999999
 31
0.0
  0
LINE
  5
210
330
1E
100
AcDbEntity
  8
0
100
AcDbLine
 10
160.0
 20
92.32325000000001
 30
0.0
 11
160.0
 21
89.05925000000001
 31
0.0
  0
LINE
  5
211
330
1E
100
AcDbEntity
  8
0
100
AcDbLine
 10
160.0
 20
92.32325000000001
 30
0.0
 11
160.0
 21
97.62725000000001
 31
0.0
  0
LINE
  5
212
330
1E
100
AcDbEntity
  8
0
100
AcDbLine
 10
160.0
 20
92.32325000000001
 30
0.0
 11
160.0
 21
105.01925
 31
0.0
  0
LINE
  5
214
330
1E
100
AcDbEntity
  8
0
100
AcDbLine
 10
160.0
 20
92.32325000000001
 30
0.0
 11
160.0
 21
107.1312499999999
 31
0.0
  0
LINE
  5
216
330
1E
100
AcDbEntity
  8
0
100
AcDbLine
 10
160.84
 20
112.3152499999999
 30
0.0
 11
160.84
 21
121.01925
 31
0.0
  0
LINE
  5
217
330
1E
100
AcDbEntity
  8
0
100
AcDbLine
 10
160.84
 20
112.3152499999999
 30
0.0
 11
160.84
 21
104.1552499999999
 31
0.0
  0
LINE
  5
219
330
1E
100
AcDbEntity
  8
0
100
AcDbLine
 10
160.84
 20
104.1552499999999
 30
0.0
 11
160.84
 21
112.3152499999999
 31
0.0
  0
LINE
  5
21A
330
1E
100
AcDbEntity
  8
0
100
AcDbLine
 10
160.84
 20
104.1552499999999
 30
0.0
 11
160.84
 21
96.94725
 31
0.0
  0
LINE
  5
21C
330
1E
100
AcDbEntity
  8
0
100
AcDbLine
 10
160.84
 20
96.94725
 30
0.0
 11
160.84
 21
104.1552499999999
 31
0.0
  0
LINE
  5
21D
330
1E
100
AcDbEntity
  8
0
100
AcDbLine
 10
160.84
 20
96.94725
 30
0.0
 11
160.84
 21
91.50724999999999
 31
0.0
  0
LINE
  5
21F
330
1E
100
AcDbEntity
  8
0
100
AcDbLine
 10
160.84
 20
91.50724999999999
 30
0.0
 11
160.84
 21
96.94725
 31
0.0
  0
LINE
  5
220
330
1E
100
AcDbEntity
  8
0
100
AcDbLine
 10
160.84
 20
91.50724999999999
 30
0.0
 11
160.84
 21
88.24324999999999
 31
0.0
  0
LINE
  5
222
330
1E
100
AcDbEntity
  8
0
100
AcDbLine
 10
160.84
 20
88.24324999999999
 30
0.0
 11
160.84
 21
91.50724999999999
 31
0.0
  0
LINE
  5
223
330
1E
100
AcDbEntity
  8
0
100
AcDbLine
 10
160.84
 20
88.24324999999999
 30
0.0
 11
160.84
 21
87.01925000000001
 31
0.0
  0
LINE
  5
224
330
1E
100
AcDbEntity
  8
0
100
AcDbLine
 10
185.0
 20
112.3152499999999
 30
0.0
 11
185.0
 21
121.01925
 31
0.0
  0
LINE
  5
225
330
1E
100
AcDbEntity
  8
0
100
AcDbLine
 10
185.0
 20
112.3152499999999
 30
0.0
 11
185.0
 21
104.1552499999999
 31
0.0
  0
LINE
  5
226
330
1E
100
AcDbEntity
  8
0
100
AcDbLine
 10
185.0
 20
104.1552499999999
 30
0.0
 11
185.0
 21
112.3152499999999
 31
0.0
  0
LINE
  5
227
330
1E
100
AcDbEntity
  8
0
100
AcDbLine
 10
185.0
 20
104.1552499999999
 30
0.0
 11
185.0
 21
96.94725
 31
0.0
  0
LINE
  5
228
330
1E
100
AcDbEntity
  8
0
100
AcDbLine
 10
185.0
 20
96.94725
 30
0.0
 11
185.0
 21
104.1552499999999
 31
0.0
  0
LINE
  5
229
330
1E
100
AcDbEntity
  8
0
100
AcDbLine
 10
185.0
 20
96.94725
 30
0.0
 11
185.0
 21
91.50724999999999
 31
0.0
  0
LINE
  5
22A
330
1E
100
AcDbEntity
  8
0
100
AcDbLine
 10
185.0
 20
91.50724999999999
 30
0.0
 11
185.0
 21
96.94725
 31
0.0
  0
LINE
  5
22B
330
1E
100
AcDbEntity
  8
0
100
AcDbLine
 10
185.0
 20
91.50724999999999
 30
0.0
 11
185.0
 21
88.24324999999999
 31
0.0
  0
LINE
  5
22C
330
1E
100
AcDbEntity
  8
0
100
AcDbLine
 10
185.0
 20
88.24324999999999
 30
0.0
 11
185.0
 21
91.50724999999999
 31
0.0
  0
LINE
  5
22D
330
1E
100
AcDbEntity
  8
0
100
AcDbLine
 10
185.0
 20
88.24324999999999
 30
0.0
 11
185.0
 21
87.01925000000001
 31
0.0
  0
LINE
  5
22E
330
1E
100
AcDbEntity
  8
0
100
AcDbLine
 10
160.84
 20
121.01925
 30
0.0
 11
160.84
 21
129.72325
 31
0.0
  0
LINE
  5
230
330
1E
100
AcDbEntity
  8
0
100
AcDbLine
 10
160.84
 20
121.01925
 30
0.0
 11
160.84
 21
112.3152499999999
 31
0.0
  0
LINE
  5
231
330
1E
100
AcDbEntity
  8
0
100
AcDbLine
 10
160.84
 20
129.72325
 30
0.0
 11
160.84
 21
137.88325
 31
0.0
  0
LINE
  5
233
330
1E
100
AcDbEntity
  8
0
100
AcDbLine
 10
160.84
 20
129.72325
 30
0.0
 11
160.84
 21
121.01925
 31
0.0
  0
LINE
  5
234
330
1E
100
AcDbEntity
  8
0
100
AcDbLine
 10
160.84
 20
137.88325
 30
0.0
 11
160.84
 21
145.09125
 31
0.0
  0
LINE
  5
236
330
1E
100
AcDbEntity
  8
0
100
AcDbLine
 10
160.84
 20
137.88325
 30
0.0
 11
160.84
 21
129.72325
 31
0.0
  0
LINE
  5
237
330
1E
100
AcDbEntity
  8
0
100
AcDbLine
 10
185.0
 20
121.01925
 30
0.0
 11
185.0
 21
129.72325
 31
0.0
  0
LINE
  5
238
330
1E
100
AcDbEntity
  8
0
100
AcDbLine
 10
185.0
 20
121.01925
 30
0.0
 11
185.0
 21
112.3152499999999
 31
0.0
  0
LINE
  5
239
330
1E
100
AcDbEntity
  8
0
100
AcDbLine
 10
185.0
 20
129.72325
 30
0.0
 11
185.0
 21
137.88325
 31
0.0
  0
LINE
  5
23A
330
1E
100
AcDbEntity
  8
0
100
AcDbLine
 10
185.0
 20
129.72325
 30
0.0
 11
185.0
 21
121.01925
 31
0.0
  0
LINE
  5
23B
330
1E
100
AcDbEntity
  8
0
100
AcDbLine
 10
160.84
 20
145.09125
 30
0.0
 11
160.84
 21
150.53125
 31
0.0
  0
LINE
  5
23D
330
1E
100
AcDbEntity
  8
0
100
AcDbLine
 10
160.84
 20
145.09125
 30
0.0
 11
160.84
 21
137.88325
 31
0.0
  0
LINE
  5
23E
330
1E
100
AcDbEntity
  8
0
100
AcDbLine
 10
160.84
 20
150.53125
 30
0.0
 11
160.84
 21
153.79525
 31
0.0
  0
LINE
  5
240
330
1E
100
AcDbEntity
  8
0
100
AcDbLine
 10
160.84
 20
150.53125
 30
0.0
 11
160.84
 21
145.09125
 31
0.0
  0
LINE
  5
241
330
1E
100
AcDbEntity
  8
0
100
AcDbLine
 10
185.0
 20
137.88325
 30
0.0
 11
185.0
 21
145.09125
 31
0.0
  0
LINE
  5
242
330
1E
100
AcDbEntity
  8
0
100
AcDbLine
 10
185.0
 20
137.88325
 30
0.0
 11
185.0
 21
129.72325
 31
0.0
  0
LINE
  5
243
330
1E
100
AcDbEntity
  8
0
100
AcDbLine
 10
185.0
 20
145.09125
 30
0.0
 11
185.0
 21
150.53125
 31
0.0
  0
LINE
  5
244
330
1E
100
AcDbEntity
  8
0
100
AcDbLine
 10
185.0
 20
145.09125
 30
0.0
 11
185.0
 21
137.88325
 31
0.0
  0
LINE
  5
245
330
1E
100
AcDbEntity
  8
0
100
AcDbLine
 10
185.0
 20
155.01925
 30
0.0
 11
185.0
 21
153.79525
 31
0.0
  0
LINE
  5
246
330
1E
100
AcDbEntity
  8
0
100
AcDbLine
 10
160.84
 20
153.79525
 30
0.0
 11
160.84
 21
155.01925
 31
0.0
  0
LINE
  5
248
330
1E
100
AcDbEntity
  8
0
100
AcDbLine
 10
160.84
 20
153.79525
 30
0.0
 11
160.84
 21
150.53125
 31
0.0
  0
LINE
  5
249
330
1E
100
AcDbEntity
  8
0
100
AcDbLine
 10
185.0
 20
150.53125
 30
0.0
 11
185.0
 21
153.79525
 31
0.0
  0
LINE
  5
24A
330
1E
100
AcDbEntity
  8
0
100
AcDbLine
 10
185.0
 20
150.53125
 30
0.0
 11
185.0
 21
145.09125
 31
0.0
  0
LINE
  5
24B
330
1E
100
AcDbEntity
  8
0
100
AcDbLine
 10
185.0
 20
153.79525
 30
0.0
 11
185.0
 21
155.01925
 31
0.0
  0
LINE
  5
24C
330
1E
100
AcDbEntity
  8
0
100
AcDbLine
 10
185.0
 20
153.79525
 30
0.0
 11
185.0
 21
150.53125
 31
0.0
  0
LINE
  5
24D
330
1E
100
AcDbEntity
  8
0
100
AcDbLine
 10
160.84
 20
155.01925
 30
0.0
 11
185.0
 21
155.01925
 31
0.0
  0
LINE
  5
24E
330
1E
100
AcDbEntity
  8
0
100
AcDbLine
 10
160.84
 20
155.01925
 30
0.0
 11
160.84
 21
153.79525
 31
0.0
  0
LINE
  5
24F
330
1E
100
AcDbEntity
  8
0
100
AcDbLine
 10
160.0
 20
89.05925000000001
 30
0.0
 11
160.0
 21
87.83525
 31
0.0
  0
LINE
  5
250
330
1E
100
AcDbEntity
  8
0
100
AcDbLine
 10
160.0
 20
89.05925000000001
 30
0.0
 11
160.0
 21
92.32325000000001
 31
0.0
  0
LINE
  5
251
330
1E
100
AcDbEntity
  8
0
100
AcDbLine
 10
160.0
 20
89.05925000000001
 30
0.0
 11
160.0
 21
105.01925
 31
0.0
  0
LINE
  5
253
330
1E
100
AcDbEntity
  8
0
100
AcDbLine
 10
160.0
 20
89.05925000000001
 30
0.0
 11
160.0
 21
105.5952499999999
 31
0.0
  0
LINE
  5
254
330
1E
100
AcDbEntity
  8
0
100
AcDbLine
 10
160.84
 20
87.01925000000001
 30
0.0
 11
185.0
 21
87.01925000000001
 31
0.0
  0
LINE
  5
255
330
1E
100
AcDbEntity
  8
0
100
AcDbLine
 10
160.84
 20
87.01925000000001
 30
0.0
 11
160.84
 21
88.24324999999999
 31
0.0
  0
LINE
  5
256
330
1E
100
AcDbEntity
  8
0
100
AcDbLine
 10
101.0
 20
95.64325
 30
0.0
 11
101.0
 21
96.57925
 31
0.0
  0
LINE
  5
25B
330
1E
100
AcDbEntity
  8
0
100
AcDbLine
 10
5.72132667366189
 20
125.615307062749
 30
0.0
 11
29.38237439387489
 21
123.01925
 31
0.0
  0
LINE
  5
25C
330
1E
100
AcDbEntity
  8
0
100
AcDbLine
 10
102.1539999999999
 20
95.01924999999999
 30
0.0
 11
101.0
 21
95.64325
 31
0.0
  0
ENDSEC
  0
SECTION
  2
OBJECTS
  0
DICTIONARY
  5
C
330
0
100
AcDbDictionary
281
     1
  3
ACAD_GROUP
350
D
  3
ACAD_LAYOUT
350
19
  3
ACAD_MLINESTYLE
350
16
  3
ACAD_PLOTSETTINGS
350
18
  3
ACAD_PLOTSTYLENAME
350
E
  3
AcDbVariableDictionary
350
25D
  0
DICTIONARY
  5
D
102
{ACAD_REACTORS
330
C
102
}
330
C
100
AcDbDictionary
281
     1
  0
DICTIONARY
  5
19
102
{ACAD_REACTORS
330
C
102
}
330
C
100
AcDbDictionary
281
     1
  3
Layout1
350
1D
  3
Model
350
21
  0
DICTIONARY
  5
16
102
{ACAD_REACTORS
330
C
102
}
330
C
100
AcDbDictionary
281
     1
  3
Standard
350
17
  0
DICTIONARY
  5
18
102
{ACAD_REACTORS
330
C
102
}
330
C
100
AcDbDictionary
281
     1
  0
ACDBDICTIONARYWDFLT
  5
E
102
{ACAD_REACTORS
330
C
102
}
330
C
100
AcDbDictionary
281
     1
  3
Normal
350
F
100
AcDbDictionaryWithDefault
340
F
  0
DICTIONARY
  5
25D
102
{ACAD_REACTORS
330
C
102
}
330
C
100
AcDbDictionary
281
     1
  3
DIMASSOC
350
25E
  0
LAYOUT
  5
1D
102
{ACAD_REACTORS
330
19
102
}
330
19
100
AcDbPlotSettings
  1

  2
hp deskjet 980c series
  4

  6

 40
0.0
 41
0.0
 42
0.0
 43
0.0
 44
0.0
 45
0.0
 46
0.0
 47
0.0
 48
0.0
 49
0.0
140
0.0
141
0.0
142
1.0
143
1.0
 70
   688
 72
     0
 73
     0
 74
     5
  7

 75
    16
147
1.0
148
0.0
149
0.0
100
AcDbLayout
  1
Layout1
 70
     1
 71
     1
 10
0.0
 20
0.0
 11
12.0
 21
9.0
 12
0.0
 22
0.0
 32
0.0
 14
1.000000000000000E+20
 24
1.000000000000000E+20
 34
1.000000000000000E+20
 15
-1.000000000000000E+20
 25
-1.000000000000000E+20
 35
-1.000000000000000E+20
146
0.0
 13
0.0
 23
0.0
 33
0.0
 16
1.0
 26
0.0
 36
0.0
 17
0.0
 27
1.0
 37
0.0
 76
     0
330
1A
  0
LAYOUT
  5
21
102
{ACAD_REACTORS
330
19
102
}
330
19
100
AcDbPlotSettings
  1

  2
hp deskjet 980c series
  4

  6

 40
0.0
 41
0.0
 42
0.0
 43
0.0
 44
0.0
 45
0.0
 46
0.0
 47
0.0
 48
0.0
 49
0.0
140
0.0
141
0.0
142
1.0
143
1.0
 70
  1712
 72
     0
 73
     0
 74
     0
  7

 75
     0
147
1.0
148
0.0
149
0.0
100
AcDbLayout
  1
Model
 70
     1
 71
     0
 10
0.0
 20
0.0
 11
12.0
 21
9.0
 12
0.0
 22
0.0
 32
0.0
 14
0.0
 24
0.0
 34
0.0
 15
0.0
 25
0.0
 35
0.0
146
0.0
 13
0.0
 23
0.0
 33
0.0
 16
1.0
 26
0.0
 36
0.0
 17
0.0
 27
1.0
 37
0.0
 76
     0
330
1E
  0
MLINESTYLE
  5
17
102
{ACAD_REACTORS
330
16
102
}
330
16
100
AcDbMlineStyle
  2
STANDARD
 70
     0
  3

 62
   256
 51
90.0
 52
90.0
 71
     2
 49
0.5
 62
   256
  6
BYLAYER
 49
-0.5
 62
   256
  6
BYLAYER
  0
ACDBPLACEHOLDER
  5
F
102
{ACAD_REACTORS
330
E
102
}
330
E
  0
DICTIONARYVAR
  5
25E
102
{ACAD_REACTORS
330
25D
102
}
330
25D
100
DictionaryVariables
280
     0
  1
1
  0
ENDSEC
  0
EOF
