  0
SECTION
  2
HEADER
  9
$ACADVER
  1
AC1015
  9
$ACADMAINTVER
 70
    13
  9
$DWGCODEPAGE
  3
ANSI_1252
  9
$INSBASE
 10
0.0
 20
0.0
 30
0.0
  9
$EXTMIN
 10
-0.0000000000000005
 20
0.188500000000009
 30
0.0
  9
$EXTMAX
 10
50.0
 20
164.8114999999999
 30
0.0
  9
$LIMMIN
 10
0.0
 20
0.0
  9
$LIMMAX
 10
12.0
 20
9.0
  9
$ORTHOMODE
 70
     0
  9
$REGENMODE
 70
     1
  9
$FILLMODE
 70
     1
  9
$QTEXTMODE
 70
     0
  9
$MIRRTEXT
 70
     1
  9
$LTSCALE
 40
1.0
  9
$ATTMODE
 70
     1
  9
$TEXTSIZE
 40
0.2
  9
$TRACEWID
 40
0.05
  9
$TEXTSTYLE
  7
Standard
  9
$CLAYER
  8
0
  9
$CELTYPE
  6
Continuous
  9
$CECOLOR
 62
   256
  9
$CELTSCALE
 40
1.0
  9
$DISPSILH
 70
     0
  9
$DIMSCALE
 40
1.0
  9
$DIMASZ
 40
0.18
  9
$DIMEXO
 40
0.0625
  9
$DIMDLI
 40
0.38
  9
$DIMRND
 40
0.0
  9
$DIMDLE
 40
0.0
  9
$DIMEXE
 40
0.18
  9
$DIMTP
 40
0.0
  9
$DIMTM
 40
0.0
  9
$DIMTXT
 40
0.18
  9
$DIMCEN
 40
0.09
  9
$DIMTSZ
 40
0.0
  9
$DIMTOL
 70
     0
  9
$DIMLIM
 70
     0
  9
$DIMTIH
 70
     1
  9
$DIMTOH
 70
     1
  9
$DIMSE1
 70
     0
  9
$DIMSE2
 70
     0
  9
$DIMTAD
 70
     0
  9
$DIMZIN
 70
     0
  9
$DIMBLK
  1

  9
$DIMASO
 70
     1
  9
$DIMSHO
 70
     1
  9
$DIMPOST
  1

  9
$DIMAPOST
  1

  9
$DIMALT
 70
     0
  9
$DIMALTD
 70
     2
  9
$DIMALTF
 40
25.4
  9
$DIMLFAC
 40
1.0
  9
$DIMTOFL
 70
     0
  9
$DIMTVP
 40
0.0
  9
$DIMTIX
 70
     0
  9
$DIMSOXD
 70
     0
  9
$DIMSAH
 70
     0
  9
$DIMBLK1
  1

  9
$DIMBLK2
  1

  9
$DIMSTYLE
  2
Standard
  9
$DIMCLRD
 70
     0
  9
$DIMCLRE
 70
     0
  9
$DIMCLRT
 70
     0
  9
$DIMTFAC
 40
1.0
  9
$DIMGAP
 40
0.09
  9
$DIMJUST
 70
     0
  9
$DIMSD1
 70
     0
  9
$DIMSD2
 70
     0
  9
$DIMTOLJ
 70
     1
  9
$DIMTZIN
 70
     0
  9
$DIMALTZ
 70
     0
  9
$DIMALTTZ
 70
     0
  9
$DIMUPT
 70
     0
  9
$DIMDEC
 70
     4
  9
$DIMTDEC
 70
     4
  9
$DIMALTU
 70
     2
  9
$DIMALTTD
 70
     2
  9
$DIMTXSTY
  7
Standard
  9
$DIMAUNIT
 70
     0
  9
$DIMADEC
 70
     0
  9
$DIMALTRND
 40
0.0
  9
$DIMAZIN
 70
     0
  9
$DIMDSEP
 70
    46
  9
$DIMATFIT
 70
     3
  9
$DIMFRAC
 70
     0
  9
$DIMLDRBLK
  1

  9
$DIMLUNIT
 70
     2
  9
$DIMLWD
 70
    -2
  9
$DIMLWE
 70
    -2
  9
$DIMTMOVE
 70
     0
  9
$LUNITS
 70
     2
  9
$LUPREC
 70
     4
  9
$SKETCHINC
 40
0.1
  9
$FILLETRAD
 40
0.0
  9
$AUNITS
 70
     0
  9
$AUPREC
 70
     0
  9
$MENU
  1
.
  9
$ELEVATION
 40
0.0
  9
$PELEVATION
 40
0.0
  9
$THICKNESS
 40
0.0
  9
$LIMCHECK
 70
     0
  9
$CHAMFERA
 40
0.0
  9
$CHAMFERB
 40
0.0
  9
$CHAMFERC
 40
0.0
  9
$CHAMFERD
 40
0.0
  9
$SKPOLY
 70
     0
  9
$TDCREATE
 40
2454736.662964768
  9
$TDUCREATE
 40
2454736.579631435
  9
$TDUPDATE
 40
2454736.667205937
  9
$TDUUPDATE
 40
2454736.583872604
  9
$TDINDWG
 40
0.0042411690
  9
$TDUSRTIMER
 40
0.0042411690
  9
$USRTIMER
 70
     1
  9
$ANGBASE
 50
0.0
  9
$ANGDIR
 70
     0
  9
$PDMODE
 70
     0
  9
$PDSIZE
 40
0.0
  9
$PLINEWID
 40
0.0
  9
$SPLFRAME
 70
     0
  9
$SPLINETYPE
 70
     6
  9
$SPLINESEGS
 70
     8
  9
$HANDSEED
  5
161
  9
$SURFTAB1
 70
     6
  9
$SURFTAB2
 70
     6
  9
$SURFTYPE
 70
     6
  9
$SURFU
 70
     6
  9
$SURFV
 70
     6
  9
$UCSBASE
  2

  9
$UCSNAME
  2

  9
$UCSORG
 10
0.0
 20
0.0
 30
0.0
  9
$UCSXDIR
 10
1.0
 20
0.0
 30
0.0
  9
$UCSYDIR
 10
0.0
 20
1.0
 30
0.0
  9
$UCSORTHOREF
  2

  9
$UCSORTHOVIEW
 70
     1
  9
$UCSORGTOP
 10
0.0
 20
0.0
 30
0.0
  9
$UCSORGBOTTOM
 10
0.0
 20
0.0
 30
0.0
  9
$UCSORGLEFT
 10
0.0
 20
0.0
 30
0.0
  9
$UCSORGRIGHT
 10
0.0
 20
0.0
 30
0.0
  9
$UCSORGFRONT
 10
0.0
 20
0.0
 30
0.0
  9
$UCSORGBACK
 10
0.0
 20
0.0
 30
0.0
  9
$PUCSBASE
  2

  9
$PUCSNAME
  2

  9
$PUCSORG
 10
0.0
 20
0.0
 30
0.0
  9
$PUCSXDIR
 10
1.0
 20
0.0
 30
0.0
  9
$PUCSYDIR
 10
0.0
 20
1.0
 30
0.0
  9
$PUCSORTHOREF
  2

  9
$PUCSORTHOVIEW
 70
     0
  9
$PUCSORGTOP
 10
0.0
 20
0.0
 30
0.0
  9
$PUCSORGBOTTOM
 10
0.0
 20
0.0
 30
0.0
  9
$PUCSORGLEFT
 10
0.0
 20
0.0
 30
0.0
  9
$PUCSORGRIGHT
 10
0.0
 20
0.0
 30
0.0
  9
$PUCSORGFRONT
 10
0.0
 20
0.0
 30
0.0
  9
$PUCSORGBACK
 10
0.0
 20
0.0
 30
0.0
  9
$USERI1
 70
     0
  9
$USERI2
 70
     0
  9
$USERI3
 70
     0
  9
$USERI4
 70
     0
  9
$USERI5
 70
     0
  9
$USERR1
 40
0.0
  9
$USERR2
 40
0.0
  9
$USERR3
 40
0.0
  9
$USERR4
 40
0.0
  9
$USERR5
 40
0.0
  9
$WORLDVIEW
 70
     1
  9
$SHADEDGE
 70
     3
  9
$SHADEDIF
 70
    70
  9
$TILEMODE
 70
     1
  9
$MAXACTVP
 70
    64
  9
$PINSBASE
 10
0.0
 20
0.0
 30
0.0
  9
$PLIMCHECK
 70
     0
  9
$PEXTMIN
 10
1.000000000000000E+20
 20
1.000000000000000E+20
 30
1.000000000000000E+20
  9
$PEXTMAX
 10
-1.000000000000000E+20
 20
-1.000000000000000E+20
 30
-1.000000000000000E+20
  9
$PLIMMIN
 10
0.0
 20
0.0
  9
$PLIMMAX
 10
12.0
 20
9.0
  9
$UNITMODE
 70
     0
  9
$VISRETAIN
 70
     1
  9
$PLINEGEN
 70
     0
  9
$PSLTSCALE
 70
     1
  9
$TREEDEPTH
 70
  3020
  9
$CMLSTYLE
  2
Standard
  9
$CMLJUST
 70
     0
  9
$CMLSCALE
 40
1.0
  9
$PROXYGRAPHICS
 70
     1
  9
$MEASUREMENT
 70
     0
  9
$CELWEIGHT
370
    -1
  9
$ENDCAPS
280
     0
  9
$JOINSTYLE
280
     0
  9
$LWDISPLAY
290
     0
  9
$INSUNITS
 70
     0
  9
$HYPERLINKBASE
  1

  9
$STYLESHEET
  1

  9
$XEDIT
290
     1
  9
$CEPSNTYPE
380
     0
  9
$PSTYLEMODE
290
     1
  9
$FINGERPRINTGUID
  2
{817D2AA7-321D-4F47-A307-422A46883ED1}
  9
$VERSIONGUID
  2
{90EB002E-7937-40EC-B647-C17F9908724F}
  9
$EXTNAMES
290
     1
  9
$PSVPSCALE
 40
0.0
  9
$OLESTARTUP
290
     0
  0
ENDSEC
  0
SECTION
  2
CLASSES
  0
CLASS
  1
ACDBDICTIONARYWDFLT
  2
AcDbDictionaryWithDefault
  3
AutoCAD 2000
 90
        0
280
     0
281
     0
  0
CLASS
  1
ACDBPLACEHOLDER
  2
AcDbPlaceHolder
  3
AutoCAD 2000
 90
        0
280
     0
281
     0
  0
CLASS
  1
LAYOUT
  2
AcDbLayout
  3
AutoCAD 2000
 90
        0
280
     0
281
     0
  0
CLASS
  1
DICTIONARYVAR
  2
AcDbDictionaryVar
  3
AutoCAD 2000
 90
        0
280
     0
281
     0
  0
ENDSEC
  0
SECTION
  2
TABLES
  0
TABLE
  2
VPORT
  5
8
330
0
100
AcDbSymbolTable
 70
     2
  0
VPORT
  5
160
330
8
100
AcDbSymbolTableRecord
100
AcDbViewportTableRecord
  2
*Active
 70
     0
 10
0.0
 20
0.0
 11
1.0
 21
1.0
 12
25.0
 22
82.5
 13
0.0
 23
0.0
 14
1.0
 24
1.0
 15
0.0
 25
0.0
 16
0.0
 26
0.0
 36
1.0
 17
0.0
 27
0.0
 37
0.0
 40
165.8860920716112
 41
2.078104993597951
 42
50.0
 43
0.0
 44
0.0
 50
0.0
 51
0.0
 71
     0
 72
   100
 73
     1
 74
     3
 75
     0
 76
     0
 77
     0
 78
     0
281
     0
 65
     1
110
0.0
120
0.0
130
0.0
111
1.0
121
0.0
131
0.0
112
0.0
122
1.0
132
0.0
 79
     1
146
0.0
  0
ENDTAB
  0
TABLE
  2
LTYPE
  5
5
330
0
100
AcDbSymbolTable
 70
     1
  0
LTYPE
  5
13
330
5
100
AcDbSymbolTableRecord
100
AcDbLinetypeTableRecord
  2
ByBlock
 70
     0
  3

 72
    65
 73
     0
 40
0.0
  0
LTYPE
  5
14
330
5
100
AcDbSymbolTableRecord
100
AcDbLinetypeTableRecord
  2
ByLayer
 70
     0
  3

 72
    65
 73
     0
 40
0.0
  0
LTYPE
  5
15
330
5
100
AcDbSymbolTableRecord
100
AcDbLinetypeTableRecord
  2
Continuous
 70
     0
  3
Solid line
 72
    65
 73
     0
 40
0.0
  0
ENDTAB
  0
TABLE
  2
LAYER
  5
2
330
0
100
AcDbSymbolTable
 70
     1
  0
LAYER
  5
10
330
2
100
AcDbSymbolTableRecord
100
AcDbLayerTableRecord
  2
0
 70
     0
 62
     7
  6
Continuous
370
    -3
390
F
  0
ENDTAB
  0
TABLE
  2
STYLE
  5
3
330
0
100
AcDbSymbolTable
 70
     1
  0
STYLE
  5
11
330
3
100
AcDbSymbolTableRecord
100
AcDbTextStyleTableRecord
  2
Standard
 70
     0
 40
0.0
 41
1.0
 50
0.0
 71
     0
 42
0.2
  3
txt
  4

  0
ENDTAB
  0
TABLE
  2
VIEW
  5
6
330
0
100
AcDbSymbolTable
 70
     0
  0
ENDTAB
  0
TABLE
  2
UCS
  5
7
330
0
100
AcDbSymbolTable
 70
     0
  0
ENDTAB
  0
TABLE
  2
APPID
  5
9
330
0
100
AcDbSymbolTable
 70
     1
  0
APPID
  5
12
330
9
100
AcDbSymbolTableRecord
100
AcDbRegAppTableRecord
  2
ACAD
 70
     0
  0
ENDTAB
  0
TABLE
  2
DIMSTYLE
  5
A
330
0
100
AcDbSymbolTable
 70
     1
100
AcDbDimStyleTable
 71
     0
  0
DIMSTYLE
105
15A
330
A
100
AcDbSymbolTableRecord
100
AcDbDimStyleTableRecord
  2
Standard
 70
     0
340
11
  0
ENDTAB
  0
TABLE
  2
BLOCK_RECORD
  5
1
330
0
100
AcDbSymbolTable
 70
     0
  0
BLOCK_RECORD
  5
1E
330
1
100
AcDbSymbolTableRecord
100
AcDbBlockTableRecord
  2
*Model_Space
340
21
  0
BLOCK_RECORD
  5
1A
330
1
100
AcDbSymbolTableRecord
100
AcDbBlockTableRecord
  2
*Paper_Space
340
1D
  0
ENDTAB
  0
ENDSEC
  0
SECTION
  2
BLOCKS
  0
BLOCK
  5
1F
330
1E
100
AcDbEntity
  8
0
100
AcDbBlockBegin
  2
*Model_Space
 70
     0
 10
0.0
 20
0.0
 30
0.0
  3
*Model_Space
  1

  0
ENDBLK
  5
20
330
1E
100
AcDbEntity
  8
0
100
AcDbBlockEnd
  0
BLOCK
  5
1B
330
1A
100
AcDbEntity
 67
     1
  8
0
100
AcDbBlockBegin
  2
*Paper_Space
 70
     0
 10
0.0
 20
0.0
 30
0.0
  3
*Paper_Space
  1

  0
ENDBLK
  5
1C
330
1A
100
AcDbEntity
 67
     1
  8
0
100
AcDbBlockEnd
  0
ENDSEC
  0
SECTION
  2
ENTITIES
  0
LINE
  5
22
330
1E
100
AcDbEntity
  8
0
100
AcDbLine
 10
-0.0000000000000005
 20
121.1885
 30
0.0
 11
0.9
 21
114.7885
 31
0.0
  0
LINE
  5
23
330
1E
100
AcDbEntity
  8
0
100
AcDbLine
 10
-0.0000000000000005
 20
121.1885
 30
0.0
 11
0.9
 21
127.5884999999999
 31
0.0
  0
LINE
  5
25
330
1E
100
AcDbEntity
  8
0
100
AcDbLine
 10
7.299999999999999
 20
103.4885
 30
0.0
 11
12.6
 21
99.4885
 31
0.0
  0
LINE
  5
26
330
1E
100
AcDbEntity
  8
0
100
AcDbLine
 10
7.299999999999999
 20
103.4885
 30
0.0
 11
8.0
 21
102.960198113208
 31
0.0
  0
LINE
  5
27
330
1E
100
AcDbEntity
  8
0
100
AcDbLine
 10
3.799999999999999
 20
108.9884999999999
 30
0.0
 11
7.7
 21
103.8885
 31
0.0
  0
LINE
  5
28
330
1E
100
AcDbEntity
  8
0
100
AcDbLine
 10
3.299999999999999
 20
108.7884999999999
 30
0.0
 11
7.299999999999999
 21
103.4885
 31
0.0
  0
LINE
  5
29
330
1E
100
AcDbEntity
  8
0
100
AcDbLine
 10
0.9
 20
114.7885
 30
0.0
 11
3.299999999999999
 21
108.7884999999999
 31
0.0
  0
LINE
  5
2A
330
1E
100
AcDbEntity
  8
0
100
AcDbLine
 10
3.299999999999999
 20
108.7884999999999
 30
0.0
 11
7.299999999999999
 21
103.4885
 31
0.0
  0
LINE
  5
2B
330
1E
100
AcDbEntity
  8
0
100
AcDbLine
 10
14.264
 20
18.1885
 30
0.0
 11
14.66
 21
18.1885
 31
0.0
  0
LINE
  5
2C
330
1E
100
AcDbEntity
  8
0
100
AcDbLine
 10
14.66
 20
18.1885
 30
0.0
 11
15.0
 21
18.1885
 31
0.0
  0
LINE
  5
2D
330
1E
100
AcDbEntity
  8
0
100
AcDbLine
 10
14.66
 20
18.1885
 30
0.0
 11
15.716
 21
18.1885
 31
0.0
  0
LINE
  5
2E
330
1E
100
AcDbEntity
  8
0
100
AcDbLine
 10
14.0
 20
18.72419999999999
 30
0.0
 11
14.0
 21
22.6528
 31
0.0
  0
LINE
  5
2F
330
1E
100
AcDbEntity
  8
0
100
AcDbLine
 10
14.0
 20
18.72419999999999
 30
0.0
 11
14.264
 21
18.1885
 31
0.0
  0
LINE
  5
30
330
1E
100
AcDbEntity
  8
0
100
AcDbLine
 10
14.264
 20
23.1885
 30
0.0
 11
14.66
 21
23.1885
 31
0.0
  0
LINE
  5
31
330
1E
100
AcDbEntity
  8
0
100
AcDbLine
 10
14.66
 20
23.1885
 30
0.0
 11
15.716
 21
23.1885
 31
0.0
  0
LINE
  5
32
330
1E
100
AcDbEntity
  8
0
100
AcDbLine
 10
14.0
 20
22.6528
 30
0.0
 11
14.264
 21
23.1885
 31
0.0
  0
LINE
  5
33
330
1E
100
AcDbEntity
  8
0
100
AcDbLine
 10
14.0
 20
22.6528
 30
0.0
 11
14.0
 21
18.72419999999999
 31
0.0
  0
LINE
  5
34
330
1E
100
AcDbEntity
  8
0
100
AcDbLine
 10
15.0
 20
18.1885
 30
0.0
 11
15.0
 21
0.594650000000009
 31
0.0
  0
LINE
  5
35
330
1E
100
AcDbEntity
  8
0
100
AcDbLine
 10
15.0
 20
18.1885
 30
0.0
 11
15.36
 21
18.1885
 31
0.0
  0
LINE
  5
36
330
1E
100
AcDbEntity
  8
0
100
AcDbLine
 10
15.6
 20
0.18850000000001
 30
0.0
 11
16.55999999999999
 21
0.18850000000001
 31
0.0
  0
LINE
  5
37
330
1E
100
AcDbEntity
  8
0
100
AcDbLine
 10
15.36
 20
18.1885
 30
0.0
 11
16.32
 21
18.1885
 31
0.0
  0
LINE
  5
38
330
1E
100
AcDbEntity
  8
0
100
AcDbLine
 10
15.24
 20
0.18850000000001
 30
0.0
 11
15.6
 21
0.18850000000001
 31
0.0
  0
LINE
  5
39
330
1E
100
AcDbEntity
  8
0
100
AcDbLine
 10
15.24
 20
0.18850000000001
 30
0.0
 11
15.6
 21
0.18850000000001
 31
0.0
  0
LINE
  5
3A
330
1E
100
AcDbEntity
  8
0
100
AcDbLine
 10
15.716
 20
18.1885
 30
0.0
 11
17.432
 21
18.1885
 31
0.0
  0
LINE
  5
3B
330
1E
100
AcDbEntity
  8
0
100
AcDbLine
 10
16.55999999999999
 20
0.18850000000001
 30
0.0
 11
18.12
 21
0.18850000000001
 31
0.0
  0
LINE
  5
3C
330
1E
100
AcDbEntity
  8
0
100
AcDbLine
 10
16.21599999999999
 20
25.1885
 30
0.0
 11
16.53999999999999
 21
25.1885
 31
0.0
  0
LINE
  5
3D
330
1E
100
AcDbEntity
  8
0
100
AcDbLine
 10
16.53999999999999
 20
25.1885
 30
0.0
 11
17.404
 21
25.1885
 31
0.0
  0
LINE
  5
3E
330
1E
100
AcDbEntity
  8
0
100
AcDbLine
 10
16.0
 20
25.5947
 30
0.0
 11
16.0
 21
28.84976280390819
 31
0.0
  0
LINE
  5
3F
330
1E
100
AcDbEntity
  8
0
100
AcDbLine
 10
16.0
 20
25.5947
 30
0.0
 11
16.21599999999999
 21
25.1885
 31
0.0
  0
LINE
  5
40
330
1E
100
AcDbEntity
  8
0
100
AcDbLine
 10
15.716
 20
23.1885
 30
0.0
 11
17.432
 21
23.1885
 31
0.0
  0
LINE
  5
41
330
1E
100
AcDbEntity
  8
0
100
AcDbLine
 10
16.32
 20
18.1885
 30
0.0
 11
17.92
 21
18.1885
 31
0.0
  0
LINE
  5
42
330
1E
100
AcDbEntity
  8
0
100
AcDbLine
 10
15.6
 20
0.18850000000001
 30
0.0
 11
16.55999999999999
 21
0.18850000000001
 31
0.0
  0
LINE
  5
43
330
1E
100
AcDbEntity
  8
0
100
AcDbLine
 10
16.55999999999999
 20
0.18850000000001
 30
0.0
 11
18.12
 21
0.18850000000001
 31
0.0
  0
LINE
  5
44
330
1E
100
AcDbEntity
  8
0
100
AcDbLine
 10
15.0
 20
0.59465000000001
 30
0.0
 11
15.0
 21
18.1885
 31
0.0
  0
LINE
  5
45
330
1E
100
AcDbEntity
  8
0
100
AcDbLine
 10
15.0
 20
0.59465000000001
 30
0.0
 11
15.24
 21
0.18850000000001
 31
0.0
  0
LINE
  5
46
330
1E
100
AcDbEntity
  8
0
100
AcDbLine
 10
16.0
 20
28.84976280390819
 30
0.0
 11
16.0
 21
25.5947
 31
0.0
  0
LINE
  5
47
330
1E
100
AcDbEntity
  8
0
100
AcDbLine
 10
13.6863
 20
31.8748
 30
0.0
 11
17.0
 21
29.3321
 31
0.0
  0
LINE
  5
48
330
1E
100
AcDbEntity
  8
0
100
AcDbLine
 10
12.9792
 20
31.1677
 30
0.0
 11
16.5
 21
28.4661
 31
0.0
  0
LINE
  5
49
330
1E
100
AcDbEntity
  8
0
100
AcDbLine
 10
16.5
 20
28.4661
 30
0.0
 11
20.6001
 21
26.7678
 31
0.0
  0
LINE
  5
4A
330
1E
100
AcDbEntity
  8
0
100
AcDbLine
 10
17.432
 20
18.1885
 30
0.0
 11
19.676
 21
18.1885
 31
0.0
  0
LINE
  5
4B
330
1E
100
AcDbEntity
  8
0
100
AcDbLine
 10
18.12
 20
0.18850000000001
 30
0.0
 11
20.16
 21
0.18850000000001
 31
0.0
  0
LINE
  5
4C
330
1E
100
AcDbEntity
  8
0
100
AcDbLine
 10
17.404
 20
25.1885
 30
0.0
 11
18.80799999999999
 21
25.1885
 31
0.0
  0
LINE
  5
4D
330
1E
100
AcDbEntity
  8
0
100
AcDbLine
 10
17.432
 20
23.1885
 30
0.0
 11
19.676
 21
23.1885
 31
0.0
  0
LINE
  5
4E
330
1E
100
AcDbEntity
  8
0
100
AcDbLine
 10
17.92
 20
18.1885
 30
0.0
 11
20.04
 21
18.1885
 31
0.0
  0
LINE
  5
4F
330
1E
100
AcDbEntity
  8
0
100
AcDbLine
 10
19.676
 20
18.1885
 30
0.0
 11
22.228
 21
18.1885
 31
0.0
  0
LINE
  5
50
330
1E
100
AcDbEntity
  8
0
100
AcDbLine
 10
20.16
 20
0.18850000000001
 30
0.0
 11
22.48
 21
0.188500000000011
 31
0.0
  0
LINE
  5
51
330
1E
100
AcDbEntity
  8
0
100
AcDbLine
 10
18.80799999999999
 20
25.1885
 30
0.0
 11
20.644
 21
25.1885
 31
0.0
  0
LINE
  5
52
330
1E
100
AcDbEntity
  8
0
100
AcDbLine
 10
19.676
 20
23.1885
 30
0.0
 11
22.228
 21
23.1885
 31
0.0
  0
LINE
  5
53
330
1E
100
AcDbEntity
  8
0
100
AcDbLine
 10
20.04
 20
18.1885
 30
0.0
 11
22.44
 21
18.1885
 31
0.0
  0
LINE
  5
54
330
1E
100
AcDbEntity
  8
0
100
AcDbLine
 10
18.12
 20
0.18850000000001
 30
0.0
 11
20.16
 21
0.188500000000009
 31
0.0
  0
LINE
  5
55
330
1E
100
AcDbEntity
  8
0
100
AcDbLine
 10
20.16
 20
0.188500000000009
 30
0.0
 11
22.48
 21
0.188500000000009
 31
0.0
  0
LINE
  5
56
330
1E
100
AcDbEntity
  8
0
100
AcDbLine
 10
22.228
 20
18.1885
 30
0.0
 11
25.0
 21
18.1885
 31
0.0
  0
LINE
  5
57
330
1E
100
AcDbEntity
  8
0
100
AcDbLine
 10
22.48
 20
0.188500000000011
 30
0.0
 11
25.0
 21
0.188500000000011
 31
0.0
  0
LINE
  5
58
330
1E
100
AcDbEntity
  8
0
100
AcDbLine
 10
21.0
 20
25.1885
 30
0.0
 11
21.0
 21
23.1885
 31
0.0
  0
LINE
  5
59
330
1E
100
AcDbEntity
  8
0
100
AcDbLine
 10
21.0
 20
25.1885
 30
0.0
 11
21.144
 21
25.1885
 31
0.0
  0
LINE
  5
5A
330
1E
100
AcDbEntity
  8
0
100
AcDbLine
 10
21.144
 20
25.1885
 30
0.0
 11
21.528
 21
25.1885
 31
0.0
  0
LINE
  5
5B
330
1E
100
AcDbEntity
  8
0
100
AcDbLine
 10
21.528
 20
25.1885
 30
0.0
 11
22.168
 21
25.1885
 31
0.0
  0
LINE
  5
5C
330
1E
100
AcDbEntity
  8
0
100
AcDbLine
 10
22.168
 20
25.1885
 30
0.0
 11
23.016
 21
25.1885
 31
0.0
  0
LINE
  5
5D
330
1E
100
AcDbEntity
  8
0
100
AcDbLine
 10
21.0
 20
23.1885
 30
0.0
 11
21.0
 21
25.1885
 31
0.0
  0
LINE
  5
5E
330
1E
100
AcDbEntity
  8
0
100
AcDbLine
 10
20.644
 20
25.1885
 30
0.0
 11
21.0
 21
25.1885
 31
0.0
  0
LINE
  5
5F
330
1E
100
AcDbEntity
  8
0
100
AcDbLine
 10
20.644
 20
25.1885
 30
0.0
 11
22.732
 21
25.1885
 31
0.0
  0
LINE
  5
60
330
1E
100
AcDbEntity
  8
0
100
AcDbLine
 10
22.228
 20
23.1885
 30
0.0
 11
25.0
 21
23.1885
 31
0.0
  0
LINE
  5
61
330
1E
100
AcDbEntity
  8
0
100
AcDbLine
 10
22.44
 20
18.1885
 30
0.0
 11
25.0
 21
18.1885
 31
0.0
  0
LINE
  5
62
330
1E
100
AcDbEntity
  8
0
100
AcDbLine
 10
25.0
 20
0.188500000000011
 30
0.0
 11
27.52
 21
0.188500000000011
 31
0.0
  0
LINE
  5
63
330
1E
100
AcDbEntity
  8
0
100
AcDbLine
 10
23.016
 20
25.1885
 30
0.0
 11
23.976
 21
25.1885
 31
0.0
  0
LINE
  5
64
330
1E
100
AcDbEntity
  8
0
100
AcDbLine
 10
23.976
 20
25.1885
 30
0.0
 11
25.0
 21
25.1885
 31
0.0
  0
LINE
  5
65
330
1E
100
AcDbEntity
  8
0
100
AcDbLine
 10
22.732
 20
25.1885
 30
0.0
 11
25.0
 21
25.1885
 31
0.0
  0
LINE
  5
66
330
1E
100
AcDbEntity
  8
0
100
AcDbLine
 10
25.0
 20
25.1885
 30
0.0
 11
27.268
 21
25.1885
 31
0.0
  0
LINE
  5
67
330
1E
100
AcDbEntity
  8
0
100
AcDbLine
 10
25.0
 20
25.1885
 30
0.0
 11
26.024
 21
25.1885
 31
0.0
  0
LINE
  5
68
330
1E
100
AcDbEntity
  8
0
100
AcDbLine
 10
25.0
 20
23.1885
 30
0.0
 11
27.772
 21
23.1885
 31
0.0
  0
LINE
  5
69
330
1E
100
AcDbEntity
  8
0
100
AcDbLine
 10
25.0
 20
18.1885
 30
0.0
 11
27.56
 21
18.1885
 31
0.0
  0
LINE
  5
6A
330
1E
100
AcDbEntity
  8
0
100
AcDbLine
 10
25.0
 20
18.1885
 30
0.0
 11
27.772
 21
18.1885
 31
0.0
  0
LINE
  5
6B
330
1E
100
AcDbEntity
  8
0
100
AcDbLine
 10
22.48
 20
0.188500000000009
 30
0.0
 11
25.0
 21
0.188500000000009
 31
0.0
  0
LINE
  5
6C
330
1E
100
AcDbEntity
  8
0
100
AcDbLine
 10
25.0
 20
0.188500000000009
 30
0.0
 11
27.52
 21
0.188500000000009
 31
0.0
  0
LINE
  5
6D
330
1E
100
AcDbEntity
  8
0
100
AcDbLine
 10
26.984
 20
25.1885
 30
0.0
 11
27.83199999999999
 21
25.1885
 31
0.0
  0
LINE
  5
6E
330
1E
100
AcDbEntity
  8
0
100
AcDbLine
 10
26.024
 20
25.1885
 30
0.0
 11
26.984
 21
25.1885
 31
0.0
  0
LINE
  5
6F
330
1E
100
AcDbEntity
  8
0
100
AcDbLine
 10
27.268
 20
25.1885
 30
0.0
 11
29.35599999999999
 21
25.1885
 31
0.0
  0
LINE
  5
70
330
1E
100
AcDbEntity
  8
0
100
AcDbLine
 10
27.52
 20
0.188500000000011
 30
0.0
 11
29.83999999999999
 21
0.18850000000001
 31
0.0
  0
LINE
  5
71
330
1E
100
AcDbEntity
  8
0
100
AcDbLine
 10
28.856
 20
25.1885
 30
0.0
 11
29.0
 21
25.1885
 31
0.0
  0
LINE
  5
72
330
1E
100
AcDbEntity
  8
0
100
AcDbLine
 10
29.0
 20
23.1885
 30
0.0
 11
29.0
 21
25.1885
 31
0.0
  0
LINE
  5
73
330
1E
100
AcDbEntity
  8
0
100
AcDbLine
 10
28.47199999999999
 20
25.1885
 30
0.0
 11
28.856
 21
25.1885
 31
0.0
  0
LINE
  5
74
330
1E
100
AcDbEntity
  8
0
100
AcDbLine
 10
27.83199999999999
 20
25.1885
 30
0.0
 11
28.47199999999999
 21
25.1885
 31
0.0
  0
LINE
  5
75
330
1E
100
AcDbEntity
  8
0
100
AcDbLine
 10
29.35599999999999
 20
25.1885
 30
0.0
 11
31.19199999999999
 21
25.1885
 31
0.0
  0
LINE
  5
76
330
1E
100
AcDbEntity
  8
0
100
AcDbLine
 10
29.0
 20
25.1885
 30
0.0
 11
29.35599999999999
 21
25.1885
 31
0.0
  0
LINE
  5
77
330
1E
100
AcDbEntity
  8
0
100
AcDbLine
 10
29.0
 20
25.1885
 30
0.0
 11
29.0
 21
23.1885
 31
0.0
  0
LINE
  5
78
330
1E
100
AcDbEntity
  8
0
100
AcDbLine
 10
27.772
 20
23.1885
 30
0.0
 11
30.324
 21
23.1885
 31
0.0
  0
LINE
  5
79
330
1E
100
AcDbEntity
  8
0
100
AcDbLine
 10
27.772
 20
18.1885
 30
0.0
 11
30.324
 21
18.1885
 31
0.0
  0
LINE
  5
7A
330
1E
100
AcDbEntity
  8
0
100
AcDbLine
 10
27.56
 20
18.1885
 30
0.0
 11
29.96
 21
18.1885
 31
0.0
  0
LINE
  5
7B
330
1E
100
AcDbEntity
  8
0
100
AcDbLine
 10
27.52
 20
0.188500000000009
 30
0.0
 11
29.83999999999999
 21
0.188500000000009
 31
0.0
  0
LINE
  5
7C
330
1E
100
AcDbEntity
  8
0
100
AcDbLine
 10
25.0
 20
26.1885
 30
0.0
 11
29.39989999999999
 21
26.7678
 31
0.0
  0
LINE
  5
7D
330
1E
100
AcDbEntity
  8
0
100
AcDbLine
 10
25.0
 20
27.1885
 30
0.0
 11
29.1411
 21
27.73369999999999
 31
0.0
  0
LINE
  5
7E
330
1E
100
AcDbEntity
  8
0
100
AcDbLine
 10
29.83999999999999
 20
0.18850000000001
 30
0.0
 11
31.88
 21
0.18850000000001
 31
0.0
  0
LINE
  5
7F
330
1E
100
AcDbEntity
  8
0
100
AcDbLine
 10
30.324
 20
18.1885
 30
0.0
 11
32.568
 21
18.1885
 31
0.0
  0
LINE
  5
80
330
1E
100
AcDbEntity
  8
0
100
AcDbLine
 10
31.88
 20
0.18850000000001
 30
0.0
 11
33.43999999999999
 21
0.18850000000001
 31
0.0
  0
LINE
  5
81
330
1E
100
AcDbEntity
  8
0
100
AcDbLine
 10
32.568
 20
18.1885
 30
0.0
 11
34.28399999999999
 21
18.1885
 31
0.0
  0
LINE
  5
82
330
1E
100
AcDbEntity
  8
0
100
AcDbLine
 10
33.43999999999999
 20
0.18850000000001
 30
0.0
 11
34.39999999999999
 21
0.18850000000001
 31
0.0
  0
LINE
  5
83
330
1E
100
AcDbEntity
  8
0
100
AcDbLine
 10
32.08
 20
18.1885
 30
0.0
 11
33.68
 21
18.1885
 31
0.0
  0
LINE
  5
84
330
1E
100
AcDbEntity
  8
0
100
AcDbLine
 10
29.96
 20
18.1885
 30
0.0
 11
32.08
 21
18.1885
 31
0.0
  0
LINE
  5
85
330
1E
100
AcDbEntity
  8
0
100
AcDbLine
 10
34.28399999999999
 20
18.1885
 30
0.0
 11
35.34
 21
18.1885
 31
0.0
  0
LINE
  5
86
330
1E
100
AcDbEntity
  8
0
100
AcDbLine
 10
34.39999999999999
 20
0.18850000000001
 30
0.0
 11
34.75999999999999
 21
0.18850000000001
 31
0.0
  0
LINE
  5
87
330
1E
100
AcDbEntity
  8
0
100
AcDbLine
 10
34.64
 20
18.1885
 30
0.0
 11
35.0
 21
18.1885
 31
0.0
  0
LINE
  5
88
330
1E
100
AcDbEntity
  8
0
100
AcDbLine
 10
33.68
 20
18.1885
 30
0.0
 11
34.64
 21
18.1885
 31
0.0
  0
LINE
  5
89
330
1E
100
AcDbEntity
  8
0
100
AcDbLine
 10
35.73599999999999
 20
18.1885
 30
0.0
 11
36.0
 21
18.72419999999999
 31
0.0
  0
LINE
  5
8A
330
1E
100
AcDbEntity
  8
0
100
AcDbLine
 10
35.34
 20
18.1885
 30
0.0
 11
35.73599999999999
 21
18.1885
 31
0.0
  0
LINE
  5
8B
330
1E
100
AcDbEntity
  8
0
100
AcDbLine
 10
35.0
 20
0.59465000000001
 30
0.0
 11
35.0
 21
18.1885
 31
0.0
  0
LINE
  5
8C
330
1E
100
AcDbEntity
  8
0
100
AcDbLine
 10
34.75999999999999
 20
0.18850000000001
 30
0.0
 11
35.0
 21
0.59465000000001
 31
0.0
  0
LINE
  5
8D
330
1E
100
AcDbEntity
  8
0
100
AcDbLine
 10
34.39999999999999
 20
0.18850000000001
 30
0.0
 11
34.75999999999999
 21
0.18850000000001
 31
0.0
  0
LINE
  5
8E
330
1E
100
AcDbEntity
  8
0
100
AcDbLine
 10
33.43999999999999
 20
0.18850000000001
 30
0.0
 11
34.39999999999999
 21
0.18850000000001
 31
0.0
  0
LINE
  5
8F
330
1E
100
AcDbEntity
  8
0
100
AcDbLine
 10
31.88
 20
0.18850000000001
 30
0.0
 11
33.43999999999999
 21
0.18850000000001
 31
0.0
  0
LINE
  5
90
330
1E
100
AcDbEntity
  8
0
100
AcDbLine
 10
29.83999999999999
 20
0.188500000000009
 30
0.0
 11
31.88
 21
0.18850000000001
 31
0.0
  0
LINE
  5
91
330
1E
100
AcDbEntity
  8
0
100
AcDbLine
 10
35.34
 20
23.1885
 30
0.0
 11
35.73599999999999
 21
23.1885
 31
0.0
  0
LINE
  5
92
330
1E
100
AcDbEntity
  8
0
100
AcDbLine
 10
34.28399999999999
 20
23.1885
 30
0.0
 11
35.34
 21
23.1885
 31
0.0
  0
LINE
  5
93
330
1E
100
AcDbEntity
  8
0
100
AcDbLine
 10
32.568
 20
23.1885
 30
0.0
 11
34.28399999999999
 21
23.1885
 31
0.0
  0
LINE
  5
94
330
1E
100
AcDbEntity
  8
0
100
AcDbLine
 10
33.784
 20
25.1885
 30
0.0
 11
34.0
 21
25.5947
 31
0.0
  0
LINE
  5
95
330
1E
100
AcDbEntity
  8
0
100
AcDbLine
 10
33.46
 20
25.1885
 30
0.0
 11
33.784
 21
25.1885
 31
0.0
  0
LINE
  5
96
330
1E
100
AcDbEntity
  8
0
100
AcDbLine
 10
34.0
 20
25.5947
 30
0.0
 11
34.0
 21
28.84976280390819
 31
0.0
  0
LINE
  5
97
330
1E
100
AcDbEntity
  8
0
100
AcDbLine
 10
32.59599999999999
 20
25.1885
 30
0.0
 11
33.46
 21
25.1885
 31
0.0
  0
LINE
  5
98
330
1E
100
AcDbEntity
  8
0
100
AcDbLine
 10
31.19199999999999
 20
25.1885
 30
0.0
 11
32.59599999999999
 21
25.1885
 31
0.0
  0
LINE
  5
99
330
1E
100
AcDbEntity
  8
0
100
AcDbLine
 10
30.324
 20
23.1885
 30
0.0
 11
32.568
 21
23.1885
 31
0.0
  0
LINE
  5
9A
330
1E
100
AcDbEntity
  8
0
100
AcDbLine
 10
36.0
 20
18.72419999999999
 30
0.0
 11
36.0
 21
22.6528
 31
0.0
  0
LINE
  5
9B
330
1E
100
AcDbEntity
  8
0
100
AcDbLine
 10
36.0
 20
22.6528
 30
0.0
 11
36.0
 21
18.72419999999999
 31
0.0
  0
LINE
  5
9C
330
1E
100
AcDbEntity
  8
0
100
AcDbLine
 10
35.73599999999999
 20
23.1885
 30
0.0
 11
36.0
 21
22.6528
 31
0.0
  0
LINE
  5
9D
330
1E
100
AcDbEntity
  8
0
100
AcDbLine
 10
35.0
 20
18.1885
 30
0.0
 11
35.0
 21
0.594650000000009
 31
0.0
  0
LINE
  5
9E
330
1E
100
AcDbEntity
  8
0
100
AcDbLine
 10
35.0
 20
18.1885
 30
0.0
 11
35.34
 21
18.1885
 31
0.0
  0
LINE
  5
9F
330
1E
100
AcDbEntity
  8
0
100
AcDbLine
 10
29.39989999999999
 20
26.7678
 30
0.0
 11
33.5
 21
28.4661
 31
0.0
  0
LINE
  5
A0
330
1E
100
AcDbEntity
  8
0
100
AcDbLine
 10
29.1411
 20
27.73369999999999
 30
0.0
 11
33.0
 21
29.3321
 31
0.0
  0
LINE
  5
A1
330
1E
100
AcDbEntity
  8
0
100
AcDbLine
 10
20.6001
 20
26.7678
 30
0.0
 11
25.0
 21
26.1885
 31
0.0
  0
LINE
  5
A2
330
1E
100
AcDbEntity
  8
0
100
AcDbLine
 10
34.0
 20
28.84976280390819
 30
0.0
 11
34.0
 21
25.5947
 31
0.0
  0
LINE
  5
A3
330
1E
100
AcDbEntity
  8
0
100
AcDbLine
 10
33.5
 20
28.4661
 30
0.0
 11
37.0208
 21
31.1677
 31
0.0
  0
LINE
  5
A4
330
1E
100
AcDbEntity
  8
0
100
AcDbLine
 10
37.0208
 20
31.1677
 30
0.0
 11
39.7224
 21
34.68849999999999
 31
0.0
  0
LINE
  5
A5
330
1E
100
AcDbEntity
  8
0
100
AcDbLine
 10
36.31369999999999
 20
31.8748
 30
0.0
 11
38.8564
 21
35.1885
 31
0.0
  0
LINE
  5
A6
330
1E
100
AcDbEntity
  8
0
100
AcDbLine
 10
33.0
 20
29.3321
 30
0.0
 11
36.31369999999999
 21
31.8748
 31
0.0
  0
LINE
  5
A7
330
1E
100
AcDbEntity
  8
0
100
AcDbLine
 10
39.7224
 20
34.68849999999999
 30
0.0
 11
41.42069999999999
 21
38.7886
 31
0.0
  0
LINE
  5
A8
330
1E
100
AcDbEntity
  8
0
100
AcDbLine
 10
20.8589
 20
27.73369999999999
 30
0.0
 11
25.0
 21
27.1885
 31
0.0
  0
LINE
  5
A9
330
1E
100
AcDbEntity
  8
0
100
AcDbLine
 10
17.0
 20
29.3321
 30
0.0
 11
20.8589
 21
27.73369999999999
 31
0.0
  0
LINE
  5
AA
330
1E
100
AcDbEntity
  8
0
100
AcDbLine
 10
9.0
 20
102.205481132075
 30
0.0
 11
9.0
 21
43.1885
 31
0.0
  0
LINE
  5
AB
330
1E
100
AcDbEntity
  8
0
100
AcDbLine
 10
8.0
 20
43.1885
 30
0.0
 11
8.0
 21
102.960198113208
 31
0.0
  0
LINE
  5
AC
330
1E
100
AcDbEntity
  8
0
100
AcDbLine
 10
8.0
 20
43.1885
 30
0.0
 11
8.579260000000001
 21
38.7886
 31
0.0
  0
LINE
  5
AD
330
1E
100
AcDbEntity
  8
0
100
AcDbLine
 10
9.0
 20
43.1885
 30
0.0
 11
9.0
 21
102.205481132075
 31
0.0
  0
LINE
  5
AE
330
1E
100
AcDbEntity
  8
0
100
AcDbLine
 10
9.0
 20
43.1885
 30
0.0
 11
9.545189999999999
 21
39.0474
 31
0.0
  0
LINE
  5
AF
330
1E
100
AcDbEntity
  8
0
100
AcDbLine
 10
7.7
 20
103.8885
 30
0.0
 11
12.8
 21
99.9885
 31
0.0
  0
LINE
  5
B0
330
1E
100
AcDbEntity
  8
0
100
AcDbLine
 10
8.0
 20
102.960198113208
 30
0.0
 11
8.0
 21
43.1885
 31
0.0
  0
LINE
  5
B1
330
1E
100
AcDbEntity
  8
0
100
AcDbLine
 10
9.545189999999999
 20
39.0474
 30
0.0
 11
11.1436
 21
35.1885
 31
0.0
  0
LINE
  5
B2
330
1E
100
AcDbEntity
  8
0
100
AcDbLine
 10
8.579260000000001
 20
38.7886
 30
0.0
 11
10.2776
 21
34.68849999999999
 31
0.0
  0
LINE
  5
B3
330
1E
100
AcDbEntity
  8
0
100
AcDbLine
 10
22.2
 20
40.3885
 30
0.0
 11
23.0
 21
39.68849999999999
 31
0.0
  0
LINE
  5
B4
330
1E
100
AcDbEntity
  8
0
100
AcDbLine
 10
21.0
 20
93.6885
 30
0.0
 11
21.0
 21
43.1885
 31
0.0
  0
LINE
  5
B5
330
1E
100
AcDbEntity
  8
0
100
AcDbLine
 10
21.0
 20
93.6885
 30
0.0
 11
21.0
 21
43.1885
 31
0.0
  0
LINE
  5
B6
330
1E
100
AcDbEntity
  8
0
100
AcDbLine
 10
21.0
 20
43.1885
 30
0.0
 11
21.1
 21
42.18849999999999
 31
0.0
  0
LINE
  5
B7
330
1E
100
AcDbEntity
  8
0
100
AcDbLine
 10
21.0
 20
43.1885
 30
0.0
 11
21.0
 21
93.6885
 31
0.0
  0
LINE
  5
B8
330
1E
100
AcDbEntity
  8
0
100
AcDbLine
 10
18.7
 20
97.5885
 30
0.0
 11
19.6
 21
97.08849999999999
 31
0.0
  0
LINE
  5
B9
330
1E
100
AcDbEntity
  8
0
100
AcDbLine
 10
18.6
 20
97.08849999999999
 30
0.0
 11
19.3
 21
96.6885
 31
0.0
  0
LINE
  5
BA
330
1E
100
AcDbEntity
  8
0
100
AcDbLine
 10
19.6
 20
97.08849999999999
 30
0.0
 11
20.4
 21
96.48850000000001
 31
0.0
  0
LINE
  5
BB
330
1E
100
AcDbEntity
  8
0
100
AcDbLine
 10
20.4
 20
96.48850000000001
 30
0.0
 11
21.1
 21
95.58849999999999
 31
0.0
  0
LINE
  5
BC
330
1E
100
AcDbEntity
  8
0
100
AcDbLine
 10
19.3
 20
96.6885
 30
0.0
 11
20.0
 21
96.18850000000001
 31
0.0
  0
LINE
  5
BD
330
1E
100
AcDbEntity
  8
0
100
AcDbLine
 10
20.0
 20
96.18850000000001
 30
0.0
 11
20.6
 21
95.3885
 31
0.0
  0
LINE
  5
BE
330
1E
100
AcDbEntity
  8
0
100
AcDbLine
 10
20.89999999999999
 20
94.58849999999999
 30
0.0
 11
21.0
 21
93.6885
 31
0.0
  0
LINE
  5
BF
330
1E
100
AcDbEntity
  8
0
100
AcDbLine
 10
20.6
 20
95.3885
 30
0.0
 11
20.89999999999999
 21
94.58849999999999
 31
0.0
  0
LINE
  5
C0
330
1E
100
AcDbEntity
  8
0
100
AcDbLine
 10
20.6
 20
95.3885
 30
0.0
 11
20.89999999999999
 21
94.58849999999999
 31
0.0
  0
LINE
  5
C1
330
1E
100
AcDbEntity
  8
0
100
AcDbLine
 10
20.89999999999999
 20
94.58849999999999
 30
0.0
 11
21.0
 21
93.6885
 31
0.0
  0
LINE
  5
C2
330
1E
100
AcDbEntity
  8
0
100
AcDbLine
 10
21.6
 20
42.18849999999999
 30
0.0
 11
21.89999999999999
 21
41.3885
 31
0.0
  0
LINE
  5
C3
330
1E
100
AcDbEntity
  8
0
100
AcDbLine
 10
21.89999999999999
 20
41.3885
 30
0.0
 11
22.5
 21
40.6885
 31
0.0
  0
LINE
  5
C4
330
1E
100
AcDbEntity
  8
0
100
AcDbLine
 10
21.49999999999999
 20
94.68850000000001
 30
0.0
 11
21.49999999999999
 21
93.6885
 31
0.0
  0
LINE
  5
C5
330
1E
100
AcDbEntity
  8
0
100
AcDbLine
 10
21.1
 20
95.58849999999999
 30
0.0
 11
21.49999999999999
 21
94.68850000000001
 31
0.0
  0
LINE
  5
C6
330
1E
100
AcDbEntity
  8
0
100
AcDbLine
 10
21.49999999999999
 20
93.6885
 30
0.0
 11
21.49999999999999
 21
94.68850000000001
 31
0.0
  0
LINE
  5
C7
330
1E
100
AcDbEntity
  8
0
100
AcDbLine
 10
21.49999999999999
 20
93.6885
 30
0.0
 11
21.49999999999999
 21
43.1885
 31
0.0
  0
LINE
  5
C8
330
1E
100
AcDbEntity
  8
0
100
AcDbLine
 10
21.49999999999999
 20
43.1885
 30
0.0
 11
21.6
 21
42.18849999999999
 31
0.0
  0
LINE
  5
C9
330
1E
100
AcDbEntity
  8
0
100
AcDbLine
 10
21.49999999999999
 20
43.1885
 30
0.0
 11
21.49999999999999
 21
93.6885
 31
0.0
  0
LINE
  5
CA
330
1E
100
AcDbEntity
  8
0
100
AcDbLine
 10
21.1
 20
42.18849999999999
 30
0.0
 11
21.49999999999999
 21
41.1885
 31
0.0
  0
LINE
  5
CB
330
1E
100
AcDbEntity
  8
0
100
AcDbLine
 10
21.0
 20
43.1885
 30
0.0
 11
21.0
 21
93.6885
 31
0.0
  0
LINE
  5
CC
330
1E
100
AcDbEntity
  8
0
100
AcDbLine
 10
21.49999999999999
 20
41.1885
 30
0.0
 11
22.2
 21
40.3885
 31
0.0
  0
LINE
  5
CD
330
1E
100
AcDbEntity
  8
0
100
AcDbLine
 10
21.49999999999999
 20
41.1885
 30
0.0
 11
22.2
 21
40.3885
 31
0.0
  0
LINE
  5
CE
330
1E
100
AcDbEntity
  8
0
100
AcDbLine
 10
22.5
 20
40.6885
 30
0.0
 11
23.3
 21
40.0885
 31
0.0
  0
LINE
  5
CF
330
1E
100
AcDbEntity
  8
0
100
AcDbLine
 10
23.3
 20
40.0885
 30
0.0
 11
24.1
 21
39.78849999999999
 31
0.0
  0
LINE
  5
D0
330
1E
100
AcDbEntity
  8
0
100
AcDbLine
 10
22.2
 20
40.3885
 30
0.0
 11
23.0
 21
39.68849999999999
 31
0.0
  0
LINE
  5
D1
330
1E
100
AcDbEntity
  8
0
100
AcDbLine
 10
23.0
 20
39.68849999999999
 30
0.0
 11
24.0
 21
39.2885
 31
0.0
  0
LINE
  5
D2
330
1E
100
AcDbEntity
  8
0
100
AcDbLine
 10
25.89999999999999
 20
39.78849999999999
 30
0.0
 11
26.69999999999999
 21
40.0885
 31
0.0
  0
LINE
  5
D3
330
1E
100
AcDbEntity
  8
0
100
AcDbLine
 10
25.0
 20
39.68849999999999
 30
0.0
 11
25.89999999999999
 21
39.78849999999999
 31
0.0
  0
LINE
  5
D4
330
1E
100
AcDbEntity
  8
0
100
AcDbLine
 10
25.0
 20
39.18849999999999
 30
0.0
 11
26.0
 21
39.2885
 31
0.0
  0
LINE
  5
D5
330
1E
100
AcDbEntity
  8
0
100
AcDbLine
 10
27.0
 20
39.68849999999999
 30
0.0
 11
27.8
 21
40.3885
 31
0.0
  0
LINE
  5
D6
330
1E
100
AcDbEntity
  8
0
100
AcDbLine
 10
26.0
 20
39.2885
 30
0.0
 11
27.0
 21
39.68849999999999
 31
0.0
  0
LINE
  5
D7
330
1E
100
AcDbEntity
  8
0
100
AcDbLine
 10
26.69999999999999
 20
40.0885
 30
0.0
 11
27.5
 21
40.6885
 31
0.0
  0
LINE
  5
D8
330
1E
100
AcDbEntity
  8
0
100
AcDbLine
 10
27.5
 20
40.6885
 30
0.0
 11
28.1
 21
41.3885
 31
0.0
  0
LINE
  5
D9
330
1E
100
AcDbEntity
  8
0
100
AcDbLine
 10
27.8
 20
40.3885
 30
0.0
 11
28.5
 21
41.1885
 31
0.0
  0
LINE
  5
DA
330
1E
100
AcDbEntity
  8
0
100
AcDbLine
 10
28.39999999999999
 20
42.18849999999999
 30
0.0
 11
28.5
 21
43.1885
 31
0.0
  0
LINE
  5
DB
330
1E
100
AcDbEntity
  8
0
100
AcDbLine
 10
28.1
 20
41.3885
 30
0.0
 11
28.39999999999999
 21
42.18849999999999
 31
0.0
  0
LINE
  5
DC
330
1E
100
AcDbEntity
  8
0
100
AcDbLine
 10
28.5
 20
41.1885
 30
0.0
 11
28.9
 21
42.18849999999999
 31
0.0
  0
LINE
  5
DD
330
1E
100
AcDbEntity
  8
0
100
AcDbLine
 10
28.5
 20
43.1885
 30
0.0
 11
28.5
 21
93.6885
 31
0.0
  0
LINE
  5
DE
330
1E
100
AcDbEntity
  8
0
100
AcDbLine
 10
28.5
 20
93.6885
 30
0.0
 11
28.5
 21
43.1885
 31
0.0
  0
LINE
  5
DF
330
1E
100
AcDbEntity
  8
0
100
AcDbLine
 10
28.5
 20
93.6885
 30
0.0
 11
28.5
 21
94.68850000000001
 31
0.0
  0
LINE
  5
E0
330
1E
100
AcDbEntity
  8
0
100
AcDbLine
 10
28.9
 20
95.58849999999999
 30
0.0
 11
29.6
 21
96.48850000000001
 31
0.0
  0
LINE
  5
E1
330
1E
100
AcDbEntity
  8
0
100
AcDbLine
 10
28.5
 20
94.68850000000001
 30
0.0
 11
28.5
 21
93.6885
 31
0.0
  0
LINE
  5
E2
330
1E
100
AcDbEntity
  8
0
100
AcDbLine
 10
28.5
 20
94.68850000000001
 30
0.0
 11
28.9
 21
95.58849999999999
 31
0.0
  0
LINE
  5
E3
330
1E
100
AcDbEntity
  8
0
100
AcDbLine
 10
29.0
 20
93.6885
 30
0.0
 11
29.0
 21
43.1885
 31
0.0
  0
LINE
  5
E4
330
1E
100
AcDbEntity
  8
0
100
AcDbLine
 10
29.0
 20
93.6885
 30
0.0
 11
29.1
 21
94.58849999999999
 31
0.0
  0
LINE
  5
E5
330
1E
100
AcDbEntity
  8
0
100
AcDbLine
 10
29.0
 20
43.1885
 30
0.0
 11
29.0
 21
93.6885
 31
0.0
  0
LINE
  5
E6
330
1E
100
AcDbEntity
  8
0
100
AcDbLine
 10
29.6
 20
96.48850000000001
 30
0.0
 11
30.4
 21
97.08849999999999
 31
0.0
  0
LINE
  5
E7
330
1E
100
AcDbEntity
  8
0
100
AcDbLine
 10
31.3
 20
97.5885
 30
0.0
 11
37.2
 21
99.9885
 31
0.0
  0
LINE
  5
E8
330
1E
100
AcDbEntity
  8
0
100
AcDbLine
 10
37.4
 20
99.4885
 30
0.0
 11
42.7
 21
103.4885
 31
0.0
  0
LINE
  5
E9
330
1E
100
AcDbEntity
  8
0
100
AcDbLine
 10
31.4
 20
97.08849999999999
 30
0.0
 11
37.4
 21
99.4885
 31
0.0
  0
LINE
  5
EA
330
1E
100
AcDbEntity
  8
0
100
AcDbLine
 10
30.4
 20
97.08849999999999
 30
0.0
 11
31.3
 21
97.5885
 31
0.0
  0
LINE
  5
EB
330
1E
100
AcDbEntity
  8
0
100
AcDbLine
 10
30.7
 20
96.6885
 30
0.0
 11
31.4
 21
97.08849999999999
 31
0.0
  0
LINE
  5
EC
330
1E
100
AcDbEntity
  8
0
100
AcDbLine
 10
30.0
 20
96.18850000000001
 30
0.0
 11
30.7
 21
96.6885
 31
0.0
  0
LINE
  5
ED
330
1E
100
AcDbEntity
  8
0
100
AcDbLine
 10
29.39999999999999
 20
95.3885
 30
0.0
 11
30.0
 21
96.18850000000001
 31
0.0
  0
LINE
  5
EE
330
1E
100
AcDbEntity
  8
0
100
AcDbLine
 10
29.1
 20
94.58849999999999
 30
0.0
 11
29.39999999999999
 21
95.3885
 31
0.0
  0
LINE
  5
EF
330
1E
100
AcDbEntity
  8
0
100
AcDbLine
 10
29.1
 20
94.58849999999999
 30
0.0
 11
29.39999999999999
 21
95.3885
 31
0.0
  0
LINE
  5
F0
330
1E
100
AcDbEntity
  8
0
100
AcDbLine
 10
29.0
 20
93.6885
 30
0.0
 11
29.1
 21
94.58849999999999
 31
0.0
  0
LINE
  5
F1
330
1E
100
AcDbEntity
  8
0
100
AcDbLine
 10
28.9
 20
42.18849999999999
 30
0.0
 11
29.0
 21
43.1885
 31
0.0
  0
LINE
  5
F2
330
1E
100
AcDbEntity
  8
0
100
AcDbLine
 10
28.9
 20
42.18849999999999
 30
0.0
 11
29.0
 21
43.1885
 31
0.0
  0
LINE
  5
F3
330
1E
100
AcDbEntity
  8
0
100
AcDbLine
 10
27.8
 20
40.3885
 30
0.0
 11
28.5
 21
41.1885
 31
0.0
  0
LINE
  5
F4
330
1E
100
AcDbEntity
  8
0
100
AcDbLine
 10
24.1
 20
39.78849999999999
 30
0.0
 11
25.0
 21
39.68849999999999
 31
0.0
  0
LINE
  5
F5
330
1E
100
AcDbEntity
  8
0
100
AcDbLine
 10
24.0
 20
39.2885
 30
0.0
 11
25.0
 21
39.18849999999999
 31
0.0
  0
LINE
  5
F6
330
1E
100
AcDbEntity
  8
0
100
AcDbLine
 10
37.2
 20
99.9885
 30
0.0
 11
42.29999999999999
 21
103.8885
 31
0.0
  0
LINE
  5
F7
330
1E
100
AcDbEntity
  8
0
100
AcDbLine
 10
12.8
 20
99.9885
 30
0.0
 11
18.7
 21
97.5885
 31
0.0
  0
LINE
  5
F8
330
1E
100
AcDbEntity
  8
0
100
AcDbLine
 10
12.6
 20
99.4885
 30
0.0
 11
18.6
 21
97.08849999999999
 31
0.0
  0
LINE
  5
F9
330
1E
100
AcDbEntity
  8
0
100
AcDbLine
 10
41.0
 20
43.1885
 30
0.0
 11
41.0
 21
102.205481132075
 31
0.0
  0
LINE
  5
FA
330
1E
100
AcDbEntity
  8
0
100
AcDbLine
 10
42.0
 20
102.960198113208
 30
0.0
 11
42.7
 21
103.4885
 31
0.0
  0
LINE
  5
FB
330
1E
100
AcDbEntity
  8
0
100
AcDbLine
 10
42.7
 20
103.4885
 30
0.0
 11
46.7
 21
108.7884999999999
 31
0.0
  0
LINE
  5
FC
330
1E
100
AcDbEntity
  8
0
100
AcDbLine
 10
42.0
 20
102.960198113208
 30
0.0
 11
42.0
 21
43.1885
 31
0.0
  0
LINE
  5
FD
330
1E
100
AcDbEntity
  8
0
100
AcDbLine
 10
42.0
 20
43.1885
 30
0.0
 11
42.0
 21
102.960198113208
 31
0.0
  0
LINE
  5
FE
330
1E
100
AcDbEntity
  8
0
100
AcDbLine
 10
41.0
 20
102.205481132075
 30
0.0
 11
41.0
 21
43.1885
 31
0.0
  0
LINE
  5
FF
330
1E
100
AcDbEntity
  8
0
100
AcDbLine
 10
42.29999999999999
 20
103.8885
 30
0.0
 11
46.2
 21
108.9884999999999
 31
0.0
  0
LINE
  5
100
330
1E
100
AcDbEntity
  8
0
100
AcDbLine
 10
46.7
 20
108.7884999999999
 30
0.0
 11
49.1
 21
114.7885
 31
0.0
  0
LINE
  5
101
330
1E
100
AcDbEntity
  8
0
100
AcDbLine
 10
46.2
 20
108.9884999999999
 30
0.0
 11
48.6
 21
114.8884999999999
 31
0.0
  0
LINE
  5
102
330
1E
100
AcDbEntity
  8
0
100
AcDbLine
 10
42.7
 20
103.4885
 30
0.0
 11
46.7
 21
108.7884999999999
 31
0.0
  0
LINE
  5
103
330
1E
100
AcDbEntity
  8
0
100
AcDbLine
 10
49.1
 20
114.7885
 30
0.0
 11
50.0
 21
121.1885
 31
0.0
  0
LINE
  5
104
330
1E
100
AcDbEntity
  8
0
100
AcDbLine
 10
46.7
 20
108.7884999999999
 30
0.0
 11
49.1
 21
114.7885
 31
0.0
  0
LINE
  5
105
330
1E
100
AcDbEntity
  8
0
100
AcDbLine
 10
41.42069999999999
 20
38.7886
 30
0.0
 11
42.0
 21
43.1885
 31
0.0
  0
LINE
  5
106
330
1E
100
AcDbEntity
  8
0
100
AcDbLine
 10
40.4548
 20
39.0474
 30
0.0
 11
41.0
 21
43.1885
 31
0.0
  0
LINE
  5
107
330
1E
100
AcDbEntity
  8
0
100
AcDbLine
 10
38.8564
 20
35.1885
 30
0.0
 11
40.4548
 21
39.0474
 31
0.0
  0
LINE
  5
108
330
1E
100
AcDbEntity
  8
0
100
AcDbLine
 10
11.1436
 20
35.1885
 30
0.0
 11
13.6863
 21
31.8748
 31
0.0
  0
LINE
  5
109
330
1E
100
AcDbEntity
  8
0
100
AcDbLine
 10
10.2776
 20
34.68849999999999
 30
0.0
 11
12.9792
 21
31.1677
 31
0.0
  0
LINE
  5
10A
330
1E
100
AcDbEntity
  8
0
100
AcDbLine
 10
0.5
 20
121.1885
 30
0.0
 11
1.399999999999999
 21
114.8884999999999
 31
0.0
  0
LINE
  5
10B
330
1E
100
AcDbEntity
  8
0
100
AcDbLine
 10
0.5
 20
121.1885
 30
0.0
 11
1.399999999999999
 21
127.4885
 31
0.0
  0
LINE
  5
10C
330
1E
100
AcDbEntity
  8
0
100
AcDbLine
 10
0.8999999999999989
 20
127.5884999999999
 30
0.0
 11
3.299999999999999
 21
133.5885
 31
0.0
  0
LINE
  5
10D
330
1E
100
AcDbEntity
  8
0
100
AcDbLine
 10
0.5
 20
121.1885
 30
0.0
 11
1.399999999999999
 21
114.8884999999999
 31
0.0
  0
LINE
  5
10E
330
1E
100
AcDbEntity
  8
0
100
AcDbLine
 10
0.5
 20
121.1885
 30
0.0
 11
1.399999999999999
 21
127.4885
 31
0.0
  0
LINE
  5
10F
330
1E
100
AcDbEntity
  8
0
100
AcDbLine
 10
49.1
 20
114.7885
 30
0.0
 11
50.0
 21
121.1885
 31
0.0
  0
LINE
  5
110
330
1E
100
AcDbEntity
  8
0
100
AcDbLine
 10
1.399999999999999
 20
127.4885
 30
0.0
 11
3.799999999999999
 21
133.3884999999999
 31
0.0
  0
LINE
  5
111
330
1E
100
AcDbEntity
  8
0
100
AcDbLine
 10
48.6
 20
114.8884999999999
 30
0.0
 11
49.5
 21
121.1885
 31
0.0
  0
LINE
  5
112
330
1E
100
AcDbEntity
  8
0
100
AcDbLine
 10
46.2
 20
133.3884999999999
 30
0.0
 11
48.6
 21
127.4885
 31
0.0
  0
LINE
  5
113
330
1E
100
AcDbEntity
  8
0
100
AcDbLine
 10
48.6
 20
127.4885
 30
0.0
 11
49.5
 21
121.1885
 31
0.0
  0
LINE
  5
114
330
1E
100
AcDbEntity
  8
0
100
AcDbLine
 10
49.1
 20
127.5884999999999
 30
0.0
 11
50.0
 21
121.1885
 31
0.0
  0
LINE
  5
115
330
1E
100
AcDbEntity
  8
0
100
AcDbLine
 10
46.7
 20
133.5885
 30
0.0
 11
49.1
 21
127.5884999999999
 31
0.0
  0
LINE
  5
116
330
1E
100
AcDbEntity
  8
0
100
AcDbLine
 10
3.799999999999999
 20
133.3884999999999
 30
0.0
 11
7.7
 21
138.4884999999999
 31
0.0
  0
LINE
  5
117
330
1E
100
AcDbEntity
  8
0
100
AcDbLine
 10
1.399999999999999
 20
127.4885
 30
0.0
 11
3.799999999999999
 21
133.3884999999999
 31
0.0
  0
LINE
  5
118
330
1E
100
AcDbEntity
  8
0
100
AcDbLine
 10
1.399999999999999
 20
114.8884999999999
 30
0.0
 11
3.799999999999999
 21
108.9884999999999
 31
0.0
  0
LINE
  5
119
330
1E
100
AcDbEntity
  8
0
100
AcDbLine
 10
1.399999999999999
 20
114.8884999999999
 30
0.0
 11
3.799999999999999
 21
108.9884999999999
 31
0.0
  0
LINE
  5
11A
330
1E
100
AcDbEntity
  8
0
100
AcDbLine
 10
7.7
 20
138.4884999999999
 30
0.0
 11
12.8
 21
142.3885
 31
0.0
  0
LINE
  5
11B
330
1E
100
AcDbEntity
  8
0
100
AcDbLine
 10
8.55526315789295
 20
139.835868421051
 30
0.0
 11
12.6
 21
142.9464999999999
 31
0.0
  0
LINE
  5
11C
330
1E
100
AcDbEntity
  8
0
100
AcDbLine
 10
7.299999999999999
 20
138.8884999999999
 30
0.0
 11
12.6
 21
142.8885
 31
0.0
  0
LINE
  5
11D
330
1E
100
AcDbEntity
  8
0
100
AcDbLine
 10
12.8
 20
142.3885
 30
0.0
 11
18.7
 21
144.7885
 31
0.0
  0
LINE
  5
11E
330
1E
100
AcDbEntity
  8
0
100
AcDbLine
 10
18.7
 20
144.7885
 30
0.0
 11
25.0
 21
145.6884999999999
 31
0.0
  0
LINE
  5
11F
330
1E
100
AcDbEntity
  8
0
100
AcDbLine
 10
12.6
 20
142.8885
 30
0.0
 11
18.6
 21
145.2885
 31
0.0
  0
LINE
  5
120
330
1E
100
AcDbEntity
  8
0
100
AcDbLine
 10
18.6
 20
145.2885
 30
0.0
 11
25.0
 21
146.1885
 31
0.0
  0
LINE
  5
122
330
1E
100
AcDbEntity
  8
0
100
AcDbLine
 10
25.0
 20
145.6884999999999
 30
0.0
 11
31.3
 21
144.7885
 31
0.0
  0
LINE
  5
124
330
1E
100
AcDbEntity
  8
0
100
AcDbLine
 10
25.0
 20
146.1885
 30
0.0
 11
31.4
 21
145.2885
 31
0.0
  0
LINE
  5
12D
330
1E
100
AcDbEntity
  8
0
100
AcDbLine
 10
22.1421
 20
147.6295
 30
0.0
 11
22.145723367307
 21
145.787117348528
 31
0.0
  0
LINE
  5
12F
330
1E
100
AcDbEntity
  8
0
100
AcDbLine
 10
22.14139999999999
 20
148.8385
 30
0.0
 11
22.14139999999999
 21
148.4004999999999
 31
0.0
  0
LINE
  5
130
330
1E
100
AcDbEntity
  8
0
100
AcDbLine
 10
22.14139999999999
 20
148.8385
 30
0.0
 11
22.1415
 21
149.3154999999999
 31
0.0
  0
LINE
  5
131
330
1E
100
AcDbEntity
  8
0
100
AcDbLine
 10
22.1418
 20
149.8115
 30
0.0
 11
22.1538
 21
164.8114999999999
 31
0.0
  0
LINE
  5
132
330
1E
100
AcDbEntity
  8
0
100
AcDbLine
 10
22.1415
 20
149.3154999999999
 30
0.0
 11
22.1418
 21
149.8115
 31
0.0
  0
LINE
  5
133
330
1E
100
AcDbEntity
  8
0
100
AcDbLine
 10
22.14139999999999
 20
148.4004999999999
 30
0.0
 11
22.1416
 21
148.0184999999999
 31
0.0
  0
LINE
  5
134
330
1E
100
AcDbEntity
  8
0
100
AcDbLine
 10
22.14139999999999
 20
148.4004999999999
 30
0.0
 11
22.14139999999999
 21
148.8385
 31
0.0
  0
LINE
  5
135
330
1E
100
AcDbEntity
  8
0
100
AcDbLine
 10
22.1416
 20
148.0184999999999
 30
0.0
 11
22.1421
 21
147.6465
 31
0.0
  0
LINE
  5
136
330
1E
100
AcDbEntity
  8
0
100
AcDbLine
 10
22.1538
 20
164.8114999999999
 30
0.0
 11
22.3425
 21
164.8114999999999
 31
0.0
  0
LINE
  5
137
330
1E
100
AcDbEntity
  8
0
100
AcDbLine
 10
22.8888
 20
164.8114999999999
 30
0.0
 11
23.7007
 21
164.8104999999999
 31
0.0
  0
LINE
  5
138
330
1E
100
AcDbEntity
  8
0
100
AcDbLine
 10
22.3425
 20
164.8114999999999
 30
0.0
 11
22.8832
 21
164.8114999999999
 31
0.0
  0
LINE
  5
139
330
1E
100
AcDbEntity
  8
0
100
AcDbLine
 10
22.8832
 20
164.8114999999999
 30
0.0
 11
23.6933
 21
164.8104999999999
 31
0.0
  0
LINE
  5
13A
330
1E
100
AcDbEntity
  8
0
100
AcDbLine
 10
24.6498
 20
164.8095
 30
0.0
 11
25.6068
 21
164.8085
 31
0.0
  0
LINE
  5
13B
330
1E
100
AcDbEntity
  8
0
100
AcDbLine
 10
25.6068
 20
164.8085
 30
0.0
 11
26.4187
 21
164.8085
 31
0.0
  0
LINE
  5
13C
330
1E
100
AcDbEntity
  8
0
100
AcDbLine
 10
26.962
 20
164.8075
 30
0.0
 11
27.1538
 21
164.8075
 31
0.0
  0
LINE
  5
13D
330
1E
100
AcDbEntity
  8
0
100
AcDbLine
 10
26.4243
 20
164.8085
 30
0.0
 11
26.965
 21
164.8075
 31
0.0
  0
LINE
  5
13E
330
1E
100
AcDbEntity
  8
0
100
AcDbLine
 10
26.4187
 20
164.8085
 30
0.0
 11
26.962
 21
164.8075
 31
0.0
  0
LINE
  5
13F
330
1E
100
AcDbEntity
  8
0
100
AcDbLine
 10
24.6577
 20
164.8095
 30
0.0
 11
25.6142
 21
164.8085
 31
0.0
  0
LINE
  5
140
330
1E
100
AcDbEntity
  8
0
100
AcDbLine
 10
23.7007
 20
164.8104999999999
 30
0.0
 11
24.6577
 21
164.8095
 31
0.0
  0
LINE
  5
141
330
1E
100
AcDbEntity
  8
0
100
AcDbLine
 10
23.6933
 20
164.8104999999999
 30
0.0
 11
24.6498
 21
164.8095
 31
0.0
  0
LINE
  5
142
330
1E
100
AcDbEntity
  8
0
100
AcDbLine
 10
23.6933
 20
164.8104999999999
 30
0.0
 11
26.4187
 21
164.8085
 31
0.0
  0
LINE
  5
143
330
1E
100
AcDbEntity
  8
0
100
AcDbLine
 10
27.1414
 20
148.8344999999999
 30
0.0
 11
27.1414
 21
148.3964999999999
 31
0.0
  0
LINE
  5
144
330
1E
100
AcDbEntity
  8
0
100
AcDbLine
 10
27.1414
 20
148.8344999999999
 30
0.0
 11
27.1415
 21
149.3114999999999
 31
0.0
  0
LINE
  5
145
330
1E
100
AcDbEntity
  8
0
100
AcDbLine
 10
27.1418
 20
149.8075
 30
0.0
 11
27.1538
 21
164.8075
 31
0.0
  0
LINE
  5
146
330
1E
100
AcDbEntity
  8
0
100
AcDbLine
 10
27.1415
 20
149.3114999999999
 30
0.0
 11
27.1418
 21
149.8075
 31
0.0
  0
LINE
  5
147
330
1E
100
AcDbEntity
  8
0
100
AcDbLine
 10
27.1414
 20
148.3964999999999
 30
0.0
 11
27.1416
 21
148.0145
 31
0.0
  0
LINE
  5
148
330
1E
100
AcDbEntity
  8
0
100
AcDbLine
 10
27.1414
 20
148.3964999999999
 30
0.0
 11
27.1414
 21
148.8344999999999
 31
0.0
  0
LINE
  5
149
330
1E
100
AcDbEntity
  8
0
100
AcDbLine
 10
27.1416
 20
148.0145
 30
0.0
 11
27.1421
 21
147.6425
 31
0.0
  0
LINE
  5
14B
330
1E
100
AcDbEntity
  8
0
100
AcDbLine
 10
42.29999999999999
 20
138.4884999999999
 30
0.0
 11
46.2
 21
133.3884999999999
 31
0.0
  0
LINE
  5
14C
330
1E
100
AcDbEntity
  8
0
100
AcDbLine
 10
31.3
 20
144.7885
 30
0.0
 11
37.2
 21
142.3885
 31
0.0
  0
LINE
  5
14D
330
1E
100
AcDbEntity
  8
0
100
AcDbLine
 10
37.2
 20
142.3885
 30
0.0
 11
42.29999999999999
 21
138.4884999999999
 31
0.0
  0
LINE
  5
14F
330
1E
100
AcDbEntity
  8
0
100
AcDbLine
 10
37.4
 20
142.8885
 30
0.0
 11
42.7
 21
138.8884999999999
 31
0.0
  0
LINE
  5
150
330
1E
100
AcDbEntity
  8
0
100
AcDbLine
 10
31.4
 20
145.2885
 30
0.0
 11
37.4
 21
142.8885
 31
0.0
  0
LINE
  5
151
330
1E
100
AcDbEntity
  8
0
100
AcDbLine
 10
42.7
 20
138.8884999999999
 30
0.0
 11
46.7
 21
133.5885
 31
0.0
  0
LINE
  5
152
330
1E
100
AcDbEntity
  8
0
100
AcDbLine
 10
27.1421
 20
147.6254999999999
 30
0.0
 11
27.145519484161
 21
145.88678632254
 31
0.0
  0
LINE
  5
153
330
1E
100
AcDbEntity
  8
0
100
AcDbLine
 10
3.299999999999999
 20
133.5885
 30
0.0
 11
7.299999999999999
 21
138.8884999999999
 31
0.0
  0
LINE
  5
156
330
1E
100
AcDbEntity
  8
0
100
AcDbLine
 10
0.9
 20
114.7885
 30
0.0
 11
3.299999999999999
 21
108.7884999999999
 31
0.0
  0
LINE
  5
157
330
1E
100
AcDbEntity
  8
0
100
AcDbLine
 10
0.8999999999999989
 20
114.7885
 30
0.0
 11
3.299999999999999
 21
108.7884999999999
 31
0.0
  0
LINE
  5
158
330
1E
100
AcDbEntity
  8
0
100
AcDbLine
 10
0.8999999999999989
 20
114.7885
 30
0.0
 11
3.299999999999999
 21
108.7884999999999
 31
0.0
  0
LINE
  5
159
330
1E
100
AcDbEntity
  8
0
100
AcDbLine
 10
-0.0000000000000005
 20
121.1885
 30
0.0
 11
0.9
 21
114.7885
 31
0.0
  0
ENDSEC
  0
SECTION
  2
OBJECTS
  0
DICTIONARY
  5
C
330
0
100
AcDbDictionary
281
     1
  3
ACAD_GROUP
350
D
  3
ACAD_LAYOUT
350
19
  3
ACAD_MLINESTYLE
350
16
  3
ACAD_PLOTSETTINGS
350
18
  3
ACAD_PLOTSTYLENAME
350
E
  3
AcDbVariableDictionary
350
15E
  0
DICTIONARY
  5
D
102
{ACAD_REACTORS
330
C
102
}
330
C
100
AcDbDictionary
281
     1
  0
DICTIONARY
  5
19
102
{ACAD_REACTORS
330
C
102
}
330
C
100
AcDbDictionary
281
     1
  3
Layout1
350
1D
  3
Model
350
21
  0
DICTIONARY
  5
16
102
{ACAD_REACTORS
330
C
102
}
330
C
100
AcDbDictionary
281
     1
  3
Standard
350
17
  0
DICTIONARY
  5
18
102
{ACAD_REACTORS
330
C
102
}
330
C
100
AcDbDictionary
281
     1
  0
ACDBDICTIONARYWDFLT
  5
E
102
{ACAD_REACTORS
330
C
102
}
330
C
100
AcDbDictionary
281
     1
  3
Normal
350
F
100
AcDbDictionaryWithDefault
340
F
  0
DICTIONARY
  5
15E
102
{ACAD_REACTORS
330
C
102
}
330
C
100
AcDbDictionary
281
     1
  3
DIMASSOC
350
15F
  0
LAYOUT
  5
1D
102
{ACAD_REACTORS
330
19
102
}
330
19
100
AcDbPlotSettings
  1

  2
hp deskjet 980c series
  4

  6

 40
0.0
 41
0.0
 42
0.0
 43
0.0
 44
0.0
 45
0.0
 46
0.0
 47
0.0
 48
0.0
 49
0.0
140
0.0
141
0.0
142
1.0
143
1.0
 70
   688
 72
     0
 73
     0
 74
     5
  7

 75
    16
147
1.0
148
0.0
149
0.0
100
AcDbLayout
  1
Layout1
 70
     1
 71
     1
 10
0.0
 20
0.0
 11
12.0
 21
9.0
 12
0.0
 22
0.0
 32
0.0
 14
1.000000000000000E+20
 24
1.000000000000000E+20
 34
1.000000000000000E+20
 15
-1.000000000000000E+20
 25
-1.000000000000000E+20
 35
-1.000000000000000E+20
146
0.0
 13
0.0
 23
0.0
 33
0.0
 16
1.0
 26
0.0
 36
0.0
 17
0.0
 27
1.0
 37
0.0
 76
     0
330
1A
  0
LAYOUT
  5
21
102
{ACAD_REACTORS
330
19
102
}
330
19
100
AcDbPlotSettings
  1

  2
hp deskjet 980c series
  4

  6

 40
0.0
 41
0.0
 42
0.0
 43
0.0
 44
0.0
 45
0.0
 46
0.0
 47
0.0
 48
0.0
 49
0.0
140
0.0
141
0.0
142
1.0
143
1.0
 70
  1712
 72
     0
 73
     0
 74
     0
  7

 75
     0
147
1.0
148
0.0
149
0.0
100
AcDbLayout
  1
Model
 70
     1
 71
     0
 10
0.0
 20
0.0
 11
12.0
 21
9.0
 12
0.0
 22
0.0
 32
0.0
 14
0.0
 24
0.0
 34
0.0
 15
0.0
 25
0.0
 35
0.0
146
0.0
 13
0.0
 23
0.0
 33
0.0
 16
1.0
 26
0.0
 36
0.0
 17
0.0
 27
1.0
 37
0.0
 76
     0
330
1E
  0
MLINESTYLE
  5
17
102
{ACAD_REACTORS
330
16
102
}
330
16
100
AcDbMlineStyle
  2
STANDARD
 70
     0
  3

 62
   256
 51
90.0
 52
90.0
 71
     2
 49
0.5
 62
   256
  6
BYLAYER
 49
-0.5
 62
   256
  6
BYLAYER
  0
ACDBPLACEHOLDER
  5
F
102
{ACAD_REACTORS
330
E
102
}
330
E
  0
DICTIONARYVAR
  5
15F
102
{ACAD_REACTORS
330
15E
102
}
330
15E
100
DictionaryVariables
280
     0
  1
1
  0
ENDSEC
  0
EOF
