  0
SECTION
  2
HEADER
  9
$ACADVER
  1
AC1015
  9
$ACADMAINTVER
 70
    13
  9
$DWGCODEPAGE
  3
ANSI_1252
  9
$INSBASE
 10
0.0
 20
0.0
 30
0.0
  9
$EXTMIN
 10
0.188500000000009
 20
-0.0000000000000067
 30
0.0
  9
$EXTMAX
 10
164.8114999999999
 20
137.0
 30
0.0
  9
$LIMMIN
 10
0.0
 20
0.0
  9
$LIMMAX
 10
12.0
 20
9.0
  9
$ORTHOMODE
 70
     0
  9
$REGENMODE
 70
     1
  9
$FILLMODE
 70
     1
  9
$QTEXTMODE
 70
     0
  9
$MIRRTEXT
 70
     1
  9
$LTSCALE
 40
1.0
  9
$ATTMODE
 70
     1
  9
$TEXTSIZE
 40
0.2
  9
$TRACEWID
 40
0.05
  9
$TEXTSTYLE
  7
Standard
  9
$CLAYER
  8
0
  9
$CELTYPE
  6
Continuous
  9
$CECOLOR
 62
   256
  9
$CELTSCALE
 40
1.0
  9
$DISPSILH
 70
     0
  9
$DIMSCALE
 40
1.0
  9
$DIMASZ
 40
0.18
  9
$DIMEXO
 40
0.0625
  9
$DIMDLI
 40
0.38
  9
$DIMRND
 40
0.0
  9
$DIMDLE
 40
0.0
  9
$DIMEXE
 40
0.18
  9
$DIMTP
 40
0.0
  9
$DIMTM
 40
0.0
  9
$DIMTXT
 40
0.18
  9
$DIMCEN
 40
0.09
  9
$DIMTSZ
 40
0.0
  9
$DIMTOL
 70
     0
  9
$DIMLIM
 70
     0
  9
$DIMTIH
 70
     1
  9
$DIMTOH
 70
     1
  9
$DIMSE1
 70
     0
  9
$DIMSE2
 70
     0
  9
$DIMTAD
 70
     0
  9
$DIMZIN
 70
     0
  9
$DIMBLK
  1

  9
$DIMASO
 70
     1
  9
$DIMSHO
 70
     1
  9
$DIMPOST
  1

  9
$DIMAPOST
  1

  9
$DIMALT
 70
     0
  9
$DIMALTD
 70
     2
  9
$DIMALTF
 40
25.4
  9
$DIMLFAC
 40
1.0
  9
$DIMTOFL
 70
     0
  9
$DIMTVP
 40
0.0
  9
$DIMTIX
 70
     0
  9
$DIMSOXD
 70
     0
  9
$DIMSAH
 70
     0
  9
$DIMBLK1
  1

  9
$DIMBLK2
  1

  9
$DIMSTYLE
  2
Standard
  9
$DIMCLRD
 70
     0
  9
$DIMCLRE
 70
     0
  9
$DIMCLRT
 70
     0
  9
$DIMTFAC
 40
1.0
  9
$DIMGAP
 40
0.09
  9
$DIMJUST
 70
     0
  9
$DIMSD1
 70
     0
  9
$DIMSD2
 70
     0
  9
$DIMTOLJ
 70
     1
  9
$DIMTZIN
 70
     0
  9
$DIMALTZ
 70
     0
  9
$DIMALTTZ
 70
     0
  9
$DIMUPT
 70
     0
  9
$DIMDEC
 70
     4
  9
$DIMTDEC
 70
     4
  9
$DIMALTU
 70
     2
  9
$DIMALTTD
 70
     2
  9
$DIMTXSTY
  7
Standard
  9
$DIMAUNIT
 70
     0
  9
$DIMADEC
 70
     0
  9
$DIMALTRND
 40
0.0
  9
$DIMAZIN
 70
     0
  9
$DIMDSEP
 70
    46
  9
$DIMATFIT
 70
     3
  9
$DIMFRAC
 70
     0
  9
$DIMLDRBLK
  1

  9
$DIMLUNIT
 70
     2
  9
$DIMLWD
 70
    -2
  9
$DIMLWE
 70
    -2
  9
$DIMTMOVE
 70
     0
  9
$LUNITS
 70
     2
  9
$LUPREC
 70
     4
  9
$SKETCHINC
 40
0.1
  9
$FILLETRAD
 40
0.0
  9
$AUNITS
 70
     0
  9
$AUPREC
 70
     0
  9
$MENU
  1
.
  9
$ELEVATION
 40
0.0
  9
$PELEVATION
 40
0.0
  9
$THICKNESS
 40
0.0
  9
$LIMCHECK
 70
     0
  9
$CHAMFERA
 40
0.0
  9
$CHAMFERB
 40
0.0
  9
$CHAMFERC
 40
0.0
  9
$CHAMFERD
 40
0.0
  9
$SKPOLY
 70
     0
  9
$TDCREATE
 40
2454736.662969652
  9
$TDUCREATE
 40
2454736.579636319
  9
$TDUPDATE
 40
2454736.663434965
  9
$TDUUPDATE
 40
2454736.580101632
  9
$TDINDWG
 40
0.0004653125
  9
$TDUSRTIMER
 40
0.0004653125
  9
$USRTIMER
 70
     1
  9
$ANGBASE
 50
0.0
  9
$ANGDIR
 70
     0
  9
$PDMODE
 70
     0
  9
$PDSIZE
 40
0.0
  9
$PLINEWID
 40
0.0
  9
$SPLFRAME
 70
     0
  9
$SPLINETYPE
 70
     6
  9
$SPLINESEGS
 70
     8
  9
$HANDSEED
  5
1C5
  9
$SURFTAB1
 70
     6
  9
$SURFTAB2
 70
     6
  9
$SURFTYPE
 70
     6
  9
$SURFU
 70
     6
  9
$SURFV
 70
     6
  9
$UCSBASE
  2

  9
$UCSNAME
  2

  9
$UCSORG
 10
0.0
 20
0.0
 30
0.0
  9
$UCSXDIR
 10
1.0
 20
0.0
 30
0.0
  9
$UCSYDIR
 10
0.0
 20
1.0
 30
0.0
  9
$UCSORTHOREF
  2

  9
$UCSORTHOVIEW
 70
     1
  9
$UCSORGTOP
 10
0.0
 20
0.0
 30
0.0
  9
$UCSORGBOTTOM
 10
0.0
 20
0.0
 30
0.0
  9
$UCSORGLEFT
 10
0.0
 20
0.0
 30
0.0
  9
$UCSORGRIGHT
 10
0.0
 20
0.0
 30
0.0
  9
$UCSORGFRONT
 10
0.0
 20
0.0
 30
0.0
  9
$UCSORGBACK
 10
0.0
 20
0.0
 30
0.0
  9
$PUCSBASE
  2

  9
$PUCSNAME
  2

  9
$PUCSORG
 10
0.0
 20
0.0
 30
0.0
  9
$PUCSXDIR
 10
1.0
 20
0.0
 30
0.0
  9
$PUCSYDIR
 10
0.0
 20
1.0
 30
0.0
  9
$PUCSORTHOREF
  2

  9
$PUCSORTHOVIEW
 70
     0
  9
$PUCSORGTOP
 10
0.0
 20
0.0
 30
0.0
  9
$PUCSORGBOTTOM
 10
0.0
 20
0.0
 30
0.0
  9
$PUCSORGLEFT
 10
0.0
 20
0.0
 30
0.0
  9
$PUCSORGRIGHT
 10
0.0
 20
0.0
 30
0.0
  9
$PUCSORGFRONT
 10
0.0
 20
0.0
 30
0.0
  9
$PUCSORGBACK
 10
0.0
 20
0.0
 30
0.0
  9
$USERI1
 70
     0
  9
$USERI2
 70
     0
  9
$USERI3
 70
     0
  9
$USERI4
 70
     0
  9
$USERI5
 70
     0
  9
$USERR1
 40
0.0
  9
$USERR2
 40
0.0
  9
$USERR3
 40
0.0
  9
$USERR4
 40
0.0
  9
$USERR5
 40
0.0
  9
$WORLDVIEW
 70
     1
  9
$SHADEDGE
 70
     3
  9
$SHADEDIF
 70
    70
  9
$TILEMODE
 70
     1
  9
$MAXACTVP
 70
    64
  9
$PINSBASE
 10
0.0
 20
0.0
 30
0.0
  9
$PLIMCHECK
 70
     0
  9
$PEXTMIN
 10
1.000000000000000E+20
 20
1.000000000000000E+20
 30
1.000000000000000E+20
  9
$PEXTMAX
 10
-1.000000000000000E+20
 20
-1.000000000000000E+20
 30
-1.000000000000000E+20
  9
$PLIMMIN
 10
0.0
 20
0.0
  9
$PLIMMAX
 10
12.0
 20
9.0
  9
$UNITMODE
 70
     0
  9
$VISRETAIN
 70
     1
  9
$PLINEGEN
 70
     0
  9
$PSLTSCALE
 70
     1
  9
$TREEDEPTH
 70
  3020
  9
$CMLSTYLE
  2
Standard
  9
$CMLJUST
 70
     0
  9
$CMLSCALE
 40
1.0
  9
$PROXYGRAPHICS
 70
     1
  9
$MEASUREMENT
 70
     0
  9
$CELWEIGHT
370
    -1
  9
$ENDCAPS
280
     0
  9
$JOINSTYLE
280
     0
  9
$LWDISPLAY
290
     0
  9
$INSUNITS
 70
     0
  9
$HYPERLINKBASE
  1

  9
$STYLESHEET
  1

  9
$XEDIT
290
     1
  9
$CEPSNTYPE
380
     0
  9
$PSTYLEMODE
290
     1
  9
$FINGERPRINTGUID
  2
{8389633B-6D7E-434D-9A2F-46D71924494C}
  9
$VERSIONGUID
  2
{C0E58834-F3CC-4CE0-96D9-C81F66B1CD3E}
  9
$EXTNAMES
290
     1
  9
$PSVPSCALE
 40
0.0
  9
$OLESTARTUP
290
     0
  0
ENDSEC
  0
SECTION
  2
CLASSES
  0
CLASS
  1
ACDBDICTIONARYWDFLT
  2
AcDbDictionaryWithDefault
  3
AutoCAD 2000
 90
        0
280
     0
281
     0
  0
CLASS
  1
ACDBPLACEHOLDER
  2
AcDbPlaceHolder
  3
AutoCAD 2000
 90
        0
280
     0
281
     0
  0
CLASS
  1
LAYOUT
  2
AcDbLayout
  3
AutoCAD 2000
 90
        0
280
     0
281
     0
  0
CLASS
  1
DICTIONARYVAR
  2
AcDbDictionaryVar
  3
AutoCAD 2000
 90
        0
280
     0
281
     0
  0
ENDSEC
  0
SECTION
  2
TABLES
  0
TABLE
  2
VPORT
  5
8
330
0
100
AcDbSymbolTable
 70
     2
  0
VPORT
  5
1C4
330
8
100
AcDbSymbolTableRecord
100
AcDbViewportTableRecord
  2
*Active
 70
     0
 10
0.0
 20
0.0
 11
1.0
 21
1.0
 12
82.5
 22
68.5
 13
0.0
 23
0.0
 14
1.0
 24
1.0
 15
0.0
 25
0.0
 16
0.0
 26
0.0
 36
1.0
 17
0.0
 27
0.0
 37
0.0
 40
138.0511508951406
 41
2.078104993597951
 42
50.0
 43
0.0
 44
0.0
 50
0.0
 51
0.0
 71
     0
 72
   100
 73
     1
 74
     3
 75
     0
 76
     0
 77
     0
 78
     0
281
     0
 65
     1
110
0.0
120
0.0
130
0.0
111
1.0
121
0.0
131
0.0
112
0.0
122
1.0
132
0.0
 79
     1
146
0.0
  0
ENDTAB
  0
TABLE
  2
LTYPE
  5
5
330
0
100
AcDbSymbolTable
 70
     1
  0
LTYPE
  5
13
330
5
100
AcDbSymbolTableRecord
100
AcDbLinetypeTableRecord
  2
ByBlock
 70
     0
  3

 72
    65
 73
     0
 40
0.0
  0
LTYPE
  5
14
330
5
100
AcDbSymbolTableRecord
100
AcDbLinetypeTableRecord
  2
ByLayer
 70
     0
  3

 72
    65
 73
     0
 40
0.0
  0
LTYPE
  5
15
330
5
100
AcDbSymbolTableRecord
100
AcDbLinetypeTableRecord
  2
Continuous
 70
     0
  3
Solid line
 72
    65
 73
     0
 40
0.0
  0
ENDTAB
  0
TABLE
  2
LAYER
  5
2
330
0
100
AcDbSymbolTable
 70
     1
  0
LAYER
  5
10
330
2
100
AcDbSymbolTableRecord
100
AcDbLayerTableRecord
  2
0
 70
     0
 62
     7
  6
Continuous
370
    -3
390
F
  0
ENDTAB
  0
TABLE
  2
STYLE
  5
3
330
0
100
AcDbSymbolTable
 70
     1
  0
STYLE
  5
11
330
3
100
AcDbSymbolTableRecord
100
AcDbTextStyleTableRecord
  2
Standard
 70
     0
 40
0.0
 41
1.0
 50
0.0
 71
     0
 42
0.2
  3
txt
  4

  0
ENDTAB
  0
TABLE
  2
VIEW
  5
6
330
0
100
AcDbSymbolTable
 70
     0
  0
ENDTAB
  0
TABLE
  2
UCS
  5
7
330
0
100
AcDbSymbolTable
 70
     0
  0
ENDTAB
  0
TABLE
  2
APPID
  5
9
330
0
100
AcDbSymbolTable
 70
     1
  0
APPID
  5
12
330
9
100
AcDbSymbolTableRecord
100
AcDbRegAppTableRecord
  2
ACAD
 70
     0
  0
ENDTAB
  0
TABLE
  2
DIMSTYLE
  5
A
330
0
100
AcDbSymbolTable
 70
     1
100
AcDbDimStyleTable
 71
     0
  0
DIMSTYLE
105
1BE
330
A
100
AcDbSymbolTableRecord
100
AcDbDimStyleTableRecord
  2
Standard
 70
     0
340
11
  0
ENDTAB
  0
TABLE
  2
BLOCK_RECORD
  5
1
330
0
100
AcDbSymbolTable
 70
     0
  0
BLOCK_RECORD
  5
1E
330
1
100
AcDbSymbolTableRecord
100
AcDbBlockTableRecord
  2
*Model_Space
340
21
  0
BLOCK_RECORD
  5
1A
330
1
100
AcDbSymbolTableRecord
100
AcDbBlockTableRecord
  2
*Paper_Space
340
1D
  0
ENDTAB
  0
ENDSEC
  0
SECTION
  2
BLOCKS
  0
BLOCK
  5
1F
330
1E
100
AcDbEntity
  8
0
100
AcDbBlockBegin
  2
*Model_Space
 70
     0
 10
0.0
 20
0.0
 30
0.0
  3
*Model_Space
  1

  0
ENDBLK
  5
20
330
1E
100
AcDbEntity
  8
0
100
AcDbBlockEnd
  0
BLOCK
  5
1B
330
1A
100
AcDbEntity
 67
     1
  8
0
100
AcDbBlockBegin
  2
*Paper_Space
 70
     0
 10
0.0
 20
0.0
 30
0.0
  3
*Paper_Space
  1

  0
ENDBLK
  5
1C
330
1A
100
AcDbEntity
 67
     1
  8
0
100
AcDbBlockEnd
  0
ENDSEC
  0
SECTION
  2
ENTITIES
  0
LINE
  5
22
330
1E
100
AcDbEntity
  8
0
100
AcDbLine
 10
18.1885
 20
72.66
 30
0.0
 11
18.1885
 21
72.26399999999999
 31
0.0
  0
LINE
  5
23
330
1E
100
AcDbEntity
  8
0
100
AcDbLine
 10
18.1885
 20
72.66
 30
0.0
 11
18.1885
 21
73.716
 31
0.0
  0
LINE
  5
24
330
1E
100
AcDbEntity
  8
0
100
AcDbLine
 10
18.1885
 20
72.66
 30
0.0
 11
18.1885
 21
72.9167
 31
0.0
  0
LINE
  5
25
330
1E
100
AcDbEntity
  8
0
100
AcDbLine
 10
18.1885
 20
72.26399999999999
 30
0.0
 11
18.72419999999999
 21
72.0
 31
0.0
  0
LINE
  5
26
330
1E
100
AcDbEntity
  8
0
100
AcDbLine
 10
18.1885
 20
72.26399999999999
 30
0.0
 11
18.1885
 21
72.66
 31
0.0
  0
LINE
  5
27
330
1E
100
AcDbEntity
  8
0
100
AcDbLine
 10
0.594650000000009
 20
72.9167
 30
0.0
 11
18.1885
 21
72.9167
 31
0.0
  0
LINE
  5
28
330
1E
100
AcDbEntity
  8
0
100
AcDbLine
 10
0.188500000000009
 20
73.1567
 30
0.0
 11
0.594650000000009
 21
72.9167
 31
0.0
  0
LINE
  5
29
330
1E
100
AcDbEntity
  8
0
100
AcDbLine
 10
18.1885
 20
73.716
 30
0.0
 11
18.1885
 21
72.66
 31
0.0
  0
LINE
  5
2A
330
1E
100
AcDbEntity
  8
0
100
AcDbLine
 10
18.1885
 20
73.716
 30
0.0
 11
18.1885
 21
75.432
 31
0.0
  0
LINE
  5
2B
330
1E
100
AcDbEntity
  8
0
100
AcDbLine
 10
0.188500000000009
 20
73.5167
 30
0.0
 11
0.188500000000009
 21
74.47669999999999
 31
0.0
  0
LINE
  5
2C
330
1E
100
AcDbEntity
  8
0
100
AcDbLine
 10
0.188500000000009
 20
73.1567
 30
0.0
 11
0.594650000000009
 21
72.9167
 31
0.0
  0
LINE
  5
2D
330
1E
100
AcDbEntity
  8
0
100
AcDbLine
 10
0.188500000000009
 20
73.1567
 30
0.0
 11
0.188500000000009
 21
73.5167
 31
0.0
  0
LINE
  5
2E
330
1E
100
AcDbEntity
  8
0
100
AcDbLine
 10
18.1885
 20
75.432
 30
0.0
 11
18.1885
 21
73.716
 31
0.0
  0
LINE
  5
2F
330
1E
100
AcDbEntity
  8
0
100
AcDbLine
 10
18.1885
 20
75.432
 30
0.0
 11
18.1885
 21
77.676
 31
0.0
  0
LINE
  5
30
330
1E
100
AcDbEntity
  8
0
100
AcDbLine
 10
18.1885
 20
77.676
 30
0.0
 11
18.1885
 21
75.432
 31
0.0
  0
LINE
  5
31
330
1E
100
AcDbEntity
  8
0
100
AcDbLine
 10
18.1885
 20
77.676
 30
0.0
 11
18.1885
 21
80.22800000000001
 31
0.0
  0
LINE
  5
32
330
1E
100
AcDbEntity
  8
0
100
AcDbLine
 10
0.18850000000001
 20
76.0367
 30
0.0
 11
0.18850000000001
 21
78.0767
 31
0.0
  0
LINE
  5
33
330
1E
100
AcDbEntity
  8
0
100
AcDbLine
 10
0.188500000000009
 20
74.47669999999999
 30
0.0
 11
0.18850000000001
 21
76.0367
 31
0.0
  0
LINE
  5
34
330
1E
100
AcDbEntity
  8
0
100
AcDbLine
 10
18.1885
 20
80.22800000000001
 30
0.0
 11
18.1885
 21
77.676
 31
0.0
  0
LINE
  5
35
330
1E
100
AcDbEntity
  8
0
100
AcDbLine
 10
18.1885
 20
80.22800000000001
 30
0.0
 11
18.1885
 21
83.0
 31
0.0
  0
LINE
  5
36
330
1E
100
AcDbEntity
  8
0
100
AcDbLine
 10
0.18850000000001
 20
82.91670000000001
 30
0.0
 11
0.18850000000001
 21
85.4367
 31
0.0
  0
LINE
  5
37
330
1E
100
AcDbEntity
  8
0
100
AcDbLine
 10
0.18850000000001
 20
85.4367
 30
0.0
 11
0.18850000000001
 21
87.75669999999999
 31
0.0
  0
LINE
  5
38
330
1E
100
AcDbEntity
  8
0
100
AcDbLine
 10
18.1885
 20
85.77200000000001
 30
0.0
 11
18.1885
 21
83.0
 31
0.0
  0
LINE
  5
39
330
1E
100
AcDbEntity
  8
0
100
AcDbLine
 10
18.1885
 20
85.77200000000001
 30
0.0
 11
18.1885
 21
88.32399999999999
 31
0.0
  0
LINE
  5
3A
330
1E
100
AcDbEntity
  8
0
100
AcDbLine
 10
18.1885
 20
83.0
 30
0.0
 11
18.1885
 21
80.22800000000001
 31
0.0
  0
LINE
  5
3B
330
1E
100
AcDbEntity
  8
0
100
AcDbLine
 10
18.1885
 20
83.0
 30
0.0
 11
18.1885
 21
85.77200000000001
 31
0.0
  0
LINE
  5
3C
330
1E
100
AcDbEntity
  8
0
100
AcDbLine
 10
0.18850000000001
 20
87.75669999999999
 30
0.0
 11
0.18850000000001
 21
89.7967
 31
0.0
  0
LINE
  5
3D
330
1E
100
AcDbEntity
  8
0
100
AcDbLine
 10
18.1885
 20
82.91670000000001
 30
0.0
 11
18.1885
 21
85.4767
 31
0.0
  0
LINE
  5
3E
330
1E
100
AcDbEntity
  8
0
100
AcDbLine
 10
18.1885
 20
85.4767
 30
0.0
 11
18.1885
 21
87.8767
 31
0.0
  0
LINE
  5
3F
330
1E
100
AcDbEntity
  8
0
100
AcDbLine
 10
0.18850000000001
 20
89.7967
 30
0.0
 11
0.18850000000001
 21
91.35670000000001
 31
0.0
  0
LINE
  5
40
330
1E
100
AcDbEntity
  8
0
100
AcDbLine
 10
18.1885
 20
88.32399999999999
 30
0.0
 11
18.1885
 21
85.77200000000001
 31
0.0
  0
LINE
  5
41
330
1E
100
AcDbEntity
  8
0
100
AcDbLine
 10
18.1885
 20
88.32399999999999
 30
0.0
 11
18.1885
 21
90.568
 31
0.0
  0
LINE
  5
42
330
1E
100
AcDbEntity
  8
0
100
AcDbLine
 10
18.1885
 20
90.568
 30
0.0
 11
18.1885
 21
88.32399999999999
 31
0.0
  0
LINE
  5
43
330
1E
100
AcDbEntity
  8
0
100
AcDbLine
 10
18.1885
 20
90.568
 30
0.0
 11
18.1885
 21
92.28399999999998
 31
0.0
  0
LINE
  5
44
330
1E
100
AcDbEntity
  8
0
100
AcDbLine
 10
0.18850000000001
 20
91.35670000000001
 30
0.0
 11
0.188500000000011
 21
92.31669999999999
 31
0.0
  0
LINE
  5
45
330
1E
100
AcDbEntity
  8
0
100
AcDbLine
 10
18.1885
 20
87.8767
 30
0.0
 11
18.1885
 21
89.9967
 31
0.0
  0
LINE
  5
46
330
1E
100
AcDbEntity
  8
0
100
AcDbLine
 10
18.1885
 20
89.9967
 30
0.0
 11
18.1885
 21
91.5967
 31
0.0
  0
LINE
  5
47
330
1E
100
AcDbEntity
  8
0
100
AcDbLine
 10
18.1885
 20
92.28399999999998
 30
0.0
 11
18.1885
 21
90.568
 31
0.0
  0
LINE
  5
48
330
1E
100
AcDbEntity
  8
0
100
AcDbLine
 10
18.1885
 20
92.28399999999998
 30
0.0
 11
18.1885
 21
93.34000000000001
 31
0.0
  0
LINE
  5
49
330
1E
100
AcDbEntity
  8
0
100
AcDbLine
 10
0.188500000000011
 20
92.31669999999999
 30
0.0
 11
0.188500000000011
 21
92.6767
 31
0.0
  0
LINE
  5
4A
330
1E
100
AcDbEntity
  8
0
100
AcDbLine
 10
18.1885
 20
91.5967
 30
0.0
 11
18.1885
 21
92.5567
 31
0.0
  0
LINE
  5
4B
330
1E
100
AcDbEntity
  8
0
100
AcDbLine
 10
0.18850000000001
 20
80.39669999999999
 30
0.0
 11
0.18850000000001
 21
82.91670000000001
 31
0.0
  0
LINE
  5
4C
330
1E
100
AcDbEntity
  8
0
100
AcDbLine
 10
0.18850000000001
 20
78.0767
 30
0.0
 11
0.18850000000001
 21
80.39669999999999
 31
0.0
  0
LINE
  5
4D
330
1E
100
AcDbEntity
  8
0
100
AcDbLine
 10
18.1885
 20
80.35670000000001
 30
0.0
 11
18.1885
 21
82.91670000000001
 31
0.0
  0
LINE
  5
4E
330
1E
100
AcDbEntity
  8
0
100
AcDbLine
 10
18.1885
 20
77.9567
 30
0.0
 11
18.1885
 21
80.35670000000001
 31
0.0
  0
LINE
  5
4F
330
1E
100
AcDbEntity
  8
0
100
AcDbLine
 10
18.1885
 20
75.83669999999999
 30
0.0
 11
18.1885
 21
77.9567
 31
0.0
  0
LINE
  5
50
330
1E
100
AcDbEntity
  8
0
100
AcDbLine
 10
18.1885
 20
74.2367
 30
0.0
 11
18.1885
 21
75.83669999999999
 31
0.0
  0
LINE
  5
51
330
1E
100
AcDbEntity
  8
0
100
AcDbLine
 10
18.1885
 20
73.27670000000001
 30
0.0
 11
18.1885
 21
74.2367
 31
0.0
  0
LINE
  5
52
330
1E
100
AcDbEntity
  8
0
100
AcDbLine
 10
0.594650000000009
 20
72.9167
 30
0.0
 11
18.1885
 21
72.9167
 31
0.0
  0
LINE
  5
53
330
1E
100
AcDbEntity
  8
0
100
AcDbLine
 10
18.72419999999999
 20
72.0
 30
0.0
 11
22.6528
 21
72.0
 31
0.0
  0
LINE
  5
54
330
1E
100
AcDbEntity
  8
0
100
AcDbLine
 10
22.6528
 20
72.0
 30
0.0
 11
23.1885
 21
72.26399999999999
 31
0.0
  0
LINE
  5
55
330
1E
100
AcDbEntity
  8
0
100
AcDbLine
 10
23.1885
 20
77.676
 30
0.0
 11
23.1885
 21
80.22800000000001
 31
0.0
  0
LINE
  5
56
330
1E
100
AcDbEntity
  8
0
100
AcDbLine
 10
23.1885
 20
77.676
 30
0.0
 11
23.1885
 21
75.432
 31
0.0
  0
LINE
  5
57
330
1E
100
AcDbEntity
  8
0
100
AcDbLine
 10
23.1885
 20
75.432
 30
0.0
 11
23.1885
 21
77.676
 31
0.0
  0
LINE
  5
58
330
1E
100
AcDbEntity
  8
0
100
AcDbLine
 10
23.1885
 20
75.432
 30
0.0
 11
23.1885
 21
73.716
 31
0.0
  0
LINE
  5
59
330
1E
100
AcDbEntity
  8
0
100
AcDbLine
 10
23.1885
 20
73.716
 30
0.0
 11
23.1885
 21
75.432
 31
0.0
  0
LINE
  5
5A
330
1E
100
AcDbEntity
  8
0
100
AcDbLine
 10
23.1885
 20
73.716
 30
0.0
 11
23.1885
 21
72.66
 31
0.0
  0
LINE
  5
5B
330
1E
100
AcDbEntity
  8
0
100
AcDbLine
 10
23.1885
 20
79.528
 30
0.0
 11
23.1885
 21
80.16800000000001
 31
0.0
  0
LINE
  5
5C
330
1E
100
AcDbEntity
  8
0
100
AcDbLine
 10
25.1885
 20
80.16800000000001
 30
0.0
 11
25.1885
 21
81.01600000000001
 31
0.0
  0
LINE
  5
5D
330
1E
100
AcDbEntity
  8
0
100
AcDbLine
 10
25.1885
 20
79.528
 30
0.0
 11
25.1885
 21
80.16800000000001
 31
0.0
  0
LINE
  5
5E
330
1E
100
AcDbEntity
  8
0
100
AcDbLine
 10
23.1885
 20
80.16800000000001
 30
0.0
 11
23.1885
 21
79.528
 31
0.0
  0
LINE
  5
5F
330
1E
100
AcDbEntity
  8
0
100
AcDbLine
 10
23.1885
 20
80.16800000000001
 30
0.0
 11
23.1885
 21
80.22800000000001
 31
0.0
  0
LINE
  5
60
330
1E
100
AcDbEntity
  8
0
100
AcDbLine
 10
25.1885
 20
79.14399999999999
 30
0.0
 11
25.1885
 21
79.528
 31
0.0
  0
LINE
  5
61
330
1E
100
AcDbEntity
  8
0
100
AcDbLine
 10
23.1885
 20
79.0
 30
0.0
 11
25.1885
 21
79.0
 31
0.0
  0
LINE
  5
62
330
1E
100
AcDbEntity
  8
0
100
AcDbLine
 10
25.1885
 20
79.0
 30
0.0
 11
25.1885
 21
78.64399999999999
 31
0.0
  0
LINE
  5
63
330
1E
100
AcDbEntity
  8
0
100
AcDbLine
 10
25.1885
 20
79.0
 30
0.0
 11
25.1885
 21
79.14399999999999
 31
0.0
  0
LINE
  5
64
330
1E
100
AcDbEntity
  8
0
100
AcDbLine
 10
25.1885
 20
78.64399999999999
 30
0.0
 11
25.1885
 21
76.80800000000001
 31
0.0
  0
LINE
  5
65
330
1E
100
AcDbEntity
  8
0
100
AcDbLine
 10
25.1885
 20
78.64399999999999
 30
0.0
 11
25.1885
 21
80.73199999999999
 31
0.0
  0
LINE
  5
66
330
1E
100
AcDbEntity
  8
0
100
AcDbLine
 10
25.1885
 20
78.64399999999999
 30
0.0
 11
25.1885
 21
79.0
 31
0.0
  0
LINE
  5
67
330
1E
100
AcDbEntity
  8
0
100
AcDbLine
 10
25.1885
 20
76.80800000000001
 30
0.0
 11
25.1885
 21
75.40399999999999
 31
0.0
  0
LINE
  5
68
330
1E
100
AcDbEntity
  8
0
100
AcDbLine
 10
25.1885
 20
76.80800000000001
 30
0.0
 11
25.1885
 21
78.64399999999999
 31
0.0
  0
LINE
  5
69
330
1E
100
AcDbEntity
  8
0
100
AcDbLine
 10
25.1885
 20
75.40399999999999
 30
0.0
 11
25.1885
 21
74.54
 31
0.0
  0
LINE
  5
6A
330
1E
100
AcDbEntity
  8
0
100
AcDbLine
 10
25.1885
 20
75.40399999999999
 30
0.0
 11
25.1885
 21
76.80800000000001
 31
0.0
  0
LINE
  5
6B
330
1E
100
AcDbEntity
  8
0
100
AcDbLine
 10
25.1885
 20
74.54
 30
0.0
 11
25.1885
 21
74.21600000000001
 31
0.0
  0
LINE
  5
6C
330
1E
100
AcDbEntity
  8
0
100
AcDbLine
 10
25.1885
 20
74.54
 30
0.0
 11
25.1885
 21
75.40399999999999
 31
0.0
  0
LINE
  5
6D
330
1E
100
AcDbEntity
  8
0
100
AcDbLine
 10
25.1885
 20
74.21600000000001
 30
0.0
 11
25.5947
 21
74.0
 31
0.0
  0
LINE
  5
6E
330
1E
100
AcDbEntity
  8
0
100
AcDbLine
 10
25.1885
 20
74.21600000000001
 30
0.0
 11
25.1885
 21
74.54
 31
0.0
  0
LINE
  5
6F
330
1E
100
AcDbEntity
  8
0
100
AcDbLine
 10
25.5947
 20
74.0
 30
0.0
 11
31.1885
 21
74.0
 31
0.0
  0
LINE
  5
70
330
1E
100
AcDbEntity
  8
0
100
AcDbLine
 10
23.1885
 20
87.0
 30
0.0
 11
25.1885
 21
87.0
 31
0.0
  0
LINE
  5
71
330
1E
100
AcDbEntity
  8
0
100
AcDbLine
 10
23.1885
 20
85.77200000000001
 30
0.0
 11
23.1885
 21
88.32399999999999
 31
0.0
  0
LINE
  5
72
330
1E
100
AcDbEntity
  8
0
100
AcDbLine
 10
23.1885
 20
85.77200000000001
 30
0.0
 11
23.1885
 21
83.0
 31
0.0
  0
LINE
  5
73
330
1E
100
AcDbEntity
  8
0
100
AcDbLine
 10
23.1885
 20
88.32399999999999
 30
0.0
 11
23.1885
 21
90.568
 31
0.0
  0
LINE
  5
74
330
1E
100
AcDbEntity
  8
0
100
AcDbLine
 10
23.1885
 20
88.32399999999999
 30
0.0
 11
23.1885
 21
85.77200000000001
 31
0.0
  0
LINE
  5
75
330
1E
100
AcDbEntity
  8
0
100
AcDbLine
 10
23.1885
 20
90.568
 30
0.0
 11
23.1885
 21
92.28399999999998
 31
0.0
  0
LINE
  5
76
330
1E
100
AcDbEntity
  8
0
100
AcDbLine
 10
23.1885
 20
90.568
 30
0.0
 11
23.1885
 21
88.32399999999999
 31
0.0
  0
LINE
  5
77
330
1E
100
AcDbEntity
  8
0
100
AcDbLine
 10
23.1885
 20
92.28399999999998
 30
0.0
 11
23.1885
 21
93.34000000000001
 31
0.0
  0
LINE
  5
78
330
1E
100
AcDbEntity
  8
0
100
AcDbLine
 10
23.1885
 20
92.28399999999998
 30
0.0
 11
23.1885
 21
90.568
 31
0.0
  0
LINE
  5
79
330
1E
100
AcDbEntity
  8
0
100
AcDbLine
 10
25.1885
 20
84.024
 30
0.0
 11
25.1885
 21
84.984
 31
0.0
  0
LINE
  5
7A
330
1E
100
AcDbEntity
  8
0
100
AcDbLine
 10
25.1885
 20
84.984
 30
0.0
 11
25.1885
 21
85.83200000000001
 31
0.0
  0
LINE
  5
7B
330
1E
100
AcDbEntity
  8
0
100
AcDbLine
 10
25.1885
 20
85.83200000000001
 30
0.0
 11
25.1885
 21
86.47200000000001
 31
0.0
  0
LINE
  5
7C
330
1E
100
AcDbEntity
  8
0
100
AcDbLine
 10
25.1885
 20
86.47200000000001
 30
0.0
 11
25.1885
 21
86.856
 31
0.0
  0
LINE
  5
7D
330
1E
100
AcDbEntity
  8
0
100
AcDbLine
 10
25.1885
 20
86.856
 30
0.0
 11
25.1885
 21
87.0
 31
0.0
  0
LINE
  5
7E
330
1E
100
AcDbEntity
  8
0
100
AcDbLine
 10
25.1885
 20
81.97599999999999
 30
0.0
 11
25.1885
 21
83.0
 31
0.0
  0
LINE
  5
7F
330
1E
100
AcDbEntity
  8
0
100
AcDbLine
 10
25.1885
 20
81.01600000000001
 30
0.0
 11
25.1885
 21
81.97599999999999
 31
0.0
  0
LINE
  5
80
330
1E
100
AcDbEntity
  8
0
100
AcDbLine
 10
25.1885
 20
87.0
 30
0.0
 11
25.1885
 21
87.35600000000001
 31
0.0
  0
LINE
  5
81
330
1E
100
AcDbEntity
  8
0
100
AcDbLine
 10
25.1885
 20
85.26799999999999
 30
0.0
 11
25.1885
 21
83.0
 31
0.0
  0
LINE
  5
82
330
1E
100
AcDbEntity
  8
0
100
AcDbLine
 10
25.1885
 20
85.26799999999999
 30
0.0
 11
25.1885
 21
87.35600000000001
 31
0.0
  0
LINE
  5
83
330
1E
100
AcDbEntity
  8
0
100
AcDbLine
 10
25.1885
 20
87.35600000000001
 30
0.0
 11
25.1885
 21
85.26799999999999
 31
0.0
  0
LINE
  5
84
330
1E
100
AcDbEntity
  8
0
100
AcDbLine
 10
25.1885
 20
87.35600000000001
 30
0.0
 11
25.1885
 21
89.19200000000001
 31
0.0
  0
LINE
  5
85
330
1E
100
AcDbEntity
  8
0
100
AcDbLine
 10
25.1885
 20
87.35600000000001
 30
0.0
 11
25.1885
 21
87.0
 31
0.0
  0
LINE
  5
86
330
1E
100
AcDbEntity
  8
0
100
AcDbLine
 10
25.1885
 20
89.19200000000001
 30
0.0
 11
25.1885
 21
87.35600000000001
 31
0.0
  0
LINE
  5
87
330
1E
100
AcDbEntity
  8
0
100
AcDbLine
 10
25.1885
 20
89.19200000000001
 30
0.0
 11
25.1885
 21
90.59600000000001
 31
0.0
  0
LINE
  5
88
330
1E
100
AcDbEntity
  8
0
100
AcDbLine
 10
25.1885
 20
90.59600000000001
 30
0.0
 11
25.1885
 21
89.19200000000001
 31
0.0
  0
LINE
  5
89
330
1E
100
AcDbEntity
  8
0
100
AcDbLine
 10
25.1885
 20
90.59600000000001
 30
0.0
 11
25.1885
 21
91.45999999999999
 31
0.0
  0
LINE
  5
8A
330
1E
100
AcDbEntity
  8
0
100
AcDbLine
 10
25.1885
 20
91.45999999999999
 30
0.0
 11
25.1885
 21
90.59600000000001
 31
0.0
  0
LINE
  5
8B
330
1E
100
AcDbEntity
  8
0
100
AcDbLine
 10
25.1885
 20
91.45999999999999
 30
0.0
 11
25.1885
 21
91.78399999999999
 31
0.0
  0
LINE
  5
8C
330
1E
100
AcDbEntity
  8
0
100
AcDbLine
 10
25.1885
 20
91.78399999999999
 30
0.0
 11
25.1885
 21
91.45999999999999
 31
0.0
  0
LINE
  5
8D
330
1E
100
AcDbEntity
  8
0
100
AcDbLine
 10
25.1885
 20
91.78399999999999
 30
0.0
 11
25.5947
 21
92.0
 31
0.0
  0
LINE
  5
8E
330
1E
100
AcDbEntity
  8
0
100
AcDbLine
 10
25.5947
 20
92.0
 30
0.0
 11
26.21791176470589
 21
92.0
 31
0.0
  0
LINE
  5
8F
330
1E
100
AcDbEntity
  8
0
100
AcDbLine
 10
25.1885
 20
83.0
 30
0.0
 11
25.1885
 21
80.73199999999999
 31
0.0
  0
LINE
  5
90
330
1E
100
AcDbEntity
  8
0
100
AcDbLine
 10
25.1885
 20
83.0
 30
0.0
 11
25.1885
 21
85.26799999999999
 31
0.0
  0
LINE
  5
91
330
1E
100
AcDbEntity
  8
0
100
AcDbLine
 10
25.1885
 20
83.0
 30
0.0
 11
25.1885
 21
84.024
 31
0.0
  0
LINE
  5
92
330
1E
100
AcDbEntity
  8
0
100
AcDbLine
 10
25.1885
 20
80.73199999999999
 30
0.0
 11
25.1885
 21
78.64399999999999
 31
0.0
  0
LINE
  5
93
330
1E
100
AcDbEntity
  8
0
100
AcDbLine
 10
25.1885
 20
80.73199999999999
 30
0.0
 11
25.1885
 21
83.0
 31
0.0
  0
LINE
  5
94
330
1E
100
AcDbEntity
  8
0
100
AcDbLine
 10
23.1885
 20
83.0
 30
0.0
 11
23.1885
 21
80.22800000000001
 31
0.0
  0
LINE
  5
95
330
1E
100
AcDbEntity
  8
0
100
AcDbLine
 10
23.1885
 20
83.0
 30
0.0
 11
23.1885
 21
85.77200000000001
 31
0.0
  0
LINE
  5
96
330
1E
100
AcDbEntity
  8
0
100
AcDbLine
 10
23.1885
 20
80.22800000000001
 30
0.0
 11
23.1885
 21
83.0
 31
0.0
  0
LINE
  5
97
330
1E
100
AcDbEntity
  8
0
100
AcDbLine
 10
23.1885
 20
80.22800000000001
 30
0.0
 11
23.1885
 21
80.16800000000001
 31
0.0
  0
LINE
  5
98
330
1E
100
AcDbEntity
  8
0
100
AcDbLine
 10
23.1885
 20
72.66
 30
0.0
 11
23.1885
 21
73.716
 31
0.0
  0
LINE
  5
99
330
1E
100
AcDbEntity
  8
0
100
AcDbLine
 10
23.1885
 20
72.66
 30
0.0
 11
23.1885
 21
72.26399999999999
 31
0.0
  0
LINE
  5
9A
330
1E
100
AcDbEntity
  8
0
100
AcDbLine
 10
23.1885
 20
72.26399999999999
 30
0.0
 11
23.1885
 21
72.66
 31
0.0
  0
LINE
  5
9B
330
1E
100
AcDbEntity
  8
0
100
AcDbLine
 10
18.1885
 20
72.9167
 30
0.0
 11
18.1885
 21
73.27670000000001
 31
0.0
  0
LINE
  5
9C
330
1E
100
AcDbEntity
  8
0
100
AcDbLine
 10
18.1885
 20
72.9167
 30
0.0
 11
18.1885
 21
72.66
 31
0.0
  0
LINE
  5
9D
330
1E
100
AcDbEntity
  8
0
100
AcDbLine
 10
0.188500000000011
 20
92.6767
 30
0.0
 11
0.5946500000000111
 21
92.91670000000001
 31
0.0
  0
LINE
  5
9E
330
1E
100
AcDbEntity
  8
0
100
AcDbLine
 10
18.1885
 20
92.91670000000001
 30
0.0
 11
18.1885
 21
93.34000000000001
 31
0.0
  0
LINE
  5
9F
330
1E
100
AcDbEntity
  8
0
100
AcDbLine
 10
0.5946500000000111
 20
92.91670000000001
 30
0.0
 11
18.1885
 21
92.91670000000001
 31
0.0
  0
LINE
  5
A0
330
1E
100
AcDbEntity
  8
0
100
AcDbLine
 10
0.188500000000011
 20
92.6767
 30
0.0
 11
0.5946500000000111
 21
92.91670000000001
 31
0.0
  0
LINE
  5
A1
330
1E
100
AcDbEntity
  8
0
100
AcDbLine
 10
18.1885
 20
93.34000000000001
 30
0.0
 11
18.1885
 21
92.28399999999998
 31
0.0
  0
LINE
  5
A2
330
1E
100
AcDbEntity
  8
0
100
AcDbLine
 10
18.1885
 20
93.34000000000001
 30
0.0
 11
18.1885
 21
93.73600000000001
 31
0.0
  0
LINE
  5
A3
330
1E
100
AcDbEntity
  8
0
100
AcDbLine
 10
18.1885
 20
93.34000000000001
 30
0.0
 11
18.1885
 21
92.91670000000001
 31
0.0
  0
LINE
  5
A4
330
1E
100
AcDbEntity
  8
0
100
AcDbLine
 10
18.1885
 20
93.73600000000001
 30
0.0
 11
18.1885
 21
93.34000000000001
 31
0.0
  0
LINE
  5
A5
330
1E
100
AcDbEntity
  8
0
100
AcDbLine
 10
18.1885
 20
93.73600000000001
 30
0.0
 11
18.72419999999999
 21
94.0
 31
0.0
  0
LINE
  5
A6
330
1E
100
AcDbEntity
  8
0
100
AcDbLine
 10
0.594650000000009
 20
92.91670000000001
 30
0.0
 11
18.1885
 21
92.91670000000001
 31
0.0
  0
LINE
  5
A7
330
1E
100
AcDbEntity
  8
0
100
AcDbLine
 10
23.1885
 20
93.73600000000001
 30
0.0
 11
23.1885
 21
93.34000000000001
 31
0.0
  0
LINE
  5
A8
330
1E
100
AcDbEntity
  8
0
100
AcDbLine
 10
23.1885
 20
93.34000000000001
 30
0.0
 11
23.1885
 21
93.73600000000001
 31
0.0
  0
LINE
  5
A9
330
1E
100
AcDbEntity
  8
0
100
AcDbLine
 10
23.1885
 20
93.34000000000001
 30
0.0
 11
23.1885
 21
92.28399999999998
 31
0.0
  0
LINE
  5
AA
330
1E
100
AcDbEntity
  8
0
100
AcDbLine
 10
22.6528
 20
94.0
 30
0.0
 11
23.1885
 21
93.73600000000001
 31
0.0
  0
LINE
  5
AB
330
1E
100
AcDbEntity
  8
0
100
AcDbLine
 10
18.72419999999999
 20
94.0
 30
0.0
 11
22.6528
 21
94.0
 31
0.0
  0
LINE
  5
AC
330
1E
100
AcDbEntity
  8
0
100
AcDbLine
 10
18.1885
 20
92.5567
 30
0.0
 11
18.1885
 21
92.91670000000001
 31
0.0
  0
LINE
  5
AD
330
1E
100
AcDbEntity
  8
0
100
AcDbLine
 10
26.1885
 20
92.5
 30
0.0
 11
26.1885
 21
94.0
 31
0.0
  0
LINE
  5
AE
330
1E
100
AcDbEntity
  8
0
100
AcDbLine
 10
26.1885
 20
92.5
 30
0.0
 11
26.21791176470589
 21
92.0
 31
0.0
  0
LINE
  5
AF
330
1E
100
AcDbEntity
  8
0
100
AcDbLine
 10
99.4885
 20
-0.0000000000000039
 30
0.0
 11
108.7884999999999
 21
-0.0000000000000045
 31
0.0
  0
LINE
  5
B0
330
1E
100
AcDbEntity
  8
0
100
AcDbLine
 10
97.08849999999999
 20
-0.0000000000000037
 30
0.0
 11
108.7884999999999
 21
-0.0000000000000045
 31
0.0
  0
LINE
  5
B1
330
1E
100
AcDbEntity
  8
0
100
AcDbLine
 10
103.4885
 20
-0.0000000000000041
 30
0.0
 11
108.7884999999999
 21
-0.0000000000000045
 31
0.0
  0
LINE
  5
B2
330
1E
100
AcDbEntity
  8
0
100
AcDbLine
 10
108.7884999999999
 20
-0.0000000000000045
 30
0.0
 11
114.7885
 21
-0.0000000000000048
 31
0.0
  0
LINE
  5
B3
330
1E
100
AcDbEntity
  8
0
100
AcDbLine
 10
99.4885
 20
-0.0000000000000039
 30
0.0
 11
108.7884999999999
 21
-0.0000000000000045
 31
0.0
  0
LINE
  5
B4
330
1E
100
AcDbEntity
  8
0
100
AcDbLine
 10
99.4885
 20
-0.0000000000000039
 30
0.0
 11
103.4885
 21
-0.0000000000000041
 31
0.0
  0
LINE
  5
B5
330
1E
100
AcDbEntity
  8
0
100
AcDbLine
 10
42.2226
 20
71.0
 30
0.0
 11
42.32249999999999
 21
71.0
 31
0.0
  0
LINE
  5
B6
330
1E
100
AcDbEntity
  8
0
100
AcDbLine
 10
42.4814
 20
71.0
 30
0.0
 11
42.68849999999999
 21
71.0
 31
0.0
  0
LINE
  5
B7
330
1E
100
AcDbEntity
  8
0
100
AcDbLine
 10
42.32249999999999
 20
71.0
 30
0.0
 11
42.4814
 21
71.0
 31
0.0
  0
LINE
  5
B8
330
1E
100
AcDbEntity
  8
0
100
AcDbLine
 10
96.18850000000001
 20
0.0
 30
0.0
 11
96.18850000000001
 21
71.0
 31
0.0
  0
LINE
  5
B9
330
1E
100
AcDbEntity
  8
0
100
AcDbLine
 10
43.1885
 20
71.0
 30
0.0
 11
96.18850000000001
 21
71.0
 31
0.0
  0
LINE
  5
BA
330
1E
100
AcDbEntity
  8
0
100
AcDbLine
 10
42.92969999999999
 20
71.0
 30
0.0
 11
43.1885
 21
71.0
 31
0.0
  0
LINE
  5
BB
330
1E
100
AcDbEntity
  8
0
100
AcDbLine
 10
42.68849999999999
 20
71.0
 30
0.0
 11
42.92969999999999
 21
71.0
 31
0.0
  0
LINE
  5
BC
330
1E
100
AcDbEntity
  8
0
100
AcDbLine
 10
96.18850000000001
 20
-0.0000000000000037
 30
0.0
 11
97.08849999999999
 21
-0.0000000000000037
 31
0.0
  0
LINE
  5
BD
330
1E
100
AcDbEntity
  8
0
100
AcDbLine
 10
96.18850000000001
 20
-0.0000000000000037
 30
0.0
 11
96.18850000000001
 21
71.0
 31
0.0
  0
LINE
  5
BE
330
1E
100
AcDbEntity
  8
0
100
AcDbLine
 10
97.08849999999999
 20
-0.0000000000000037
 30
0.0
 11
99.4885
 21
-0.0000000000000039
 31
0.0
  0
LINE
  5
BF
330
1E
100
AcDbEntity
  8
0
100
AcDbLine
 10
97.08849999999999
 20
-0.0000000000000037
 30
0.0
 11
108.7884999999999
 21
-0.0000000000000045
 31
0.0
  0
LINE
  5
C0
330
1E
100
AcDbEntity
  8
0
100
AcDbLine
 10
40.3885
 20
71.09999999999999
 30
0.0
 11
42.18849999999999
 21
71.0
 31
0.0
  0
LINE
  5
C1
330
1E
100
AcDbEntity
  8
0
100
AcDbLine
 10
39.4885
 20
71.2
 30
0.0
 11
40.3885
 21
71.09999999999999
 31
0.0
  0
LINE
  5
C2
330
1E
100
AcDbEntity
  8
0
100
AcDbLine
 10
38.6885
 20
71.29999999999999
 30
0.0
 11
39.4885
 21
71.2
 31
0.0
  0
LINE
  5
C3
330
1E
100
AcDbEntity
  8
0
100
AcDbLine
 10
36.8885
 20
71.6
 30
0.0
 11
38.6885
 21
71.29999999999999
 31
0.0
  0
LINE
  5
C4
330
1E
100
AcDbEntity
  8
0
100
AcDbLine
 10
33.6885
 20
72.59999999999999
 30
0.0
 11
36.8885
 21
71.6
 31
0.0
  0
LINE
  5
C5
330
1E
100
AcDbEntity
  8
0
100
AcDbLine
 10
26.7678
 20
94.0
 30
0.0
 11
28.4661
 21
94.0
 31
0.0
  0
LINE
  5
C6
330
1E
100
AcDbEntity
  8
0
100
AcDbLine
 10
31.1677
 20
94.0
 30
0.0
 11
34.68849999999999
 21
94.0
 31
0.0
  0
LINE
  5
C7
330
1E
100
AcDbEntity
  8
0
100
AcDbLine
 10
27.1885
 20
95.0
 30
0.0
 11
27.73369999999999
 21
95.0
 31
0.0
  0
LINE
  5
C8
330
1E
100
AcDbEntity
  8
0
100
AcDbLine
 10
27.73369999999999
 20
95.0
 30
0.0
 11
29.3321
 21
95.0
 31
0.0
  0
LINE
  5
C9
330
1E
100
AcDbEntity
  8
0
100
AcDbLine
 10
31.8748
 20
95.0
 30
0.0
 11
35.1885
 21
95.0
 31
0.0
  0
LINE
  5
CA
330
1E
100
AcDbEntity
  8
0
100
AcDbLine
 10
29.3321
 20
95.0
 30
0.0
 11
31.8748
 21
95.0
 31
0.0
  0
LINE
  5
CB
330
1E
100
AcDbEntity
  8
0
100
AcDbLine
 10
28.4661
 20
94.0
 30
0.0
 11
31.1677
 21
94.0
 31
0.0
  0
LINE
  5
CC
330
1E
100
AcDbEntity
  8
0
100
AcDbLine
 10
43.1885
 20
95.0
 30
0.0
 11
109.2885
 21
95.0
 31
0.0
  0
LINE
  5
CD
330
1E
100
AcDbEntity
  8
0
100
AcDbLine
 10
43.1885
 20
94.0
 30
0.0
 11
102.9884999999999
 21
94.0
 31
0.0
  0
LINE
  5
CE
330
1E
100
AcDbEntity
  8
0
100
AcDbLine
 10
103.4885
 20
94.0
 30
0.0
 11
108.7884999999999
 21
94.0
 31
0.0
  0
LINE
  5
CF
330
1E
100
AcDbEntity
  8
0
100
AcDbLine
 10
108.7884999999999
 20
94.0
 30
0.0
 11
114.7885
 21
94.0
 31
0.0
  0
LINE
  5
D2
330
1E
100
AcDbEntity
  8
0
100
AcDbLine
 10
109.2885
 20
95.0
 30
0.0
 11
114.9885
 21
95.0
 31
0.0
  0
LINE
  5
D4
330
1E
100
AcDbEntity
  8
0
100
AcDbLine
 10
102.9884999999999
 20
94.0
 30
0.0
 11
103.4885
 21
94.0
 31
0.0
  0
LINE
  5
D5
330
1E
100
AcDbEntity
  8
0
100
AcDbLine
 10
97.18850000000001
 20
95.0
 30
0.0
 11
97.18850000000001
 21
97.0
 31
0.0
  0
LINE
  5
D6
330
1E
100
AcDbEntity
  8
0
100
AcDbLine
 10
39.0474
 20
95.0
 30
0.0
 11
43.1885
 21
95.0
 31
0.0
  0
LINE
  5
D7
330
1E
100
AcDbEntity
  8
0
100
AcDbLine
 10
38.7886
 20
94.0
 30
0.0
 11
43.1885
 21
94.0
 31
0.0
  0
LINE
  5
10E
330
1E
100
AcDbEntity
  8
0
100
AcDbLine
 10
96.18850000000001
 20
109.0849999999999
 30
0.0
 11
96.18850000000001
 21
97.0
 31
0.0
  0
LINE
  5
113
330
1E
100
AcDbEntity
  8
0
100
AcDbLine
 10
96.18850000000001
 20
120.0
 30
0.0
 11
96.18850000000001
 21
109.0849999999999
 31
0.0
  0
LINE
  5
114
330
1E
100
AcDbEntity
  8
0
100
AcDbLine
 10
96.18850000000001
 20
109.0849999999999
 30
0.0
 11
96.18850000000001
 21
120.0
 31
0.0
  0
LINE
  5
115
330
1E
100
AcDbEntity
  8
0
100
AcDbLine
 10
95.58849999999999
 20
120.0
 30
0.0
 11
96.18850000000001
 21
120.0
 31
0.0
  0
LINE
  5
117
330
1E
100
AcDbEntity
  8
0
100
AcDbLine
 10
94.68850000000001
 20
120.0
 30
0.0
 11
95.58849999999999
 21
120.0
 31
0.0
  0
LINE
  5
118
330
1E
100
AcDbEntity
  8
0
100
AcDbLine
 10
93.6885
 20
120.0
 30
0.0
 11
94.68850000000001
 21
120.0
 31
0.0
  0
LINE
  5
119
330
1E
100
AcDbEntity
  8
0
100
AcDbLine
 10
43.1885
 20
120.0
 30
0.0
 11
93.6885
 21
120.0
 31
0.0
  0
LINE
  5
11A
330
1E
100
AcDbEntity
  8
0
100
AcDbLine
 10
42.18849999999999
 20
120.0
 30
0.0
 11
43.1885
 21
120.0
 31
0.0
  0
LINE
  5
11B
330
1E
100
AcDbEntity
  8
0
100
AcDbLine
 10
41.3885
 20
120.0
 30
0.0
 11
42.18849999999999
 21
120.0
 31
0.0
  0
LINE
  5
11C
330
1E
100
AcDbEntity
  8
0
100
AcDbLine
 10
40.6885
 20
120.0
 30
0.0
 11
41.3885
 21
120.0
 31
0.0
  0
LINE
  5
11D
330
1E
100
AcDbEntity
  8
0
100
AcDbLine
 10
40.0885
 20
120.0
 30
0.0
 11
40.6885
 21
120.0
 31
0.0
  0
LINE
  5
11E
330
1E
100
AcDbEntity
  8
0
100
AcDbLine
 10
39.78849999999999
 20
120.0
 30
0.0
 11
40.0885
 21
120.0
 31
0.0
  0
LINE
  5
11F
330
1E
100
AcDbEntity
  8
0
100
AcDbLine
 10
39.18849999999999
 20
136.4999999999999
 30
0.0
 11
39.68849999999999
 21
137.0
 31
0.0
  0
LINE
  5
120
330
1E
100
AcDbEntity
  8
0
100
AcDbLine
 10
39.18849999999999
 20
136.4999999999999
 30
0.0
 11
39.18849999999999
 21
120.5
 31
0.0
  0
LINE
  5
121
330
1E
100
AcDbEntity
  8
0
100
AcDbLine
 10
39.18849999999999
 20
136.4999999999999
 30
0.0
 11
39.2885
 21
136.4999999999999
 31
0.0
  0
LINE
  5
122
330
1E
100
AcDbEntity
  8
0
100
AcDbLine
 10
39.2885
 20
136.4999999999999
 30
0.0
 11
39.68849999999999
 21
136.4999999999999
 31
0.0
  0
LINE
  5
123
330
1E
100
AcDbEntity
  8
0
100
AcDbLine
 10
95.3885
 20
120.5
 30
0.0
 11
96.18850000000001
 21
120.5
 31
0.0
  0
LINE
  5
124
330
1E
100
AcDbEntity
  8
0
100
AcDbLine
 10
94.58849999999999
 20
120.5
 30
0.0
 11
95.3885
 21
120.5
 31
0.0
  0
LINE
  5
125
330
1E
100
AcDbEntity
  8
0
100
AcDbLine
 10
93.6885
 20
120.5
 30
0.0
 11
94.58849999999999
 21
120.5
 31
0.0
  0
LINE
  5
126
330
1E
100
AcDbEntity
  8
0
100
AcDbLine
 10
43.1885
 20
120.5
 30
0.0
 11
93.6885
 21
120.5
 31
0.0
  0
LINE
  5
127
330
1E
100
AcDbEntity
  8
0
100
AcDbLine
 10
42.18849999999999
 20
120.5
 30
0.0
 11
43.1885
 21
120.5
 31
0.0
  0
LINE
  5
128
330
1E
100
AcDbEntity
  8
0
100
AcDbLine
 10
41.1885
 20
120.5
 30
0.0
 11
42.18849999999999
 21
120.5
 31
0.0
  0
LINE
  5
129
330
1E
100
AcDbEntity
  8
0
100
AcDbLine
 10
40.3885
 20
120.5
 30
0.0
 11
41.1885
 21
120.5
 31
0.0
  0
LINE
  5
12A
330
1E
100
AcDbEntity
  8
0
100
AcDbLine
 10
39.68849999999999
 20
137.0
 30
0.0
 11
39.78849999999999
 21
137.0
 31
0.0
  0
LINE
  5
12B
330
1E
100
AcDbEntity
  8
0
100
AcDbLine
 10
96.18850000000001
 20
136.4999999999999
 30
0.0
 11
96.6885
 21
136.4999999999999
 31
0.0
  0
LINE
  5
12C
330
1E
100
AcDbEntity
  8
0
100
AcDbLine
 10
95.3885
 20
136.4999999999999
 30
0.0
 11
96.18850000000001
 21
136.4999999999999
 31
0.0
  0
LINE
  5
12D
330
1E
100
AcDbEntity
  8
0
100
AcDbLine
 10
94.58849999999999
 20
136.4999999999999
 30
0.0
 11
95.3885
 21
136.4999999999999
 31
0.0
  0
LINE
  5
12E
330
1E
100
AcDbEntity
  8
0
100
AcDbLine
 10
93.6885
 20
136.4999999999999
 30
0.0
 11
94.58849999999999
 21
136.4999999999999
 31
0.0
  0
LINE
  5
12F
330
1E
100
AcDbEntity
  8
0
100
AcDbLine
 10
43.1885
 20
136.4999999999999
 30
0.0
 11
93.6885
 21
136.4999999999999
 31
0.0
  0
LINE
  5
130
330
1E
100
AcDbEntity
  8
0
100
AcDbLine
 10
42.18849999999999
 20
136.4999999999999
 30
0.0
 11
43.1885
 21
136.4999999999999
 31
0.0
  0
LINE
  5
131
330
1E
100
AcDbEntity
  8
0
100
AcDbLine
 10
41.1885
 20
136.4999999999999
 30
0.0
 11
42.18849999999999
 21
136.4999999999999
 31
0.0
  0
LINE
  5
132
330
1E
100
AcDbEntity
  8
0
100
AcDbLine
 10
95.58849999999999
 20
137.0
 30
0.0
 11
96.48850000000001
 21
137.0
 31
0.0
  0
LINE
  5
133
330
1E
100
AcDbEntity
  8
0
100
AcDbLine
 10
94.68850000000001
 20
137.0
 30
0.0
 11
95.58849999999999
 21
137.0
 31
0.0
  0
LINE
  5
134
330
1E
100
AcDbEntity
  8
0
100
AcDbLine
 10
93.6885
 20
137.0
 30
0.0
 11
94.68850000000001
 21
137.0
 31
0.0
  0
LINE
  5
135
330
1E
100
AcDbEntity
  8
0
100
AcDbLine
 10
42.18849999999999
 20
137.0
 30
0.0
 11
43.1885
 21
137.0
 31
0.0
  0
LINE
  5
136
330
1E
100
AcDbEntity
  8
0
100
AcDbLine
 10
41.3885
 20
137.0
 30
0.0
 11
42.18849999999999
 21
137.0
 31
0.0
  0
LINE
  5
137
330
1E
100
AcDbEntity
  8
0
100
AcDbLine
 10
40.6885
 20
137.0
 30
0.0
 11
41.3885
 21
137.0
 31
0.0
  0
LINE
  5
138
330
1E
100
AcDbEntity
  8
0
100
AcDbLine
 10
40.0885
 20
137.0
 30
0.0
 11
40.6885
 21
137.0
 31
0.0
  0
LINE
  5
139
330
1E
100
AcDbEntity
  8
0
100
AcDbLine
 10
39.78849999999999
 20
137.0
 30
0.0
 11
40.0885
 21
137.0
 31
0.0
  0
LINE
  5
13A
330
1E
100
AcDbEntity
  8
0
100
AcDbLine
 10
40.3885
 20
136.4999999999999
 30
0.0
 11
41.1885
 21
136.4999999999999
 31
0.0
  0
LINE
  5
13B
330
1E
100
AcDbEntity
  8
0
100
AcDbLine
 10
39.68849999999999
 20
136.4999999999999
 30
0.0
 11
40.3885
 21
136.4999999999999
 31
0.0
  0
LINE
  5
13C
330
1E
100
AcDbEntity
  8
0
100
AcDbLine
 10
39.68849999999999
 20
120.5
 30
0.0
 11
40.3885
 21
120.5
 31
0.0
  0
LINE
  5
13D
330
1E
100
AcDbEntity
  8
0
100
AcDbLine
 10
39.2885
 20
120.5
 30
0.0
 11
39.68849999999999
 21
120.5
 31
0.0
  0
LINE
  5
13E
330
1E
100
AcDbEntity
  8
0
100
AcDbLine
 10
43.1885
 20
137.0
 30
0.0
 11
93.6885
 21
137.0
 31
0.0
  0
LINE
  5
13F
330
1E
100
AcDbEntity
  8
0
100
AcDbLine
 10
39.18849999999999
 20
120.5
 30
0.0
 11
39.68849999999999
 21
120.0
 31
0.0
  0
LINE
  5
140
330
1E
100
AcDbEntity
  8
0
100
AcDbLine
 10
39.18849999999999
 20
120.5
 30
0.0
 11
39.18849999999999
 21
136.4999999999999
 31
0.0
  0
LINE
  5
141
330
1E
100
AcDbEntity
  8
0
100
AcDbLine
 10
39.18849999999999
 20
120.5
 30
0.0
 11
39.2885
 21
120.5
 31
0.0
  0
LINE
  5
142
330
1E
100
AcDbEntity
  8
0
100
AcDbLine
 10
39.68849999999999
 20
120.0
 30
0.0
 11
39.78849999999999
 21
120.0
 31
0.0
  0
LINE
  5
143
330
1E
100
AcDbEntity
  8
0
100
AcDbLine
 10
103.4885
 20
97.0
 30
0.0
 11
108.7884999999999
 21
97.0
 31
0.0
  0
LINE
  5
144
330
1E
100
AcDbEntity
  8
0
100
AcDbLine
 10
108.7884999999999
 20
97.0
 30
0.0
 11
114.7885
 21
97.0
 31
0.0
  0
LINE
  5
145
330
1E
100
AcDbEntity
  8
0
100
AcDbLine
 10
99.4885
 20
97.0
 30
0.0
 11
103.4885
 21
97.0
 31
0.0
  0
LINE
  5
146
330
1E
100
AcDbEntity
  8
0
100
AcDbLine
 10
97.18850000000001
 20
97.0
 30
0.0
 11
97.18850000000001
 21
95.0
 31
0.0
  0
LINE
  5
147
330
1E
100
AcDbEntity
  8
0
100
AcDbLine
 10
96.48850000000001
 20
137.0
 30
0.0
 11
97.08849999999999
 21
137.0
 31
0.0
  0
LINE
  5
148
330
1E
100
AcDbEntity
  8
0
100
AcDbLine
 10
103.4885
 20
136.4999999999999
 30
0.0
 11
108.7884999999999
 21
136.4999999999999
 31
0.0
  0
LINE
  5
149
330
1E
100
AcDbEntity
  8
0
100
AcDbLine
 10
108.7884999999999
 20
136.4999999999999
 30
0.0
 11
114.7885
 21
136.4999999999999
 31
0.0
  0
LINE
  5
14A
330
1E
100
AcDbEntity
  8
0
100
AcDbLine
 10
103.8885
 20
137.0
 30
0.0
 11
108.9884999999999
 21
137.0
 31
0.0
  0
LINE
  5
14B
330
1E
100
AcDbEntity
  8
0
100
AcDbLine
 10
108.9884999999999
 20
137.0
 30
0.0
 11
114.8884999999999
 21
137.0
 31
0.0
  0
LINE
  5
14C
330
1E
100
AcDbEntity
  8
0
100
AcDbLine
 10
99.9885
 20
137.0
 30
0.0
 11
103.8885
 21
137.0
 31
0.0
  0
LINE
  5
14D
330
1E
100
AcDbEntity
  8
0
100
AcDbLine
 10
97.5885
 20
137.0
 30
0.0
 11
99.9885
 21
137.0
 31
0.0
  0
LINE
  5
14E
330
1E
100
AcDbEntity
  8
0
100
AcDbLine
 10
99.4885
 20
136.4999999999999
 30
0.0
 11
103.4885
 21
136.4999999999999
 31
0.0
  0
LINE
  5
14F
330
1E
100
AcDbEntity
  8
0
100
AcDbLine
 10
97.08849999999999
 20
136.4999999999999
 30
0.0
 11
99.4885
 21
136.4999999999999
 31
0.0
  0
LINE
  5
150
330
1E
100
AcDbEntity
  8
0
100
AcDbLine
 10
97.08849999999999
 20
137.0
 30
0.0
 11
97.5885
 21
137.0
 31
0.0
  0
LINE
  5
151
330
1E
100
AcDbEntity
  8
0
100
AcDbLine
 10
96.6885
 20
136.4999999999999
 30
0.0
 11
97.08849999999999
 21
136.4999999999999
 31
0.0
  0
LINE
  5
154
330
1E
100
AcDbEntity
  8
0
100
AcDbLine
 10
97.08849999999999
 20
97.0
 30
0.0
 11
97.18850000000001
 21
97.0
 31
0.0
  0
LINE
  5
155
330
1E
100
AcDbEntity
  8
0
100
AcDbLine
 10
97.08849999999999
 20
97.0
 30
0.0
 11
99.4885
 21
97.0
 31
0.0
  0
LINE
  5
156
330
1E
100
AcDbEntity
  8
0
100
AcDbLine
 10
96.18850000000001
 20
97.0
 30
0.0
 11
97.08849999999999
 21
97.0
 31
0.0
  0
LINE
  5
157
330
1E
100
AcDbEntity
  8
0
100
AcDbLine
 10
96.18850000000001
 20
97.0
 30
0.0
 11
96.18850000000001
 21
109.0849999999999
 31
0.0
  0
LINE
  5
158
330
1E
100
AcDbEntity
  8
0
100
AcDbLine
 10
35.1885
 20
95.0
 30
0.0
 11
39.0474
 21
95.0
 31
0.0
  0
LINE
  5
159
330
1E
100
AcDbEntity
  8
0
100
AcDbLine
 10
34.68849999999999
 20
94.0
 30
0.0
 11
38.7886
 21
94.0
 31
0.0
  0
LINE
  5
15A
330
1E
100
AcDbEntity
  8
0
100
AcDbLine
 10
31.1885
 20
74.0
 30
0.0
 11
33.6885
 21
72.59999999999999
 31
0.0
  0
LINE
  5
15B
330
1E
100
AcDbEntity
  8
0
100
AcDbLine
 10
26.1885
 20
94.0
 30
0.0
 11
27.1885
 21
95.0
 31
0.0
  0
LINE
  5
15C
330
1E
100
AcDbEntity
  8
0
100
AcDbLine
 10
26.1885
 20
94.0
 30
0.0
 11
26.7678
 21
94.0
 31
0.0
  0
LINE
  5
15D
330
1E
100
AcDbEntity
  8
0
100
AcDbLine
 10
26.1885
 20
94.0
 30
0.0
 11
26.1885
 21
92.5
 31
0.0
  0
LINE
  5
15E
330
1E
100
AcDbEntity
  8
0
100
AcDbLine
 10
114.7885
 20
-0.0000000000000048
 30
0.0
 11
121.1885
 21
-0.0000000000000052
 31
0.0
  0
LINE
  5
15F
330
1E
100
AcDbEntity
  8
0
100
AcDbLine
 10
146.1885
 20
0.0
 30
0.0
 11
146.2224999999999
 21
52.6402
 31
0.0
  0
LINE
  5
160
330
1E
100
AcDbEntity
  8
0
100
AcDbLine
 10
127.5884999999999
 20
-0.0000000000000056
 30
0.0
 11
133.5885
 21
-0.000000000000006
 31
0.0
  0
LINE
  5
161
330
1E
100
AcDbEntity
  8
0
100
AcDbLine
 10
138.8884999999999
 20
-0.0000000000000063
 30
0.0
 11
142.8885
 21
-0.0000000000000065
 31
0.0
  0
LINE
  5
162
330
1E
100
AcDbEntity
  8
0
100
AcDbLine
 10
133.5885
 20
-0.000000000000006
 30
0.0
 11
138.8884999999999
 21
-0.0000000000000063
 31
0.0
  0
LINE
  5
163
330
1E
100
AcDbEntity
  8
0
100
AcDbLine
 10
114.7885
 20
94.0
 30
0.0
 11
121.1885
 21
94.0
 31
0.0
  0
LINE
  5
164
330
1E
100
AcDbEntity
  8
0
100
AcDbLine
 10
114.7885
 20
136.4999999999999
 30
0.0
 11
121.1885
 21
136.4999999999999
 31
0.0
  0
LINE
  5
165
330
1E
100
AcDbEntity
  8
0
100
AcDbLine
 10
121.1885
 20
95.0
 30
0.0
 11
127.3884999999999
 21
95.0
 31
0.0
  0
LINE
  5
166
330
1E
100
AcDbEntity
  8
0
100
AcDbLine
 10
121.1885
 20
94.0
 30
0.0
 11
127.5884999999999
 21
94.0
 31
0.0
  0
LINE
  5
167
330
1E
100
AcDbEntity
  8
0
100
AcDbLine
 10
114.9885
 20
95.0
 30
0.0
 11
121.1885
 21
95.0
 31
0.0
  0
LINE
  5
168
330
1E
100
AcDbEntity
  8
0
100
AcDbLine
 10
121.1885
 20
137.0
 30
0.0
 11
127.4885
 21
137.0
 31
0.0
  0
LINE
  5
169
330
1E
100
AcDbEntity
  8
0
100
AcDbLine
 10
121.1885
 20
136.4999999999999
 30
0.0
 11
127.5884999999999
 21
136.4999999999999
 31
0.0
  0
LINE
  5
16A
330
1E
100
AcDbEntity
  8
0
100
AcDbLine
 10
133.5885
 20
94.0
 30
0.0
 11
138.8884999999999
 21
94.0
 31
0.0
  0
LINE
  5
16B
330
1E
100
AcDbEntity
  8
0
100
AcDbLine
 10
127.5884999999999
 20
94.0
 30
0.0
 11
133.5885
 21
94.0
 31
0.0
  0
LINE
  5
16C
330
1E
100
AcDbEntity
  8
0
100
AcDbLine
 10
133.0885
 20
95.0
 30
0.0
 11
138.0885
 21
95.0
 31
0.0
  0
LINE
  5
16D
330
1E
100
AcDbEntity
  8
0
100
AcDbLine
 10
127.3884999999999
 20
95.0
 30
0.0
 11
133.0885
 21
95.0
 31
0.0
  0
LINE
  5
16E
330
1E
100
AcDbEntity
  8
0
100
AcDbLine
 10
138.0885
 20
95.0
 30
0.0
 11
141.9884999999999
 21
95.0
 31
0.0
  0
LINE
  5
16F
330
1E
100
AcDbEntity
  8
0
100
AcDbLine
 10
141.9884999999999
 20
95.0
 30
0.0
 11
144.2884999999999
 21
95.0
 31
0.0
  0
LINE
  5
170
330
1E
100
AcDbEntity
  8
0
100
AcDbLine
 10
138.8884999999999
 20
94.0
 30
0.0
 11
142.8885
 21
94.0
 31
0.0
  0
LINE
  5
171
330
1E
100
AcDbEntity
  8
0
100
AcDbLine
 10
142.8885
 20
94.0
 30
0.0
 11
145.2885
 21
94.0
 31
0.0
  0
LINE
  5
172
330
1E
100
AcDbEntity
  8
0
100
AcDbLine
 10
127.4885
 20
137.0
 30
0.0
 11
133.3884999999999
 21
137.0
 31
0.0
  0
LINE
  5
173
330
1E
100
AcDbEntity
  8
0
100
AcDbLine
 10
133.3884999999999
 20
137.0
 30
0.0
 11
138.4884999999999
 21
137.0
 31
0.0
  0
LINE
  5
174
330
1E
100
AcDbEntity
  8
0
100
AcDbLine
 10
138.4884999999999
 20
137.0
 30
0.0
 11
142.3885
 21
137.0
 31
0.0
  0
LINE
  5
175
330
1E
100
AcDbEntity
  8
0
100
AcDbLine
 10
142.3885
 20
137.0
 30
0.0
 11
144.7885
 21
137.0
 31
0.0
  0
LINE
  5
176
330
1E
100
AcDbEntity
  8
0
100
AcDbLine
 10
138.8884999999999
 20
136.4999999999999
 30
0.0
 11
142.8885
 21
136.4999999999999
 31
0.0
  0
LINE
  5
177
330
1E
100
AcDbEntity
  8
0
100
AcDbLine
 10
138.8704999999999
 20
101.919
 30
0.0
 11
142.9464999999999
 21
103.116
 31
0.0
  0
LINE
  5
178
330
1E
100
AcDbEntity
  8
0
100
AcDbLine
 10
133.5885
 20
136.4999999999999
 30
0.0
 11
138.8884999999999
 21
136.4999999999999
 31
0.0
  0
LINE
  5
179
330
1E
100
AcDbEntity
  8
0
100
AcDbLine
 10
133.5455
 20
100.397
 30
0.0
 11
138.8704999999999
 21
101.919
 31
0.0
  0
LINE
  5
17A
330
1E
100
AcDbEntity
  8
0
100
AcDbLine
 10
127.5884999999999
 20
136.4999999999999
 30
0.0
 11
133.5885
 21
136.4999999999999
 31
0.0
  0
LINE
  5
17B
330
1E
100
AcDbEntity
  8
0
100
AcDbLine
 10
127.7305
 20
98.8203
 30
0.0
 11
133.5455
 21
100.397
 31
0.0
  0
LINE
  5
17C
330
1E
100
AcDbEntity
  8
0
100
AcDbLine
 10
121.1885
 20
97.0
 30
0.0
 11
127.7305
 21
98.8203
 31
0.0
  0
LINE
  5
17D
330
1E
100
AcDbEntity
  8
0
100
AcDbLine
 10
114.8884999999999
 20
137.0
 30
0.0
 11
121.1885
 21
137.0
 31
0.0
  0
LINE
  5
17E
330
1E
100
AcDbEntity
  8
0
100
AcDbLine
 10
114.7885
 20
97.0
 30
0.0
 11
121.1885
 21
97.0
 31
0.0
  0
LINE
  5
17F
330
1E
100
AcDbEntity
  8
0
100
AcDbLine
 10
121.1885
 20
-0.0000000000000052
 30
0.0
 11
127.5884999999999
 21
-0.0000000000000056
 31
0.0
  0
LINE
  5
180
330
1E
100
AcDbEntity
  8
0
100
AcDbLine
 10
146.1885
 20
42.91288857846669
 30
0.0
 11
149.79253789077
 21
49.166630543949
 31
0.0
  0
LINE
  5
181
330
1E
100
AcDbEntity
  8
0
100
AcDbLine
 10
145.2885
 20
94.0
 30
0.0
 11
146.1885
 21
94.0
 31
0.0
  0
LINE
  5
182
330
1E
100
AcDbEntity
  8
0
100
AcDbLine
 10
146.1885
 20
52.3443251422071
 30
0.0
 11
146.1885
 21
94.0
 31
0.0
  0
LINE
  5
184
330
1E
100
AcDbEntity
  8
0
100
AcDbLine
 10
146.1885
 20
52.59519461641989
 30
0.0
 11
146.2224999999999
 21
52.6402
 31
0.0
  0
LINE
  5
18A
330
1E
100
AcDbEntity
  8
0
100
AcDbLine
 10
164.8085
 20
49.3484
 30
0.0
 11
164.8095
 21
49.15659999999999
 31
0.0
  0
LINE
  5
18B
330
1E
100
AcDbEntity
  8
0
100
AcDbLine
 10
164.8085
 20
49.3484
 30
0.0
 11
164.8085
 21
49.8917
 31
0.0
  0
LINE
  5
18C
330
1E
100
AcDbEntity
  8
0
100
AcDbLine
 10
149.8095
 20
49.1567
 30
0.0
 11
164.8095
 21
49.15659999999999
 31
0.0
  0
LINE
  5
18D
330
1E
100
AcDbEntity
  8
0
100
AcDbLine
 10
164.8095
 20
49.15659999999999
 30
0.0
 11
164.8104999999999
 21
49.3453
 31
0.0
  0
LINE
  5
18E
330
1E
100
AcDbEntity
  8
0
100
AcDbLine
 10
164.8104999999999
 20
49.3453
 30
0.0
 11
164.8114999999999
 21
49.886
 31
0.0
  0
LINE
  5
18F
330
1E
100
AcDbEntity
  8
0
100
AcDbLine
 10
164.8085
 20
49.8917
 30
0.0
 11
164.8085
 21
49.3484
 31
0.0
  0
LINE
  5
190
330
1E
100
AcDbEntity
  8
0
100
AcDbLine
 10
164.8114999999999
 20
49.886
 30
0.0
 11
164.8114999999999
 21
50.6962
 31
0.0
  0
LINE
  5
191
330
1E
100
AcDbEntity
  8
0
100
AcDbLine
 10
146.2224999999999
 20
52.6402
 30
0.0
 11
146.9865
 21
53.2833
 31
0.0
  0
LINE
  5
192
330
1E
100
AcDbEntity
  8
0
100
AcDbLine
 10
164.8075
 20
50.7035
 30
0.0
 11
164.8085
 21
49.8917
 31
0.0
  0
LINE
  5
193
330
1E
100
AcDbEntity
  8
0
100
AcDbLine
 10
164.8075
 20
50.7035
 30
0.0
 11
164.8075
 21
51.6606
 31
0.0
  0
LINE
  5
194
330
1E
100
AcDbEntity
  8
0
100
AcDbLine
 10
164.8114999999999
 20
50.6962
 30
0.0
 11
164.8114999999999
 21
51.65259999999999
 31
0.0
  0
LINE
  5
195
330
1E
100
AcDbEntity
  8
0
100
AcDbLine
 10
164.8114999999999
 20
50.6962
 30
0.0
 11
164.8114999999999
 21
49.886
 31
0.0
  0
LINE
  5
196
330
1E
100
AcDbEntity
  8
0
100
AcDbLine
 10
164.8075
 20
52.617
 30
0.0
 11
164.8075
 21
51.6606
 31
0.0
  0
LINE
  5
197
330
1E
100
AcDbEntity
  8
0
100
AcDbLine
 10
164.8075
 20
52.617
 30
0.0
 11
164.8085
 21
53.42719999999999
 31
0.0
  0
LINE
  5
198
330
1E
100
AcDbEntity
  8
0
100
AcDbLine
 10
164.8085
 20
53.42719999999999
 30
0.0
 11
164.8085
 21
53.9679
 31
0.0
  0
LINE
  5
199
330
1E
100
AcDbEntity
  8
0
100
AcDbLine
 10
164.8114999999999
 20
53.4215
 30
0.0
 11
164.8114999999999
 21
52.6097
 31
0.0
  0
LINE
  5
19A
330
1E
100
AcDbEntity
  8
0
100
AcDbLine
 10
164.8075
 20
51.6606
 30
0.0
 11
164.8075
 21
50.7035
 31
0.0
  0
LINE
  5
19B
330
1E
100
AcDbEntity
  8
0
100
AcDbLine
 10
164.8075
 20
51.6606
 30
0.0
 11
164.8075
 21
52.617
 31
0.0
  0
LINE
  5
19C
330
1E
100
AcDbEntity
  8
0
100
AcDbLine
 10
164.8114999999999
 20
51.65259999999999
 30
0.0
 11
164.8114999999999
 21
52.6097
 31
0.0
  0
LINE
  5
19D
330
1E
100
AcDbEntity
  8
0
100
AcDbLine
 10
164.8114999999999
 20
51.65259999999999
 30
0.0
 11
164.8114999999999
 21
50.6962
 31
0.0
  0
LINE
  5
19E
330
1E
100
AcDbEntity
  8
0
100
AcDbLine
 10
164.8114999999999
 20
52.6097
 30
0.0
 11
164.8114999999999
 21
53.4215
 31
0.0
  0
LINE
  5
19F
330
1E
100
AcDbEntity
  8
0
100
AcDbLine
 10
164.8114999999999
 20
52.6097
 30
0.0
 11
164.8114999999999
 21
51.65259999999999
 31
0.0
  0
LINE
  5
1A0
330
1E
100
AcDbEntity
  8
0
100
AcDbLine
 10
164.8085
 20
53.9679
 30
0.0
 11
164.8085
 21
53.42719999999999
 31
0.0
  0
LINE
  5
1A1
330
1E
100
AcDbEntity
  8
0
100
AcDbLine
 10
164.8085
 20
53.9679
 30
0.0
 11
164.8095
 21
54.15659999999999
 31
0.0
  0
LINE
  5
1A2
330
1E
100
AcDbEntity
  8
0
100
AcDbLine
 10
164.8104999999999
 20
53.9648
 30
0.0
 11
164.8114999999999
 21
53.4215
 31
0.0
  0
LINE
  5
1A3
330
1E
100
AcDbEntity
  8
0
100
AcDbLine
 10
164.8095
 20
54.15659999999999
 30
0.0
 11
164.8104999999999
 21
53.9648
 31
0.0
  0
LINE
  5
1A4
330
1E
100
AcDbEntity
  8
0
100
AcDbLine
 10
149.8095
 20
54.15659999999999
 30
0.0
 11
164.8095
 21
54.15659999999999
 31
0.0
  0
LINE
  5
1A5
330
1E
100
AcDbEntity
  8
0
100
AcDbLine
 10
148.8164999999999
 20
54.05699999999999
 30
0.0
 11
149.8095
 21
54.15659999999999
 31
0.0
  0
LINE
  5
1A6
330
1E
100
AcDbEntity
  8
0
100
AcDbLine
 10
147.8625
 20
53.762
 30
0.0
 11
148.8164999999999
 21
54.05699999999999
 31
0.0
  0
LINE
  5
1A7
330
1E
100
AcDbEntity
  8
0
100
AcDbLine
 10
146.9865
 20
53.2833
 30
0.0
 11
147.8625
 21
53.762
 31
0.0
  0
LINE
  5
1AB
330
1E
100
AcDbEntity
  8
0
100
AcDbLine
 10
146.2224999999999
 20
52.6402
 30
0.0
 11
146.1885
 21
0.0
 31
0.0
  0
LINE
  5
1AC
330
1E
100
AcDbEntity
  8
0
100
AcDbLine
 10
144.2884999999999
 20
95.0
 30
0.0
 11
145.1885
 21
95.0
 31
0.0
  0
LINE
  5
1AD
330
1E
100
AcDbEntity
  8
0
100
AcDbLine
 10
142.9464999999999
 20
103.116
 30
0.0
 11
145.2835
 21
103.7679999999999
 31
0.0
  0
LINE
  5
1AE
330
1E
100
AcDbEntity
  8
0
100
AcDbLine
 10
142.8885
 20
136.4999999999999
 30
0.0
 11
145.2885
 21
136.4999999999999
 31
0.0
  0
LINE
  5
1AF
330
1E
100
AcDbEntity
  8
0
100
AcDbLine
 10
143.9635624
 20
103.3997504
 30
0.0
 11
144.6884999999999
 21
100.5
 31
0.0
  0
LINE
  5
1B0
330
1E
100
AcDbEntity
  8
0
100
AcDbLine
 10
144.7885
 20
137.0
 30
0.0
 11
145.6884999999999
 21
137.0
 31
0.0
  0
LINE
  5
1B1
330
1E
100
AcDbEntity
  8
0
100
AcDbLine
 10
144.6884999999999
 20
100.5
 30
0.0
 11
145.1885
 21
97.0
 31
0.0
  0
LINE
  5
1B2
330
1E
100
AcDbEntity
  8
0
100
AcDbLine
 10
145.1885
 20
97.0
 30
0.0
 11
145.1885
 21
95.0
 31
0.0
  0
LINE
  5
1B3
330
1E
100
AcDbEntity
  8
0
100
AcDbLine
 10
146.1885
 20
104.0
 30
0.0
 11
146.1885
 21
136.4999999999999
 31
0.0
  0
LINE
  5
1B4
330
1E
100
AcDbEntity
  8
0
100
AcDbLine
 10
145.2885
 20
136.4999999999999
 30
0.0
 11
146.1885
 21
136.4999999999999
 31
0.0
  0
LINE
  5
1B5
330
1E
100
AcDbEntity
  8
0
100
AcDbLine
 10
145.6884999999999
 20
137.0
 30
0.0
 11
146.1885
 21
136.4999999999999
 31
0.0
  0
LINE
  5
1B6
330
1E
100
AcDbEntity
  8
0
100
AcDbLine
 10
146.1885
 20
136.4999999999999
 30
0.0
 11
146.1885
 21
104.0
 31
0.0
  0
LINE
  5
1B7
330
1E
100
AcDbEntity
  8
0
100
AcDbLine
 10
145.2835
 20
103.7679999999999
 30
0.0
 11
146.1885
 21
104.0
 31
0.0
  0
LINE
  5
1B8
330
1E
100
AcDbEntity
  8
0
100
AcDbLine
 10
145.1885
 20
95.0
 30
0.0
 11
146.1885
 21
94.0
 31
0.0
  0
LINE
  5
1B9
330
1E
100
AcDbEntity
  8
0
100
AcDbLine
 10
145.1885
 20
95.0
 30
0.0
 11
145.1885
 21
97.0
 31
0.0
  0
LINE
  5
1BA
330
1E
100
AcDbEntity
  8
0
100
AcDbLine
 10
146.1885
 20
94.0
 30
0.0
 11
146.1885
 21
52.3443251422071
 31
0.0
  0
LINE
  5
1BB
330
1E
100
AcDbEntity
  8
0
100
AcDbLine
 10
142.8885
 20
-0.0000000000000065
 30
0.0
 11
145.2885
 21
-0.0000000000000067
 31
0.0
  0
LINE
  5
1BC
330
1E
100
AcDbEntity
  8
0
100
AcDbLine
 10
145.2885
 20
-0.0000000000000067
 30
0.0
 11
146.1885
 21
-0.0000000000000067
 31
0.0
  0
LINE
  5
1BD
330
1E
100
AcDbEntity
  8
0
100
AcDbLine
 10
114.7885
 20
-0.0000000000000048
 30
0.0
 11
121.1885
 21
-0.0000000000000052
 31
0.0
  0
ENDSEC
  0
SECTION
  2
OBJECTS
  0
DICTIONARY
  5
C
330
0
100
AcDbDictionary
281
     1
  3
ACAD_GROUP
350
D
  3
ACAD_LAYOUT
350
19
  3
ACAD_MLINESTYLE
350
16
  3
ACAD_PLOTSETTINGS
350
18
  3
ACAD_PLOTSTYLENAME
350
E
  3
AcDbVariableDictionary
350
1C2
  0
DICTIONARY
  5
D
102
{ACAD_REACTORS
330
C
102
}
330
C
100
AcDbDictionary
281
     1
  0
DICTIONARY
  5
19
102
{ACAD_REACTORS
330
C
102
}
330
C
100
AcDbDictionary
281
     1
  3
Layout1
350
1D
  3
Model
350
21
  0
DICTIONARY
  5
16
102
{ACAD_REACTORS
330
C
102
}
330
C
100
AcDbDictionary
281
     1
  3
Standard
350
17
  0
DICTIONARY
  5
18
102
{ACAD_REACTORS
330
C
102
}
330
C
100
AcDbDictionary
281
     1
  0
ACDBDICTIONARYWDFLT
  5
E
102
{ACAD_REACTORS
330
C
102
}
330
C
100
AcDbDictionary
281
     1
  3
Normal
350
F
100
AcDbDictionaryWithDefault
340
F
  0
DICTIONARY
  5
1C2
102
{ACAD_REACTORS
330
C
102
}
330
C
100
AcDbDictionary
281
     1
  3
DIMASSOC
350
1C3
  0
LAYOUT
  5
1D
102
{ACAD_REACTORS
330
19
102
}
330
19
100
AcDbPlotSettings
  1

  2
hp deskjet 980c series
  4

  6

 40
0.0
 41
0.0
 42
0.0
 43
0.0
 44
0.0
 45
0.0
 46
0.0
 47
0.0
 48
0.0
 49
0.0
140
0.0
141
0.0
142
1.0
143
1.0
 70
   688
 72
     0
 73
     0
 74
     5
  7

 75
    16
147
1.0
148
0.0
149
0.0
100
AcDbLayout
  1
Layout1
 70
     1
 71
     1
 10
0.0
 20
0.0
 11
12.0
 21
9.0
 12
0.0
 22
0.0
 32
0.0
 14
1.000000000000000E+20
 24
1.000000000000000E+20
 34
1.000000000000000E+20
 15
-1.000000000000000E+20
 25
-1.000000000000000E+20
 35
-1.000000000000000E+20
146
0.0
 13
0.0
 23
0.0
 33
0.0
 16
1.0
 26
0.0
 36
0.0
 17
0.0
 27
1.0
 37
0.0
 76
     0
330
1A
  0
LAYOUT
  5
21
102
{ACAD_REACTORS
330
19
102
}
330
19
100
AcDbPlotSettings
  1

  2
hp deskjet 980c series
  4

  6

 40
0.0
 41
0.0
 42
0.0
 43
0.0
 44
0.0
 45
0.0
 46
0.0
 47
0.0
 48
0.0
 49
0.0
140
0.0
141
0.0
142
1.0
143
1.0
 70
  1712
 72
     0
 73
     0
 74
     0
  7

 75
     0
147
1.0
148
0.0
149
0.0
100
AcDbLayout
  1
Model
 70
     1
 71
     0
 10
0.0
 20
0.0
 11
12.0
 21
9.0
 12
0.0
 22
0.0
 32
0.0
 14
0.0
 24
0.0
 34
0.0
 15
0.0
 25
0.0
 35
0.0
146
0.0
 13
0.0
 23
0.0
 33
0.0
 16
1.0
 26
0.0
 36
0.0
 17
0.0
 27
1.0
 37
0.0
 76
     0
330
1E
  0
MLINESTYLE
  5
17
102
{ACAD_REACTORS
330
16
102
}
330
16
100
AcDbMlineStyle
  2
STANDARD
 70
     0
  3

 62
   256
 51
90.0
 52
90.0
 71
     2
 49
0.5
 62
   256
  6
BYLAYER
 49
-0.5
 62
   256
  6
BYLAYER
  0
ACDBPLACEHOLDER
  5
F
102
{ACAD_REACTORS
330
E
102
}
330
E
  0
DICTIONARYVAR
  5
1C3
102
{ACAD_REACTORS
330
1C2
102
}
330
1C2
100
DictionaryVariables
280
     0
  1
1
  0
ENDSEC
  0
EOF
