  0
SECTION
  2
HEADER
  9
$ACADVER
  1
AC1014
  9
$ACADMAINTVER
 70
     9
  9
$DWGCODEPAGE
  3
ANSI_1252
  9
$INSBASE
 10
0.0
 20
0.0
 30
0.0
  9
$EXTMIN
 10
-0.104962999999996
 20
-0.104499999999992
 30
0.0
  9
$EXTMAX
 10
160.104963
 20
146.1045
 30
0.0
  9
$LIMMIN
 10
0.0
 20
0.0
  9
$LIMMAX
 10
12.0
 20
9.0
  9
$ORTHOMODE
 70
     0
  9
$REGENMODE
 70
     1
  9
$FILLMODE
 70
     1
  9
$QTEXTMODE
 70
     0
  9
$MIRRTEXT
 70
     1
  9
$DRAGMODE
 70
     2
  9
$LTSCALE
 40
1.0
  9
$OSMODE
 70
    37
  9
$ATTMODE
 70
     1
  9
$TEXTSIZE
 40
0.2
  9
$TRACEWID
 40
0.05
  9
$TEXTSTYLE
  7
STANDARD
  9
$CLAYER
  8
0
  9
$CELTYPE
  6
CONTINUOUS
  9
$CECOLOR
 62
   256
  9
$CELTSCALE
 40
1.0
  9
$DELOBJ
 70
     1
  9
$DISPSILH
 70
     0
  9
$DIMSCALE
 40
1.0
  9
$DIMASZ
 40
0.18
  9
$DIMEXO
 40
0.0625
  9
$DIMDLI
 40
0.38
  9
$DIMRND
 40
0.0
  9
$DIMDLE
 40
0.0
  9
$DIMEXE
 40
0.18
  9
$DIMTP
 40
0.0
  9
$DIMTM
 40
0.0
  9
$DIMTXT
 40
0.18
  9
$DIMCEN
 40
0.09
  9
$DIMTSZ
 40
0.0
  9
$DIMTOL
 70
     0
  9
$DIMLIM
 70
     0
  9
$DIMTIH
 70
     1
  9
$DIMTOH
 70
     1
  9
$DIMSE1
 70
     0
  9
$DIMSE2
 70
     0
  9
$DIMTAD
 70
     0
  9
$DIMZIN
 70
     0
  9
$DIMBLK
  1

  9
$DIMASO
 70
     1
  9
$DIMSHO
 70
     1
  9
$DIMPOST
  1

  9
$DIMAPOST
  1

  9
$DIMALT
 70
     0
  9
$DIMALTD
 70
     2
  9
$DIMALTF
 40
25.4
  9
$DIMLFAC
 40
1.0
  9
$DIMTOFL
 70
     0
  9
$DIMTVP
 40
0.0
  9
$DIMTIX
 70
     0
  9
$DIMSOXD
 70
     0
  9
$DIMSAH
 70
     0
  9
$DIMBLK1
  1

  9
$DIMBLK2
  1

  9
$DIMSTYLE
  2
STANDARD
  9
$DIMCLRD
 70
     0
  9
$DIMCLRE
 70
     0
  9
$DIMCLRT
 70
     0
  9
$DIMTFAC
 40
1.0
  9
$DIMGAP
 40
0.09
  9
$DIMJUST
 70
     0
  9
$DIMSD1
 70
     0
  9
$DIMSD2
 70
     0
  9
$DIMTOLJ
 70
     1
  9
$DIMTZIN
 70
     0
  9
$DIMALTZ
 70
     0
  9
$DIMALTTZ
 70
     0
  9
$DIMFIT
 70
     3
  9
$DIMUPT
 70
     0
  9
$DIMUNIT
 70
     2
  9
$DIMDEC
 70
     4
  9
$DIMTDEC
 70
     4
  9
$DIMALTU
 70
     2
  9
$DIMALTTD
 70
     2
  9
$DIMTXSTY
  7
STANDARD
  9
$DIMAUNIT
 70
     0
  9
$LUNITS
 70
     2
  9
$LUPREC
 70
     4
  9
$SKETCHINC
 40
0.1
  9
$FILLETRAD
 40
0.0
  9
$AUNITS
 70
     0
  9
$AUPREC
 70
     0
  9
$MENU
  1
.
  9
$ELEVATION
 40
0.0
  9
$PELEVATION
 40
0.0
  9
$THICKNESS
 40
0.0
  9
$LIMCHECK
 70
     0
  9
$BLIPMODE
 70
     0
  9
$CHAMFERA
 40
0.0
  9
$CHAMFERB
 40
0.0
  9
$CHAMFERC
 40
0.0
  9
$CHAMFERD
 40
0.0
  9
$SKPOLY
 70
     0
  9
$TDCREATE
 40
2454697.324969247
  9
$TDUPDATE
 40
2454697.327011354
  9
$TDINDWG
 40
0.0020422801
  9
$TDUSRTIMER
 40
0.0020422801
  9
$USRTIMER
 70
     1
  9
$ANGBASE
 50
0.0
  9
$ANGDIR
 70
     0
  9
$PDMODE
 70
     0
  9
$PDSIZE
 40
0.0
  9
$PLINEWID
 40
0.0
  9
$COORDS
 70
     1
  9
$SPLFRAME
 70
     0
  9
$SPLINETYPE
 70
     6
  9
$SPLINESEGS
 70
     8
  9
$ATTDIA
 70
     0
  9
$ATTREQ
 70
     1
  9
$HANDLING
 70
 22529
  9
$HANDSEED
  5
1DD
  9
$SURFTAB1
 70
     6
  9
$SURFTAB2
 70
     6
  9
$SURFTYPE
 70
     6
  9
$SURFU
 70
     6
  9
$SURFV
 70
     6
  9
$UCSNAME
  2

  9
$UCSORG
 10
0.0
 20
0.0
 30
0.0
  9
$UCSXDIR
 10
1.0
 20
0.0
 30
0.0
  9
$UCSYDIR
 10
0.0
 20
1.0
 30
0.0
  9
$PUCSNAME
  2

  9
$PUCSORG
 10
0.0
 20
0.0
 30
0.0
  9
$PUCSXDIR
 10
1.0
 20
0.0
 30
0.0
  9
$PUCSYDIR
 10
0.0
 20
1.0
 30
0.0
  9
$USERI1
 70
     0
  9
$USERI2
 70
     0
  9
$USERI3
 70
     0
  9
$USERI4
 70
     0
  9
$USERI5
 70
     0
  9
$USERR1
 40
0.0
  9
$USERR2
 40
0.0
  9
$USERR3
 40
0.0
  9
$USERR4
 40
0.0
  9
$USERR5
 40
0.0
  9
$WORLDVIEW
 70
     1
  9
$SHADEDGE
 70
     3
  9
$SHADEDIF
 70
    70
  9
$TILEMODE
 70
     1
  9
$MAXACTVP
 70
    64
  9
$PINSBASE
 10
0.0
 20
0.0
 30
0.0
  9
$PLIMCHECK
 70
     0
  9
$PEXTMIN
 10
1.000000000000000E+20
 20
1.000000000000000E+20
 30
1.000000000000000E+20
  9
$PEXTMAX
 10
-1.000000000000000E+20
 20
-1.000000000000000E+20
 30
-1.000000000000000E+20
  9
$PLIMMIN
 10
0.0
 20
0.0
  9
$PLIMMAX
 10
12.0
 20
9.0
  9
$UNITMODE
 70
     0
  9
$VISRETAIN
 70
     1
  9
$PLINEGEN
 70
     0
  9
$PSLTSCALE
 70
     1
  9
$TREEDEPTH
 70
  3020
  9
$PICKSTYLE
 70
     1
  9
$CMLSTYLE
  2
STANDARD
  9
$CMLJUST
 70
     0
  9
$CMLSCALE
 40
1.0
  9
$PROXYGRAPHICS
 70
     1
  9
$MEASUREMENT
 70
     0
  0
ENDSEC
  0
SECTION
  2
CLASSES
  0
CLASS
  1
ACDBDICTIONARYWDFLT
  2
AcDbDictionaryWithDefault
  3
AutoCAD 2000
 90
        0
280
     0
281
     0
  0
CLASS
  1
ACDBPLACEHOLDER
  2
AcDbPlaceHolder
  3
AutoCAD 2000
 90
        0
280
     0
281
     0
  0
CLASS
  1
LAYOUT
  2
AcDbLayout
  3
AutoCAD 2000
 90
        0
280
     0
281
     0
  0
CLASS
  1
DICTIONARYVAR
  2
AcDbDictionaryVar
  3
AutoCAD 2000
 90
        0
280
     0
281
     0
  0
CLASS
  1
LONG_TRANSACTION
  2
AcDbLongTransaction
  3
AutoCAD 2000
 90
        0
280
     0
281
     0
  0
CLASS
  1
LWPOLYLINE
  2
AcDbPolyline
  3
AutoCAD 2000
 90
        0
280
     0
281
     1
  0
CLASS
  1
HATCH
  2
AcDbHatch
  3
AutoCAD 2000
 90
        0
280
     0
281
     1
  0
CLASS
  1
XRECORD
  2
AcDbXrecord
  3
AutoCAD 2000
 90
        0
280
     0
281
     0
  0
ENDSEC
  0
SECTION
  2
TABLES
  0
TABLE
  2
VPORT
  5
8
330
0
100
AcDbSymbolTable
 70
     2
  0
VPORT
  5
1B8
330
8
100
AcDbSymbolTableRecord
100
AcDbViewportTableRecord
  2
*ACTIVE
 70
     0
 10
0.0
 20
0.0
 11
1.0
 21
1.0
 12
80.0
 22
73.00000000000001
 13
0.0
 23
0.0
 14
1.0
 24
1.0
 15
0.0
 25
0.0
 16
0.0
 26
0.0
 36
1.0
 17
0.0
 27
0.0
 37
0.0
 40
147.3308081841432
 41
2.078104993597951
 42
50.0
 43
0.0
 44
0.0
 50
0.0
 51
0.0
 71
     0
 72
   100
 73
     1
 74
     3
 75
     0
 76
     0
 77
     0
 78
     0
  0
ENDTAB
  0
TABLE
  2
LTYPE
  5
5
330
0
100
AcDbSymbolTable
 70
     1
  0
LTYPE
  5
13
330
5
100
AcDbSymbolTableRecord
100
AcDbLinetypeTableRecord
  2
BYBLOCK
 70
     0
  3

 72
    65
 73
     0
 40
0.0
  0
LTYPE
  5
14
330
5
100
AcDbSymbolTableRecord
100
AcDbLinetypeTableRecord
  2
BYLAYER
 70
     0
  3

 72
    65
 73
     0
 40
0.0
  0
LTYPE
  5
15
330
5
100
AcDbSymbolTableRecord
100
AcDbLinetypeTableRecord
  2
CONTINUOUS
 70
     0
  3
Solid line
 72
    65
 73
     0
 40
0.0
  0
ENDTAB
  0
TABLE
  2
LAYER
  5
2
330
0
100
AcDbSymbolTable
 70
     1
  0
LAYER
  5
10
330
2
100
AcDbSymbolTableRecord
100
AcDbLayerTableRecord
  2
0
 70
     0
 62
     7
  6
CONTINUOUS
  0
ENDTAB
  0
TABLE
  2
STYLE
  5
3
330
0
100
AcDbSymbolTable
 70
     1
  0
STYLE
  5
11
330
3
100
AcDbSymbolTableRecord
100
AcDbTextStyleTableRecord
  2
STANDARD
 70
     0
 40
0.0
 41
1.0
 50
0.0
 71
     0
 42
0.2
  3
txt
  4

  0
ENDTAB
  0
TABLE
  2
VIEW
  5
6
330
0
100
AcDbSymbolTable
 70
     0
  0
ENDTAB
  0
TABLE
  2
UCS
  5
7
330
0
100
AcDbSymbolTable
 70
     0
  0
ENDTAB
  0
TABLE
  2
APPID
  5
9
330
0
100
AcDbSymbolTable
 70
     1
  0
APPID
  5
12
330
9
100
AcDbSymbolTableRecord
100
AcDbRegAppTableRecord
  2
ACAD
 70
     0
  0
ENDTAB
  0
TABLE
  2
DIMSTYLE
  5
A
330
0
100
AcDbSymbolTable
 70
     1
  0
DIMSTYLE
105
1AF
330
A
100
AcDbSymbolTableRecord
100
AcDbDimStyleTableRecord
  2
STANDARD
 70
     0
  3

  4

  5

  6

  7

 40
1.0
 41
0.18
 42
0.0625
 43
0.38
 44
0.18
 45
0.0
 46
0.0
 47
0.0
 48
0.0
140
0.18
141
0.09
142
0.0
143
25.4
144
1.0
145
0.0
146
1.0
147
0.09
 71
     0
 72
     0
 73
     1
 74
     1
 75
     0
 76
     0
 77
     0
 78
     0
170
     0
171
     2
172
     0
173
     0
174
     0
175
     0
176
     0
177
     0
178
     0
270
     2
271
     4
272
     4
273
     2
274
     2
340
11
275
     0
280
     0
281
     0
282
     0
283
     1
284
     0
285
     0
286
     0
287
     3
288
     0
  0
ENDTAB
  0
TABLE
  2
BLOCK_RECORD
  5
1
330
0
100
AcDbSymbolTable
 70
     0
  0
BLOCK_RECORD
  5
1E
102
{ACAD_XDICTIONARY
360
1DB
102
}
330
1
100
AcDbSymbolTableRecord
100
AcDbBlockTableRecord
  2
*MODEL_SPACE
  0
BLOCK_RECORD
  5
1A
102
{ACAD_XDICTIONARY
360
1D9
102
}
330
1
100
AcDbSymbolTableRecord
100
AcDbBlockTableRecord
  2
*PAPER_SPACE
  0
ENDTAB
  0
ENDSEC
  0
SECTION
  2
BLOCKS
  0
BLOCK
  5
1F
330
1E
100
AcDbEntity
  8
0
100
AcDbBlockBegin
  2
*MODEL_SPACE
 70
     0
 10
0.0
 20
0.0
 30
0.0
  3
*MODEL_SPACE
  1

  0
ENDBLK
  5
20
330
1E
100
AcDbEntity
  8
0
100
AcDbBlockEnd
  0
BLOCK
  5
1B
330
1A
100
AcDbEntity
 67
     1
  8
0
100
AcDbBlockBegin
  2
*PAPER_SPACE
 70
     0
 10
0.0
 20
0.0
 30
0.0
  3
*PAPER_SPACE
  1

  0
ENDBLK
  5
1C
330
1A
100
AcDbEntity
 67
     1
  8
0
100
AcDbBlockEnd
  0
ENDSEC
  0
SECTION
  2
ENTITIES
  0
LINE
  5
22
330
1E
100
AcDbEntity
  8
0
100
AcDbLine
 10
2.916263
 20
57.6604
 30
0.0
 11
10.616763
 21
58.5684
 31
0.0
  0
LINE
  5
23
330
1E
100
AcDbEntity
  8
0
100
AcDbLine
 10
2.916263
 20
57.6604
 30
0.0
 11
10.616763
 21
58.5684
 31
0.0
  0
LINE
  5
24
330
1E
100
AcDbEntity
  8
0
100
AcDbLine
 10
2.638072999999999
 20
57.9176
 30
0.0
 11
2.916263
 21
57.6604
 31
0.0
  0
LINE
  5
25
330
1E
100
AcDbEntity
  8
0
100
AcDbLine
 10
10.697363
 20
57.8851
 30
0.0
 11
11.039463
 21
57.6113
 31
0.0
  0
LINE
  5
26
330
1E
100
AcDbEntity
  8
0
100
AcDbLine
 10
11.039463
 20
57.6113
 30
0.0
 11
18.373263
 21
58.4761
 31
0.0
  0
LINE
  5
27
330
1E
100
AcDbEntity
  8
0
100
AcDbLine
 10
2.587483
 20
58.3466
 30
0.0
 11
2.638072999999999
 21
57.9176
 31
0.0
  0
LINE
  5
28
330
1E
100
AcDbEntity
  8
0
100
AcDbLine
 10
2.865673
 20
58.08939999999999
 30
0.0
 11
2.916263
 21
57.6604
 31
0.0
  0
LINE
  5
29
330
1E
100
AcDbEntity
  8
0
100
AcDbLine
 10
10.642563
 20
58.3499
 30
0.0
 11
10.697363
 21
57.8851
 31
0.0
  0
LINE
  5
2A
330
1E
100
AcDbEntity
  8
0
100
AcDbLine
 10
10.984663
 20
58.0761
 30
0.0
 11
11.039463
 21
57.6113
 31
0.0
  0
LINE
  5
2B
330
1E
100
AcDbEntity
  8
0
100
AcDbLine
 10
29.75966299999999
 20
58.89549999999999
 30
0.0
 11
76.13301196850421
 21
58.87356360225679
 31
0.0
  0
LINE
  5
2C
330
1E
100
AcDbEntity
  8
0
100
AcDbLine
 10
18.373263
 20
58.4761
 30
0.0
 11
18.642263
 21
58.8219
 31
0.0
  0
LINE
  5
2D
330
1E
100
AcDbEntity
  8
0
100
AcDbLine
 10
0.5864170000000028
 20
75.31699999999999
 30
0.0
 11
0.912434000000003
 21
72.5522
 31
0.0
  0
LINE
  5
2E
330
1E
100
AcDbEntity
  8
0
100
AcDbLine
 10
0.912434000000003
 20
72.5522
 30
0.0
 11
1.266554999999999
 21
69.54899999999999
 31
0.0
  0
LINE
  5
2F
330
1E
100
AcDbEntity
  8
0
100
AcDbLine
 10
0.814014000000003
 20
75.4889
 30
0.0
 11
1.151272999999999
 21
72.62869999999999
 31
0.0
  0
LINE
  5
30
330
1E
100
AcDbEntity
  8
0
100
AcDbLine
 10
1.620673
 20
66.5458
 30
0.0
 11
1.946692999999999
 21
63.781
 31
0.0
  0
LINE
  5
31
330
1E
100
AcDbEntity
  8
0
100
AcDbLine
 10
1.266554999999999
 20
69.54899999999999
 30
0.0
 11
1.620673
 21
66.5458
 31
0.0
  0
LINE
  5
32
330
1E
100
AcDbEntity
  8
0
100
AcDbLine
 10
2.452583
 20
59.49069999999999
 30
0.0
 11
2.587483
 21
58.3466
 31
0.0
  0
LINE
  5
33
330
1E
100
AcDbEntity
  8
0
100
AcDbLine
 10
2.233363
 20
61.3498
 30
0.0
 11
2.452583
 21
59.49069999999999
 31
0.0
  0
LINE
  5
34
330
1E
100
AcDbEntity
  8
0
100
AcDbLine
 10
2.730763
 20
59.2335
 30
0.0
 11
2.865673
 21
58.08939999999999
 31
0.0
  0
LINE
  5
35
330
1E
100
AcDbEntity
  8
0
100
AcDbLine
 10
2.505933
 20
61.1403
 30
0.0
 11
2.730763
 21
59.2335
 31
0.0
  0
LINE
  5
36
330
1E
100
AcDbEntity
  8
0
100
AcDbLine
 10
1.946692999999999
 20
63.781
 30
0.0
 11
2.233363
 21
61.3498
 31
0.0
  0
LINE
  5
37
330
1E
100
AcDbEntity
  8
0
100
AcDbLine
 10
2.208013
 20
63.6668
 30
0.0
 11
2.505933
 21
61.1403
 31
0.0
  0
LINE
  5
38
330
1E
100
AcDbEntity
  8
0
100
AcDbLine
 10
1.870752999999999
 20
66.527
 30
0.0
 11
2.208013
 21
63.6668
 31
0.0
  0
LINE
  5
39
330
1E
100
AcDbEntity
  8
0
100
AcDbLine
 10
1.511012999999999
 20
69.57779999999999
 30
0.0
 11
1.870752999999999
 21
66.527
 31
0.0
  0
LINE
  5
3A
330
1E
100
AcDbEntity
  8
0
100
AcDbLine
 10
1.151272999999999
 20
72.62869999999999
 30
0.0
 11
1.511012999999999
 21
69.57779999999999
 31
0.0
  0
LINE
  5
3B
330
1E
100
AcDbEntity
  8
0
100
AcDbLine
 10
8.474692999999998
 20
76.73449999999999
 30
0.0
 11
8.827882999999999
 21
73.7393
 31
0.0
  0
LINE
  5
3C
330
1E
100
AcDbEntity
  8
0
100
AcDbLine
 10
8.827882999999999
 20
73.7393
 30
0.0
 11
9.211513
 21
70.4858
 31
0.0
  0
LINE
  5
3D
330
1E
100
AcDbEntity
  8
0
100
AcDbLine
 10
8.762003000000008
 20
76.9255
 30
0.0
 11
9.127363
 21
73.82699999999999
 31
0.0
  0
LINE
  5
3E
330
1E
100
AcDbEntity
  8
0
100
AcDbLine
 10
9.571253
 20
67.435
 30
0.0
 11
9.908513000000001
 21
64.5748
 31
0.0
  0
LINE
  5
3F
330
1E
100
AcDbEntity
  8
0
100
AcDbLine
 10
9.595142999999998
 20
67.2324
 30
0.0
 11
9.948332999999999
 21
64.23709999999999
 31
0.0
  0
LINE
  5
40
330
1E
100
AcDbEntity
  8
0
100
AcDbLine
 10
9.211513
 20
70.4858
 30
0.0
 11
9.595142999999998
 21
67.2324
 31
0.0
  0
LINE
  5
41
330
1E
100
AcDbEntity
  8
0
100
AcDbLine
 10
9.211513
 20
70.4858
 30
0.0
 11
9.571253
 21
67.435
 31
0.0
  0
LINE
  5
42
330
1E
100
AcDbEntity
  8
0
100
AcDbLine
 10
10.566163
 20
58.9974
 30
0.0
 11
10.616763
 21
58.5684
 31
0.0
  0
LINE
  5
43
330
1E
100
AcDbEntity
  8
0
100
AcDbLine
 10
10.51832532725049
 20
59.4031159480555
 30
0.0
 11
10.642563
 21
58.3499
 31
0.0
  0
LINE
  5
44
330
1E
100
AcDbEntity
  8
0
100
AcDbLine
 10
10.51832532725049
 20
59.4031159480555
 30
0.0
 11
10.566163
 21
58.9974
 31
0.0
  0
LINE
  5
45
330
1E
100
AcDbEntity
  8
0
100
AcDbLine
 10
10.496363
 20
59.5893
 30
0.0
 11
10.642563
 21
58.3499
 31
0.0
  0
LINE
  5
46
330
1E
100
AcDbEntity
  8
0
100
AcDbLine
 10
10.206423
 20
62.0483
 30
0.0
 11
10.36227703697059
 21
60.7265490762516
 31
0.0
  0
LINE
  5
47
330
1E
100
AcDbEntity
  8
0
100
AcDbLine
 10
10.258893
 20
61.6034
 30
0.0
 11
10.496363
 21
59.5893
 31
0.0
  0
LINE
  5
48
330
1E
100
AcDbEntity
  8
0
100
AcDbLine
 10
10.258893
 20
61.6034
 30
0.0
 11
10.36227703697059
 21
60.7265490762516
 31
0.0
  0
LINE
  5
49
330
1E
100
AcDbEntity
  8
0
100
AcDbLine
 10
10.838463
 20
59.3155
 30
0.0
 11
10.984663
 21
58.0761
 31
0.0
  0
LINE
  5
4A
330
1E
100
AcDbEntity
  8
0
100
AcDbLine
 10
10.594863
 20
61.3812
 30
0.0
 11
10.838463
 21
59.3155
 31
0.0
  0
LINE
  5
4B
330
1E
100
AcDbEntity
  8
0
100
AcDbLine
 10
9.908513000000001
 20
64.5748
 30
0.0
 11
10.206423
 21
62.0483
 31
0.0
  0
LINE
  5
4C
330
1E
100
AcDbEntity
  8
0
100
AcDbLine
 10
9.948332999999999
 20
64.23709999999999
 30
0.0
 11
10.258893
 21
61.6034
 31
0.0
  0
LINE
  5
4D
330
1E
100
AcDbEntity
  8
0
100
AcDbLine
 10
10.27217299999999
 20
64.1182
 30
0.0
 11
10.594863
 21
61.3812
 31
0.0
  0
LINE
  5
4E
330
1E
100
AcDbEntity
  8
0
100
AcDbLine
 10
9.906803
 20
67.2168
 30
0.0
 11
10.27217299999999
 21
64.1182
 31
0.0
  0
LINE
  5
4F
330
1E
100
AcDbEntity
  8
0
100
AcDbLine
 10
9.517082999999999
 20
70.5219
 30
0.0
 11
9.906803
 21
67.2168
 31
0.0
  0
LINE
  5
50
330
1E
100
AcDbEntity
  8
0
100
AcDbLine
 10
9.127363
 20
73.82699999999999
 30
0.0
 11
9.517082999999999
 21
70.5219
 31
0.0
  0
LINE
  5
51
330
1E
100
AcDbEntity
  8
0
100
AcDbLine
 10
0.299747000000003
 20
77.7482
 30
0.0
 11
0.5864170000000028
 21
75.31699999999999
 31
0.0
  0
LINE
  5
52
330
1E
100
AcDbEntity
  8
0
100
AcDbLine
 10
0.516103000000004
 20
78.0154
 30
0.0
 11
0.814014000000003
 21
75.4889
 31
0.0
  0
LINE
  5
53
330
1E
100
AcDbEntity
  8
0
100
AcDbLine
 10
0.0805290000000036
 20
79.60729999999999
 30
0.0
 11
0.299747000000003
 21
77.7482
 31
0.0
  0
LINE
  5
54
330
1E
100
AcDbEntity
  8
0
100
AcDbLine
 10
0.291264000000004
 20
79.9222
 30
0.0
 11
0.516103000000004
 21
78.0154
 31
0.0
  0
LINE
  5
55
330
1E
100
AcDbEntity
  8
0
100
AcDbLine
 10
8.16413300000001
 20
79.3683
 30
0.0
 11
8.474692999999998
 21
76.73449999999999
 31
0.0
  0
LINE
  5
56
330
1E
100
AcDbEntity
  8
0
100
AcDbLine
 10
8.439263
 20
79.66249999999999
 30
0.0
 11
8.762003000000008
 21
76.9255
 31
0.0
  0
LINE
  5
57
330
1E
100
AcDbEntity
  8
0
100
AcDbLine
 10
-0.0543739999999963
 20
80.75140000000001
 30
0.0
 11
0.0805290000000036
 21
79.60729999999999
 31
0.0
  0
LINE
  5
58
330
1E
100
AcDbEntity
  8
0
100
AcDbLine
 10
-0.104962999999996
 20
81.1804
 30
0.0
 11
-0.0543739999999963
 21
80.75140000000001
 31
0.0
  0
LINE
  5
59
330
1E
100
AcDbEntity
  8
0
100
AcDbLine
 10
-0.104962999999996
 20
81.1804
 30
0.0
 11
0.105771000000004
 21
81.4953
 31
0.0
  0
LINE
  5
5A
330
1E
100
AcDbEntity
  8
0
100
AcDbLine
 10
-0.0543739999999963
 20
80.75140000000001
 30
0.0
 11
0.0805290000000036
 21
79.60729999999999
 31
0.0
  0
LINE
  5
5B
330
1E
100
AcDbEntity
  8
0
100
AcDbLine
 10
0.156360000000004
 20
81.06619999999999
 30
0.0
 11
0.291264000000004
 21
79.9222
 31
0.0
  0
LINE
  5
5C
330
1E
100
AcDbEntity
  8
0
100
AcDbLine
 10
0.105771000000003
 20
81.4953
 30
0.0
 11
7.806256805670638
 21
82.4032992695985
 31
0.0
  0
LINE
  5
5D
330
1E
100
AcDbEntity
  8
0
100
AcDbLine
 10
7.839865914907779
 20
82.11828298503801
 30
0.0
 11
7.856853
 21
81.97419999999999
 31
0.0
  0
LINE
  5
5E
330
1E
100
AcDbEntity
  8
0
100
AcDbLine
 10
0.105771000000004
 20
81.4953
 30
0.0
 11
0.156360000000004
 21
81.06619999999999
 31
0.0
  0
LINE
  5
5F
330
1E
100
AcDbEntity
  8
0
100
AcDbLine
 10
0.105771000000004
 20
81.4953
 30
0.0
 11
7.806256805670638
 21
82.4032992695985
 31
0.0
  0
LINE
  5
60
330
1E
100
AcDbEntity
  8
0
100
AcDbLine
 10
7.856853
 20
81.97419999999999
 30
0.0
 11
7.901637110899979
 21
81.5944429555291
 31
0.0
  0
LINE
  5
61
330
1E
100
AcDbEntity
  8
0
100
AcDbLine
 10
7.926653000000009
 20
81.3823
 30
0.0
 11
8.16413300000001
 21
79.3683
 31
0.0
  0
LINE
  5
62
330
1E
100
AcDbEntity
  8
0
100
AcDbLine
 10
8.195683
 20
81.72819999999999
 30
0.0
 11
8.439263
 21
79.66249999999999
 31
0.0
  0
LINE
  5
63
330
1E
100
AcDbEntity
  8
0
100
AcDbLine
 10
7.725703
 20
83.0865
 30
0.0
 11
7.780502999999999
 21
82.62170000000001
 31
0.0
  0
LINE
  5
64
330
1E
100
AcDbEntity
  8
0
100
AcDbLine
 10
7.725703
 20
83.0865
 30
0.0
 11
7.994733000000009
 21
83.43239999999999
 31
0.0
  0
LINE
  5
65
330
1E
100
AcDbEntity
  8
0
100
AcDbLine
 10
7.780502999999999
 20
82.62170000000001
 30
0.0
 11
7.926653000000009
 21
81.3823
 31
0.0
  0
LINE
  5
66
330
1E
100
AcDbEntity
  8
0
100
AcDbLine
 10
7.994733000000009
 20
83.43239999999999
 30
0.0
 11
8.049542999999999
 21
82.9676
 31
0.0
  0
LINE
  5
67
330
1E
100
AcDbEntity
  8
0
100
AcDbLine
 10
7.994733000000009
 20
83.43239999999999
 30
0.0
 11
15.328563
 21
84.29720000000001
 31
0.0
  0
LINE
  5
68
330
1E
100
AcDbEntity
  8
0
100
AcDbLine
 10
8.049542999999999
 20
82.9676
 30
0.0
 11
8.195683
 21
81.72819999999999
 31
0.0
  0
LINE
  5
69
330
1E
100
AcDbEntity
  8
0
100
AcDbLine
 10
15.670663
 20
84.0234
 30
0.0
 11
15.725463
 21
83.55859999999999
 31
0.0
  0
LINE
  5
6A
330
1E
100
AcDbEntity
  8
0
100
AcDbLine
 10
15.328563
 20
84.29720000000001
 30
0.0
 11
15.383363
 21
83.8324
 31
0.0
  0
LINE
  5
6B
330
1E
100
AcDbEntity
  8
0
100
AcDbLine
 10
15.328563
 20
84.29720000000001
 30
0.0
 11
15.670663
 21
84.0234
 31
0.0
  0
LINE
  5
6C
330
1E
100
AcDbEntity
  8
0
100
AcDbLine
 10
15.383363
 20
83.8324
 30
0.0
 11
15.529463
 21
82.59299999999999
 31
0.0
  0
LINE
  5
6D
330
1E
100
AcDbEntity
  8
0
100
AcDbLine
 10
15.75126299999999
 20
83.34010000000001
 30
0.0
 11
15.801863
 21
82.91110000000001
 31
0.0
  0
LINE
  5
6E
330
1E
100
AcDbEntity
  8
0
100
AcDbLine
 10
15.75126299999999
 20
83.34010000000001
 30
0.0
 11
25.376863
 21
84.47509999999999
 31
0.0
  0
LINE
  5
6F
330
1E
100
AcDbEntity
  8
0
100
AcDbLine
 10
15.801863
 20
82.91110000000001
 30
0.0
 11
15.936763
 21
81.767
 31
0.0
  0
LINE
  5
70
330
1E
100
AcDbEntity
  8
0
100
AcDbLine
 10
15.725463
 20
83.55859999999999
 30
0.0
 11
15.871563
 21
82.3192
 31
0.0
  0
LINE
  5
71
330
1E
100
AcDbEntity
  8
0
100
AcDbLine
 10
15.529463
 20
82.59299999999999
 30
0.0
 11
15.773063
 21
80.5273
 31
0.0
  0
LINE
  5
72
330
1E
100
AcDbEntity
  8
0
100
AcDbLine
 10
15.936763
 20
81.767
 30
0.0
 11
16.161563
 21
79.8602
 31
0.0
  0
LINE
  5
73
330
1E
100
AcDbEntity
  8
0
100
AcDbLine
 10
15.871563
 20
82.3192
 30
0.0
 11
16.10906299999999
 21
80.30509999999999
 31
0.0
  0
LINE
  5
74
330
1E
100
AcDbEntity
  8
0
100
AcDbLine
 10
15.773063
 20
80.5273
 30
0.0
 11
16.095763
 21
77.7903
 31
0.0
  0
LINE
  5
75
330
1E
100
AcDbEntity
  8
0
100
AcDbLine
 10
16.161563
 20
79.8602
 30
0.0
 11
16.3251948916146
 21
78.472432379442
 31
0.0
  0
LINE
  5
76
330
1E
100
AcDbEntity
  8
0
100
AcDbLine
 10
16.10906299999999
 20
80.30509999999999
 30
0.0
 11
16.41966299999999
 21
77.67140000000001
 31
0.0
  0
LINE
  5
77
330
1E
100
AcDbEntity
  8
0
100
AcDbLine
 10
16.10906299999999
 20
80.30509999999999
 30
0.0
 11
16.3251948916146
 21
78.472432379442
 31
0.0
  0
LINE
  5
78
330
1E
100
AcDbEntity
  8
0
100
AcDbLine
 10
16.095763
 20
77.7903
 30
0.0
 11
16.461163
 21
74.6917
 31
0.0
  0
LINE
  5
79
330
1E
100
AcDbEntity
  8
0
100
AcDbLine
 10
16.41966299999999
 20
77.67140000000001
 30
0.0
 11
16.772863
 21
74.6761
 31
0.0
  0
LINE
  5
7A
330
1E
100
AcDbEntity
  8
0
100
AcDbLine
 10
16.796763
 20
74.4735
 30
0.0
 11
17.156463
 21
71.4227
 31
0.0
  0
LINE
  5
7B
330
1E
100
AcDbEntity
  8
0
100
AcDbLine
 10
29.492963
 20
59.23149999999999
 30
0.0
 11
29.75966299999999
 21
58.89549999999999
 31
0.0
  0
LINE
  5
7C
330
1E
100
AcDbEntity
  8
0
100
AcDbLine
 10
29.492963
 20
59.23149999999999
 30
0.0
 11
29.492963
 21
59.7355
 31
0.0
  0
LINE
  5
7D
330
1E
100
AcDbEntity
  8
0
100
AcDbLine
 10
29.75966299999999
 20
59.3995
 30
0.0
 11
29.75966299999999
 21
60.74349999999999
 31
0.0
  0
LINE
  5
7E
330
1E
100
AcDbEntity
  8
0
100
AcDbLine
 10
29.75966299999999
 20
59.3995
 30
0.0
 11
29.75966299999999
 21
58.89549999999999
 31
0.0
  0
LINE
  5
7F
330
1E
100
AcDbEntity
  8
0
100
AcDbLine
 10
29.492963
 20
59.7355
 30
0.0
 11
29.492963
 21
59.23149999999999
 31
0.0
  0
LINE
  5
80
330
1E
100
AcDbEntity
  8
0
100
AcDbLine
 10
29.492963
 20
59.7355
 30
0.0
 11
29.492963
 21
61.0795
 31
0.0
  0
LINE
  5
81
330
1E
100
AcDbEntity
  8
0
100
AcDbLine
 10
18.56176299999999
 20
59.5052
 30
0.0
 11
28.187363
 21
60.6402
 31
0.0
  0
LINE
  5
82
330
1E
100
AcDbEntity
  8
0
100
AcDbLine
 10
18.511163
 20
59.9342
 30
0.0
 11
18.56176299999999
 21
59.5052
 31
0.0
  0
LINE
  5
83
330
1E
100
AcDbEntity
  8
0
100
AcDbLine
 10
18.58746299999999
 20
59.2867
 30
0.0
 11
18.642263
 21
58.8219
 31
0.0
  0
LINE
  5
84
330
1E
100
AcDbEntity
  8
0
100
AcDbLine
 10
18.318463
 20
58.9408
 30
0.0
 11
18.373263
 21
58.4761
 31
0.0
  0
LINE
  5
85
330
1E
100
AcDbEntity
  8
0
100
AcDbLine
 10
18.376263
 20
61.07829999999999
 30
0.0
 11
18.511163
 21
59.9342
 31
0.0
  0
LINE
  5
86
330
1E
100
AcDbEntity
  8
0
100
AcDbLine
 10
18.3135352122766
 20
61.61013346212089
 30
0.0
 11
18.376263
 21
61.07829999999999
 31
0.0
  0
LINE
  5
87
330
1E
100
AcDbEntity
  8
0
100
AcDbLine
 10
28.136763
 20
61.0692
 30
0.0
 11
28.187363
 21
60.6402
 31
0.0
  0
LINE
  5
88
330
1E
100
AcDbEntity
  8
0
100
AcDbLine
 10
29.75966299999999
 20
60.74349999999999
 30
0.0
 11
29.75966299999999
 21
62.9835
 31
0.0
  0
LINE
  5
89
330
1E
100
AcDbEntity
  8
0
100
AcDbLine
 10
29.75966299999999
 20
60.74349999999999
 30
0.0
 11
29.75966299999999
 21
59.3995
 31
0.0
  0
LINE
  5
8A
330
1E
100
AcDbEntity
  8
0
100
AcDbLine
 10
29.492963
 20
61.0795
 30
0.0
 11
29.492963
 21
59.7355
 31
0.0
  0
LINE
  5
8B
330
1E
100
AcDbEntity
  8
0
100
AcDbLine
 10
29.492963
 20
61.0795
 30
0.0
 11
29.492963
 21
63.2635
 31
0.0
  0
LINE
  5
8C
330
1E
100
AcDbEntity
  8
0
100
AcDbLine
 10
28.408563
 20
61.3913
 30
0.0
 11
28.459163
 21
60.9623
 31
0.0
  0
LINE
  5
8D
330
1E
100
AcDbEntity
  8
0
100
AcDbLine
 10
28.187363
 20
60.6402
 30
0.0
 11
28.459163
 21
60.9623
 31
0.0
  0
LINE
  5
8E
330
1E
100
AcDbEntity
  8
0
100
AcDbLine
 10
28.27366299999999
 20
62.5354
 30
0.0
 11
28.408563
 21
61.3913
 31
0.0
  0
LINE
  5
8F
330
1E
100
AcDbEntity
  8
0
100
AcDbLine
 10
28.001863
 20
62.2133
 30
0.0
 11
28.136763
 21
61.0692
 31
0.0
  0
LINE
  5
90
330
1E
100
AcDbEntity
  8
0
100
AcDbLine
 10
18.44136299999999
 20
60.5261
 30
0.0
 11
18.58746299999999
 21
59.2867
 31
0.0
  0
LINE
  5
91
330
1E
100
AcDbEntity
  8
0
100
AcDbLine
 10
18.172263
 20
60.1803
 30
0.0
 11
18.318463
 21
58.9408
 31
0.0
  0
LINE
  5
92
330
1E
100
AcDbEntity
  8
0
100
AcDbLine
 10
29.75966299999999
 20
62.9835
 30
0.0
 11
29.75966299999999
 21
65.9515
 31
0.0
  0
LINE
  5
93
330
1E
100
AcDbEntity
  8
0
100
AcDbLine
 10
29.75966299999999
 20
62.9835
 30
0.0
 11
29.75966299999999
 21
60.74349999999999
 31
0.0
  0
LINE
  5
94
330
1E
100
AcDbEntity
  8
0
100
AcDbLine
 10
29.492963
 20
63.2635
 30
0.0
 11
29.492963
 21
61.0795
 31
0.0
  0
LINE
  5
95
330
1E
100
AcDbEntity
  8
0
100
AcDbLine
 10
29.492963
 20
63.2635
 30
0.0
 11
29.492963
 21
66.1195
 31
0.0
  0
LINE
  5
96
330
1E
100
AcDbEntity
  8
0
100
AcDbLine
 10
28.054463
 20
64.39449999999999
 30
0.0
 11
28.27366299999999
 21
62.5354
 31
0.0
  0
LINE
  5
97
330
1E
100
AcDbEntity
  8
0
100
AcDbLine
 10
27.776963
 20
64.12009999999999
 30
0.0
 11
28.001863
 21
62.2133
 31
0.0
  0
LINE
  5
98
330
1E
100
AcDbEntity
  8
0
100
AcDbLine
 10
18.203863
 20
62.5402
 30
0.0
 11
18.44136299999999
 21
60.5261
 31
0.0
  0
LINE
  5
99
330
1E
100
AcDbEntity
  8
0
100
AcDbLine
 10
17.928663
 20
62.2459
 30
0.0
 11
18.172263
 21
60.1803
 31
0.0
  0
LINE
  5
9A
330
1E
100
AcDbEntity
  8
0
100
AcDbLine
 10
17.853463
 20
65.5116
 30
0.0
 11
17.9877311083995
 21
64.3728676204385
 31
0.0
  0
LINE
  5
9B
330
1E
100
AcDbEntity
  8
0
100
AcDbLine
 10
29.75966299999999
 20
65.9515
 30
0.0
 11
29.75966299999999
 21
69.31149999999999
 31
0.0
  0
LINE
  5
9C
330
1E
100
AcDbEntity
  8
0
100
AcDbLine
 10
29.75966299999999
 20
65.9515
 30
0.0
 11
29.75966299999999
 21
62.9835
 31
0.0
  0
LINE
  5
9D
330
1E
100
AcDbEntity
  8
0
100
AcDbLine
 10
29.492963
 20
66.1195
 30
0.0
 11
29.492963
 21
63.2635
 31
0.0
  0
LINE
  5
9E
330
1E
100
AcDbEntity
  8
0
100
AcDbLine
 10
29.492963
 20
66.1195
 30
0.0
 11
29.492963
 21
67.84267197422301
 31
0.0
  0
LINE
  5
9F
330
1E
100
AcDbEntity
  8
0
100
AcDbLine
 10
29.492963
 20
66.1195
 30
0.0
 11
29.492963
 21
69.3675
 31
0.0
  0
LINE
  5
A0
330
1E
100
AcDbEntity
  8
0
100
AcDbLine
 10
29.492963
 20
67.84267197422301
 30
0.0
 11
29.492963
 21
66.1195
 31
0.0
  0
LINE
  5
A1
330
1E
100
AcDbEntity
  8
0
100
AcDbLine
 10
27.673163
 20
67.6281
 30
0.0
 11
29.492963
 21
67.84267197422301
 31
0.0
  0
LINE
  5
A2
330
1E
100
AcDbEntity
  8
0
100
AcDbLine
 10
27.6590963333344
 20
67.7472999999914
 30
0.0
 11
27.673163
 21
67.6281
 31
0.0
  0
LINE
  5
A3
330
1E
100
AcDbEntity
  8
0
100
AcDbLine
 10
27.767763
 20
66.8257
 30
0.0
 11
28.054463
 21
64.39449999999999
 31
0.0
  0
LINE
  5
A4
330
1E
100
AcDbEntity
  8
0
100
AcDbLine
 10
27.479063
 20
66.64660000000001
 30
0.0
 11
27.776963
 21
64.12009999999999
 31
0.0
  0
LINE
  5
A5
330
1E
100
AcDbEntity
  8
0
100
AcDbLine
 10
17.893263
 20
65.1739
 30
0.0
 11
18.203863
 21
62.5402
 31
0.0
  0
LINE
  5
A6
330
1E
100
AcDbEntity
  8
0
100
AcDbLine
 10
17.605963
 20
64.983
 30
0.0
 11
17.928663
 21
62.2459
 31
0.0
  0
LINE
  5
A7
330
1E
100
AcDbEntity
  8
0
100
AcDbLine
 10
17.516263
 20
68.3718
 30
0.0
 11
17.853463
 21
65.5116
 31
0.0
  0
LINE
  5
A8
330
1E
100
AcDbEntity
  8
0
100
AcDbLine
 10
29.492963
 20
69.3675
 30
0.0
 11
29.492963
 21
72.8955
 31
0.0
  0
LINE
  5
A9
330
1E
100
AcDbEntity
  8
0
100
AcDbLine
 10
29.492963
 20
69.3675
 30
0.0
 11
29.492963
 21
66.1195
 31
0.0
  0
LINE
  5
AA
330
1E
100
AcDbEntity
  8
0
100
AcDbLine
 10
29.75966299999999
 20
69.31149999999999
 30
0.0
 11
29.75966299999999
 21
72.8955
 31
0.0
  0
LINE
  5
AB
330
1E
100
AcDbEntity
  8
0
100
AcDbLine
 10
29.75966299999999
 20
69.31149999999999
 30
0.0
 11
29.75966299999999
 21
65.9515
 31
0.0
  0
LINE
  5
AC
330
1E
100
AcDbEntity
  8
0
100
AcDbLine
 10
27.502263
 20
69.078
 30
0.0
 11
27.5847519049236
 21
68.37781372904039
 31
0.0
  0
LINE
  5
AD
330
1E
100
AcDbEntity
  8
0
100
AcDbLine
 10
27.378063
 20
70.13079999999999
 30
0.0
 11
27.502263
 21
69.078
 31
0.0
  0
LINE
  5
AE
330
1E
100
AcDbEntity
  8
0
100
AcDbLine
 10
27.237563
 20
71.3225
 30
0.0
 11
27.378063
 21
70.13079999999999
 31
0.0
  0
LINE
  5
AF
330
1E
100
AcDbEntity
  8
0
100
AcDbLine
 10
27.441763
 20
69.59050000000001
 30
0.0
 11
27.767763
 21
66.8257
 31
0.0
  0
LINE
  5
B0
330
1E
100
AcDbEntity
  8
0
100
AcDbLine
 10
27.141863
 20
69.5068
 30
0.0
 11
27.479063
 21
66.64660000000001
 31
0.0
  0
LINE
  5
B1
330
1E
100
AcDbEntity
  8
0
100
AcDbLine
 10
17.540063
 20
68.1692
 30
0.0
 11
17.893263
 21
65.1739
 31
0.0
  0
LINE
  5
B2
330
1E
100
AcDbEntity
  8
0
100
AcDbLine
 10
17.240563
 20
68.08150000000001
 30
0.0
 11
17.605963
 21
64.983
 31
0.0
  0
LINE
  5
B3
330
1E
100
AcDbEntity
  8
0
100
AcDbLine
 10
29.492963
 20
72.8955
 30
0.0
 11
29.492963
 21
76.4235
 31
0.0
  0
LINE
  5
B4
330
1E
100
AcDbEntity
  8
0
100
AcDbLine
 10
29.492963
 20
72.8955
 30
0.0
 11
29.492963
 21
69.3675
 31
0.0
  0
LINE
  5
B5
330
1E
100
AcDbEntity
  8
0
100
AcDbLine
 10
29.75966299999999
 20
72.8955
 30
0.0
 11
29.75966299999999
 21
76.4795
 31
0.0
  0
LINE
  5
B6
330
1E
100
AcDbEntity
  8
0
100
AcDbLine
 10
29.75966299999999
 20
72.8955
 30
0.0
 11
29.75966299999999
 21
69.31149999999999
 31
0.0
  0
LINE
  5
B7
330
1E
100
AcDbEntity
  8
0
100
AcDbLine
 10
27.087663
 20
72.5937
 30
0.0
 11
27.441763
 21
69.59050000000001
 31
0.0
  0
LINE
  5
B8
330
1E
100
AcDbEntity
  8
0
100
AcDbLine
 10
27.087663
 20
72.5937
 30
0.0
 11
27.237563
 21
71.3225
 31
0.0
  0
LINE
  5
B9
330
1E
100
AcDbEntity
  8
0
100
AcDbLine
 10
26.782063
 20
72.5577
 30
0.0
 11
27.141863
 21
69.5068
 31
0.0
  0
LINE
  5
BA
330
1E
100
AcDbEntity
  8
0
100
AcDbLine
 10
17.156463
 20
71.4227
 30
0.0
 11
17.540063
 21
68.1692
 31
0.0
  0
LINE
  5
BB
330
1E
100
AcDbEntity
  8
0
100
AcDbLine
 10
17.156463
 20
71.4227
 30
0.0
 11
17.516263
 21
68.3718
 31
0.0
  0
LINE
  5
BC
330
1E
100
AcDbEntity
  8
0
100
AcDbLine
 10
16.850863
 20
71.3866
 30
0.0
 11
17.240563
 21
68.08150000000001
 31
0.0
  0
LINE
  5
BD
330
1E
100
AcDbEntity
  8
0
100
AcDbLine
 10
26.733563
 20
75.5969
 30
0.0
 11
27.087663
 21
72.5937
 31
0.0
  0
LINE
  5
BE
330
1E
100
AcDbEntity
  8
0
100
AcDbLine
 10
25.376863
 20
84.47509999999999
 30
0.0
 11
25.427463
 21
84.04609999999999
 31
0.0
  0
LINE
  5
BF
330
1E
100
AcDbEntity
  8
0
100
AcDbLine
 10
25.376863
 20
84.47509999999999
 30
0.0
 11
25.716163
 21
84.2251
 31
0.0
  0
LINE
  5
C0
330
1E
100
AcDbEntity
  8
0
100
AcDbLine
 10
25.716163
 20
84.2251
 30
0.0
 11
25.766763
 21
83.79609999999999
 31
0.0
  0
LINE
  5
C1
330
1E
100
AcDbEntity
  8
0
100
AcDbLine
 10
25.766763
 20
83.79609999999999
 30
0.0
 11
25.90166299999999
 21
82.652
 31
0.0
  0
LINE
  5
C2
330
1E
100
AcDbEntity
  8
0
100
AcDbLine
 10
25.427463
 20
84.04609999999999
 30
0.0
 11
25.562363
 21
82.902
 31
0.0
  0
LINE
  5
C3
330
1E
100
AcDbEntity
  8
0
100
AcDbLine
 10
25.562363
 20
82.902
 30
0.0
 11
25.78716299999999
 21
80.9952
 31
0.0
  0
LINE
  5
C4
330
1E
100
AcDbEntity
  8
0
100
AcDbLine
 10
25.90166299999999
 20
82.652
 30
0.0
 11
26.120863
 21
80.7929
 31
0.0
  0
LINE
  5
C5
330
1E
100
AcDbEntity
  8
0
100
AcDbLine
 10
25.78716299999999
 20
80.9952
 30
0.0
 11
26.085063
 21
78.4687
 31
0.0
  0
LINE
  5
C6
330
1E
100
AcDbEntity
  8
0
100
AcDbLine
 10
26.120863
 20
80.7929
 30
0.0
 11
26.407563
 21
78.3617
 31
0.0
  0
LINE
  5
C7
330
1E
100
AcDbEntity
  8
0
100
AcDbLine
 10
26.085063
 20
78.4687
 30
0.0
 11
26.422363
 21
75.60850000000001
 31
0.0
  0
LINE
  5
C8
330
1E
100
AcDbEntity
  8
0
100
AcDbLine
 10
29.492963
 20
76.4235
 30
0.0
 11
29.492963
 21
79.6715
 31
0.0
  0
LINE
  5
C9
330
1E
100
AcDbEntity
  8
0
100
AcDbLine
 10
29.492963
 20
76.4235
 30
0.0
 11
29.492963
 21
72.8955
 31
0.0
  0
LINE
  5
CA
330
1E
100
AcDbEntity
  8
0
100
AcDbLine
 10
29.75966299999999
 20
76.4795
 30
0.0
 11
29.75966299999999
 21
79.8395
 31
0.0
  0
LINE
  5
CB
330
1E
100
AcDbEntity
  8
0
100
AcDbLine
 10
29.75966299999999
 20
76.4795
 30
0.0
 11
29.75966299999999
 21
72.8955
 31
0.0
  0
LINE
  5
CC
330
1E
100
AcDbEntity
  8
0
100
AcDbLine
 10
26.67316299999999
 20
76.1093
 30
0.0
 11
26.7654569171421
 21
75.3264006722366
 31
0.0
  0
LINE
  5
CD
330
1E
100
AcDbEntity
  8
0
100
AcDbLine
 10
26.5021745295165
 20
77.55930135948691
 30
0.0
 11
29.481463
 21
77.9106
 31
0.0
  0
LINE
  5
CE
330
1E
100
AcDbEntity
  8
0
100
AcDbLine
 10
29.492963
 20
77.8131497630332
 30
0.0
 11
29.492963
 21
79.6715
 31
0.0
  0
LINE
  5
CF
330
1E
100
AcDbEntity
  8
0
100
AcDbLine
 10
29.492963
 20
82.5275
 30
0.0
 11
29.492963
 21
84.71149999999999
 31
0.0
  0
LINE
  5
D0
330
1E
100
AcDbEntity
  8
0
100
AcDbLine
 10
29.492963
 20
86.5595
 30
0.0
 11
29.492963
 21
86.05549999999999
 31
0.0
  0
LINE
  5
D1
330
1E
100
AcDbEntity
  8
0
100
AcDbLine
 10
29.492963
 20
86.5595
 30
0.0
 11
29.75966299999999
 21
86.8955
 31
0.0
  0
LINE
  5
D2
330
1E
100
AcDbEntity
  8
0
100
AcDbLine
 10
29.492963
 20
86.05549999999999
 30
0.0
 11
29.492963
 21
84.71149999999999
 31
0.0
  0
LINE
  5
D3
330
1E
100
AcDbEntity
  8
0
100
AcDbLine
 10
29.492963
 20
86.05549999999999
 30
0.0
 11
29.492963
 21
86.5595
 31
0.0
  0
LINE
  5
D4
330
1E
100
AcDbEntity
  8
0
100
AcDbLine
 10
29.75966299999999
 20
86.39149999999998
 30
0.0
 11
29.75966299999999
 21
86.8955
 31
0.0
  0
LINE
  5
D5
330
1E
100
AcDbEntity
  8
0
100
AcDbLine
 10
29.75966299999999
 20
86.39149999999998
 30
0.0
 11
29.75966299999999
 21
85.04749999999999
 31
0.0
  0
LINE
  5
D6
330
1E
100
AcDbEntity
  8
0
100
AcDbLine
 10
29.75966299999999
 20
85.04749999999999
 30
0.0
 11
29.75966299999999
 21
86.39149999999998
 31
0.0
  0
LINE
  5
D7
330
1E
100
AcDbEntity
  8
0
100
AcDbLine
 10
29.75966299999999
 20
85.04749999999999
 30
0.0
 11
29.75966299999999
 21
82.80750000000001
 31
0.0
  0
LINE
  5
D8
330
1E
100
AcDbEntity
  8
0
100
AcDbLine
 10
29.75966299999999
 20
82.80750000000001
 30
0.0
 11
29.75966299999999
 21
85.04749999999999
 31
0.0
  0
LINE
  5
D9
330
1E
100
AcDbEntity
  8
0
100
AcDbLine
 10
29.75966299999999
 20
82.80750000000001
 30
0.0
 11
29.75966299999999
 21
79.8395
 31
0.0
  0
LINE
  5
DA
330
1E
100
AcDbEntity
  8
0
100
AcDbLine
 10
29.75966299999999
 20
79.8395
 30
0.0
 11
29.75966299999999
 21
82.80750000000001
 31
0.0
  0
LINE
  5
DB
330
1E
100
AcDbEntity
  8
0
100
AcDbLine
 10
29.75966299999999
 20
79.8395
 30
0.0
 11
29.75966299999999
 21
76.4795
 31
0.0
  0
LINE
  5
DC
330
1E
100
AcDbEntity
  8
0
100
AcDbLine
 10
29.492963
 20
84.71149999999999
 30
0.0
 11
29.492963
 21
82.5275
 31
0.0
  0
LINE
  5
DD
330
1E
100
AcDbEntity
  8
0
100
AcDbLine
 10
29.492963
 20
84.71149999999999
 30
0.0
 11
29.492963
 21
86.05549999999999
 31
0.0
  0
LINE
  5
DE
330
1E
100
AcDbEntity
  8
0
100
AcDbLine
 10
29.492963
 20
79.6715
 30
0.0
 11
29.492963
 21
77.8131497630332
 31
0.0
  0
LINE
  5
DF
330
1E
100
AcDbEntity
  8
0
100
AcDbLine
 10
29.492963
 20
79.6715
 30
0.0
 11
29.492963
 21
82.5275
 31
0.0
  0
LINE
  5
E0
330
1E
100
AcDbEntity
  8
0
100
AcDbLine
 10
29.492963
 20
79.6715
 30
0.0
 11
29.492963
 21
76.4235
 31
0.0
  0
LINE
  5
E1
330
1E
100
AcDbEntity
  8
0
100
AcDbLine
 10
29.481463
 20
77.9106
 30
0.0
 11
29.492963
 21
77.8131497630332
 31
0.0
  0
LINE
  5
E2
330
1E
100
AcDbEntity
  8
0
100
AcDbLine
 10
26.523263
 20
77.3805
 30
0.0
 11
26.5637350142548
 21
77.03720802143649
 31
0.0
  0
LINE
  5
E3
330
1E
100
AcDbEntity
  8
0
100
AcDbLine
 10
26.5162296666674
 20
77.44009999999349
 30
0.0
 11
26.5637350142548
 21
77.03720802143649
 31
0.0
  0
LINE
  5
E4
330
1E
100
AcDbEntity
  8
0
100
AcDbLine
 10
26.5162296666674
 20
77.44009999999349
 30
0.0
 11
26.523263
 21
77.3805
 31
0.0
  0
LINE
  5
E5
330
1E
100
AcDbEntity
  8
0
100
AcDbLine
 10
26.590208726811
 20
76.8126849524938
 30
0.0
 11
26.733563
 21
75.5969
 31
0.0
  0
LINE
  5
E6
330
1E
100
AcDbEntity
  8
0
100
AcDbLine
 10
26.590208726811
 20
76.8126849524938
 30
0.0
 11
26.67316299999999
 21
76.1093
 31
0.0
  0
LINE
  5
E7
330
1E
100
AcDbEntity
  8
0
100
AcDbLine
 10
26.407563
 20
78.3617
 30
0.0
 11
26.733563
 21
75.5969
 31
0.0
  0
LINE
  5
E8
330
1E
100
AcDbEntity
  8
0
100
AcDbLine
 10
26.407563
 20
78.3617
 30
0.0
 11
26.5021745295165
 21
77.55930135948691
 31
0.0
  0
LINE
  5
E9
330
1E
100
AcDbEntity
  8
0
100
AcDbLine
 10
26.422363
 20
75.60850000000001
 30
0.0
 11
26.782063
 21
72.5577
 31
0.0
  0
LINE
  5
EA
330
1E
100
AcDbEntity
  8
0
100
AcDbLine
 10
16.6892154171514
 20
75.38547034231709
 30
0.0
 11
16.772863
 21
74.6761
 31
0.0
  0
LINE
  5
EB
330
1E
100
AcDbEntity
  8
0
100
AcDbLine
 10
16.6892154171514
 20
75.38547034231709
 30
0.0
 11
16.796763
 21
74.4735
 31
0.0
  0
LINE
  5
EC
330
1E
100
AcDbEntity
  8
0
100
AcDbLine
 10
16.772863
 20
74.6761
 30
0.0
 11
17.156463
 21
71.4227
 31
0.0
  0
LINE
  5
ED
330
1E
100
AcDbEntity
  8
0
100
AcDbLine
 10
16.461163
 20
74.6917
 30
0.0
 11
16.850863
 21
71.3866
 31
0.0
  0
LINE
  5
EE
330
1E
100
AcDbEntity
  8
0
100
AcDbLine
 10
29.75966299999999
 20
58.89549999999999
 30
0.0
 11
76.13301196850421
 21
58.87356360225679
 31
0.0
  0
LINE
  5
EF
330
1E
100
AcDbEntity
  8
0
100
AcDbLine
 10
29.75966299999999
 20
58.89549999999999
 30
0.0
 11
29.75966299999999
 21
59.3995
 31
0.0
  0
LINE
  5
F0
330
1E
100
AcDbEntity
  8
0
100
AcDbLine
 10
29.75966299999999
 20
86.8955
 30
0.0
 11
65.9955178800714
 21
86.86472192623829
 31
0.0
  0
LINE
  5
F1
330
1E
100
AcDbEntity
  8
0
100
AcDbLine
 10
29.75966299999999
 20
86.8955
 30
0.0
 11
29.75966299999999
 21
86.39149999999998
 31
0.0
  0
LINE
  5
F2
330
1E
100
AcDbEntity
  8
0
100
AcDbLine
 10
55.712763
 20
114.2325
 30
0.0
 11
55.87696300000001
 21
113.7815
 31
0.0
  0
LINE
  5
F3
330
1E
100
AcDbEntity
  8
0
100
AcDbLine
 10
11.326863
 20
126.5914999999999
 30
0.0
 11
51.32988743527721
 21
126.800482979907
 31
0.0
  0
LINE
  5
F4
330
1E
100
AcDbEntity
  8
0
100
AcDbLine
 10
11.326863
 20
126.5914999999999
 30
0.0
 11
51.32988743527721
 21
126.800482979907
 31
0.0
  0
LINE
  5
F5
330
1E
100
AcDbEntity
  8
0
100
AcDbLine
 10
8.725663000000009
 20
126.9525
 30
0.0
 11
11.326863
 21
126.5914999999999
 31
0.0
  0
LINE
  5
F6
330
1E
100
AcDbEntity
  8
0
100
AcDbLine
 10
55.577363
 20
114.6044999999999
 30
0.0
 11
55.7465318798206
 21
114.6660716031489
 31
0.0
  0
LINE
  5
F7
330
1E
100
AcDbEntity
  8
0
100
AcDbLine
 10
55.577363
 20
114.6044999999999
 30
0.0
 11
55.614263
 21
114.5035
 31
0.0
  0
LINE
  5
F8
330
1E
100
AcDbEntity
  8
0
100
AcDbLine
 10
55.614263
 20
114.5035
 30
0.0
 11
55.712763
 21
114.2325
 31
0.0
  0
LINE
  5
F9
330
1E
100
AcDbEntity
  8
0
100
AcDbLine
 10
56.094463
 20
113.1844999999999
 30
0.0
 11
56.340663
 21
112.5075
 31
0.0
  0
LINE
  5
FA
330
1E
100
AcDbEntity
  8
0
100
AcDbLine
 10
55.87696300000001
 20
113.7815
 30
0.0
 11
56.094463
 21
113.1844999999999
 31
0.0
  0
LINE
  5
FB
330
1E
100
AcDbEntity
  8
0
100
AcDbLine
 10
56.340663
 20
112.5075
 30
0.0
 11
56.603363
 21
111.7855
 31
0.0
  0
LINE
  5
FC
330
1E
100
AcDbEntity
  8
0
100
AcDbLine
 10
57.592463
 20
109.0685
 30
0.0
 11
57.629463
 21
108.9664999999999
 31
0.0
  0
LINE
  5
FD
330
1E
100
AcDbEntity
  8
0
100
AcDbLine
 10
57.629463
 20
108.9664999999999
 30
0.0
 11
57.7986340819721
 21
109.0280691284819
 31
0.0
  0
LINE
  5
FE
330
1E
100
AcDbEntity
  8
0
100
AcDbLine
 10
57.493963
 20
109.3385
 30
0.0
 11
57.592463
 21
109.0685
 31
0.0
  0
LINE
  5
FF
330
1E
100
AcDbEntity
  8
0
100
AcDbLine
 10
57.329863
 20
109.7895
 30
0.0
 11
57.493963
 21
109.3385
 31
0.0
  0
LINE
  5
100
330
1E
100
AcDbEntity
  8
0
100
AcDbLine
 10
57.11226299999999
 20
110.3875
 30
0.0
 11
57.329863
 21
109.7895
 31
0.0
  0
LINE
  5
101
330
1E
100
AcDbEntity
  8
0
100
AcDbLine
 10
56.866063
 20
111.0644999999999
 30
0.0
 11
57.11226299999999
 21
110.3875
 31
0.0
  0
LINE
  5
102
330
1E
100
AcDbEntity
  8
0
100
AcDbLine
 10
56.603363
 20
111.7855
 30
0.0
 11
56.866063
 21
111.0644999999999
 31
0.0
  0
LINE
  5
103
330
1E
100
AcDbEntity
  8
0
100
AcDbLine
 10
1.025714
 20
134.3665
 30
0.0
 11
60.0755334552066
 21
135.0066755266979
 31
0.0
  0
LINE
  5
104
330
1E
100
AcDbEntity
  8
0
100
AcDbLine
 10
1.05038000000001
 20
134.2805
 30
0.0
 11
1.212030000000009
 21
133.7804999999999
 31
0.0
  0
LINE
  5
105
330
1E
100
AcDbEntity
  8
0
100
AcDbLine
 10
1.212030000000009
 20
133.7804999999999
 30
0.0
 11
1.42012600000001
 21
133.2405
 31
0.0
  0
LINE
  5
106
330
1E
100
AcDbEntity
  8
0
100
AcDbLine
 10
1.02571400000001
 20
134.3665
 30
0.0
 11
60.0755334552066
 21
135.0066755266979
 31
0.0
  0
LINE
  5
107
330
1E
100
AcDbEntity
  8
0
100
AcDbLine
 10
1.02571400000001
 20
134.3665
 30
0.0
 11
1.05038000000001
 21
134.2805
 31
0.0
  0
LINE
  5
108
330
1E
100
AcDbEntity
  8
0
100
AcDbLine
 10
1.76467300000001
 20
132.5075
 30
0.0
 11
2.378943000000009
 21
131.4775
 31
0.0
  0
LINE
  5
109
330
1E
100
AcDbEntity
  8
0
100
AcDbLine
 10
1.42012600000001
 20
133.2405
 30
0.0
 11
1.76467300000001
 21
132.5075
 31
0.0
  0
LINE
  5
10A
330
1E
100
AcDbEntity
  8
0
100
AcDbLine
 10
2.378943000000009
 20
131.4775
 30
0.0
 11
3.207643000000009
 21
130.4165
 31
0.0
  0
LINE
  5
10B
330
1E
100
AcDbEntity
  8
0
100
AcDbLine
 10
5.507333000000009
 20
128.4524999999999
 30
0.0
 11
6.944113000000009
 21
127.5944999999999
 31
0.0
  0
LINE
  5
10C
330
1E
100
AcDbEntity
  8
0
100
AcDbLine
 10
6.944113000000009
 20
127.5944999999999
 30
0.0
 11
8.725663000000009
 21
126.9525
 31
0.0
  0
LINE
  5
10D
330
1E
100
AcDbEntity
  8
0
100
AcDbLine
 10
51.1066661559691
 20
131.742474796818
 30
0.0
 11
52.940363
 21
132.4105
 31
0.0
  0
LINE
  5
10E
330
1E
100
AcDbEntity
  8
0
100
AcDbLine
 10
52.940363
 20
132.4105
 30
0.0
 11
56.165463
 21
133.5834999999999
 31
0.0
  0
LINE
  5
10F
330
1E
100
AcDbEntity
  8
0
100
AcDbLine
 10
56.165463
 20
133.5834999999999
 30
0.0
 11
70.38866299999999
 21
138.7605
 31
0.0
  0
LINE
  5
113
330
1E
100
AcDbEntity
  8
0
100
AcDbLine
 10
4.193273000000009
 20
129.4305
 30
0.0
 11
5.507333000000009
 21
128.4524999999999
 31
0.0
  0
LINE
  5
114
330
1E
100
AcDbEntity
  8
0
100
AcDbLine
 10
3.207643000000009
 20
130.4165
 30
0.0
 11
4.193273000000009
 21
129.4305
 31
0.0
  0
LINE
  5
115
330
1E
100
AcDbEntity
  8
0
100
AcDbLine
 10
51.32988743527721
 20
126.800482979907
 30
0.0
 11
55.74984319162211
 21
114.656974013315
 31
0.0
  0
LINE
  5
116
330
1E
100
AcDbEntity
  8
0
100
AcDbLine
 10
51.32988743527721
 20
126.800482979907
 30
0.0
 11
55.74984319162211
 21
114.656974013315
 31
0.0
  0
LINE
  5
117
330
1E
100
AcDbEntity
  8
0
100
AcDbLine
 10
62.427663
 20
99.6497
 30
0.0
 11
63.167663
 21
99.9195
 31
0.0
  0
LINE
  5
118
330
1E
100
AcDbEntity
  8
0
100
AcDbLine
 10
61.984163
 20
99.4883
 30
0.0
 11
62.728363
 21
99.7591
 31
0.0
  0
LINE
  5
119
330
1E
100
AcDbEntity
  8
0
100
AcDbLine
 10
62.437463
 20
99.01470000000001
 30
0.0
 11
64.42206299999999
 21
99.7371
 31
0.0
  0
LINE
  5
11A
330
1E
100
AcDbEntity
  8
0
100
AcDbLine
 10
63.167663
 20
99.9195
 30
0.0
 11
65.058863
 21
100.6075
 31
0.0
  0
LINE
  5
11B
330
1E
100
AcDbEntity
  8
0
100
AcDbLine
 10
62.728363
 20
99.7591
 30
0.0
 11
64.71306300000001
 21
100.4815
 31
0.0
  0
LINE
  5
11C
330
1E
100
AcDbEntity
  8
0
100
AcDbLine
 10
65.058863
 20
100.6075
 30
0.0
 11
66.17832702634929
 21
101.0149015401349
 31
0.0
  0
LINE
  5
11D
330
1E
100
AcDbEntity
  8
0
100
AcDbLine
 10
64.71306300000001
 20
100.4815
 30
0.0
 11
67.93806299999999
 21
101.6555
 31
0.0
  0
LINE
  5
11E
330
1E
100
AcDbEntity
  8
0
100
AcDbLine
 10
64.42206299999999
 20
99.7371
 30
0.0
 11
67.729763
 21
100.9415
 31
0.0
  0
LINE
  5
11F
330
1E
100
AcDbEntity
  8
0
100
AcDbLine
 10
67.729763
 20
100.9415
 30
0.0
 11
72.11256299999999
 21
102.5365
 31
0.0
  0
LINE
  5
120
330
1E
100
AcDbEntity
  8
0
100
AcDbLine
 10
61.693263
 20
98.7439
 30
0.0
 11
65.9955178800714
 21
86.86472192623829
 31
0.0
  0
LINE
  5
121
330
1E
100
AcDbEntity
  8
0
100
AcDbLine
 10
61.693263
 20
98.7439
 30
0.0
 11
61.984163
 21
99.4883
 31
0.0
  0
LINE
  5
122
330
1E
100
AcDbEntity
  8
0
100
AcDbLine
 10
61.693263
 20
98.7439
 30
0.0
 11
62.437463
 21
99.01470000000001
 31
0.0
  0
LINE
  5
123
330
1E
100
AcDbEntity
  8
0
100
AcDbLine
 10
76.1292189077035
 20
58.88403681826829
 30
0.0
 11
97.49296300000001
 21
-0.104499999999989
 31
0.0
  0
LINE
  5
124
330
1E
100
AcDbEntity
  8
0
100
AcDbLine
 10
76.1292189077035
 20
58.88403681826829
 30
0.0
 11
97.49296300000001
 21
-0.104499999999989
 31
0.0
  0
LINE
  5
125
330
1E
100
AcDbEntity
  8
0
100
AcDbLine
 10
61.7334295858714
 20
101.5572512219079
 30
0.0
 11
62.427663
 21
99.6497
 31
0.0
  0
LINE
  5
126
330
1E
100
AcDbEntity
  8
0
100
AcDbLine
 10
67.93806299999999
 20
101.6555
 30
0.0
 11
72.155363
 21
103.1905
 31
0.0
  0
LINE
  5
127
330
1E
100
AcDbEntity
  8
0
100
AcDbLine
 10
72.155363
 20
103.1905
 30
0.0
 11
76.951563
 21
104.9355
 31
0.0
  0
LINE
  5
128
330
1E
100
AcDbEntity
  8
0
100
AcDbLine
 10
72.11256299999999
 20
102.5365
 30
0.0
 11
77.07406299999999
 21
104.3425
 31
0.0
  0
LINE
  5
129
330
1E
100
AcDbEntity
  8
0
100
AcDbLine
 10
77.063363
 20
104.9765
 30
0.0
 11
82.161263
 21
106.8324999999999
 31
0.0
  0
LINE
  5
12A
330
1E
100
AcDbEntity
  8
0
100
AcDbLine
 10
76.951563
 20
104.9355
 30
0.0
 11
82.161263
 21
106.8324999999999
 31
0.0
  0
LINE
  5
12B
330
1E
100
AcDbEntity
  8
0
100
AcDbLine
 10
77.07406299999999
 20
104.3425
 30
0.0
 11
82.366463
 21
106.2685
 31
0.0
  0
LINE
  5
12C
330
1E
100
AcDbEntity
  8
0
100
AcDbLine
 10
82.366463
 20
106.2685
 30
0.0
 11
87.658763
 21
108.1945
 31
0.0
  0
LINE
  5
12D
330
1E
100
AcDbEntity
  8
0
100
AcDbLine
 10
75.25513525330959
 20
104.318289204375
 30
0.0
 11
77.063363
 21
104.9765
 31
0.0
  0
LINE
  5
12E
330
1E
100
AcDbEntity
  8
0
100
AcDbLine
 10
75.25513525330959
 20
104.318289204375
 30
0.0
 11
76.951563
 21
104.9355
 31
0.0
  0
LINE
  5
12F
330
1E
100
AcDbEntity
  8
0
100
AcDbLine
 10
82.161263
 20
106.8324999999999
 30
0.0
 11
87.37086299999999
 21
108.7285
 31
0.0
  0
LINE
  5
130
330
1E
100
AcDbEntity
  8
0
100
AcDbLine
 10
76.04096300000001
 20
106.7644999999999
 30
0.0
 11
81.333263
 21
108.6905
 31
0.0
  0
LINE
  5
131
330
1E
100
AcDbEntity
  8
0
100
AcDbLine
 10
71.079363
 20
104.9584999999999
 30
0.0
 11
76.04096300000001
 21
106.7644999999999
 31
0.0
  0
LINE
  5
132
330
1E
100
AcDbEntity
  8
0
100
AcDbLine
 10
66.696663
 20
103.3635
 30
0.0
 11
71.079363
 21
104.9584999999999
 31
0.0
  0
LINE
  5
133
330
1E
100
AcDbEntity
  8
0
100
AcDbLine
 10
63.388863
 20
102.1595
 30
0.0
 11
66.696663
 21
103.3635
 31
0.0
  0
LINE
  5
134
330
1E
100
AcDbEntity
  8
0
100
AcDbLine
 10
61.404263
 20
101.4375
 30
0.0
 11
63.388863
 21
102.1595
 31
0.0
  0
LINE
  5
135
330
1E
100
AcDbEntity
  8
0
100
AcDbLine
 10
60.660063
 20
101.1665
 30
0.0
 11
61.404263
 21
101.4375
 31
0.0
  0
LINE
  5
136
330
1E
100
AcDbEntity
  8
0
100
AcDbLine
 10
81.333263
 20
108.6905
 30
0.0
 11
85.71546299999999
 21
113.0374999999999
 31
0.0
  0
LINE
  5
137
330
1E
100
AcDbEntity
  8
0
100
AcDbLine
 10
87.37086299999999
 20
108.7285
 30
0.0
 11
92.167063
 21
110.4735
 31
0.0
  0
LINE
  5
138
330
1E
100
AcDbEntity
  8
0
100
AcDbLine
 10
87.658763
 20
108.1945
 30
0.0
 11
92.620363
 21
110.0005
 31
0.0
  0
LINE
  5
139
330
1E
100
AcDbEntity
  8
0
100
AcDbLine
 10
92.620363
 20
110.0005
 30
0.0
 11
97.00306300000001
 21
111.5955
 31
0.0
  0
LINE
  5
13A
330
1E
100
AcDbEntity
  8
0
100
AcDbLine
 10
89.06729074668742
 20
109.345710795624
 30
0.0
 11
92.167063
 21
110.4735
 31
0.0
  0
LINE
  5
13B
330
1E
100
AcDbEntity
  8
0
100
AcDbLine
 10
89.06729074668742
 20
109.345710795624
 30
0.0
 11
91.94576299999999
 21
110.3935
 31
0.0
  0
LINE
  5
13C
330
1E
100
AcDbEntity
  8
0
100
AcDbLine
 10
92.167063
 20
110.4735
 30
0.0
 11
96.384463
 21
112.0084999999999
 31
0.0
  0
LINE
  5
13D
330
1E
100
AcDbEntity
  8
0
100
AcDbLine
 10
91.94576299999999
 20
110.3935
 30
0.0
 11
96.05696299999999
 21
111.8894999999999
 31
0.0
  0
LINE
  5
13E
330
1E
100
AcDbEntity
  8
0
100
AcDbLine
 10
85.71546299999999
 20
113.0374999999999
 30
0.0
 11
89.851763
 21
117.0954999999999
 31
0.0
  0
LINE
  5
13F
330
1E
100
AcDbEntity
  8
0
100
AcDbLine
 10
89.851763
 20
117.0954999999999
 30
0.0
 11
93.547963
 21
120.6104999999999
 31
0.0
  0
LINE
  5
140
330
1E
100
AcDbEntity
  8
0
100
AcDbLine
 10
97.00306300000001
 20
111.5955
 30
0.0
 11
100.310863
 21
112.7995
 31
0.0
  0
LINE
  5
141
330
1E
100
AcDbEntity
  8
0
100
AcDbLine
 10
96.384463
 20
112.0084999999999
 30
0.0
 11
98.14419897365091
 21
112.6490984598649
 31
0.0
  0
LINE
  5
142
330
1E
100
AcDbEntity
  8
0
100
AcDbLine
 10
96.384463
 20
112.0084999999999
 30
0.0
 11
99.60946300000001
 21
113.1825
 31
0.0
  0
LINE
  5
143
330
1E
100
AcDbEntity
  8
0
100
AcDbLine
 10
96.05696299999999
 20
111.8894999999999
 30
0.0
 11
98.14419897365091
 21
112.6490984598649
 31
0.0
  0
LINE
  5
144
330
1E
100
AcDbEntity
  8
0
100
AcDbLine
 10
93.547963
 20
120.6104999999999
 30
0.0
 11
96.24006300000001
 21
123.3775
 31
0.0
  0
LINE
  5
146
330
1E
100
AcDbEntity
  8
0
100
AcDbLine
 10
96.24006300000001
 20
123.3775
 30
0.0
 11
97.93966300000001
 21
125.0175
 31
0.0
  0
LINE
  5
147
330
1E
100
AcDbEntity
  8
0
100
AcDbLine
 10
97.49296300000001
 20
-0.104499999999989
 30
0.0
 11
98.29296300000001
 21
-0.104499999999989
 31
0.0
  0
LINE
  5
148
330
1E
100
AcDbEntity
  8
0
100
AcDbLine
 10
98.29296300000001
 20
-0.104499999999989
 30
0.0
 11
100.492963
 21
-0.104499999999989
 31
0.0
  0
LINE
  5
149
330
1E
100
AcDbEntity
  8
0
100
AcDbLine
 10
99.60946300000001
 20
113.1825
 30
0.0
 11
101.593963
 21
113.9055
 31
0.0
  0
LINE
  5
14A
330
1E
100
AcDbEntity
  8
0
100
AcDbLine
 10
98.460263
 20
122.1714999999999
 30
0.0
 11
100.116263
 21
118.9004999999999
 31
0.0
  0
LINE
  5
14B
330
1E
100
AcDbEntity
  8
0
100
AcDbLine
 10
126.5929629999999
 20
-0.104499999999991
 30
0.0
 11
132.152963
 21
-0.104499999999991
 31
0.0
  0
LINE
  5
14C
330
1E
100
AcDbEntity
  8
0
100
AcDbLine
 10
120.7929629999999
 20
-0.104499999999991
 30
0.0
 11
126.5929629999999
 21
-0.104499999999991
 31
0.0
  0
LINE
  5
14D
330
1E
100
AcDbEntity
  8
0
100
AcDbLine
 10
143.2929629999999
 20
-0.104499999999992
 30
0.0
 11
144.2929629999999
 21
-0.104499999999992
 31
0.0
  0
LINE
  5
14E
330
1E
100
AcDbEntity
  8
0
100
AcDbLine
 10
140.9929629999999
 20
-0.104499999999992
 30
0.0
 11
143.2929629999999
 21
-0.104499999999992
 31
0.0
  0
LINE
  5
14F
330
1E
100
AcDbEntity
  8
0
100
AcDbLine
 10
137.2929629999999
 20
-0.104499999999992
 30
0.0
 11
140.9929629999999
 21
-0.104499999999992
 31
0.0
  0
LINE
  5
150
330
1E
100
AcDbEntity
  8
0
100
AcDbLine
 10
132.152963
 20
-0.104499999999991
 30
0.0
 11
137.2929629999999
 21
-0.104499999999992
 31
0.0
  0
LINE
  5
151
330
1E
100
AcDbEntity
  8
0
100
AcDbLine
 10
100.310863
 20
112.7995
 30
0.0
 11
102.294963
 21
113.5215
 31
0.0
  0
LINE
  5
152
330
1E
100
AcDbEntity
  8
0
100
AcDbLine
 10
104.192963
 20
-0.10449999999999
 30
0.0
 11
109.0929629999999
 21
-0.10449999999999
 31
0.0
  0
LINE
  5
153
330
1E
100
AcDbEntity
  8
0
100
AcDbLine
 10
137.4101071492189
 20
18.89864238568
 30
0.0
 11
145.3223359842669
 21
40.885057655513
 31
0.0
  0
LINE
  5
154
330
1E
100
AcDbEntity
  8
0
100
AcDbLine
 10
109.0929629999999
 20
-0.10449999999999
 30
0.0
 11
114.5929629999999
 21
-0.10449999999999
 31
0.0
  0
LINE
  5
155
330
1E
100
AcDbEntity
  8
0
100
AcDbLine
 10
134.7460615564529
 20
26.25390869065579
 30
0.0
 11
140.6369629999999
 21
42.57309999999999
 31
0.0
  0
LINE
  5
156
330
1E
100
AcDbEntity
  8
0
100
AcDbLine
 10
102.294963
 20
113.5215
 30
0.0
 11
103.039963
 21
113.7925
 31
0.0
  0
LINE
  5
157
330
1E
100
AcDbEntity
  8
0
100
AcDbLine
 10
137.4101071492189
 20
18.8986423856801
 30
0.0
 11
144.2929629999999
 21
-0.104499999999992
 31
0.0
  0
LINE
  5
158
330
1E
100
AcDbEntity
  8
0
100
AcDbLine
 10
137.4101071492189
 20
18.8986423856801
 30
0.0
 11
145.3223359842669
 21
40.885057655513
 31
0.0
  0
LINE
  5
15D
330
1E
100
AcDbEntity
  8
0
100
AcDbLine
 10
145.3409629999999
 20
40.87819999999999
 30
0.0
 11
160.104963
 21
43.5309
 31
0.0
  0
LINE
  5
163
330
1E
100
AcDbEntity
  8
0
100
AcDbLine
 10
159.828963
 20
45.053
 30
0.0
 11
159.973963
 21
44.25419999999999
 31
0.0
  0
LINE
  5
164
330
1E
100
AcDbEntity
  8
0
100
AcDbLine
 10
160.069963
 20
43.7195
 30
0.0
 11
160.104963
 21
43.5309
 31
0.0
  0
LINE
  5
165
330
1E
100
AcDbEntity
  8
0
100
AcDbLine
 10
160.0719629999999
 20
43.7168
 30
0.0
 11
160.104963
 21
43.5309
 31
0.0
  0
LINE
  5
166
330
1E
100
AcDbEntity
  8
0
100
AcDbLine
 10
159.973963
 20
44.25419999999999
 30
0.0
 11
160.069963
 21
43.7195
 31
0.0
  0
LINE
  5
167
330
1E
100
AcDbEntity
  8
0
100
AcDbLine
 10
159.977963
 20
44.24909999999999
 30
0.0
 11
160.0719629999999
 21
43.7168
 31
0.0
  0
LINE
  5
168
330
1E
100
AcDbEntity
  8
0
100
AcDbLine
 10
159.8349629999999
 20
45.0466
 30
0.0
 11
159.977963
 21
44.24909999999999
 31
0.0
  0
LINE
  5
169
330
1E
100
AcDbEntity
  8
0
100
AcDbLine
 10
159.348963
 20
47.73399999999999
 30
0.0
 11
159.490963
 21
46.9364
 31
0.0
  0
LINE
  5
16A
330
1E
100
AcDbEntity
  8
0
100
AcDbLine
 10
159.6599629999999
 20
45.99499999999999
 30
0.0
 11
159.828963
 21
45.053
 31
0.0
  0
LINE
  5
16B
330
1E
100
AcDbEntity
  8
0
100
AcDbLine
 10
159.6649629999999
 20
45.9879
 30
0.0
 11
159.8349629999999
 21
45.0466
 31
0.0
  0
LINE
  5
16C
330
1E
100
AcDbEntity
  8
0
100
AcDbLine
 10
159.490963
 20
46.9364
 30
0.0
 11
159.6599629999999
 21
45.99499999999999
 31
0.0
  0
LINE
  5
16D
330
1E
100
AcDbEntity
  8
0
100
AcDbLine
 10
159.4959629999999
 20
46.9299
 30
0.0
 11
159.6649629999999
 21
45.9879
 31
0.0
  0
LINE
  5
16E
330
1E
100
AcDbEntity
  8
0
100
AcDbLine
 10
159.3529629999999
 20
47.7289
 30
0.0
 11
159.4959629999999
 21
46.9299
 31
0.0
  0
LINE
  5
16F
330
1E
100
AcDbEntity
  8
0
100
AcDbLine
 10
159.252963
 20
48.2662
 30
0.0
 11
159.348963
 21
47.73399999999999
 31
0.0
  0
LINE
  5
170
330
1E
100
AcDbEntity
  8
0
100
AcDbLine
 10
159.2559629999999
 20
48.2635
 30
0.0
 11
159.3529629999999
 21
47.7289
 31
0.0
  0
LINE
  5
171
330
1E
100
AcDbEntity
  8
0
100
AcDbLine
 10
159.2559629999999
 20
48.2635
 30
0.0
 11
159.6649629999999
 21
45.9879
 31
0.0
  0
LINE
  5
172
330
1E
100
AcDbEntity
  8
0
100
AcDbLine
 10
159.2209629999999
 20
48.4521
 30
0.0
 11
159.2559629999999
 21
48.2635
 31
0.0
  0
LINE
  5
173
330
1E
100
AcDbEntity
  8
0
100
AcDbLine
 10
159.2209629999999
 20
48.4521
 30
0.0
 11
159.252963
 21
48.2662
 31
0.0
  0
LINE
  5
174
330
1E
100
AcDbEntity
  8
0
100
AcDbLine
 10
144.4569629999999
 20
45.7993
 30
0.0
 11
159.2209629999999
 21
48.4521
 31
0.0
  0
LINE
  5
175
330
1E
100
AcDbEntity
  8
0
100
AcDbLine
 10
143.4969629999999
 20
45.5257
 30
0.0
 11
144.4569629999999
 21
45.7993
 31
0.0
  0
LINE
  5
176
330
1E
100
AcDbEntity
  8
0
100
AcDbLine
 10
142.610963
 20
45.0666
 30
0.0
 11
143.4969629999999
 21
45.5257
 31
0.0
  0
LINE
  5
177
330
1E
100
AcDbEntity
  8
0
100
AcDbLine
 10
141.8329629999999
 20
44.4406
 30
0.0
 11
142.610963
 21
45.0666
 31
0.0
  0
LINE
  5
178
330
1E
100
AcDbEntity
  8
0
100
AcDbLine
 10
141.194963
 20
43.6725
 30
0.0
 11
141.8329629999999
 21
44.4406
 31
0.0
  0
LINE
  5
179
330
1E
100
AcDbEntity
  8
0
100
AcDbLine
 10
140.6369629999999
 20
42.57309999999999
 30
0.0
 11
141.194963
 21
43.6725
 31
0.0
  0
LINE
  5
17F
330
1E
100
AcDbEntity
  8
0
100
AcDbLine
 10
137.4101071492189
 20
18.8986423856801
 30
0.0
 11
144.2929629999999
 21
-0.104499999999989
 31
0.0
  0
LINE
  5
180
330
1E
100
AcDbEntity
  8
0
100
AcDbLine
 10
101.593963
 20
113.9055
 30
0.0
 11
102.3379629999999
 21
114.1755
 31
0.0
  0
LINE
  5
181
330
1E
100
AcDbEntity
  8
0
100
AcDbLine
 10
101.894887796783
 20
114.014706579478
 30
0.0
 11
102.3379629999999
 21
114.1755
 31
0.0
  0
LINE
  5
182
330
1E
100
AcDbEntity
  8
0
100
AcDbLine
 10
102.3379629999999
 20
114.1755
 30
0.0
 11
103.039963
 21
113.7925
 31
0.0
  0
LINE
  5
183
330
1E
100
AcDbEntity
  8
0
100
AcDbLine
 10
103.039963
 20
113.7925
 30
0.0
 11
134.7460615564529
 21
26.25390869065579
 31
0.0
  0
LINE
  5
184
330
1E
100
AcDbEntity
  8
0
100
AcDbLine
 10
103.039963
 20
113.7925
 30
0.0
 11
134.7460615564529
 21
26.25390869065579
 31
0.0
  0
LINE
  5
185
330
1E
100
AcDbEntity
  8
0
100
AcDbLine
 10
100.492963
 20
-0.104499999999989
 30
0.0
 11
104.192963
 21
-0.10449999999999
 31
0.0
  0
LINE
  5
186
330
1E
100
AcDbEntity
  8
0
100
AcDbLine
 10
114.5929629999999
 20
-0.10449999999999
 30
0.0
 11
120.7929629999999
 21
-0.104499999999991
 31
0.0
  0
LINE
  5
187
330
1E
100
AcDbEntity
  8
0
100
AcDbLine
 10
100.116263
 20
118.9004999999999
 30
0.0
 11
101.894887796783
 21
114.014706579478
 31
0.0
  0
LINE
  5
188
330
1E
100
AcDbEntity
  8
0
100
AcDbLine
 10
97.93966300000001
 20
125.0175
 30
0.0
 11
98.586263
 21
125.6124999999999
 31
0.0
  0
LINE
  5
189
330
1E
100
AcDbEntity
  8
0
100
AcDbLine
 10
97.15886331285298
 20
124.264080673734
 30
0.0
 11
97.93966300000001
 21
125.0175
 31
0.0
  0
LINE
  5
18A
330
1E
100
AcDbEntity
  8
0
100
AcDbLine
 10
97.15886331285298
 20
124.264080673734
 30
0.0
 11
98.460263
 21
122.1714999999999
 31
0.0
  0
LINE
  5
19F
330
1E
100
AcDbEntity
  8
0
100
AcDbLine
 10
70.38866299999999
 20
138.7605
 30
0.0
 11
75.598263
 21
140.6565
 31
0.0
  0
LINE
  5
1A0
330
1E
100
AcDbEntity
  8
0
100
AcDbLine
 10
75.598263
 20
140.6565
 30
0.0
 11
80.39446299999999
 21
142.4025
 31
0.0
  0
LINE
  5
1A3
330
1E
100
AcDbEntity
  8
0
100
AcDbLine
 10
80.39446299999999
 20
142.4025
 30
0.0
 11
84.61186299999999
 21
143.9375
 31
0.0
  0
LINE
  5
1A6
330
1E
100
AcDbEntity
  8
0
100
AcDbLine
 10
87.83686299999999
 20
145.1115
 30
0.0
 11
89.821463
 21
145.8334999999999
 31
0.0
  0
LINE
  5
1A9
330
1E
100
AcDbEntity
  8
0
100
AcDbLine
 10
89.821463
 20
145.8334999999999
 30
0.0
 11
90.565663
 21
146.1045
 31
0.0
  0
LINE
  5
1AA
330
1E
100
AcDbEntity
  8
0
100
AcDbLine
 10
90.565663
 20
146.1045
 30
0.0
 11
91.267063
 21
145.7214999999999
 31
0.0
  0
LINE
  5
1AB
330
1E
100
AcDbEntity
  8
0
100
AcDbLine
 10
84.61186299999999
 20
143.9375
 30
0.0
 11
87.83686299999999
 21
145.1115
 31
0.0
  0
LINE
  5
1AC
330
1E
100
AcDbEntity
  8
0
100
AcDbLine
 10
91.267063
 20
145.7214999999999
 30
0.0
 11
98.586263
 21
125.6124999999999
 31
0.0
  0
LINE
  5
1AE
330
1E
100
AcDbEntity
  8
0
100
AcDbLine
 10
57.7986340819721
 20
109.0280691284819
 30
0.0
 11
60.660063
 21
101.1665
 31
0.0
  0
LINE
  5
1B3
330
1E
100
AcDbEntity
  8
0
100
AcDbLine
 10
76.13301196850421
 20
58.87356360225679
 30
0.0
 11
65.9955178800714
 21
86.86472192623829
 31
0.0
  0
LINE
  5
1B4
330
1E
100
AcDbEntity
  8
0
100
AcDbLine
 10
137.4101071492189
 20
18.89864238568
 30
0.0
 11
134.7460615564529
 21
26.25390869065579
 31
0.0
  0
LINE
  5
1B5
330
1E
100
AcDbEntity
  8
0
100
AcDbLine
 10
51.32988743527721
 20
126.800482979907
 30
0.0
 11
51.1066661559691
 21
131.742474796818
 31
0.0
  0
ENDSEC
  0
SECTION
  2
OBJECTS
  0
DICTIONARY
  5
C
330
0
100
AcDbDictionary
  3
ACAD_GROUP
350
D
  3
ACAD_LAYOUT
350
19
  3
ACAD_MLINESTYLE
350
16
  3
ACAD_PLOTSETTINGS
350
18
  3
ACAD_PLOTSTYLENAME
350
E
  3
ACDBHEADERROUNDTRIPXREC
350
1B9
  3
ACDBVARIABLEDICTIONARY
350
1B6
  0
DICTIONARY
  5
1DB
330
1E
100
AcDbDictionary
280
     1
  3
ACAD_LAYOUTSELFREF
360
1DC
  0
DICTIONARY
  5
1D9
330
1A
100
AcDbDictionary
280
     1
  3
ACAD_LAYOUTSELFREF
360
1DA
  0
DICTIONARY
  5
D
102
{ACAD_REACTORS
330
C
102
}
330
C
100
AcDbDictionary
  0
DICTIONARY
  5
19
102
{ACAD_REACTORS
330
C
102
}
330
C
100
AcDbDictionary
  0
DICTIONARY
  5
16
102
{ACAD_REACTORS
330
C
102
}
330
C
100
AcDbDictionary
  3
STANDARD
350
17
  0
DICTIONARY
  5
18
102
{ACAD_REACTORS
330
C
102
}
330
C
100
AcDbDictionary
  0
ACDBDICTIONARYWDFLT
  5
E
102
{ACAD_REACTORS
330
C
102
}
330
C
100
AcDbDictionary
281
     1
  3
Normal
350
F
100
AcDbDictionaryWithDefault
340
F
  0
DICTIONARY
  5
1B9
102
{ACAD_REACTORS
330
C
102
}
330
C
100
AcDbDictionary
  3
CEPSNTYPE
350
1C3
  3
FINGERPRINTGUID
350
1C4
  3
HYPERLINKBASE
350
1BC
  3
INSUNITS
350
1C2
  3
LAYOUTDICT
350
1BE
  3
LWETCUNION
350
1C1
  3
PLOTSETDICT
350
1BF
  3
PLOTSTYLNAMDICT
350
1C0
  3
PSVPSCALE
350
1C6
  3
PUCSBASE
350
1C9
  3
PUCSORGBACK
350
1CF
  3
PUCSORGBOTTOM
350
1CB
  3
PUCSORGFRONT
350
1CE
  3
PUCSORGLEFT
350
1CC
  3
PUCSORGRIGHT
350
1CD
  3
PUCSORGTOP
350
1CA
  3
PUCSORTHOREF
350
1C7
  3
PUCSORTHOVIEW
350
1C8
  3
STYLESHEET
350
1BD
  3
TSTACKALIGN
350
1BA
  3
TSTACKSIZE
350
1BB
  3
UCSBASE
350
1D2
  3
UCSORGBACK
350
1D8
  3
UCSORGBOTTOM
350
1D4
  3
UCSORGFRONT
350
1D7
  3
UCSORGLEFT
350
1D5
  3
UCSORGRIGHT
350
1D6
  3
UCSORGTOP
350
1D3
  3
UCSORTHOREF
350
1D0
  3
UCSORTHOVIEW
350
1D1
  3
VERSIONGUID
350
1C5
  0
DICTIONARY
  5
1B6
102
{ACAD_REACTORS
330
C
102
}
330
C
100
AcDbDictionary
  3
DIMASSOC
350
1B7
  0
XRECORD
  5
1DC
102
{ACAD_REACTORS
330
1DB
102
}
330
1DB
100
AcDbXrecord
340
1E
  0
XRECORD
  5
1DA
102
{ACAD_REACTORS
330
1D9
102
}
330
1D9
100
AcDbXrecord
340
1A
  0
MLINESTYLE
  5
17
102
{ACAD_REACTORS
330
16
102
}
330
16
100
AcDbMlineStyle
  2
STANDARD
 70
     0
  3

 62
   256
 51
90.0
 52
90.0
 71
     2
 49
0.5
 62
   256
  6
BYLAYER
 49
-0.5
 62
   256
  6
BYLAYER
  0
ACDBPLACEHOLDER
  5
F
102
{ACAD_REACTORS
330
E
102
}
330
E
100
AcDbPlaceHolder
280
     0
  0
XRECORD
  5
1C3
102
{ACAD_REACTORS
330
1B9
102
}
330
1B9
100
AcDbXrecord
 90
        0
  0
XRECORD
  5
1C4
102
{ACAD_REACTORS
330
1B9
102
}
330
1B9
100
AcDbXrecord
  1
{333F26D4-1370-4A48-AAEE-102BAAB013E4}
  0
XRECORD
  5
1BC
102
{ACAD_REACTORS
330
1B9
102
}
330
1B9
100
AcDbXrecord
  1

  0
XRECORD
  5
1C2
102
{ACAD_REACTORS
330
1B9
102
}
330
1B9
100
AcDbXrecord
 90
        0
  0
XRECORD
  5
1BE
102
{ACAD_REACTORS
330
1B9
102
}
330
1B9
100
AcDbXrecord
340
19
  0
XRECORD
  5
1C1
102
{ACAD_REACTORS
330
1B9
102
}
330
1B9
100
AcDbXrecord
 90
    10781
  0
XRECORD
  5
1BF
102
{ACAD_REACTORS
330
1B9
102
}
330
1B9
100
AcDbXrecord
340
18
  0
XRECORD
  5
1C0
102
{ACAD_REACTORS
330
1B9
102
}
330
1B9
100
AcDbXrecord
340
E
  0
XRECORD
  5
1C6
102
{ACAD_REACTORS
330
1B9
102
}
330
1B9
100
AcDbXrecord
 40
0.0
  0
XRECORD
  5
1C9
102
{ACAD_REACTORS
330
1B9
102
}
330
1B9
100
AcDbXrecord
340
0
  0
XRECORD
  5
1CF
102
{ACAD_REACTORS
330
1B9
102
}
330
1B9
100
AcDbXrecord
 10
0.0
 20
0.0
 30
0.0
  0
XRECORD
  5
1CB
102
{ACAD_REACTORS
330
1B9
102
}
330
1B9
100
AcDbXrecord
 10
0.0
 20
0.0
 30
0.0
  0
XRECORD
  5
1CE
102
{ACAD_REACTORS
330
1B9
102
}
330
1B9
100
AcDbXrecord
 10
0.0
 20
0.0
 30
0.0
  0
XRECORD
  5
1CC
102
{ACAD_REACTORS
330
1B9
102
}
330
1B9
100
AcDbXrecord
 10
0.0
 20
0.0
 30
0.0
  0
XRECORD
  5
1CD
102
{ACAD_REACTORS
330
1B9
102
}
330
1B9
100
AcDbXrecord
 10
0.0
 20
0.0
 30
0.0
  0
XRECORD
  5
1CA
102
{ACAD_REACTORS
330
1B9
102
}
330
1B9
100
AcDbXrecord
 10
0.0
 20
0.0
 30
0.0
  0
XRECORD
  5
1C7
102
{ACAD_REACTORS
330
1B9
102
}
330
1B9
100
AcDbXrecord
340
0
  0
XRECORD
  5
1C8
102
{ACAD_REACTORS
330
1B9
102
}
330
1B9
100
AcDbXrecord
 70
     0
  0
XRECORD
  5
1BD
102
{ACAD_REACTORS
330
1B9
102
}
330
1B9
100
AcDbXrecord
  1

  0
XRECORD
  5
1BA
102
{ACAD_REACTORS
330
1B9
102
}
330
1B9
100
AcDbXrecord
 90
        1
  0
XRECORD
  5
1BB
102
{ACAD_REACTORS
330
1B9
102
}
330
1B9
100
AcDbXrecord
 90
       70
  0
XRECORD
  5
1D2
102
{ACAD_REACTORS
330
1B9
102
}
330
1B9
100
AcDbXrecord
340
0
  0
XRECORD
  5
1D8
102
{ACAD_REACTORS
330
1B9
102
}
330
1B9
100
AcDbXrecord
 10
0.0
 20
0.0
 30
0.0
  0
XRECORD
  5
1D4
102
{ACAD_REACTORS
330
1B9
102
}
330
1B9
100
AcDbXrecord
 10
0.0
 20
0.0
 30
0.0
  0
XRECORD
  5
1D7
102
{ACAD_REACTORS
330
1B9
102
}
330
1B9
100
AcDbXrecord
 10
0.0
 20
0.0
 30
0.0
  0
XRECORD
  5
1D5
102
{ACAD_REACTORS
330
1B9
102
}
330
1B9
100
AcDbXrecord
 10
0.0
 20
0.0
 30
0.0
  0
XRECORD
  5
1D6
102
{ACAD_REACTORS
330
1B9
102
}
330
1B9
100
AcDbXrecord
 10
0.0
 20
0.0
 30
0.0
  0
XRECORD
  5
1D3
102
{ACAD_REACTORS
330
1B9
102
}
330
1B9
100
AcDbXrecord
 10
0.0
 20
0.0
 30
0.0
  0
XRECORD
  5
1D0
102
{ACAD_REACTORS
330
1B9
102
}
330
1B9
100
AcDbXrecord
340
0
  0
XRECORD
  5
1D1
102
{ACAD_REACTORS
330
1B9
102
}
330
1B9
100
AcDbXrecord
 70
     1
  0
XRECORD
  5
1C5
102
{ACAD_REACTORS
330
1B9
102
}
330
1B9
100
AcDbXrecord
  1
{2D264F44-2393-4971-AB6E-90EE2F9301AE}
  0
DICTIONARYVAR
  5
1B7
102
{ACAD_REACTORS
330
1B6
102
}
330
1B6
100
DictionaryVariables
280
     0
  1
1
  0
ENDSEC
  0
EOF
