  0
SECTION
  2
HEADER
  9
$ACADVER
  1
AC1014
  9
$ACADMAINTVER
 70
     9
  9
$DWGCODEPAGE
  3
ANSI_1252
  9
$INSBASE
 10
0.0
 20
0.0
 30
0.0
  9
$EXTMIN
 10
0.0000000000000053
 20
0.0000049999999907
 30
0.0
  9
$EXTMAX
 10
220.0
 20
153.9999949999999
 30
0.0
  9
$LIMMIN
 10
0.0
 20
0.0
  9
$LIMMAX
 10
12.0
 20
9.0
  9
$ORTHOMODE
 70
     0
  9
$REGENMODE
 70
     1
  9
$FILLMODE
 70
     1
  9
$QTEXTMODE
 70
     0
  9
$MIRRTEXT
 70
     1
  9
$DRAGMODE
 70
     2
  9
$LTSCALE
 40
1.0
  9
$OSMODE
 70
    37
  9
$ATTMODE
 70
     1
  9
$TEXTSIZE
 40
0.2
  9
$TRACEWID
 40
0.05
  9
$TEXTSTYLE
  7
STANDARD
  9
$CLAYER
  8
0
  9
$CELTYPE
  6
CONTINUOUS
  9
$CECOLOR
 62
   256
  9
$CELTSCALE
 40
1.0
  9
$DELOBJ
 70
     1
  9
$DISPSILH
 70
     0
  9
$DIMSCALE
 40
1.0
  9
$DIMASZ
 40
0.18
  9
$DIMEXO
 40
0.0625
  9
$DIMDLI
 40
0.38
  9
$DIMRND
 40
0.0
  9
$DIMDLE
 40
0.0
  9
$DIMEXE
 40
0.18
  9
$DIMTP
 40
0.0
  9
$DIMTM
 40
0.0
  9
$DIMTXT
 40
0.18
  9
$DIMCEN
 40
0.09
  9
$DIMTSZ
 40
0.0
  9
$DIMTOL
 70
     0
  9
$DIMLIM
 70
     0
  9
$DIMTIH
 70
     1
  9
$DIMTOH
 70
     1
  9
$DIMSE1
 70
     0
  9
$DIMSE2
 70
     0
  9
$DIMTAD
 70
     0
  9
$DIMZIN
 70
     0
  9
$DIMBLK
  1

  9
$DIMASO
 70
     1
  9
$DIMSHO
 70
     1
  9
$DIMPOST
  1

  9
$DIMAPOST
  1

  9
$DIMALT
 70
     0
  9
$DIMALTD
 70
     2
  9
$DIMALTF
 40
25.4
  9
$DIMLFAC
 40
1.0
  9
$DIMTOFL
 70
     0
  9
$DIMTVP
 40
0.0
  9
$DIMTIX
 70
     0
  9
$DIMSOXD
 70
     0
  9
$DIMSAH
 70
     0
  9
$DIMBLK1
  1

  9
$DIMBLK2
  1

  9
$DIMSTYLE
  2
STANDARD
  9
$DIMCLRD
 70
     0
  9
$DIMCLRE
 70
     0
  9
$DIMCLRT
 70
     0
  9
$DIMTFAC
 40
1.0
  9
$DIMGAP
 40
0.09
  9
$DIMJUST
 70
     0
  9
$DIMSD1
 70
     0
  9
$DIMSD2
 70
     0
  9
$DIMTOLJ
 70
     1
  9
$DIMTZIN
 70
     0
  9
$DIMALTZ
 70
     0
  9
$DIMALTTZ
 70
     0
  9
$DIMFIT
 70
     3
  9
$DIMUPT
 70
     0
  9
$DIMUNIT
 70
     2
  9
$DIMDEC
 70
     4
  9
$DIMTDEC
 70
     4
  9
$DIMALTU
 70
     2
  9
$DIMALTTD
 70
     2
  9
$DIMTXSTY
  7
STANDARD
  9
$DIMAUNIT
 70
     0
  9
$LUNITS
 70
     2
  9
$LUPREC
 70
     4
  9
$SKETCHINC
 40
0.1
  9
$FILLETRAD
 40
0.0
  9
$AUNITS
 70
     0
  9
$AUPREC
 70
     0
  9
$MENU
  1
.
  9
$ELEVATION
 40
0.0
  9
$PELEVATION
 40
0.0
  9
$THICKNESS
 40
0.0
  9
$LIMCHECK
 70
     0
  9
$BLIPMODE
 70
     0
  9
$CHAMFERA
 40
0.0
  9
$CHAMFERB
 40
0.0
  9
$CHAMFERC
 40
0.0
  9
$CHAMFERD
 40
0.0
  9
$SKPOLY
 70
     0
  9
$TDCREATE
 40
2454696.767895682
  9
$TDUPDATE
 40
2454696.769850440
  9
$TDINDWG
 40
0.0019551157
  9
$TDUSRTIMER
 40
0.0019551157
  9
$USRTIMER
 70
     1
  9
$ANGBASE
 50
0.0
  9
$ANGDIR
 70
     0
  9
$PDMODE
 70
     0
  9
$PDSIZE
 40
0.0
  9
$PLINEWID
 40
0.0
  9
$COORDS
 70
     1
  9
$SPLFRAME
 70
     0
  9
$SPLINETYPE
 70
     6
  9
$SPLINESEGS
 70
     8
  9
$ATTDIA
 70
     0
  9
$ATTREQ
 70
     1
  9
$HANDLING
 70
 22529
  9
$HANDSEED
  5
1AC
  9
$SURFTAB1
 70
     6
  9
$SURFTAB2
 70
     6
  9
$SURFTYPE
 70
     6
  9
$SURFU
 70
     6
  9
$SURFV
 70
     6
  9
$UCSNAME
  2

  9
$UCSORG
 10
0.0
 20
0.0
 30
0.0
  9
$UCSXDIR
 10
1.0
 20
0.0
 30
0.0
  9
$UCSYDIR
 10
0.0
 20
1.0
 30
0.0
  9
$PUCSNAME
  2

  9
$PUCSORG
 10
0.0
 20
0.0
 30
0.0
  9
$PUCSXDIR
 10
1.0
 20
0.0
 30
0.0
  9
$PUCSYDIR
 10
0.0
 20
1.0
 30
0.0
  9
$USERI1
 70
     0
  9
$USERI2
 70
     0
  9
$USERI3
 70
     0
  9
$USERI4
 70
     0
  9
$USERI5
 70
     0
  9
$USERR1
 40
0.0
  9
$USERR2
 40
0.0
  9
$USERR3
 40
0.0
  9
$USERR4
 40
0.0
  9
$USERR5
 40
0.0
  9
$WORLDVIEW
 70
     1
  9
$SHADEDGE
 70
     3
  9
$SHADEDIF
 70
    70
  9
$TILEMODE
 70
     1
  9
$MAXACTVP
 70
    64
  9
$PINSBASE
 10
0.0
 20
0.0
 30
0.0
  9
$PLIMCHECK
 70
     0
  9
$PEXTMIN
 10
1.000000000000000E+20
 20
1.000000000000000E+20
 30
1.000000000000000E+20
  9
$PEXTMAX
 10
-1.000000000000000E+20
 20
-1.000000000000000E+20
 30
-1.000000000000000E+20
  9
$PLIMMIN
 10
0.0
 20
0.0
  9
$PLIMMAX
 10
12.0
 20
9.0
  9
$UNITMODE
 70
     0
  9
$VISRETAIN
 70
     1
  9
$PLINEGEN
 70
     0
  9
$PSLTSCALE
 70
     1
  9
$TREEDEPTH
 70
  3020
  9
$PICKSTYLE
 70
     1
  9
$CMLSTYLE
  2
STANDARD
  9
$CMLJUST
 70
     0
  9
$CMLSCALE
 40
1.0
  9
$PROXYGRAPHICS
 70
     1
  9
$MEASUREMENT
 70
     0
  0
ENDSEC
  0
SECTION
  2
CLASSES
  0
CLASS
  1
ACDBDICTIONARYWDFLT
  2
AcDbDictionaryWithDefault
  3
AutoCAD 2000
 90
        0
280
     0
281
     0
  0
CLASS
  1
ACDBPLACEHOLDER
  2
AcDbPlaceHolder
  3
AutoCAD 2000
 90
        0
280
     0
281
     0
  0
CLASS
  1
LAYOUT
  2
AcDbLayout
  3
AutoCAD 2000
 90
        0
280
     0
281
     0
  0
CLASS
  1
DICTIONARYVAR
  2
AcDbDictionaryVar
  3
AutoCAD 2000
 90
        0
280
     0
281
     0
  0
CLASS
  1
LONG_TRANSACTION
  2
AcDbLongTransaction
  3
AutoCAD 2000
 90
        0
280
     0
281
     0
  0
CLASS
  1
LWPOLYLINE
  2
AcDbPolyline
  3
AutoCAD 2000
 90
        0
280
     0
281
     1
  0
CLASS
  1
HATCH
  2
AcDbHatch
  3
AutoCAD 2000
 90
        0
280
     0
281
     1
  0
CLASS
  1
XRECORD
  2
AcDbXrecord
  3
AutoCAD 2000
 90
        0
280
     0
281
     0
  0
ENDSEC
  0
SECTION
  2
TABLES
  0
TABLE
  2
VPORT
  5
8
330
0
100
AcDbSymbolTable
 70
     2
  0
VPORT
  5
187
330
8
100
AcDbSymbolTableRecord
100
AcDbViewportTableRecord
  2
*ACTIVE
 70
     0
 10
0.0
 20
0.0
 11
1.0
 21
1.0
 12
110.0
 22
76.99999999999999
 13
0.0
 23
0.0
 14
1.0
 24
1.0
 15
0.0
 25
0.0
 16
0.0
 26
0.0
 36
1.0
 17
0.0
 27
0.0
 37
0.0
 40
155.181575601023
 41
2.078104993597951
 42
50.0
 43
0.0
 44
0.0
 50
0.0
 51
0.0
 71
     0
 72
   100
 73
     1
 74
     3
 75
     0
 76
     0
 77
     0
 78
     0
  0
ENDTAB
  0
TABLE
  2
LTYPE
  5
5
330
0
100
AcDbSymbolTable
 70
     1
  0
LTYPE
  5
13
330
5
100
AcDbSymbolTableRecord
100
AcDbLinetypeTableRecord
  2
BYBLOCK
 70
     0
  3

 72
    65
 73
     0
 40
0.0
  0
LTYPE
  5
14
330
5
100
AcDbSymbolTableRecord
100
AcDbLinetypeTableRecord
  2
BYLAYER
 70
     0
  3

 72
    65
 73
     0
 40
0.0
  0
LTYPE
  5
15
330
5
100
AcDbSymbolTableRecord
100
AcDbLinetypeTableRecord
  2
CONTINUOUS
 70
     0
  3
Solid line
 72
    65
 73
     0
 40
0.0
  0
ENDTAB
  0
TABLE
  2
LAYER
  5
2
330
0
100
AcDbSymbolTable
 70
     1
  0
LAYER
  5
10
330
2
100
AcDbSymbolTableRecord
100
AcDbLayerTableRecord
  2
0
 70
     0
 62
     7
  6
CONTINUOUS
  0
ENDTAB
  0
TABLE
  2
STYLE
  5
3
330
0
100
AcDbSymbolTable
 70
     1
  0
STYLE
  5
11
330
3
100
AcDbSymbolTableRecord
100
AcDbTextStyleTableRecord
  2
STANDARD
 70
     0
 40
0.0
 41
1.0
 50
0.0
 71
     0
 42
0.2
  3
txt
  4

  0
ENDTAB
  0
TABLE
  2
VIEW
  5
6
330
0
100
AcDbSymbolTable
 70
     0
  0
ENDTAB
  0
TABLE
  2
UCS
  5
7
330
0
100
AcDbSymbolTable
 70
     0
  0
ENDTAB
  0
TABLE
  2
APPID
  5
9
330
0
100
AcDbSymbolTable
 70
     1
  0
APPID
  5
12
330
9
100
AcDbSymbolTableRecord
100
AcDbRegAppTableRecord
  2
ACAD
 70
     0
  0
ENDTAB
  0
TABLE
  2
DIMSTYLE
  5
A
330
0
100
AcDbSymbolTable
 70
     1
  0
DIMSTYLE
105
181
330
A
100
AcDbSymbolTableRecord
100
AcDbDimStyleTableRecord
  2
STANDARD
 70
     0
  3

  4

  5

  6

  7

 40
1.0
 41
0.18
 42
0.0625
 43
0.38
 44
0.18
 45
0.0
 46
0.0
 47
0.0
 48
0.0
140
0.18
141
0.09
142
0.0
143
25.4
144
1.0
145
0.0
146
1.0
147
0.09
 71
     0
 72
     0
 73
     1
 74
     1
 75
     0
 76
     0
 77
     0
 78
     0
170
     0
171
     2
172
     0
173
     0
174
     0
175
     0
176
     0
177
     0
178
     0
270
     2
271
     4
272
     4
273
     2
274
     2
340
11
275
     0
280
     0
281
     0
282
     0
283
     1
284
     0
285
     0
286
     0
287
     3
288
     0
  0
ENDTAB
  0
TABLE
  2
BLOCK_RECORD
  5
1
330
0
100
AcDbSymbolTable
 70
     0
  0
BLOCK_RECORD
  5
1E
102
{ACAD_XDICTIONARY
360
1AA
102
}
330
1
100
AcDbSymbolTableRecord
100
AcDbBlockTableRecord
  2
*MODEL_SPACE
  0
BLOCK_RECORD
  5
1A
102
{ACAD_XDICTIONARY
360
1A8
102
}
330
1
100
AcDbSymbolTableRecord
100
AcDbBlockTableRecord
  2
*PAPER_SPACE
  0
ENDTAB
  0
ENDSEC
  0
SECTION
  2
BLOCKS
  0
BLOCK
  5
1F
330
1E
100
AcDbEntity
  8
0
100
AcDbBlockBegin
  2
*MODEL_SPACE
 70
     0
 10
0.0
 20
0.0
 30
0.0
  3
*MODEL_SPACE
  1

  0
ENDBLK
  5
20
330
1E
100
AcDbEntity
  8
0
100
AcDbBlockEnd
  0
BLOCK
  5
1B
330
1A
100
AcDbEntity
 67
     1
  8
0
100
AcDbBlockBegin
  2
*PAPER_SPACE
 70
     0
 10
0.0
 20
0.0
 30
0.0
  3
*PAPER_SPACE
  1

  0
ENDBLK
  5
1C
330
1A
100
AcDbEntity
 67
     1
  8
0
100
AcDbBlockEnd
  0
ENDSEC
  0
SECTION
  2
ENTITIES
  0
LINE
  5
22
330
1E
100
AcDbEntity
  8
0
100
AcDbLine
 10
13.3494
 20
94.499995
 30
0.0
 11
17.32229999999999
 21
89.322295
 31
0.0
  0
LINE
  5
23
330
1E
100
AcDbEntity
  8
0
100
AcDbLine
 10
10.8519
 20
100.5299949999999
 30
0.0
 11
13.3494
 21
94.499995
 31
0.0
  0
LINE
  5
24
330
1E
100
AcDbEntity
  8
0
100
AcDbLine
 10
17.32229999999999
 20
89.322295
 30
0.0
 11
22.5
 21
85.349395
 31
0.0
  0
LINE
  5
25
330
1E
100
AcDbEntity
  8
0
100
AcDbLine
 10
17.3
 20
106.9999949999999
 30
0.0
 11
22.6
 21
106.9999949999999
 31
0.0
  0
LINE
  5
26
330
1E
100
AcDbEntity
  8
0
100
AcDbLine
 10
13.4
 20
106.9999949999999
 30
0.0
 11
17.3
 21
106.9999949999999
 31
0.0
  0
LINE
  5
27
330
1E
100
AcDbEntity
  8
0
100
AcDbLine
 10
18.0514
 20
107.9999949999999
 30
0.0
 11
23.1654
 21
107.9999949999999
 31
0.0
  0
LINE
  5
28
330
1E
100
AcDbEntity
  8
0
100
AcDbLine
 10
14.2263
 20
107.9999949999999
 30
0.0
 11
18.0514
 21
107.9999949999999
 31
0.0
  0
LINE
  5
29
330
1E
100
AcDbEntity
  8
0
100
AcDbLine
 10
12.0
 20
107.9999949999999
 30
0.0
 11
14.2263
 21
107.9999949999999
 31
0.0
  0
LINE
  5
2A
330
1E
100
AcDbEntity
  8
0
100
AcDbLine
 10
11.0
 20
107.9999949999999
 30
0.0
 11
12.0
 21
107.9999949999999
 31
0.0
  0
LINE
  5
2B
330
1E
100
AcDbEntity
  8
0
100
AcDbLine
 10
10.9
 20
106.9999949999999
 30
0.0
 11
13.4
 21
106.9999949999999
 31
0.0
  0
LINE
  5
2C
330
1E
100
AcDbEntity
  8
0
100
AcDbLine
 10
10.0
 20
106.9999949999999
 30
0.0
 11
10.8519
 21
100.5299949999999
 31
0.0
  0
LINE
  5
2D
330
1E
100
AcDbEntity
  8
0
100
AcDbLine
 10
10.0
 20
106.9999949999999
 30
0.0
 11
10.9
 21
106.9999949999999
 31
0.0
  0
LINE
  5
2E
330
1E
100
AcDbEntity
  8
0
100
AcDbLine
 10
10.0
 20
106.9999949999999
 30
0.0
 11
11.0
 21
107.9999949999999
 31
0.0
  0
LINE
  5
2F
330
1E
100
AcDbEntity
  8
0
100
AcDbLine
 10
22.0
 20
117.999995
 30
0.0
 11
22.0
 21
114.9999949999999
 31
0.0
  0
LINE
  5
30
330
1E
100
AcDbEntity
  8
0
100
AcDbLine
 10
22.0
 20
117.999995
 30
0.0
 11
22.0
 21
119.999995
 31
0.0
  0
LINE
  5
31
330
1E
100
AcDbEntity
  8
0
100
AcDbLine
 10
0.0000000000000053
 20
153.9999949999999
 30
0.0
 11
0.0000000000000053
 21
148.9999949999999
 31
0.0
  0
LINE
  5
32
330
1E
100
AcDbEntity
  8
0
100
AcDbLine
 10
0.0000000000000053
 20
153.9999949999999
 30
0.0
 11
1.30000000000001
 21
153.9999949999999
 31
0.0
  0
LINE
  5
33
330
1E
100
AcDbEntity
  8
0
100
AcDbLine
 10
0.0000000000000053
 20
148.9999949999999
 30
0.0
 11
0.0000000000000053
 21
153.9999949999999
 31
0.0
  0
LINE
  5
34
330
1E
100
AcDbEntity
  8
0
100
AcDbLine
 10
0.0000000000000053
 20
148.9999949999999
 30
0.0
 11
21.0
 21
128.9999949999999
 31
0.0
  0
LINE
  5
35
330
1E
100
AcDbEntity
  8
0
100
AcDbLine
 10
0.0000000000000053
 20
148.9999949999999
 30
0.0
 11
1.30000000000001
 21
148.9999949999999
 31
0.0
  0
LINE
  5
36
330
1E
100
AcDbEntity
  8
0
100
AcDbLine
 10
1.30000000000001
 20
148.9999949999999
 30
0.0
 11
4.700000000000009
 21
148.9999949999999
 31
0.0
  0
LINE
  5
37
330
1E
100
AcDbEntity
  8
0
100
AcDbLine
 10
4.700000000000009
 20
148.9999949999999
 30
0.0
 11
10.3
 21
148.9999949999999
 31
0.0
  0
LINE
  5
38
330
1E
100
AcDbEntity
  8
0
100
AcDbLine
 10
10.3
 20
148.9999949999999
 30
0.0
 11
17.6
 21
148.9999949999999
 31
0.0
  0
LINE
  5
39
330
1E
100
AcDbEntity
  8
0
100
AcDbLine
 10
1.30000000000001
 20
153.9999949999999
 30
0.0
 11
4.700000000000009
 21
153.9999949999999
 31
0.0
  0
LINE
  5
3A
330
1E
100
AcDbEntity
  8
0
100
AcDbLine
 10
4.700000000000009
 20
153.9999949999999
 30
0.0
 11
10.3
 21
153.9999949999999
 31
0.0
  0
LINE
  5
3B
330
1E
100
AcDbEntity
  8
0
100
AcDbLine
 10
10.3
 20
153.9999949999999
 30
0.0
 11
17.6
 21
153.9999949999999
 31
0.0
  0
LINE
  5
3C
330
1E
100
AcDbEntity
  8
0
100
AcDbLine
 10
17.6
 20
153.9999949999999
 30
0.0
 11
26.0
 21
153.9999949999999
 31
0.0
  0
LINE
  5
3D
330
1E
100
AcDbEntity
  8
0
100
AcDbLine
 10
17.6
 20
148.9999949999999
 30
0.0
 11
26.0
 21
148.9999949999999
 31
0.0
  0
LINE
  5
3E
330
1E
100
AcDbEntity
  8
0
100
AcDbLine
 10
0.0000000000000061
 20
148.9999949999999
 30
0.0
 11
21.0
 21
128.9999949999999
 31
0.0
  0
LINE
  5
3F
330
1E
100
AcDbEntity
  8
0
100
AcDbLine
 10
21.0
 20
128.9999949999999
 30
0.0
 11
21.49999999999999
 21
128.9999949999999
 31
0.0
  0
LINE
  5
40
330
1E
100
AcDbEntity
  8
0
100
AcDbLine
 10
21.49999999999999
 20
128.9999949999999
 30
0.0
 11
22.9
 21
128.9999949999999
 31
0.0
  0
LINE
  5
41
330
1E
100
AcDbEntity
  8
0
100
AcDbLine
 10
22.0
 20
119.999995
 30
0.0
 11
22.5
 21
119.999995
 31
0.0
  0
LINE
  5
42
330
1E
100
AcDbEntity
  8
0
100
AcDbLine
 10
22.0
 20
119.999995
 30
0.0
 11
24.0
 21
121.999995
 31
0.0
  0
LINE
  5
43
330
1E
100
AcDbEntity
  8
0
100
AcDbLine
 10
22.0
 20
119.999995
 30
0.0
 11
22.0
 21
117.999995
 31
0.0
  0
LINE
  5
44
330
1E
100
AcDbEntity
  8
0
100
AcDbLine
 10
22.0
 20
114.9999949999999
 30
0.0
 11
22.0
 21
111.9999949999999
 31
0.0
  0
LINE
  5
45
330
1E
100
AcDbEntity
  8
0
100
AcDbLine
 10
22.0
 20
114.9999949999999
 30
0.0
 11
22.0
 21
117.999995
 31
0.0
  0
LINE
  5
46
330
1E
100
AcDbEntity
  8
0
100
AcDbLine
 10
22.0
 20
111.9999949999999
 30
0.0
 11
22.0
 21
109.9999949999999
 31
0.0
  0
LINE
  5
47
330
1E
100
AcDbEntity
  8
0
100
AcDbLine
 10
22.0
 20
111.9999949999999
 30
0.0
 11
22.0
 21
114.9999949999999
 31
0.0
  0
LINE
  5
48
330
1E
100
AcDbEntity
  8
0
100
AcDbLine
 10
22.5
 20
85.349395
 30
0.0
 11
28.52949999999999
 21
82.85189499999999
 31
0.0
  0
LINE
  5
49
330
1E
100
AcDbEntity
  8
0
100
AcDbLine
 10
23.1654
 20
107.9999949999999
 30
0.0
 11
28.8615
 21
107.9999949999999
 31
0.0
  0
LINE
  5
4A
330
1E
100
AcDbEntity
  8
0
100
AcDbLine
 10
22.6
 20
106.9999949999999
 30
0.0
 11
28.6
 21
106.9999949999999
 31
0.0
  0
LINE
  5
4B
330
1E
100
AcDbEntity
  8
0
100
AcDbLine
 10
28.52949999999999
 20
82.85189499999999
 30
0.0
 11
35.0
 21
81.999995
 31
0.0
  0
LINE
  5
4C
330
1E
100
AcDbEntity
  8
0
100
AcDbLine
 10
35.0
 20
107.9999949999999
 30
0.0
 11
62.0
 21
107.9999949999999
 31
0.0
  0
LINE
  5
4D
330
1E
100
AcDbEntity
  8
0
100
AcDbLine
 10
35.0
 20
81.999995
 30
0.0
 11
62.0
 21
80.39999499999998
 31
0.0
  0
LINE
  5
4E
330
1E
100
AcDbEntity
  8
0
100
AcDbLine
 10
62.0
 20
107.9999949999999
 30
0.0
 11
110.0
 21
107.9999949999999
 31
0.0
  0
LINE
  5
4F
330
1E
100
AcDbEntity
  8
0
100
AcDbLine
 10
62.0
 20
106.9999949999999
 30
0.0
 11
110.0
 21
106.9999949999999
 31
0.0
  0
LINE
  5
50
330
1E
100
AcDbEntity
  8
0
100
AcDbLine
 10
35.0
 20
106.9999949999999
 30
0.0
 11
62.0
 21
106.9999949999999
 31
0.0
  0
LINE
  5
51
330
1E
100
AcDbEntity
  8
0
100
AcDbLine
 10
62.0
 20
80.39999499999998
 30
0.0
 11
67.95279999999999
 21
79.61629499999999
 31
0.0
  0
LINE
  5
52
330
1E
100
AcDbEntity
  8
0
100
AcDbLine
 10
85.29999999999999
 20
34.159995
 30
0.0
 11
86.0
 21
25.684995
 31
0.0
  0
LINE
  5
53
330
1E
100
AcDbEntity
  8
0
100
AcDbLine
 10
85.0
 20
40.63169499999999
 30
0.0
 11
85.0
 21
51.603495
 31
0.0
  0
LINE
  5
54
330
1E
100
AcDbEntity
  8
0
100
AcDbLine
 10
85.0
 20
40.63169499999999
 30
0.0
 11
85.29999999999999
 21
34.159995
 31
0.0
  0
LINE
  5
55
330
1E
100
AcDbEntity
  8
0
100
AcDbLine
 10
85.6
 20
54.999995
 30
0.0
 11
86.0
 21
54.999995
 31
0.0
  0
LINE
  5
56
330
1E
100
AcDbEntity
  8
0
100
AcDbLine
 10
85.6
 20
54.999995
 30
0.0
 11
86.5
 21
54.999995
 31
0.0
  0
LINE
  5
57
330
1E
100
AcDbEntity
  8
0
100
AcDbLine
 10
85.90000000000001
 20
51.643395
 30
0.0
 11
86.0
 21
51.642403
 31
0.0
  0
LINE
  5
58
330
1E
100
AcDbEntity
  8
0
100
AcDbLine
 10
85.0
 20
51.603495
 30
0.0
 11
85.0
 21
40.63169499999999
 31
0.0
  0
LINE
  5
59
330
1E
100
AcDbEntity
  8
0
100
AcDbLine
 10
85.0
 20
51.603495
 30
0.0
 11
85.90000000000001
 21
49.63439499999999
 31
0.0
  0
LINE
  5
5A
330
1E
100
AcDbEntity
  8
0
100
AcDbLine
 10
85.0
 20
51.603495
 30
0.0
 11
85.90000000000001
 21
51.643395
 31
0.0
  0
LINE
  5
5B
330
1E
100
AcDbEntity
  8
0
100
AcDbLine
 10
86.0
 20
25.684995
 30
0.0
 11
86.90000000000001
 21
19.534995
 31
0.0
  0
LINE
  5
5C
330
1E
100
AcDbEntity
  8
0
100
AcDbLine
 10
85.90000000000001
 20
49.63439499999999
 30
0.0
 11
88.40000000000001
 21
47.801095
 31
0.0
  0
LINE
  5
5D
330
1E
100
AcDbEntity
  8
0
100
AcDbLine
 10
85.90000000000001
 20
55.59999499999999
 30
0.0
 11
88.3
 21
55.59999499999999
 31
0.0
  0
LINE
  5
5E
330
1E
100
AcDbEntity
  8
0
100
AcDbLine
 10
85.0
 20
55.59999499999999
 30
0.0
 11
85.6
 21
54.999995
 31
0.0
  0
LINE
  5
5F
330
1E
100
AcDbEntity
  8
0
100
AcDbLine
 10
85.0
 20
55.59999499999999
 30
0.0
 11
85.90000000000001
 21
55.59999499999999
 31
0.0
  0
LINE
  5
60
330
1E
100
AcDbEntity
  8
0
100
AcDbLine
 10
84.2163
 20
63.35279499999999
 30
0.0
 11
85.0
 21
55.59999499999999
 31
0.0
  0
LINE
  5
61
330
1E
100
AcDbEntity
  8
0
100
AcDbLine
 10
86.0
 20
54.999995
 30
0.0
 11
86.0
 21
51.09709500000001
 31
0.0
  0
LINE
  5
62
330
1E
100
AcDbEntity
  8
0
100
AcDbLine
 10
110.0
 20
0.0000049999999907
 30
0.0
 11
113.9
 21
0.10000499999999
 31
0.0
  0
LINE
  5
63
330
1E
100
AcDbEntity
  8
0
100
AcDbLine
 10
113.9
 20
0.10000499999999
 30
0.0
 11
117.5
 21
0.598004999999991
 31
0.0
  0
LINE
  5
64
330
1E
100
AcDbEntity
  8
0
100
AcDbLine
 10
113.9
 20
0.10000499999999
 30
0.0
 11
117.5
 21
0.598004999999991
 31
0.0
  0
LINE
  5
65
330
1E
100
AcDbEntity
  8
0
100
AcDbLine
 10
110.0
 20
0.0000049999999907
 30
0.0
 11
113.9
 21
0.10000499999999
 31
0.0
  0
LINE
  5
66
330
1E
100
AcDbEntity
  8
0
100
AcDbLine
 10
95.8
 20
2.95100499999999
 30
0.0
 11
96.90000000000001
 21
2.39100499999999
 31
0.0
  0
LINE
  5
67
330
1E
100
AcDbEntity
  8
0
100
AcDbLine
 10
96.90000000000001
 20
2.39100499999999
 30
0.0
 11
99.29999999999999
 21
1.395004999999989
 31
0.0
  0
LINE
  5
68
330
1E
100
AcDbEntity
  8
0
100
AcDbLine
 10
99.29999999999999
 20
1.395004999999989
 30
0.0
 11
102.4999999999999
 21
0.598004999999991
 31
0.0
  0
LINE
  5
69
330
1E
100
AcDbEntity
  8
0
100
AcDbLine
 10
99.29999999999999
 20
1.395004999999989
 30
0.0
 11
102.4999999999999
 21
0.598004999999991
 31
0.0
  0
LINE
  5
6A
330
1E
100
AcDbEntity
  8
0
100
AcDbLine
 10
117.5
 20
0.598004999999991
 30
0.0
 11
120.7
 21
1.395004999999989
 31
0.0
  0
LINE
  5
6B
330
1E
100
AcDbEntity
  8
0
100
AcDbLine
 10
120.7
 20
1.395004999999989
 30
0.0
 11
123.0999999999999
 21
2.39100499999999
 31
0.0
  0
LINE
  5
6C
330
1E
100
AcDbEntity
  8
0
100
AcDbLine
 10
123.0999999999999
 20
2.39100499999999
 30
0.0
 11
124.1999999999999
 21
2.95100499999999
 31
0.0
  0
LINE
  5
6D
330
1E
100
AcDbEntity
  8
0
100
AcDbLine
 10
117.5
 20
0.598004999999991
 30
0.0
 11
120.7
 21
1.395004999999989
 31
0.0
  0
LINE
  5
6E
330
1E
100
AcDbEntity
  8
0
100
AcDbLine
 10
124.1999999999999
 20
2.95100499999999
 30
0.0
 11
125.7
 21
3.87300499999999
 31
0.0
  0
LINE
  5
6F
330
1E
100
AcDbEntity
  8
0
100
AcDbLine
 10
127.4
 20
5.36699499999999
 30
0.0
 11
128.6
 21
6.42399499999999
 31
0.0
  0
LINE
  5
70
330
1E
100
AcDbEntity
  8
0
100
AcDbLine
 10
125.7
 20
3.87300499999999
 30
0.0
 11
127.4
 21
5.36699499999999
 31
0.0
  0
LINE
  5
71
330
1E
100
AcDbEntity
  8
0
100
AcDbLine
 10
102.4999999999999
 20
0.598004999999991
 30
0.0
 11
106.0999999999999
 21
0.10000499999999
 31
0.0
  0
LINE
  5
72
330
1E
100
AcDbEntity
  8
0
100
AcDbLine
 10
102.4999999999999
 20
0.598004999999991
 30
0.0
 11
106.0999999999999
 21
0.10000499999999
 31
0.0
  0
LINE
  5
73
330
1E
100
AcDbEntity
  8
0
100
AcDbLine
 10
106.0999999999999
 20
0.10000499999999
 30
0.0
 11
110.0
 21
0.0000049999999907
 31
0.0
  0
LINE
  5
74
330
1E
100
AcDbEntity
  8
0
100
AcDbLine
 10
106.0999999999999
 20
0.10000499999999
 30
0.0
 11
110.0
 21
0.0000049999999907
 31
0.0
  0
LINE
  5
75
330
1E
100
AcDbEntity
  8
0
100
AcDbLine
 10
94.29999999999999
 20
3.87300499999999
 30
0.0
 11
95.8
 21
2.95100499999999
 31
0.0
  0
LINE
  5
76
330
1E
100
AcDbEntity
  8
0
100
AcDbLine
 10
128.6
 20
6.42399499999999
 30
0.0
 11
129.6999999999999
 21
8.44399499999999
 31
0.0
  0
LINE
  5
77
330
1E
100
AcDbEntity
  8
0
100
AcDbLine
 10
130.4
 20
10.101995
 30
0.0
 11
131.6
 21
13.264995
 31
0.0
  0
LINE
  5
78
330
1E
100
AcDbEntity
  8
0
100
AcDbLine
 10
129.6999999999999
 20
8.44399499999999
 30
0.0
 11
130.4
 21
10.101995
 31
0.0
  0
LINE
  5
79
330
1E
100
AcDbEntity
  8
0
100
AcDbLine
 10
91.4
 20
6.42399499999999
 30
0.0
 11
92.59999999999999
 21
5.36699499999999
 31
0.0
  0
LINE
  5
7A
330
1E
100
AcDbEntity
  8
0
100
AcDbLine
 10
92.59999999999999
 20
5.36699499999999
 30
0.0
 11
94.29999999999999
 21
3.87300499999999
 31
0.0
  0
LINE
  5
7B
330
1E
100
AcDbEntity
  8
0
100
AcDbLine
 10
90.29999999999999
 20
8.44399499999999
 30
0.0
 11
91.4
 21
6.42399499999999
 31
0.0
  0
LINE
  5
7C
330
1E
100
AcDbEntity
  8
0
100
AcDbLine
 10
131.6
 20
13.264995
 30
0.0
 11
133.0999999999999
 21
19.534995
 31
0.0
  0
LINE
  5
7D
330
1E
100
AcDbEntity
  8
0
100
AcDbLine
 10
133.0999999999999
 20
19.534995
 30
0.0
 11
134.0
 21
25.684995
 31
0.0
  0
LINE
  5
7E
330
1E
100
AcDbEntity
  8
0
100
AcDbLine
 10
116.4
 20
44.589195
 30
0.0
 11
122.3999999999999
 21
45.109095
 31
0.0
  0
LINE
  5
7F
330
1E
100
AcDbEntity
  8
0
100
AcDbLine
 10
110.0
 20
44.33779499999999
 30
0.0
 11
116.4
 21
44.589195
 31
0.0
  0
LINE
  5
80
330
1E
100
AcDbEntity
  8
0
100
AcDbLine
 10
88.40000000000001
 20
13.264995
 30
0.0
 11
89.59999999999999
 21
10.101995
 31
0.0
  0
LINE
  5
81
330
1E
100
AcDbEntity
  8
0
100
AcDbLine
 10
89.59999999999999
 20
10.101995
 30
0.0
 11
90.29999999999999
 21
8.44399499999999
 31
0.0
  0
LINE
  5
82
330
1E
100
AcDbEntity
  8
0
100
AcDbLine
 10
86.90000000000001
 20
19.534995
 30
0.0
 11
88.40000000000001
 21
13.264995
 31
0.0
  0
LINE
  5
83
330
1E
100
AcDbEntity
  8
0
100
AcDbLine
 10
86.5
 20
54.999995
 30
0.0
 11
88.9
 21
54.999995
 31
0.0
  0
LINE
  5
84
330
1E
100
AcDbEntity
  8
0
100
AcDbLine
 10
92.79999999999999
 20
54.999995
 30
0.0
 11
97.9
 21
54.999995
 31
0.0
  0
LINE
  5
85
330
1E
100
AcDbEntity
  8
0
100
AcDbLine
 10
88.9
 20
54.999995
 30
0.0
 11
92.79999999999999
 21
54.999995
 31
0.0
  0
LINE
  5
86
330
1E
100
AcDbEntity
  8
0
100
AcDbLine
 10
88.40000000000001
 20
47.801095
 30
0.0
 11
92.3
 21
46.292695
 31
0.0
  0
LINE
  5
87
330
1E
100
AcDbEntity
  8
0
100
AcDbLine
 10
92.3
 20
46.292695
 30
0.0
 11
97.59999999999999
 21
45.109095
 31
0.0
  0
LINE
  5
88
330
1E
100
AcDbEntity
  8
0
100
AcDbLine
 10
110.0
 20
54.999995
 30
0.0
 11
116.3
 21
54.999995
 31
0.0
  0
LINE
  5
89
330
1E
100
AcDbEntity
  8
0
100
AcDbLine
 10
116.3
 20
54.999995
 30
0.0
 11
122.0999999999999
 21
54.999995
 31
0.0
  0
LINE
  5
8A
330
1E
100
AcDbEntity
  8
0
100
AcDbLine
 10
122.0999999999999
 20
54.999995
 30
0.0
 11
127.2
 21
54.999995
 31
0.0
  0
LINE
  5
8B
330
1E
100
AcDbEntity
  8
0
100
AcDbLine
 10
127.2
 20
54.999995
 30
0.0
 11
131.0999999999999
 21
54.999995
 31
0.0
  0
LINE
  5
8C
330
1E
100
AcDbEntity
  8
0
100
AcDbLine
 10
103.7
 20
54.999995
 30
0.0
 11
110.0
 21
54.999995
 31
0.0
  0
LINE
  5
8D
330
1E
100
AcDbEntity
  8
0
100
AcDbLine
 10
97.9
 20
54.999995
 30
0.0
 11
103.7
 21
54.999995
 31
0.0
  0
LINE
  5
8E
330
1E
100
AcDbEntity
  8
0
100
AcDbLine
 10
131.0999999999999
 20
54.999995
 30
0.0
 11
133.4999999999999
 21
54.999995
 31
0.0
  0
LINE
  5
8F
330
1E
100
AcDbEntity
  8
0
100
AcDbLine
 10
133.4999999999999
 20
54.999995
 30
0.0
 11
134.4
 21
54.999995
 31
0.0
  0
LINE
  5
90
330
1E
100
AcDbEntity
  8
0
100
AcDbLine
 10
131.6
 20
47.801095
 30
0.0
 11
134.0999999999999
 21
49.63439499999999
 31
0.0
  0
LINE
  5
91
330
1E
100
AcDbEntity
  8
0
100
AcDbLine
 10
127.7
 20
46.292695
 30
0.0
 11
131.6
 21
47.801095
 31
0.0
  0
LINE
  5
92
330
1E
100
AcDbEntity
  8
0
100
AcDbLine
 10
122.3999999999999
 20
45.109095
 30
0.0
 11
127.7
 21
46.292695
 31
0.0
  0
LINE
  5
93
330
1E
100
AcDbEntity
  8
0
100
AcDbLine
 10
97.59999999999999
 20
45.109095
 30
0.0
 11
103.6
 21
44.589195
 31
0.0
  0
LINE
  5
94
330
1E
100
AcDbEntity
  8
0
100
AcDbLine
 10
103.6
 20
44.589195
 30
0.0
 11
110.0
 21
44.33779499999999
 31
0.0
  0
LINE
  5
95
330
1E
100
AcDbEntity
  8
0
100
AcDbLine
 10
134.0
 20
25.684995
 30
0.0
 11
134.6999999999999
 21
34.159995
 31
0.0
  0
LINE
  5
96
330
1E
100
AcDbEntity
  8
0
100
AcDbLine
 10
134.6999999999999
 20
34.159995
 30
0.0
 11
135.0
 21
40.63169499999999
 31
0.0
  0
LINE
  5
97
330
1E
100
AcDbEntity
  8
0
100
AcDbLine
 10
134.0999999999999
 20
49.63439499999999
 30
0.0
 11
135.0
 21
51.603495
 31
0.0
  0
LINE
  5
98
330
1E
100
AcDbEntity
  8
0
100
AcDbLine
 10
135.0
 20
40.63169499999999
 30
0.0
 11
135.0
 21
51.603495
 31
0.0
  0
LINE
  5
99
330
1E
100
AcDbEntity
  8
0
100
AcDbLine
 10
134.0
 20
51.642403
 30
0.0
 11
134.0999999999999
 21
51.643395
 31
0.0
  0
LINE
  5
9A
330
1E
100
AcDbEntity
  8
0
100
AcDbLine
 10
134.4
 20
54.999995
 30
0.0
 11
135.0
 21
55.59999499999999
 31
0.0
  0
LINE
  5
9B
330
1E
100
AcDbEntity
  8
0
100
AcDbLine
 10
134.0999999999999
 20
51.643395
 30
0.0
 11
135.0
 21
51.603495
 31
0.0
  0
LINE
  5
9C
330
1E
100
AcDbEntity
  8
0
100
AcDbLine
 10
135.0
 20
51.603495
 30
0.0
 11
135.0
 21
40.63169499999999
 31
0.0
  0
LINE
  5
9D
330
1E
100
AcDbEntity
  8
0
100
AcDbLine
 10
134.0
 20
51.09709500000001
 30
0.0
 11
134.0
 21
54.999995
 31
0.0
  0
LINE
  5
9E
330
1E
100
AcDbEntity
  8
0
100
AcDbLine
 10
133.76537237195
 20
49.3890058677987
 30
0.0
 11
134.0
 21
51.09709500000001
 31
0.0
  0
LINE
  5
9F
330
1E
100
AcDbEntity
  8
0
100
AcDbLine
 10
116.4
 20
55.59999499999999
 30
0.0
 11
122.3999999999999
 21
55.59999499999999
 31
0.0
  0
LINE
  5
A0
330
1E
100
AcDbEntity
  8
0
100
AcDbLine
 10
122.3999999999999
 20
55.59999499999999
 30
0.0
 11
127.7
 21
55.59999499999999
 31
0.0
  0
LINE
  5
A1
330
1E
100
AcDbEntity
  8
0
100
AcDbLine
 10
127.7
 20
55.59999499999999
 30
0.0
 11
131.6999999999999
 21
55.59999499999999
 31
0.0
  0
LINE
  5
A2
330
1E
100
AcDbEntity
  8
0
100
AcDbLine
 10
131.6999999999999
 20
55.59999499999999
 30
0.0
 11
134.0999999999999
 21
55.59999499999999
 31
0.0
  0
LINE
  5
A3
330
1E
100
AcDbEntity
  8
0
100
AcDbLine
 10
134.0999999999999
 20
55.59999499999999
 30
0.0
 11
135.0
 21
55.59999499999999
 31
0.0
  0
LINE
  5
A4
330
1E
100
AcDbEntity
  8
0
100
AcDbLine
 10
135.0
 20
55.59999499999999
 30
0.0
 11
135.7839999999999
 21
63.35279499999999
 31
0.0
  0
LINE
  5
A5
330
1E
100
AcDbEntity
  8
0
100
AcDbLine
 10
103.6
 20
55.59999499999999
 30
0.0
 11
110.0
 21
55.59999499999999
 31
0.0
  0
LINE
  5
A6
330
1E
100
AcDbEntity
  8
0
100
AcDbLine
 10
97.59999999999999
 20
55.59999499999999
 30
0.0
 11
103.6
 21
55.59999499999999
 31
0.0
  0
LINE
  5
A7
330
1E
100
AcDbEntity
  8
0
100
AcDbLine
 10
110.0
 20
55.59999499999999
 30
0.0
 11
116.4
 21
55.59999499999999
 31
0.0
  0
LINE
  5
A8
330
1E
100
AcDbEntity
  8
0
100
AcDbLine
 10
135.7839999999999
 20
63.35279499999999
 30
0.0
 11
138.081
 21
68.89999499999999
 31
0.0
  0
LINE
  5
A9
330
1E
100
AcDbEntity
  8
0
100
AcDbLine
 10
138.081
 20
68.89999499999999
 30
0.0
 11
141.737
 21
73.663495
 31
0.0
  0
LINE
  5
AA
330
1E
100
AcDbEntity
  8
0
100
AcDbLine
 10
92.3
 20
55.59999499999999
 30
0.0
 11
97.59999999999999
 21
55.59999499999999
 31
0.0
  0
LINE
  5
AB
330
1E
100
AcDbEntity
  8
0
100
AcDbLine
 10
88.3
 20
55.59999499999999
 30
0.0
 11
92.3
 21
55.59999499999999
 31
0.0
  0
LINE
  5
AC
330
1E
100
AcDbEntity
  8
0
100
AcDbLine
 10
134.0
 20
54.999995
 30
0.0
 11
134.0
 21
51.09709500000001
 31
0.0
  0
LINE
  5
AD
330
1E
100
AcDbEntity
  8
0
100
AcDbLine
 10
134.0
 20
54.999995
 30
0.0
 11
134.4
 21
54.999995
 31
0.0
  0
LINE
  5
AE
330
1E
100
AcDbEntity
  8
0
100
AcDbLine
 10
86.0
 20
51.09709500000001
 30
0.0
 11
86.0
 21
54.999995
 31
0.0
  0
LINE
  5
AF
330
1E
100
AcDbEntity
  8
0
100
AcDbLine
 10
86.0
 20
51.09709500000001
 30
0.0
 11
86.2346276280496
 21
49.3890058677987
 31
0.0
  0
LINE
  5
B0
330
1E
100
AcDbEntity
  8
0
100
AcDbLine
 10
141.737
 20
73.663495
 30
0.0
 11
146.5
 21
77.318595
 31
0.0
  0
LINE
  5
B1
330
1E
100
AcDbEntity
  8
0
100
AcDbLine
 10
146.5
 20
77.318595
 30
0.0
 11
152.0469999999999
 21
79.61629499999999
 31
0.0
  0
LINE
  5
B2
330
1E
100
AcDbEntity
  8
0
100
AcDbLine
 10
81.9186
 20
68.89999499999999
 30
0.0
 11
84.2163
 21
63.35279499999999
 31
0.0
  0
LINE
  5
B3
330
1E
100
AcDbEntity
  8
0
100
AcDbLine
 10
78.26349999999999
 20
73.663495
 30
0.0
 11
81.9186
 21
68.89999499999999
 31
0.0
  0
LINE
  5
B4
330
1E
100
AcDbEntity
  8
0
100
AcDbLine
 10
110.0
 20
107.9999949999999
 30
0.0
 11
158.0
 21
107.9999949999999
 31
0.0
  0
LINE
  5
B5
330
1E
100
AcDbEntity
  8
0
100
AcDbLine
 10
110.0
 20
106.9999949999999
 30
0.0
 11
158.0
 21
106.9999949999999
 31
0.0
  0
LINE
  5
B6
330
1E
100
AcDbEntity
  8
0
100
AcDbLine
 10
158.0
 20
106.9999949999999
 30
0.0
 11
185.0
 21
106.9999949999999
 31
0.0
  0
LINE
  5
B7
330
1E
100
AcDbEntity
  8
0
100
AcDbLine
 10
185.0
 20
81.999995
 30
0.0
 11
191.47
 21
82.85189499999999
 31
0.0
  0
LINE
  5
B8
330
1E
100
AcDbEntity
  8
0
100
AcDbLine
 10
185.0
 20
106.9999949999999
 30
0.0
 11
191.4
 21
106.9999949999999
 31
0.0
  0
LINE
  5
B9
330
1E
100
AcDbEntity
  8
0
100
AcDbLine
 10
158.0
 20
80.39999499999998
 30
0.0
 11
185.0
 21
81.999995
 31
0.0
  0
LINE
  5
BA
330
1E
100
AcDbEntity
  8
0
100
AcDbLine
 10
158.0
 20
107.9999949999999
 30
0.0
 11
185.0
 21
107.9999949999999
 31
0.0
  0
LINE
  5
BB
330
1E
100
AcDbEntity
  8
0
100
AcDbLine
 10
191.4
 20
106.9999949999999
 30
0.0
 11
197.4
 21
106.9999949999999
 31
0.0
  0
LINE
  5
BC
330
1E
100
AcDbEntity
  8
0
100
AcDbLine
 10
191.47
 20
82.85189499999999
 30
0.0
 11
197.5
 21
85.349395
 31
0.0
  0
LINE
  5
BD
330
1E
100
AcDbEntity
  8
0
100
AcDbLine
 10
196.0
 20
107.9999949999999
 30
0.0
 11
198.0
 21
109.9999949999999
 31
0.0
  0
LINE
  5
BE
330
1E
100
AcDbEntity
  8
0
100
AcDbLine
 10
185.0
 20
107.9999949999999
 30
0.0
 11
191.139
 21
107.9999949999999
 31
0.0
  0
LINE
  5
BF
330
1E
100
AcDbEntity
  8
0
100
AcDbLine
 10
191.139
 20
107.9999949999999
 30
0.0
 11
196.835
 21
107.9999949999999
 31
0.0
  0
LINE
  5
C0
330
1E
100
AcDbEntity
  8
0
100
AcDbLine
 10
197.5
 20
85.349395
 30
0.0
 11
202.678
 21
89.322295
 31
0.0
  0
LINE
  5
C1
330
1E
100
AcDbEntity
  8
0
100
AcDbLine
 10
197.4
 20
106.9999949999999
 30
0.0
 11
202.7
 21
106.9999949999999
 31
0.0
  0
LINE
  5
C2
330
1E
100
AcDbEntity
  8
0
100
AcDbLine
 10
202.7
 20
106.9999949999999
 30
0.0
 11
206.5999999999999
 21
106.9999949999999
 31
0.0
  0
LINE
  5
C3
330
1E
100
AcDbEntity
  8
0
100
AcDbLine
 10
202.678
 20
89.322295
 30
0.0
 11
206.651
 21
94.499995
 31
0.0
  0
LINE
  5
C4
330
1E
100
AcDbEntity
  8
0
100
AcDbLine
 10
196.835
 20
107.9999949999999
 30
0.0
 11
201.949
 21
107.9999949999999
 31
0.0
  0
LINE
  5
C5
330
1E
100
AcDbEntity
  8
0
100
AcDbLine
 10
201.949
 20
107.9999949999999
 30
0.0
 11
205.7739999999999
 21
107.9999949999999
 31
0.0
  0
LINE
  5
C6
330
1E
100
AcDbEntity
  8
0
100
AcDbLine
 10
206.5999999999999
 20
106.9999949999999
 30
0.0
 11
209.1
 21
106.9999949999999
 31
0.0
  0
LINE
  5
C7
330
1E
100
AcDbEntity
  8
0
100
AcDbLine
 10
209.0
 20
107.9999949999999
 30
0.0
 11
210.0
 21
106.9999949999999
 31
0.0
  0
LINE
  5
C8
330
1E
100
AcDbEntity
  8
0
100
AcDbLine
 10
209.1
 20
106.9999949999999
 30
0.0
 11
210.0
 21
106.9999949999999
 31
0.0
  0
LINE
  5
C9
330
1E
100
AcDbEntity
  8
0
100
AcDbLine
 10
209.1479999999999
 20
100.5299949999999
 30
0.0
 11
210.0
 21
106.9999949999999
 31
0.0
  0
LINE
  5
CA
330
1E
100
AcDbEntity
  8
0
100
AcDbLine
 10
206.651
 20
94.499995
 30
0.0
 11
209.1479999999999
 21
100.5299949999999
 31
0.0
  0
LINE
  5
CB
330
1E
100
AcDbEntity
  8
0
100
AcDbLine
 10
205.7739999999999
 20
107.9999949999999
 30
0.0
 11
208.0
 21
107.9999949999999
 31
0.0
  0
LINE
  5
CC
330
1E
100
AcDbEntity
  8
0
100
AcDbLine
 10
208.0
 20
107.9999949999999
 30
0.0
 11
209.0
 21
107.9999949999999
 31
0.0
  0
LINE
  5
CD
330
1E
100
AcDbEntity
  8
0
100
AcDbLine
 10
152.0469999999999
 20
79.61629499999999
 30
0.0
 11
158.0
 21
80.39999499999998
 31
0.0
  0
LINE
  5
CE
330
1E
100
AcDbEntity
  8
0
100
AcDbLine
 10
73.5
 20
77.318595
 30
0.0
 11
78.26349999999999
 21
73.663495
 31
0.0
  0
LINE
  5
CF
330
1E
100
AcDbEntity
  8
0
100
AcDbLine
 10
67.95279999999999
 20
79.61629499999999
 30
0.0
 11
73.5
 21
77.318595
 31
0.0
  0
LINE
  5
D0
330
1E
100
AcDbEntity
  8
0
100
AcDbLine
 10
28.8615
 20
107.9999949999999
 30
0.0
 11
35.0
 21
107.9999949999999
 31
0.0
  0
LINE
  5
D1
330
1E
100
AcDbEntity
  8
0
100
AcDbLine
 10
28.6
 20
106.9999949999999
 30
0.0
 11
35.0
 21
106.9999949999999
 31
0.0
  0
LINE
  5
D4
330
1E
100
AcDbEntity
  8
0
100
AcDbLine
 10
172.0
 20
109.9999949999999
 30
0.0
 11
174.0
 21
107.9999949999999
 31
0.0
  0
LINE
  5
D5
330
1E
100
AcDbEntity
  8
0
100
AcDbLine
 10
172.0
 20
109.9999949999999
 30
0.0
 11
172.5
 21
109.9999949999999
 31
0.0
  0
LINE
  5
D6
330
1E
100
AcDbEntity
  8
0
100
AcDbLine
 10
172.0
 20
109.9999949999999
 30
0.0
 11
172.0
 21
111.9999949999999
 31
0.0
  0
LINE
  5
D7
330
1E
100
AcDbEntity
  8
0
100
AcDbLine
 10
172.5
 20
109.9999949999999
 30
0.0
 11
198.0
 21
109.9999949999999
 31
0.0
  0
LINE
  5
DA
330
1E
100
AcDbEntity
  8
0
100
AcDbLine
 10
48.0
 20
109.9999949999999
 30
0.0
 11
48.0
 21
111.9999949999999
 31
0.0
  0
LINE
  5
DB
330
1E
100
AcDbEntity
  8
0
100
AcDbLine
 10
22.5
 20
109.9999949999999
 30
0.0
 11
48.0
 21
109.9999949999999
 31
0.0
  0
LINE
  5
DE
330
1E
100
AcDbEntity
  8
0
100
AcDbLine
 10
46.0
 20
107.9999949999999
 30
0.0
 11
48.0
 21
109.9999949999999
 31
0.0
  0
LINE
  5
E1
330
1E
100
AcDbEntity
  8
0
100
AcDbLine
 10
24.0
 20
121.999995
 30
0.0
 11
24.39999999999999
 21
121.999995
 31
0.0
  0
LINE
  5
E2
330
1E
100
AcDbEntity
  8
0
100
AcDbLine
 10
24.0
 20
121.999995
 30
0.0
 11
24.0
 21
128.9999949999999
 31
0.0
  0
LINE
  5
E3
330
1E
100
AcDbEntity
  8
0
100
AcDbLine
 10
24.39999999999999
 20
121.999995
 30
0.0
 11
25.5
 21
121.999995
 31
0.0
  0
LINE
  5
E4
330
1E
100
AcDbEntity
  8
0
100
AcDbLine
 10
25.5
 20
121.999995
 30
0.0
 11
27.2
 21
121.999995
 31
0.0
  0
LINE
  5
E5
330
1E
100
AcDbEntity
  8
0
100
AcDbLine
 10
24.0
 20
128.9999949999999
 30
0.0
 11
24.0
 21
121.999995
 31
0.0
  0
LINE
  5
E6
330
1E
100
AcDbEntity
  8
0
100
AcDbLine
 10
24.0
 20
128.9999949999999
 30
0.0
 11
24.39999999999999
 21
128.9999949999999
 31
0.0
  0
LINE
  5
E7
330
1E
100
AcDbEntity
  8
0
100
AcDbLine
 10
25.1
 20
128.9999949999999
 30
0.0
 11
28.0
 21
128.9999949999999
 31
0.0
  0
LINE
  5
E8
330
1E
100
AcDbEntity
  8
0
100
AcDbLine
 10
24.39999999999999
 20
128.9999949999999
 30
0.0
 11
25.5
 21
128.9999949999999
 31
0.0
  0
LINE
  5
E9
330
1E
100
AcDbEntity
  8
0
100
AcDbLine
 10
25.5
 20
128.9999949999999
 30
0.0
 11
27.2
 21
128.9999949999999
 31
0.0
  0
LINE
  5
EA
330
1E
100
AcDbEntity
  8
0
100
AcDbLine
 10
28.0
 20
128.9999949999999
 30
0.0
 11
31.4
 21
128.9999949999999
 31
0.0
  0
LINE
  5
EB
330
1E
100
AcDbEntity
  8
0
100
AcDbLine
 10
27.2
 20
128.9999949999999
 30
0.0
 11
29.5
 21
128.9999949999999
 31
0.0
  0
LINE
  5
EC
330
1E
100
AcDbEntity
  8
0
100
AcDbLine
 10
26.0
 20
153.9999949999999
 30
0.0
 11
35.0
 21
153.9999949999999
 31
0.0
  0
LINE
  5
ED
330
1E
100
AcDbEntity
  8
0
100
AcDbLine
 10
26.0
 20
148.9999949999999
 30
0.0
 11
35.0
 21
148.9999949999999
 31
0.0
  0
LINE
  5
EE
330
1E
100
AcDbEntity
  8
0
100
AcDbLine
 10
29.5
 20
128.9999949999999
 30
0.0
 11
32.2
 21
128.9999949999999
 31
0.0
  0
LINE
  5
EF
330
1E
100
AcDbEntity
  8
0
100
AcDbLine
 10
22.9
 20
128.9999949999999
 30
0.0
 11
24.0
 21
128.9999949999999
 31
0.0
  0
LINE
  5
F0
330
1E
100
AcDbEntity
  8
0
100
AcDbLine
 10
22.9
 20
128.9999949999999
 30
0.0
 11
25.1
 21
128.9999949999999
 31
0.0
  0
LINE
  5
F1
330
1E
100
AcDbEntity
  8
0
100
AcDbLine
 10
27.2
 20
121.999995
 30
0.0
 11
29.5
 21
121.999995
 31
0.0
  0
LINE
  5
F2
330
1E
100
AcDbEntity
  8
0
100
AcDbLine
 10
31.4
 20
128.9999949999999
 30
0.0
 11
35.0
 21
128.9999949999999
 31
0.0
  0
LINE
  5
F3
330
1E
100
AcDbEntity
  8
0
100
AcDbLine
 10
32.2
 20
128.9999949999999
 30
0.0
 11
35.0
 21
128.9999949999999
 31
0.0
  0
LINE
  5
F4
330
1E
100
AcDbEntity
  8
0
100
AcDbLine
 10
29.5
 20
121.999995
 30
0.0
 11
32.2
 21
121.999995
 31
0.0
  0
LINE
  5
F6
330
1E
100
AcDbEntity
  8
0
100
AcDbLine
 10
37.79999999999999
 20
121.999995
 30
0.0
 11
40.49999999999999
 21
121.999995
 31
0.0
  0
LINE
  5
F8
330
1E
100
AcDbEntity
  8
0
100
AcDbLine
 10
35.0
 20
121.999995
 30
0.0
 11
37.79999999999999
 21
121.999995
 31
0.0
  0
LINE
  5
F9
330
1E
100
AcDbEntity
  8
0
100
AcDbLine
 10
37.79999999999999
 20
128.9999949999999
 30
0.0
 11
40.49999999999999
 21
128.9999949999999
 31
0.0
  0
LINE
  5
FA
330
1E
100
AcDbEntity
  8
0
100
AcDbLine
 10
40.49999999999999
 20
121.999995
 30
0.0
 11
42.8
 21
121.999995
 31
0.0
  0
LINE
  5
FB
330
1E
100
AcDbEntity
  8
0
100
AcDbLine
 10
42.8
 20
121.999995
 30
0.0
 11
44.5
 21
121.999995
 31
0.0
  0
LINE
  5
FD
330
1E
100
AcDbEntity
  8
0
100
AcDbLine
 10
44.5
 20
121.999995
 30
0.0
 11
45.6
 21
121.999995
 31
0.0
  0
LINE
  5
FE
330
1E
100
AcDbEntity
  8
0
100
AcDbLine
 10
45.6
 20
121.999995
 30
0.0
 11
46.0
 21
121.999995
 31
0.0
  0
LINE
  5
FF
330
1E
100
AcDbEntity
  8
0
100
AcDbLine
 10
48.0
 20
119.999995
 30
0.0
 11
48.0
 21
114.9999949999999
 31
0.0
  0
LINE
  5
100
330
1E
100
AcDbEntity
  8
0
100
AcDbLine
 10
22.5
 20
119.999995
 30
0.0
 11
48.0
 21
119.999995
 31
0.0
  0
LINE
  5
101
330
1E
100
AcDbEntity
  8
0
100
AcDbLine
 10
48.0
 20
114.9999949999999
 30
0.0
 11
48.0
 21
111.9999949999999
 31
0.0
  0
LINE
  5
102
330
1E
100
AcDbEntity
  8
0
100
AcDbLine
 10
48.0
 20
114.9999949999999
 30
0.0
 11
48.0
 21
119.999995
 31
0.0
  0
LINE
  5
103
330
1E
100
AcDbEntity
  8
0
100
AcDbLine
 10
46.0
 20
128.9999949999999
 30
0.0
 11
46.0
 21
121.999995
 31
0.0
  0
LINE
  5
104
330
1E
100
AcDbEntity
  8
0
100
AcDbLine
 10
46.0
 20
128.9999949999999
 30
0.0
 11
47.09999999999999
 21
128.9999949999999
 31
0.0
  0
LINE
  5
105
330
1E
100
AcDbEntity
  8
0
100
AcDbLine
 10
46.0
 20
121.999995
 30
0.0
 11
48.0
 21
119.999995
 31
0.0
  0
LINE
  5
106
330
1E
100
AcDbEntity
  8
0
100
AcDbLine
 10
46.0
 20
121.999995
 30
0.0
 11
46.0
 21
128.9999949999999
 31
0.0
  0
LINE
  5
107
330
1E
100
AcDbEntity
  8
0
100
AcDbLine
 10
172.0
 20
117.999995
 30
0.0
 11
172.0
 21
114.9999949999999
 31
0.0
  0
LINE
  5
108
330
1E
100
AcDbEntity
  8
0
100
AcDbLine
 10
172.0
 20
117.999995
 30
0.0
 11
172.0
 21
119.999995
 31
0.0
  0
LINE
  5
109
330
1E
100
AcDbEntity
  8
0
100
AcDbLine
 10
172.0
 20
119.999995
 30
0.0
 11
174.0
 21
121.999995
 31
0.0
  0
LINE
  5
10A
330
1E
100
AcDbEntity
  8
0
100
AcDbLine
 10
172.0
 20
119.999995
 30
0.0
 11
172.0
 21
117.999995
 31
0.0
  0
LINE
  5
10B
330
1E
100
AcDbEntity
  8
0
100
AcDbLine
 10
172.0
 20
119.999995
 30
0.0
 11
172.5
 21
119.999995
 31
0.0
  0
LINE
  5
10C
330
1E
100
AcDbEntity
  8
0
100
AcDbLine
 10
172.0
 20
114.9999949999999
 30
0.0
 11
172.0
 21
111.9999949999999
 31
0.0
  0
LINE
  5
10D
330
1E
100
AcDbEntity
  8
0
100
AcDbLine
 10
172.0
 20
114.9999949999999
 30
0.0
 11
172.0
 21
117.999995
 31
0.0
  0
LINE
  5
10E
330
1E
100
AcDbEntity
  8
0
100
AcDbLine
 10
174.0
 20
121.999995
 30
0.0
 11
174.3999999999999
 21
121.999995
 31
0.0
  0
LINE
  5
10F
330
1E
100
AcDbEntity
  8
0
100
AcDbLine
 10
174.0
 20
121.999995
 30
0.0
 11
174.0
 21
128.9999949999999
 31
0.0
  0
LINE
  5
110
330
1E
100
AcDbEntity
  8
0
100
AcDbLine
 10
174.3999999999999
 20
121.999995
 30
0.0
 11
175.5
 21
121.999995
 31
0.0
  0
LINE
  5
111
330
1E
100
AcDbEntity
  8
0
100
AcDbLine
 10
175.5
 20
121.999995
 30
0.0
 11
177.2
 21
121.999995
 31
0.0
  0
LINE
  5
112
330
1E
100
AcDbEntity
  8
0
100
AcDbLine
 10
177.2
 20
121.999995
 30
0.0
 11
179.4999999999999
 21
121.999995
 31
0.0
  0
LINE
  5
114
330
1E
100
AcDbEntity
  8
0
100
AcDbLine
 10
179.4999999999999
 20
121.999995
 30
0.0
 11
182.1999999999999
 21
121.999995
 31
0.0
  0
LINE
  5
116
330
1E
100
AcDbEntity
  8
0
100
AcDbLine
 10
182.1999999999999
 20
121.999995
 30
0.0
 11
185.0
 21
121.999995
 31
0.0
  0
LINE
  5
117
330
1E
100
AcDbEntity
  8
0
100
AcDbLine
 10
172.0
 20
111.9999949999999
 30
0.0
 11
172.0
 21
109.9999949999999
 31
0.0
  0
LINE
  5
118
330
1E
100
AcDbEntity
  8
0
100
AcDbLine
 10
172.0
 20
111.9999949999999
 30
0.0
 11
172.0
 21
114.9999949999999
 31
0.0
  0
LINE
  5
119
330
1E
100
AcDbEntity
  8
0
100
AcDbLine
 10
187.8
 20
121.999995
 30
0.0
 11
190.5
 21
121.999995
 31
0.0
  0
LINE
  5
11A
330
1E
100
AcDbEntity
  8
0
100
AcDbLine
 10
198.0
 20
109.9999949999999
 30
0.0
 11
198.0
 21
119.999995
 31
0.0
  0
LINE
  5
11B
330
1E
100
AcDbEntity
  8
0
100
AcDbLine
 10
198.0
 20
119.999995
 30
0.0
 11
198.0
 21
109.9999949999999
 31
0.0
  0
LINE
  5
11C
330
1E
100
AcDbEntity
  8
0
100
AcDbLine
 10
172.5
 20
119.999995
 30
0.0
 11
198.0
 21
119.999995
 31
0.0
  0
LINE
  5
11D
330
1E
100
AcDbEntity
  8
0
100
AcDbLine
 10
195.5999999999999
 20
121.999995
 30
0.0
 11
196.0
 21
121.999995
 31
0.0
  0
LINE
  5
11E
330
1E
100
AcDbEntity
  8
0
100
AcDbLine
 10
196.0
 20
121.999995
 30
0.0
 11
198.0
 21
119.999995
 31
0.0
  0
LINE
  5
11F
330
1E
100
AcDbEntity
  8
0
100
AcDbLine
 10
196.0
 20
121.999995
 30
0.0
 11
196.0
 21
128.9999949999999
 31
0.0
  0
LINE
  5
120
330
1E
100
AcDbEntity
  8
0
100
AcDbLine
 10
194.5
 20
121.999995
 30
0.0
 11
195.5999999999999
 21
121.999995
 31
0.0
  0
LINE
  5
121
330
1E
100
AcDbEntity
  8
0
100
AcDbLine
 10
192.8
 20
121.999995
 30
0.0
 11
194.5
 21
121.999995
 31
0.0
  0
LINE
  5
122
330
1E
100
AcDbEntity
  8
0
100
AcDbLine
 10
190.5
 20
121.999995
 30
0.0
 11
192.8
 21
121.999995
 31
0.0
  0
LINE
  5
125
330
1E
100
AcDbEntity
  8
0
100
AcDbLine
 10
174.0
 20
128.9999949999999
 30
0.0
 11
174.3999999999999
 21
128.9999949999999
 31
0.0
  0
LINE
  5
126
330
1E
100
AcDbEntity
  8
0
100
AcDbLine
 10
174.0
 20
128.9999949999999
 30
0.0
 11
174.0
 21
121.999995
 31
0.0
  0
LINE
  5
127
330
1E
100
AcDbEntity
  8
0
100
AcDbLine
 10
171.0
 20
128.9999949999999
 30
0.0
 11
171.5
 21
128.9999949999999
 31
0.0
  0
LINE
  5
128
330
1E
100
AcDbEntity
  8
0
100
AcDbLine
 10
174.3999999999999
 20
128.9999949999999
 30
0.0
 11
175.5
 21
128.9999949999999
 31
0.0
  0
LINE
  5
129
330
1E
100
AcDbEntity
  8
0
100
AcDbLine
 10
171.5
 20
128.9999949999999
 30
0.0
 11
172.9
 21
128.9999949999999
 31
0.0
  0
LINE
  5
12A
330
1E
100
AcDbEntity
  8
0
100
AcDbLine
 10
175.5
 20
128.9999949999999
 30
0.0
 11
177.2
 21
128.9999949999999
 31
0.0
  0
LINE
  5
12B
330
1E
100
AcDbEntity
  8
0
100
AcDbLine
 10
172.9
 20
128.9999949999999
 30
0.0
 11
175.0999999999999
 21
128.9999949999999
 31
0.0
  0
LINE
  5
12C
330
1E
100
AcDbEntity
  8
0
100
AcDbLine
 10
172.9
 20
128.9999949999999
 30
0.0
 11
174.0
 21
128.9999949999999
 31
0.0
  0
LINE
  5
12D
330
1E
100
AcDbEntity
  8
0
100
AcDbLine
 10
177.2
 20
128.9999949999999
 30
0.0
 11
179.4999999999999
 21
128.9999949999999
 31
0.0
  0
LINE
  5
12E
330
1E
100
AcDbEntity
  8
0
100
AcDbLine
 10
175.0999999999999
 20
128.9999949999999
 30
0.0
 11
178.0
 21
128.9999949999999
 31
0.0
  0
LINE
  5
12F
330
1E
100
AcDbEntity
  8
0
100
AcDbLine
 10
179.4999999999999
 20
128.9999949999999
 30
0.0
 11
182.1999999999999
 21
128.9999949999999
 31
0.0
  0
LINE
  5
130
330
1E
100
AcDbEntity
  8
0
100
AcDbLine
 10
178.0
 20
128.9999949999999
 30
0.0
 11
181.4
 21
128.9999949999999
 31
0.0
  0
LINE
  5
131
330
1E
100
AcDbEntity
  8
0
100
AcDbLine
 10
182.1999999999999
 20
128.9999949999999
 30
0.0
 11
185.0
 21
128.9999949999999
 31
0.0
  0
LINE
  5
132
330
1E
100
AcDbEntity
  8
0
100
AcDbLine
 10
181.4
 20
128.9999949999999
 30
0.0
 11
185.0
 21
128.9999949999999
 31
0.0
  0
LINE
  5
133
330
1E
100
AcDbEntity
  8
0
100
AcDbLine
 10
192.0
 20
128.9999949999999
 30
0.0
 11
194.9
 21
128.9999949999999
 31
0.0
  0
LINE
  5
134
330
1E
100
AcDbEntity
  8
0
100
AcDbLine
 10
188.5999999999999
 20
128.9999949999999
 30
0.0
 11
192.0
 21
128.9999949999999
 31
0.0
  0
LINE
  5
135
330
1E
100
AcDbEntity
  8
0
100
AcDbLine
 10
194.9
 20
128.9999949999999
 30
0.0
 11
197.1
 21
128.9999949999999
 31
0.0
  0
LINE
  5
136
330
1E
100
AcDbEntity
  8
0
100
AcDbLine
 10
195.5999999999999
 20
128.9999949999999
 30
0.0
 11
196.0
 21
128.9999949999999
 31
0.0
  0
LINE
  5
137
330
1E
100
AcDbEntity
  8
0
100
AcDbLine
 10
194.5
 20
128.9999949999999
 30
0.0
 11
195.5999999999999
 21
128.9999949999999
 31
0.0
  0
LINE
  5
138
330
1E
100
AcDbEntity
  8
0
100
AcDbLine
 10
192.8
 20
128.9999949999999
 30
0.0
 11
194.5
 21
128.9999949999999
 31
0.0
  0
LINE
  5
139
330
1E
100
AcDbEntity
  8
0
100
AcDbLine
 10
190.5
 20
128.9999949999999
 30
0.0
 11
192.8
 21
128.9999949999999
 31
0.0
  0
LINE
  5
13A
330
1E
100
AcDbEntity
  8
0
100
AcDbLine
 10
187.8
 20
128.9999949999999
 30
0.0
 11
190.5
 21
128.9999949999999
 31
0.0
  0
LINE
  5
13B
330
1E
100
AcDbEntity
  8
0
100
AcDbLine
 10
185.0
 20
128.9999949999999
 30
0.0
 11
187.8
 21
128.9999949999999
 31
0.0
  0
LINE
  5
13C
330
1E
100
AcDbEntity
  8
0
100
AcDbLine
 10
185.0
 20
128.9999949999999
 30
0.0
 11
188.5999999999999
 21
128.9999949999999
 31
0.0
  0
LINE
  5
13D
330
1E
100
AcDbEntity
  8
0
100
AcDbLine
 10
199.0
 20
128.9999949999999
 30
0.0
 11
220.0
 21
148.9999949999999
 31
0.0
  0
LINE
  5
13E
330
1E
100
AcDbEntity
  8
0
100
AcDbLine
 10
198.5
 20
128.9999949999999
 30
0.0
 11
199.0
 21
128.9999949999999
 31
0.0
  0
LINE
  5
13F
330
1E
100
AcDbEntity
  8
0
100
AcDbLine
 10
197.1
 20
128.9999949999999
 30
0.0
 11
198.5
 21
128.9999949999999
 31
0.0
  0
LINE
  5
140
330
1E
100
AcDbEntity
  8
0
100
AcDbLine
 10
196.0
 20
128.9999949999999
 30
0.0
 11
197.1
 21
128.9999949999999
 31
0.0
  0
LINE
  5
141
330
1E
100
AcDbEntity
  8
0
100
AcDbLine
 10
196.0
 20
128.9999949999999
 30
0.0
 11
196.0
 21
121.999995
 31
0.0
  0
LINE
  5
142
330
1E
100
AcDbEntity
  8
0
100
AcDbLine
 10
185.0
 20
121.999995
 30
0.0
 11
187.8
 21
121.999995
 31
0.0
  0
LINE
  5
143
330
1E
100
AcDbEntity
  8
0
100
AcDbLine
 10
48.0
 20
111.9999949999999
 30
0.0
 11
48.0
 21
109.9999949999999
 31
0.0
  0
LINE
  5
144
330
1E
100
AcDbEntity
  8
0
100
AcDbLine
 10
48.0
 20
111.9999949999999
 30
0.0
 11
48.0
 21
114.9999949999999
 31
0.0
  0
LINE
  5
145
330
1E
100
AcDbEntity
  8
0
100
AcDbLine
 10
49.0
 20
128.9999949999999
 30
0.0
 11
70.0
 21
148.9999949999999
 31
0.0
  0
LINE
  5
146
330
1E
100
AcDbEntity
  8
0
100
AcDbLine
 10
45.6
 20
128.9999949999999
 30
0.0
 11
46.0
 21
128.9999949999999
 31
0.0
  0
LINE
  5
147
330
1E
100
AcDbEntity
  8
0
100
AcDbLine
 10
48.5
 20
128.9999949999999
 30
0.0
 11
49.0
 21
128.9999949999999
 31
0.0
  0
LINE
  5
148
330
1E
100
AcDbEntity
  8
0
100
AcDbLine
 10
44.5
 20
128.9999949999999
 30
0.0
 11
45.6
 21
128.9999949999999
 31
0.0
  0
LINE
  5
149
330
1E
100
AcDbEntity
  8
0
100
AcDbLine
 10
47.09999999999999
 20
128.9999949999999
 30
0.0
 11
48.5
 21
128.9999949999999
 31
0.0
  0
LINE
  5
14A
330
1E
100
AcDbEntity
  8
0
100
AcDbLine
 10
42.8
 20
128.9999949999999
 30
0.0
 11
44.5
 21
128.9999949999999
 31
0.0
  0
LINE
  5
14B
330
1E
100
AcDbEntity
  8
0
100
AcDbLine
 10
44.9
 20
128.9999949999999
 30
0.0
 11
47.09999999999999
 21
128.9999949999999
 31
0.0
  0
LINE
  5
14C
330
1E
100
AcDbEntity
  8
0
100
AcDbLine
 10
40.49999999999999
 20
128.9999949999999
 30
0.0
 11
42.8
 21
128.9999949999999
 31
0.0
  0
LINE
  5
14D
330
1E
100
AcDbEntity
  8
0
100
AcDbLine
 10
42.0
 20
128.9999949999999
 30
0.0
 11
44.9
 21
128.9999949999999
 31
0.0
  0
LINE
  5
14E
330
1E
100
AcDbEntity
  8
0
100
AcDbLine
 10
38.6
 20
128.9999949999999
 30
0.0
 11
42.0
 21
128.9999949999999
 31
0.0
  0
LINE
  5
14F
330
1E
100
AcDbEntity
  8
0
100
AcDbLine
 10
35.0
 20
153.9999949999999
 30
0.0
 11
44.0
 21
153.9999949999999
 31
0.0
  0
LINE
  5
150
330
1E
100
AcDbEntity
  8
0
100
AcDbLine
 10
150.0
 20
148.9999949999999
 30
0.0
 11
171.0
 21
128.9999949999999
 31
0.0
  0
LINE
  5
151
330
1E
100
AcDbEntity
  8
0
100
AcDbLine
 10
150.0
 20
148.9999949999999
 30
0.0
 11
151.3
 21
148.9999949999999
 31
0.0
  0
LINE
  5
152
330
1E
100
AcDbEntity
  8
0
100
AcDbLine
 10
150.0
 20
148.9999949999999
 30
0.0
 11
150.0
 21
153.9999949999999
 31
0.0
  0
LINE
  5
153
330
1E
100
AcDbEntity
  8
0
100
AcDbLine
 10
151.3
 20
148.9999949999999
 30
0.0
 11
154.6999999999999
 21
148.9999949999999
 31
0.0
  0
LINE
  5
154
330
1E
100
AcDbEntity
  8
0
100
AcDbLine
 10
154.6999999999999
 20
148.9999949999999
 30
0.0
 11
160.3
 21
148.9999949999999
 31
0.0
  0
LINE
  5
155
330
1E
100
AcDbEntity
  8
0
100
AcDbLine
 10
160.3
 20
148.9999949999999
 30
0.0
 11
167.5999999999999
 21
148.9999949999999
 31
0.0
  0
LINE
  5
156
330
1E
100
AcDbEntity
  8
0
100
AcDbLine
 10
167.5999999999999
 20
148.9999949999999
 30
0.0
 11
176.0
 21
148.9999949999999
 31
0.0
  0
LINE
  5
157
330
1E
100
AcDbEntity
  8
0
100
AcDbLine
 10
176.0
 20
148.9999949999999
 30
0.0
 11
185.0
 21
148.9999949999999
 31
0.0
  0
LINE
  5
158
330
1E
100
AcDbEntity
  8
0
100
AcDbLine
 10
218.6999999999999
 20
148.9999949999999
 30
0.0
 11
220.0
 21
148.9999949999999
 31
0.0
  0
LINE
  5
159
330
1E
100
AcDbEntity
  8
0
100
AcDbLine
 10
215.3
 20
148.9999949999999
 30
0.0
 11
218.6999999999999
 21
148.9999949999999
 31
0.0
  0
LINE
  5
15A
330
1E
100
AcDbEntity
  8
0
100
AcDbLine
 10
209.6999999999999
 20
148.9999949999999
 30
0.0
 11
215.3
 21
148.9999949999999
 31
0.0
  0
LINE
  5
15B
330
1E
100
AcDbEntity
  8
0
100
AcDbLine
 10
202.4
 20
148.9999949999999
 30
0.0
 11
209.6999999999999
 21
148.9999949999999
 31
0.0
  0
LINE
  5
15C
330
1E
100
AcDbEntity
  8
0
100
AcDbLine
 10
194.0
 20
148.9999949999999
 30
0.0
 11
202.4
 21
148.9999949999999
 31
0.0
  0
LINE
  5
15D
330
1E
100
AcDbEntity
  8
0
100
AcDbLine
 10
185.0
 20
148.9999949999999
 30
0.0
 11
194.0
 21
148.9999949999999
 31
0.0
  0
LINE
  5
15E
330
1E
100
AcDbEntity
  8
0
100
AcDbLine
 10
220.0
 20
148.9999949999999
 30
0.0
 11
220.0
 21
153.9999949999999
 31
0.0
  0
LINE
  5
15F
330
1E
100
AcDbEntity
  8
0
100
AcDbLine
 10
70.0
 20
148.9999949999999
 30
0.0
 11
70.0
 21
153.9999949999999
 31
0.0
  0
LINE
  5
160
330
1E
100
AcDbEntity
  8
0
100
AcDbLine
 10
68.7
 20
148.9999949999999
 30
0.0
 11
70.0
 21
148.9999949999999
 31
0.0
  0
LINE
  5
161
330
1E
100
AcDbEntity
  8
0
100
AcDbLine
 10
65.3
 20
148.9999949999999
 30
0.0
 11
68.7
 21
148.9999949999999
 31
0.0
  0
LINE
  5
162
330
1E
100
AcDbEntity
  8
0
100
AcDbLine
 10
59.7
 20
148.9999949999999
 30
0.0
 11
65.3
 21
148.9999949999999
 31
0.0
  0
LINE
  5
163
330
1E
100
AcDbEntity
  8
0
100
AcDbLine
 10
52.4
 20
148.9999949999999
 30
0.0
 11
59.7
 21
148.9999949999999
 31
0.0
  0
LINE
  5
164
330
1E
100
AcDbEntity
  8
0
100
AcDbLine
 10
150.0
 20
153.9999949999999
 30
0.0
 11
151.3
 21
153.9999949999999
 31
0.0
  0
LINE
  5
165
330
1E
100
AcDbEntity
  8
0
100
AcDbLine
 10
150.0
 20
153.9999949999999
 30
0.0
 11
150.0
 21
148.9999949999999
 31
0.0
  0
LINE
  5
166
330
1E
100
AcDbEntity
  8
0
100
AcDbLine
 10
151.3
 20
153.9999949999999
 30
0.0
 11
154.6999999999999
 21
153.9999949999999
 31
0.0
  0
LINE
  5
167
330
1E
100
AcDbEntity
  8
0
100
AcDbLine
 10
154.6999999999999
 20
153.9999949999999
 30
0.0
 11
160.3
 21
153.9999949999999
 31
0.0
  0
LINE
  5
168
330
1E
100
AcDbEntity
  8
0
100
AcDbLine
 10
160.3
 20
153.9999949999999
 30
0.0
 11
167.5999999999999
 21
153.9999949999999
 31
0.0
  0
LINE
  5
169
330
1E
100
AcDbEntity
  8
0
100
AcDbLine
 10
167.5999999999999
 20
153.9999949999999
 30
0.0
 11
176.0
 21
153.9999949999999
 31
0.0
  0
LINE
  5
16A
330
1E
100
AcDbEntity
  8
0
100
AcDbLine
 10
176.0
 20
153.9999949999999
 30
0.0
 11
185.0
 21
153.9999949999999
 31
0.0
  0
LINE
  5
16B
330
1E
100
AcDbEntity
  8
0
100
AcDbLine
 10
218.6999999999999
 20
153.9999949999999
 30
0.0
 11
220.0
 21
153.9999949999999
 31
0.0
  0
LINE
  5
16C
330
1E
100
AcDbEntity
  8
0
100
AcDbLine
 10
220.0
 20
153.9999949999999
 30
0.0
 11
220.0
 21
148.9999949999999
 31
0.0
  0
LINE
  5
16D
330
1E
100
AcDbEntity
  8
0
100
AcDbLine
 10
215.3
 20
153.9999949999999
 30
0.0
 11
218.6999999999999
 21
153.9999949999999
 31
0.0
  0
LINE
  5
16E
330
1E
100
AcDbEntity
  8
0
100
AcDbLine
 10
209.6999999999999
 20
153.9999949999999
 30
0.0
 11
215.3
 21
153.9999949999999
 31
0.0
  0
LINE
  5
16F
330
1E
100
AcDbEntity
  8
0
100
AcDbLine
 10
202.4
 20
153.9999949999999
 30
0.0
 11
209.6999999999999
 21
153.9999949999999
 31
0.0
  0
LINE
  5
170
330
1E
100
AcDbEntity
  8
0
100
AcDbLine
 10
194.0
 20
153.9999949999999
 30
0.0
 11
202.4
 21
153.9999949999999
 31
0.0
  0
LINE
  5
171
330
1E
100
AcDbEntity
  8
0
100
AcDbLine
 10
185.0
 20
153.9999949999999
 30
0.0
 11
194.0
 21
153.9999949999999
 31
0.0
  0
LINE
  5
172
330
1E
100
AcDbEntity
  8
0
100
AcDbLine
 10
70.0
 20
153.9999949999999
 30
0.0
 11
70.0
 21
148.9999949999999
 31
0.0
  0
LINE
  5
173
330
1E
100
AcDbEntity
  8
0
100
AcDbLine
 10
68.7
 20
153.9999949999999
 30
0.0
 11
70.0
 21
153.9999949999999
 31
0.0
  0
LINE
  5
174
330
1E
100
AcDbEntity
  8
0
100
AcDbLine
 10
65.3
 20
153.9999949999999
 30
0.0
 11
68.7
 21
153.9999949999999
 31
0.0
  0
LINE
  5
175
330
1E
100
AcDbEntity
  8
0
100
AcDbLine
 10
59.7
 20
153.9999949999999
 30
0.0
 11
65.3
 21
153.9999949999999
 31
0.0
  0
LINE
  5
176
330
1E
100
AcDbEntity
  8
0
100
AcDbLine
 10
52.4
 20
153.9999949999999
 30
0.0
 11
59.7
 21
153.9999949999999
 31
0.0
  0
LINE
  5
177
330
1E
100
AcDbEntity
  8
0
100
AcDbLine
 10
44.0
 20
153.9999949999999
 30
0.0
 11
52.4
 21
153.9999949999999
 31
0.0
  0
LINE
  5
178
330
1E
100
AcDbEntity
  8
0
100
AcDbLine
 10
44.0
 20
148.9999949999999
 30
0.0
 11
52.4
 21
148.9999949999999
 31
0.0
  0
LINE
  5
179
330
1E
100
AcDbEntity
  8
0
100
AcDbLine
 10
35.0
 20
148.9999949999999
 30
0.0
 11
44.0
 21
148.9999949999999
 31
0.0
  0
LINE
  5
17A
330
1E
100
AcDbEntity
  8
0
100
AcDbLine
 10
35.0
 20
128.9999949999999
 30
0.0
 11
38.6
 21
128.9999949999999
 31
0.0
  0
LINE
  5
17B
330
1E
100
AcDbEntity
  8
0
100
AcDbLine
 10
35.0
 20
128.9999949999999
 30
0.0
 11
37.79999999999999
 21
128.9999949999999
 31
0.0
  0
LINE
  5
17C
330
1E
100
AcDbEntity
  8
0
100
AcDbLine
 10
32.2
 20
121.999995
 30
0.0
 11
35.0
 21
121.999995
 31
0.0
  0
LINE
  5
17E
330
1E
100
AcDbEntity
  8
0
100
AcDbLine
 10
22.0
 20
109.9999949999999
 30
0.0
 11
24.0
 21
107.9999949999999
 31
0.0
  0
LINE
  5
17F
330
1E
100
AcDbEntity
  8
0
100
AcDbLine
 10
22.0
 20
109.9999949999999
 30
0.0
 11
22.0
 21
111.9999949999999
 31
0.0
  0
LINE
  5
180
330
1E
100
AcDbEntity
  8
0
100
AcDbLine
 10
22.0
 20
109.9999949999999
 30
0.0
 11
22.5
 21
109.9999949999999
 31
0.0
  0
ENDSEC
  0
SECTION
  2
OBJECTS
  0
DICTIONARY
  5
C
330
0
100
AcDbDictionary
  3
ACAD_GROUP
350
D
  3
ACAD_LAYOUT
350
19
  3
ACAD_MLINESTYLE
350
16
  3
ACAD_PLOTSETTINGS
350
18
  3
ACAD_PLOTSTYLENAME
350
E
  3
ACDBHEADERROUNDTRIPXREC
350
188
  3
ACDBVARIABLEDICTIONARY
350
185
  0
DICTIONARY
  5
1AA
330
1E
100
AcDbDictionary
280
     1
  3
ACAD_LAYOUTSELFREF
360
1AB
  0
DICTIONARY
  5
1A8
330
1A
100
AcDbDictionary
280
     1
  3
ACAD_LAYOUTSELFREF
360
1A9
  0
DICTIONARY
  5
D
102
{ACAD_REACTORS
330
C
102
}
330
C
100
AcDbDictionary
  0
DICTIONARY
  5
19
102
{ACAD_REACTORS
330
C
102
}
330
C
100
AcDbDictionary
  0
DICTIONARY
  5
16
102
{ACAD_REACTORS
330
C
102
}
330
C
100
AcDbDictionary
  3
STANDARD
350
17
  0
DICTIONARY
  5
18
102
{ACAD_REACTORS
330
C
102
}
330
C
100
AcDbDictionary
  0
ACDBDICTIONARYWDFLT
  5
E
102
{ACAD_REACTORS
330
C
102
}
330
C
100
AcDbDictionary
281
     1
  3
Normal
350
F
100
AcDbDictionaryWithDefault
340
F
  0
DICTIONARY
  5
188
102
{ACAD_REACTORS
330
C
102
}
330
C
100
AcDbDictionary
  3
CEPSNTYPE
350
192
  3
FINGERPRINTGUID
350
193
  3
HYPERLINKBASE
350
18B
  3
INSUNITS
350
191
  3
LAYOUTDICT
350
18D
  3
LWETCUNION
350
190
  3
PLOTSETDICT
350
18E
  3
PLOTSTYLNAMDICT
350
18F
  3
PSVPSCALE
350
195
  3
PUCSBASE
350
198
  3
PUCSORGBACK
350
19E
  3
PUCSORGBOTTOM
350
19A
  3
PUCSORGFRONT
350
19D
  3
PUCSORGLEFT
350
19B
  3
PUCSORGRIGHT
350
19C
  3
PUCSORGTOP
350
199
  3
PUCSORTHOREF
350
196
  3
PUCSORTHOVIEW
350
197
  3
STYLESHEET
350
18C
  3
TSTACKALIGN
350
189
  3
TSTACKSIZE
350
18A
  3
UCSBASE
350
1A1
  3
UCSORGBACK
350
1A7
  3
UCSORGBOTTOM
350
1A3
  3
UCSORGFRONT
350
1A6
  3
UCSORGLEFT
350
1A4
  3
UCSORGRIGHT
350
1A5
  3
UCSORGTOP
350
1A2
  3
UCSORTHOREF
350
19F
  3
UCSORTHOVIEW
350
1A0
  3
VERSIONGUID
350
194
  0
DICTIONARY
  5
185
102
{ACAD_REACTORS
330
C
102
}
330
C
100
AcDbDictionary
  3
DIMASSOC
350
186
  0
XRECORD
  5
1AB
102
{ACAD_REACTORS
330
1AA
102
}
330
1AA
100
AcDbXrecord
340
1E
  0
XRECORD
  5
1A9
102
{ACAD_REACTORS
330
1A8
102
}
330
1A8
100
AcDbXrecord
340
1A
  0
MLINESTYLE
  5
17
102
{ACAD_REACTORS
330
16
102
}
330
16
100
AcDbMlineStyle
  2
STANDARD
 70
     0
  3

 62
   256
 51
90.0
 52
90.0
 71
     2
 49
0.5
 62
   256
  6
BYLAYER
 49
-0.5
 62
   256
  6
BYLAYER
  0
ACDBPLACEHOLDER
  5
F
102
{ACAD_REACTORS
330
E
102
}
330
E
100
AcDbPlaceHolder
280
     0
  0
XRECORD
  5
192
102
{ACAD_REACTORS
330
188
102
}
330
188
100
AcDbXrecord
 90
        0
  0
XRECORD
  5
193
102
{ACAD_REACTORS
330
188
102
}
330
188
100
AcDbXrecord
  1
{37EB2FD3-6041-4781-A6E7-3185D6075F5F}
  0
XRECORD
  5
18B
102
{ACAD_REACTORS
330
188
102
}
330
188
100
AcDbXrecord
  1

  0
XRECORD
  5
191
102
{ACAD_REACTORS
330
188
102
}
330
188
100
AcDbXrecord
 90
        0
  0
XRECORD
  5
18D
102
{ACAD_REACTORS
330
188
102
}
330
188
100
AcDbXrecord
340
19
  0
XRECORD
  5
190
102
{ACAD_REACTORS
330
188
102
}
330
188
100
AcDbXrecord
 90
    10781
  0
XRECORD
  5
18E
102
{ACAD_REACTORS
330
188
102
}
330
188
100
AcDbXrecord
340
18
  0
XRECORD
  5
18F
102
{ACAD_REACTORS
330
188
102
}
330
188
100
AcDbXrecord
340
E
  0
XRECORD
  5
195
102
{ACAD_REACTORS
330
188
102
}
330
188
100
AcDbXrecord
 40
0.0
  0
XRECORD
  5
198
102
{ACAD_REACTORS
330
188
102
}
330
188
100
AcDbXrecord
340
0
  0
XRECORD
  5
19E
102
{ACAD_REACTORS
330
188
102
}
330
188
100
AcDbXrecord
 10
0.0
 20
0.0
 30
0.0
  0
XRECORD
  5
19A
102
{ACAD_REACTORS
330
188
102
}
330
188
100
AcDbXrecord
 10
0.0
 20
0.0
 30
0.0
  0
XRECORD
  5
19D
102
{ACAD_REACTORS
330
188
102
}
330
188
100
AcDbXrecord
 10
0.0
 20
0.0
 30
0.0
  0
XRECORD
  5
19B
102
{ACAD_REACTORS
330
188
102
}
330
188
100
AcDbXrecord
 10
0.0
 20
0.0
 30
0.0
  0
XRECORD
  5
19C
102
{ACAD_REACTORS
330
188
102
}
330
188
100
AcDbXrecord
 10
0.0
 20
0.0
 30
0.0
  0
XRECORD
  5
199
102
{ACAD_REACTORS
330
188
102
}
330
188
100
AcDbXrecord
 10
0.0
 20
0.0
 30
0.0
  0
XRECORD
  5
196
102
{ACAD_REACTORS
330
188
102
}
330
188
100
AcDbXrecord
340
0
  0
XRECORD
  5
197
102
{ACAD_REACTORS
330
188
102
}
330
188
100
AcDbXrecord
 70
     0
  0
XRECORD
  5
18C
102
{ACAD_REACTORS
330
188
102
}
330
188
100
AcDbXrecord
  1

  0
XRECORD
  5
189
102
{ACAD_REACTORS
330
188
102
}
330
188
100
AcDbXrecord
 90
        1
  0
XRECORD
  5
18A
102
{ACAD_REACTORS
330
188
102
}
330
188
100
AcDbXrecord
 90
       70
  0
XRECORD
  5
1A1
102
{ACAD_REACTORS
330
188
102
}
330
188
100
AcDbXrecord
340
0
  0
XRECORD
  5
1A7
102
{ACAD_REACTORS
330
188
102
}
330
188
100
AcDbXrecord
 10
0.0
 20
0.0
 30
0.0
  0
XRECORD
  5
1A3
102
{ACAD_REACTORS
330
188
102
}
330
188
100
AcDbXrecord
 10
0.0
 20
0.0
 30
0.0
  0
XRECORD
  5
1A6
102
{ACAD_REACTORS
330
188
102
}
330
188
100
AcDbXrecord
 10
0.0
 20
0.0
 30
0.0
  0
XRECORD
  5
1A4
102
{ACAD_REACTORS
330
188
102
}
330
188
100
AcDbXrecord
 10
0.0
 20
0.0
 30
0.0
  0
XRECORD
  5
1A5
102
{ACAD_REACTORS
330
188
102
}
330
188
100
AcDbXrecord
 10
0.0
 20
0.0
 30
0.0
  0
XRECORD
  5
1A2
102
{ACAD_REACTORS
330
188
102
}
330
188
100
AcDbXrecord
 10
0.0
 20
0.0
 30
0.0
  0
XRECORD
  5
19F
102
{ACAD_REACTORS
330
188
102
}
330
188
100
AcDbXrecord
340
0
  0
XRECORD
  5
1A0
102
{ACAD_REACTORS
330
188
102
}
330
188
100
AcDbXrecord
 70
     1
  0
XRECORD
  5
194
102
{ACAD_REACTORS
330
188
102
}
330
188
100
AcDbXrecord
  1
{AE5D10F9-35EE-4B9D-861F-DF6A2DD386EF}
  0
DICTIONARYVAR
  5
186
102
{ACAD_REACTORS
330
185
102
}
330
185
100
DictionaryVariables
280
     0
  1
1
  0
ENDSEC
  0
EOF
