  0
SECTION
  2
HEADER
  9
$ACADVER
  1
AC1014
  9
$ACADMAINTVER
 70
     9
  9
$DWGCODEPAGE
  3
ANSI_1252
  9
$INSBASE
 10
0.0
 20
0.0
 30
0.0
  9
$EXTMIN
 10
0.0000049999999907
 20
0.174000000000004
 30
0.0
  9
$EXTMAX
 10
153.9999949999999
 20
156.8259999999999
 30
0.0
  9
$LIMMIN
 10
0.0
 20
0.0
  9
$LIMMAX
 10
12.0
 20
9.0
  9
$ORTHOMODE
 70
     0
  9
$REGENMODE
 70
     1
  9
$FILLMODE
 70
     1
  9
$QTEXTMODE
 70
     0
  9
$MIRRTEXT
 70
     1
  9
$DRAGMODE
 70
     2
  9
$LTSCALE
 40
1.0
  9
$OSMODE
 70
    37
  9
$ATTMODE
 70
     1
  9
$TEXTSIZE
 40
0.2
  9
$TRACEWID
 40
0.05
  9
$TEXTSTYLE
  7
STANDARD
  9
$CLAYER
  8
0
  9
$CELTYPE
  6
CONTINUOUS
  9
$CECOLOR
 62
   256
  9
$CELTSCALE
 40
1.0
  9
$DELOBJ
 70
     1
  9
$DISPSILH
 70
     0
  9
$DIMSCALE
 40
1.0
  9
$DIMASZ
 40
0.18
  9
$DIMEXO
 40
0.0625
  9
$DIMDLI
 40
0.38
  9
$DIMRND
 40
0.0
  9
$DIMDLE
 40
0.0
  9
$DIMEXE
 40
0.18
  9
$DIMTP
 40
0.0
  9
$DIMTM
 40
0.0
  9
$DIMTXT
 40
0.18
  9
$DIMCEN
 40
0.09
  9
$DIMTSZ
 40
0.0
  9
$DIMTOL
 70
     0
  9
$DIMLIM
 70
     0
  9
$DIMTIH
 70
     1
  9
$DIMTOH
 70
     1
  9
$DIMSE1
 70
     0
  9
$DIMSE2
 70
     0
  9
$DIMTAD
 70
     0
  9
$DIMZIN
 70
     0
  9
$DIMBLK
  1

  9
$DIMASO
 70
     1
  9
$DIMSHO
 70
     1
  9
$DIMPOST
  1

  9
$DIMAPOST
  1

  9
$DIMALT
 70
     0
  9
$DIMALTD
 70
     2
  9
$DIMALTF
 40
25.4
  9
$DIMLFAC
 40
1.0
  9
$DIMTOFL
 70
     0
  9
$DIMTVP
 40
0.0
  9
$DIMTIX
 70
     0
  9
$DIMSOXD
 70
     0
  9
$DIMSAH
 70
     0
  9
$DIMBLK1
  1

  9
$DIMBLK2
  1

  9
$DIMSTYLE
  2
STANDARD
  9
$DIMCLRD
 70
     0
  9
$DIMCLRE
 70
     0
  9
$DIMCLRT
 70
     0
  9
$DIMTFAC
 40
1.0
  9
$DIMGAP
 40
0.09
  9
$DIMJUST
 70
     0
  9
$DIMSD1
 70
     0
  9
$DIMSD2
 70
     0
  9
$DIMTOLJ
 70
     1
  9
$DIMTZIN
 70
     0
  9
$DIMALTZ
 70
     0
  9
$DIMALTTZ
 70
     0
  9
$DIMFIT
 70
     3
  9
$DIMUPT
 70
     0
  9
$DIMUNIT
 70
     2
  9
$DIMDEC
 70
     4
  9
$DIMTDEC
 70
     4
  9
$DIMALTU
 70
     2
  9
$DIMALTTD
 70
     2
  9
$DIMTXSTY
  7
STANDARD
  9
$DIMAUNIT
 70
     0
  9
$LUNITS
 70
     2
  9
$LUPREC
 70
     4
  9
$SKETCHINC
 40
0.1
  9
$FILLETRAD
 40
0.0
  9
$AUNITS
 70
     0
  9
$AUPREC
 70
     0
  9
$MENU
  1
.
  9
$ELEVATION
 40
0.0
  9
$PELEVATION
 40
0.0
  9
$THICKNESS
 40
0.0
  9
$LIMCHECK
 70
     0
  9
$BLIPMODE
 70
     0
  9
$CHAMFERA
 40
0.0
  9
$CHAMFERB
 40
0.0
  9
$CHAMFERC
 40
0.0
  9
$CHAMFERD
 40
0.0
  9
$SKPOLY
 70
     0
  9
$TDCREATE
 40
2454696.767893518
  9
$TDUPDATE
 40
2454696.770410695
  9
$TDINDWG
 40
0.0025171759
  9
$TDUSRTIMER
 40
0.0025171759
  9
$USRTIMER
 70
     1
  9
$ANGBASE
 50
0.0
  9
$ANGDIR
 70
     0
  9
$PDMODE
 70
     0
  9
$PDSIZE
 40
0.0
  9
$PLINEWID
 40
0.0
  9
$COORDS
 70
     1
  9
$SPLFRAME
 70
     0
  9
$SPLINETYPE
 70
     6
  9
$SPLINESEGS
 70
     8
  9
$ATTDIA
 70
     0
  9
$ATTREQ
 70
     1
  9
$HANDLING
 70
 22529
  9
$HANDSEED
  5
20C
  9
$SURFTAB1
 70
     6
  9
$SURFTAB2
 70
     6
  9
$SURFTYPE
 70
     6
  9
$SURFU
 70
     6
  9
$SURFV
 70
     6
  9
$UCSNAME
  2

  9
$UCSORG
 10
0.0
 20
0.0
 30
0.0
  9
$UCSXDIR
 10
1.0
 20
0.0
 30
0.0
  9
$UCSYDIR
 10
0.0
 20
1.0
 30
0.0
  9
$PUCSNAME
  2

  9
$PUCSORG
 10
0.0
 20
0.0
 30
0.0
  9
$PUCSXDIR
 10
1.0
 20
0.0
 30
0.0
  9
$PUCSYDIR
 10
0.0
 20
1.0
 30
0.0
  9
$USERI1
 70
     0
  9
$USERI2
 70
     0
  9
$USERI3
 70
     0
  9
$USERI4
 70
     0
  9
$USERI5
 70
     0
  9
$USERR1
 40
0.0
  9
$USERR2
 40
0.0
  9
$USERR3
 40
0.0
  9
$USERR4
 40
0.0
  9
$USERR5
 40
0.0
  9
$WORLDVIEW
 70
     1
  9
$SHADEDGE
 70
     3
  9
$SHADEDIF
 70
    70
  9
$TILEMODE
 70
     1
  9
$MAXACTVP
 70
    64
  9
$PINSBASE
 10
0.0
 20
0.0
 30
0.0
  9
$PLIMCHECK
 70
     0
  9
$PEXTMIN
 10
1.000000000000000E+20
 20
1.000000000000000E+20
 30
1.000000000000000E+20
  9
$PEXTMAX
 10
-1.000000000000000E+20
 20
-1.000000000000000E+20
 30
-1.000000000000000E+20
  9
$PLIMMIN
 10
0.0
 20
0.0
  9
$PLIMMAX
 10
12.0
 20
9.0
  9
$UNITMODE
 70
     0
  9
$VISRETAIN
 70
     1
  9
$PLINEGEN
 70
     0
  9
$PSLTSCALE
 70
     1
  9
$TREEDEPTH
 70
  3020
  9
$PICKSTYLE
 70
     1
  9
$CMLSTYLE
  2
STANDARD
  9
$CMLJUST
 70
     0
  9
$CMLSCALE
 40
1.0
  9
$PROXYGRAPHICS
 70
     1
  9
$MEASUREMENT
 70
     0
  0
ENDSEC
  0
SECTION
  2
CLASSES
  0
CLASS
  1
ACDBDICTIONARYWDFLT
  2
AcDbDictionaryWithDefault
  3
AutoCAD 2000
 90
        0
280
     0
281
     0
  0
CLASS
  1
ACDBPLACEHOLDER
  2
AcDbPlaceHolder
  3
AutoCAD 2000
 90
        0
280
     0
281
     0
  0
CLASS
  1
LAYOUT
  2
AcDbLayout
  3
AutoCAD 2000
 90
        0
280
     0
281
     0
  0
CLASS
  1
DICTIONARYVAR
  2
AcDbDictionaryVar
  3
AutoCAD 2000
 90
        0
280
     0
281
     0
  0
CLASS
  1
LONG_TRANSACTION
  2
AcDbLongTransaction
  3
AutoCAD 2000
 90
        0
280
     0
281
     0
  0
CLASS
  1
LWPOLYLINE
  2
AcDbPolyline
  3
AutoCAD 2000
 90
        0
280
     0
281
     1
  0
CLASS
  1
HATCH
  2
AcDbHatch
  3
AutoCAD 2000
 90
        0
280
     0
281
     1
  0
CLASS
  1
XRECORD
  2
AcDbXrecord
  3
AutoCAD 2000
 90
        0
280
     0
281
     0
  0
ENDSEC
  0
SECTION
  2
TABLES
  0
TABLE
  2
VPORT
  5
8
330
0
100
AcDbSymbolTable
 70
     2
  0
VPORT
  5
1E7
330
8
100
AcDbSymbolTableRecord
100
AcDbViewportTableRecord
  2
*ACTIVE
 70
     0
 10
0.0
 20
0.0
 11
1.0
 21
1.0
 12
76.99999999999999
 22
78.5
 13
0.0
 23
0.0
 14
1.0
 24
1.0
 15
0.0
 25
0.0
 16
0.0
 26
0.0
 36
1.0
 17
0.0
 27
0.0
 37
0.0
 40
157.8539335038363
 41
2.078104993597951
 42
50.0
 43
0.0
 44
0.0
 50
0.0
 51
0.0
 71
     0
 72
   100
 73
     1
 74
     3
 75
     0
 76
     0
 77
     0
 78
     0
  0
ENDTAB
  0
TABLE
  2
LTYPE
  5
5
330
0
100
AcDbSymbolTable
 70
     1
  0
LTYPE
  5
13
330
5
100
AcDbSymbolTableRecord
100
AcDbLinetypeTableRecord
  2
BYBLOCK
 70
     0
  3

 72
    65
 73
     0
 40
0.0
  0
LTYPE
  5
14
330
5
100
AcDbSymbolTableRecord
100
AcDbLinetypeTableRecord
  2
BYLAYER
 70
     0
  3

 72
    65
 73
     0
 40
0.0
  0
LTYPE
  5
15
330
5
100
AcDbSymbolTableRecord
100
AcDbLinetypeTableRecord
  2
CONTINUOUS
 70
     0
  3
Solid line
 72
    65
 73
     0
 40
0.0
  0
ENDTAB
  0
TABLE
  2
LAYER
  5
2
330
0
100
AcDbSymbolTable
 70
     1
  0
LAYER
  5
10
330
2
100
AcDbSymbolTableRecord
100
AcDbLayerTableRecord
  2
0
 70
     0
 62
     7
  6
CONTINUOUS
  0
ENDTAB
  0
TABLE
  2
STYLE
  5
3
330
0
100
AcDbSymbolTable
 70
     1
  0
STYLE
  5
11
330
3
100
AcDbSymbolTableRecord
100
AcDbTextStyleTableRecord
  2
STANDARD
 70
     0
 40
0.0
 41
1.0
 50
0.0
 71
     0
 42
0.2
  3
txt
  4

  0
ENDTAB
  0
TABLE
  2
VIEW
  5
6
330
0
100
AcDbSymbolTable
 70
     0
  0
ENDTAB
  0
TABLE
  2
UCS
  5
7
330
0
100
AcDbSymbolTable
 70
     0
  0
ENDTAB
  0
TABLE
  2
APPID
  5
9
330
0
100
AcDbSymbolTable
 70
     1
  0
APPID
  5
12
330
9
100
AcDbSymbolTableRecord
100
AcDbRegAppTableRecord
  2
ACAD
 70
     0
  0
ENDTAB
  0
TABLE
  2
DIMSTYLE
  5
A
330
0
100
AcDbSymbolTable
 70
     1
  0
DIMSTYLE
105
1E0
330
A
100
AcDbSymbolTableRecord
100
AcDbDimStyleTableRecord
  2
STANDARD
 70
     0
  3

  4

  5

  6

  7

 40
1.0
 41
0.18
 42
0.0625
 43
0.38
 44
0.18
 45
0.0
 46
0.0
 47
0.0
 48
0.0
140
0.18
141
0.09
142
0.0
143
25.4
144
1.0
145
0.0
146
1.0
147
0.09
 71
     0
 72
     0
 73
     1
 74
     1
 75
     0
 76
     0
 77
     0
 78
     0
170
     0
171
     2
172
     0
173
     0
174
     0
175
     0
176
     0
177
     0
178
     0
270
     2
271
     4
272
     4
273
     2
274
     2
340
11
275
     0
280
     0
281
     0
282
     0
283
     1
284
     0
285
     0
286
     0
287
     3
288
     0
  0
ENDTAB
  0
TABLE
  2
BLOCK_RECORD
  5
1
330
0
100
AcDbSymbolTable
 70
     0
  0
BLOCK_RECORD
  5
1E
102
{ACAD_XDICTIONARY
360
20A
102
}
330
1
100
AcDbSymbolTableRecord
100
AcDbBlockTableRecord
  2
*MODEL_SPACE
  0
BLOCK_RECORD
  5
1A
102
{ACAD_XDICTIONARY
360
208
102
}
330
1
100
AcDbSymbolTableRecord
100
AcDbBlockTableRecord
  2
*PAPER_SPACE
  0
ENDTAB
  0
ENDSEC
  0
SECTION
  2
BLOCKS
  0
BLOCK
  5
1F
330
1E
100
AcDbEntity
  8
0
100
AcDbBlockBegin
  2
*MODEL_SPACE
 70
     0
 10
0.0
 20
0.0
 30
0.0
  3
*MODEL_SPACE
  1

  0
ENDBLK
  5
20
330
1E
100
AcDbEntity
  8
0
100
AcDbBlockEnd
  0
BLOCK
  5
1B
330
1A
100
AcDbEntity
 67
     1
  8
0
100
AcDbBlockBegin
  2
*PAPER_SPACE
 70
     0
 10
0.0
 20
0.0
 30
0.0
  3
*PAPER_SPACE
  1

  0
ENDBLK
  5
1C
330
1A
100
AcDbEntity
 67
     1
  8
0
100
AcDbBlockEnd
  0
ENDSEC
  0
SECTION
  2
ENTITIES
  0
LINE
  5
22
330
1E
100
AcDbEntity
  8
0
100
AcDbLine
 10
0.0000049999999907
 20
41.0178
 30
0.0
 11
0.262004999999991
 21
52.037
 31
0.0
  0
LINE
  5
23
330
1E
100
AcDbEntity
  8
0
100
AcDbLine
 10
3.33100499999999
 20
25.1672
 30
0.0
 11
4.25400499999999
 21
25.38759999999999
 31
0.0
  0
LINE
  5
24
330
1E
100
AcDbEntity
  8
0
100
AcDbLine
 10
2.26200499999999
 20
25.5619
 30
0.0
 11
3.33100499999999
 21
25.1672
 31
0.0
  0
LINE
  5
25
330
1E
100
AcDbEntity
  8
0
100
AcDbLine
 10
2.26200499999999
 20
25.5619
 30
0.0
 11
2.36100499999999
 21
25.5532
 31
0.0
  0
LINE
  5
26
330
1E
100
AcDbEntity
  8
0
100
AcDbLine
 10
4.25400499999999
 20
25.38759999999999
 30
0.0
 11
5.42799499999999
 21
26.1883
 31
0.0
  0
LINE
  5
28
330
1E
100
AcDbEntity
  8
0
100
AcDbLine
 10
1.643004999999989
 20
26.5195
 30
0.0
 11
2.26200499999999
 21
25.5619
 31
0.0
  0
LINE
  5
29
330
1E
100
AcDbEntity
  8
0
100
AcDbLine
 10
5.42799499999999
 20
26.1883
 30
0.0
 11
7.18399499999999
 21
29.04619999999999
 31
0.0
  0
LINE
  5
2A
330
1E
100
AcDbEntity
  8
0
100
AcDbLine
 10
0.9080049999999909
 20
29.59519999999999
 30
0.0
 11
1.643004999999989
 21
26.5195
 31
0.0
  0
LINE
  5
2B
330
1E
100
AcDbEntity
  8
0
100
AcDbLine
 10
7.18399499999999
 20
29.04619999999999
 30
0.0
 11
9.213994999999989
 21
33.8877
 31
0.0
  0
LINE
  5
2E
330
1E
100
AcDbEntity
  8
0
100
AcDbLine
 10
0.34800499999999
 20
34.6634
 30
0.0
 11
0.9080049999999909
 21
29.59519999999999
 31
0.0
  0
LINE
  5
2F
330
1E
100
AcDbEntity
  8
0
100
AcDbLine
 10
9.213994999999989
 20
33.8877
 30
0.0
 11
10.45999499999999
 21
40.1027
 31
0.0
  0
LINE
  5
30
330
1E
100
AcDbEntity
  8
0
100
AcDbLine
 10
0.0000049999999907
 20
41.0178
 30
0.0
 11
0.34800499999999
 21
34.6634
 31
0.0
  0
LINE
  5
32
330
1E
100
AcDbEntity
  8
0
100
AcDbLine
 10
0.262004999999991
 20
52.037
 30
0.0
 11
0.8840049999999919
 21
66.036
 31
0.0
  0
LINE
  5
33
330
1E
100
AcDbEntity
  8
0
100
AcDbLine
 10
0.0000049999999907
 20
41.0178
 30
0.0
 11
0.262004999999991
 21
52.037
 31
0.0
  0
LINE
  5
34
330
1E
100
AcDbEntity
  8
0
100
AcDbLine
 10
0.0000049999999907
 20
41.0178
 30
0.0
 11
0.34800499999999
 21
34.6634
 31
0.0
  0
LINE
  5
35
330
1E
100
AcDbEntity
  8
0
100
AcDbLine
 10
10.322995
 20
51.1567
 30
0.0
 11
10.845995
 21
65.1645
 31
0.0
  0
LINE
  5
36
330
1E
100
AcDbEntity
  8
0
100
AcDbLine
 10
10.322995
 20
51.1567
 30
0.0
 11
10.45999499999999
 21
40.1027
 31
0.0
  0
LINE
  5
38
330
1E
100
AcDbEntity
  8
0
100
AcDbLine
 10
0.262004999999991
 20
52.037
 30
0.0
 11
0.8840049999999919
 21
66.036
 31
0.0
  0
LINE
  5
39
330
1E
100
AcDbEntity
  8
0
100
AcDbLine
 10
10.845995
 20
65.1645
 30
0.0
 11
12.60099499999999
 21
73.7442
 31
0.0
  0
LINE
  5
3B
330
1E
100
AcDbEntity
  8
0
100
AcDbLine
 10
0.8840049999999919
 20
66.036
 30
0.0
 11
1.941004999999989
 21
74.6768
 31
0.0
  0
LINE
  5
3C
330
1E
100
AcDbEntity
  8
0
100
AcDbLine
 10
12.60099499999999
 20
73.7442
 30
0.0
 11
16.519995
 21
81.83329
 31
0.0
  0
LINE
  5
3E
330
1E
100
AcDbEntity
  8
0
100
AcDbLine
 10
1.941004999999989
 20
74.6768
 30
0.0
 11
3.77500499999999
 21
86.461786
 31
0.0
  0
LINE
  5
3F
330
1E
100
AcDbEntity
  8
0
100
AcDbLine
 10
16.519995
 20
81.83329
 30
0.0
 11
22.067995
 21
87.87279000000001
 31
0.0
  0
LINE
  5
40
330
1E
100
AcDbEntity
  8
0
100
AcDbLine
 10
3.77500499999999
 20
86.461786
 30
0.0
 11
6.458994999999999
 21
98.7747
 31
0.0
  0
LINE
  5
41
330
1E
100
AcDbEntity
  8
0
100
AcDbLine
 10
22.067995
 20
87.87279000000001
 30
0.0
 11
30.806995
 21
92.52889000000001
 31
0.0
  0
LINE
  5
42
330
1E
100
AcDbEntity
  8
0
100
AcDbLine
 10
30.806995
 20
92.52889000000001
 30
0.0
 11
34.895995
 21
93.37569
 31
0.0
  0
LINE
  5
43
330
1E
100
AcDbEntity
  8
0
100
AcDbLine
 10
34.895995
 20
93.37569
 30
0.0
 11
36.31719499999999
 21
93.55249
 31
0.0
  0
LINE
  5
44
330
1E
100
AcDbEntity
  8
0
100
AcDbLine
 10
36.31719499999999
 20
93.55249
 30
0.0
 11
38.435295
 21
93.66839
 31
0.0
  0
LINE
  5
45
330
1E
100
AcDbEntity
  8
0
100
AcDbLine
 10
39.695095
 20
93.47499
 30
0.0
 11
39.803095
 21
93.47689
 31
0.0
  0
LINE
  5
46
330
1E
100
AcDbEntity
  8
0
100
AcDbLine
 10
39.803095
 20
93.47689
 30
0.0
 11
40.090995
 21
93.48198999999999
 31
0.0
  0
LINE
  5
47
330
1E
100
AcDbEntity
  8
0
100
AcDbLine
 10
40.090995
 20
93.48198999999999
 30
0.0
 11
40.570995
 21
93.49028999999999
 31
0.0
  0
LINE
  5
48
330
1E
100
AcDbEntity
  8
0
100
AcDbLine
 10
40.570995
 20
93.49028999999999
 30
0.0
 11
41.206895
 21
93.50139
 31
0.0
  0
LINE
  5
49
330
1E
100
AcDbEntity
  8
0
100
AcDbLine
 10
41.206895
 20
93.50139
 30
0.0
 11
41.92679499999999
 21
93.51399
 31
0.0
  0
LINE
  5
4A
330
1E
100
AcDbEntity
  8
0
100
AcDbLine
 10
41.92679499999999
 20
93.51399
 30
0.0
 11
42.694695
 21
93.52738999999999
 31
0.0
  0
LINE
  5
4B
330
1E
100
AcDbEntity
  8
0
100
AcDbLine
 10
39.69096849032139
 20
93.71143072791999
 30
0.0
 11
39.695095
 21
93.47499
 31
0.0
  0
LINE
  5
4C
330
1E
100
AcDbEntity
  8
0
100
AcDbLine
 10
44.182395
 20
93.55339
 30
0.0
 11
44.81829499999999
 21
93.56449000000001
 31
0.0
  0
LINE
  5
4D
330
1E
100
AcDbEntity
  8
0
100
AcDbLine
 10
43.462495
 20
93.54079
 30
0.0
 11
44.182395
 21
93.55339
 31
0.0
  0
LINE
  5
4E
330
1E
100
AcDbEntity
  8
0
100
AcDbLine
 10
45.586195
 20
93.57789
 30
0.0
 11
45.694195
 21
93.57979
 31
0.0
  0
LINE
  5
4F
330
1E
100
AcDbEntity
  8
0
100
AcDbLine
 10
45.298295
 20
93.57288999999999
 30
0.0
 11
45.586195
 21
93.57789
 31
0.0
  0
LINE
  5
50
330
1E
100
AcDbEntity
  8
0
100
AcDbLine
 10
44.81829499999999
 20
93.56449000000001
 30
0.0
 11
45.298295
 21
93.57288999999999
 31
0.0
  0
LINE
  5
51
330
1E
100
AcDbEntity
  8
0
100
AcDbLine
 10
42.694695
 20
93.52738999999999
 30
0.0
 11
43.462495
 21
93.54079
 31
0.0
  0
LINE
  5
52
330
1E
100
AcDbEntity
  8
0
100
AcDbLine
 10
38.435295
 20
93.66839
 30
0.0
 11
39.69096849032139
 21
93.71143072791999
 31
0.0
  0
LINE
  5
53
330
1E
100
AcDbEntity
  8
0
100
AcDbLine
 10
45.6883097742404
 20
93.91700163184891
 30
0.0
 11
45.694195
 21
93.57979
 31
0.0
  0
LINE
  5
54
330
1E
100
AcDbEntity
  8
0
100
AcDbLine
 10
45.6701192957866
 20
93.91637811670749
 30
0.0
 11
51.624895
 21
94.12049000000001
 31
0.0
  0
LINE
  5
55
330
1E
100
AcDbEntity
  8
0
100
AcDbLine
 10
54.999995
 20
95.40089
 30
0.0
 11
54.999995
 21
94.92600000000001
 31
0.0
  0
LINE
  5
56
330
1E
100
AcDbEntity
  8
0
100
AcDbLine
 10
55.59999499999999
 20
95.226
 30
0.0
 11
55.59999499999999
 21
94.326
 31
0.0
  0
LINE
  5
57
330
1E
100
AcDbEntity
  8
0
100
AcDbLine
 10
55.59999499999999
 20
95.226
 30
0.0
 11
55.59999499999999
 21
97.626
 31
0.0
  0
LINE
  5
58
330
1E
100
AcDbEntity
  8
0
100
AcDbLine
 10
54.999995
 20
94.92600000000001
 30
0.0
 11
55.59999499999999
 21
94.326
 31
0.0
  0
LINE
  5
59
330
1E
100
AcDbEntity
  8
0
100
AcDbLine
 10
54.999995
 20
94.92600000000001
 30
0.0
 11
54.999995
 21
95.40089
 31
0.0
  0
LINE
  5
5A
330
1E
100
AcDbEntity
  8
0
100
AcDbLine
 10
54.999995
 20
94.92600000000001
 30
0.0
 11
54.999995
 21
95.82600000000001
 31
0.0
  0
LINE
  5
5B
330
1E
100
AcDbEntity
  8
0
100
AcDbLine
 10
55.59999499999999
 20
94.326
 30
0.0
 11
70.211995
 21
92.74055999999999
 31
0.0
  0
LINE
  5
5C
330
1E
100
AcDbEntity
  8
0
100
AcDbLine
 10
55.59999499999999
 20
94.326
 30
0.0
 11
55.59999499999999
 21
95.226
 31
0.0
  0
LINE
  5
5D
330
1E
100
AcDbEntity
  8
0
100
AcDbLine
 10
51.603795
 20
95.02579
 30
0.0
 11
51.6065769419357
 21
95.40089
 31
0.0
  0
LINE
  5
5E
330
1E
100
AcDbEntity
  8
0
100
AcDbLine
 10
51.603795
 20
95.02579
 30
0.0
 11
51.624895
 21
94.12049000000001
 31
0.0
  0
LINE
  5
5F
330
1E
100
AcDbEntity
  8
0
100
AcDbLine
 10
51.603795
 20
95.02579
 30
0.0
 11
51.622395
 21
97.5337
 31
0.0
  0
LINE
  5
60
330
1E
100
AcDbEntity
  8
0
100
AcDbLine
 10
6.458994999999999
 20
98.7747
 30
0.0
 11
12.270995
 21
114.7292999999999
 31
0.0
  0
LINE
  5
61
330
1E
100
AcDbEntity
  8
0
100
AcDbLine
 10
12.270995
 20
114.7292999999999
 30
0.0
 11
20.972995
 21
130.4302999999999
 31
0.0
  0
LINE
  5
62
330
1E
100
AcDbEntity
  8
0
100
AcDbLine
 10
51.572495
 20
101.5533999999999
 30
0.0
 11
51.618595
 21
106.6693
 31
0.0
  0
LINE
  5
63
330
1E
100
AcDbEntity
  8
0
100
AcDbLine
 10
51.572495
 20
101.5533999999999
 30
0.0
 11
51.622395
 21
97.5337
 31
0.0
  0
LINE
  5
64
330
1E
100
AcDbEntity
  8
0
100
AcDbLine
 10
54.999995
 20
95.82600000000001
 30
0.0
 11
54.999995
 21
94.92600000000001
 31
0.0
  0
LINE
  5
65
330
1E
100
AcDbEntity
  8
0
100
AcDbLine
 10
54.999995
 20
95.82600000000001
 30
0.0
 11
54.999995
 21
98.22600000000001
 31
0.0
  0
LINE
  5
66
330
1E
100
AcDbEntity
  8
0
100
AcDbLine
 10
54.999995
 20
98.22600000000001
 30
0.0
 11
54.999995
 21
95.82600000000001
 31
0.0
  0
LINE
  5
67
330
1E
100
AcDbEntity
  8
0
100
AcDbLine
 10
54.999995
 20
98.22600000000001
 30
0.0
 11
54.999995
 21
102.126
 31
0.0
  0
LINE
  5
68
330
1E
100
AcDbEntity
  8
0
100
AcDbLine
 10
55.59999499999999
 20
97.626
 30
0.0
 11
55.59999499999999
 21
95.226
 31
0.0
  0
LINE
  5
69
330
1E
100
AcDbEntity
  8
0
100
AcDbLine
 10
55.59999499999999
 20
97.626
 30
0.0
 11
55.59999499999999
 21
101.626
 31
0.0
  0
LINE
  5
6A
330
1E
100
AcDbEntity
  8
0
100
AcDbLine
 10
54.999995
 20
102.126
 30
0.0
 11
54.999995
 21
98.22600000000001
 31
0.0
  0
LINE
  5
6B
330
1E
100
AcDbEntity
  8
0
100
AcDbLine
 10
54.999995
 20
102.126
 30
0.0
 11
54.999995
 21
107.2259999999999
 31
0.0
  0
LINE
  5
6C
330
1E
100
AcDbEntity
  8
0
100
AcDbLine
 10
54.999995
 20
107.2259999999999
 30
0.0
 11
54.999995
 21
102.126
 31
0.0
  0
LINE
  5
6D
330
1E
100
AcDbEntity
  8
0
100
AcDbLine
 10
54.999995
 20
107.2259999999999
 30
0.0
 11
54.999995
 21
113.026
 31
0.0
  0
LINE
  5
6E
330
1E
100
AcDbEntity
  8
0
100
AcDbLine
 10
55.59999499999999
 20
101.626
 30
0.0
 11
55.59999499999999
 21
97.626
 31
0.0
  0
LINE
  5
6F
330
1E
100
AcDbEntity
  8
0
100
AcDbLine
 10
55.59999499999999
 20
101.626
 30
0.0
 11
55.59999499999999
 21
106.926
 31
0.0
  0
LINE
  5
70
330
1E
100
AcDbEntity
  8
0
100
AcDbLine
 10
55.59999499999999
 20
106.926
 30
0.0
 11
55.59999499999999
 21
101.626
 31
0.0
  0
LINE
  5
71
330
1E
100
AcDbEntity
  8
0
100
AcDbLine
 10
55.59999499999999
 20
106.926
 30
0.0
 11
55.59999499999999
 21
112.926
 31
0.0
  0
LINE
  5
72
330
1E
100
AcDbEntity
  8
0
100
AcDbLine
 10
54.999995
 20
113.026
 30
0.0
 11
54.999995
 21
107.2259999999999
 31
0.0
  0
LINE
  5
73
330
1E
100
AcDbEntity
  8
0
100
AcDbLine
 10
54.999995
 20
113.026
 30
0.0
 11
54.999995
 21
119.326
 31
0.0
  0
LINE
  5
74
330
1E
100
AcDbEntity
  8
0
100
AcDbLine
 10
55.59999499999999
 20
112.926
 30
0.0
 11
55.59999499999999
 21
106.926
 31
0.0
  0
LINE
  5
75
330
1E
100
AcDbEntity
  8
0
100
AcDbLine
 10
55.59999499999999
 20
112.926
 30
0.0
 11
55.59999499999999
 21
119.326
 31
0.0
  0
LINE
  5
76
330
1E
100
AcDbEntity
  8
0
100
AcDbLine
 10
51.618595
 20
106.6693
 30
0.0
 11
51.643395
 21
112.6893
 31
0.0
  0
LINE
  5
77
330
1E
100
AcDbEntity
  8
0
100
AcDbLine
 10
54.999995
 20
131.426
 30
0.0
 11
54.999995
 21
125.626
 31
0.0
  0
LINE
  5
78
330
1E
100
AcDbEntity
  8
0
100
AcDbLine
 10
54.999995
 20
131.426
 30
0.0
 11
54.999995
 21
136.526
 31
0.0
  0
LINE
  5
79
330
1E
100
AcDbEntity
  8
0
100
AcDbLine
 10
54.999995
 20
125.626
 30
0.0
 11
54.999995
 21
119.326
 31
0.0
  0
LINE
  5
7A
330
1E
100
AcDbEntity
  8
0
100
AcDbLine
 10
54.999995
 20
125.626
 30
0.0
 11
54.999995
 21
131.426
 31
0.0
  0
LINE
  5
7B
330
1E
100
AcDbEntity
  8
0
100
AcDbLine
 10
55.59999499999999
 20
125.726
 30
0.0
 11
55.59999499999999
 21
119.326
 31
0.0
  0
LINE
  5
7C
330
1E
100
AcDbEntity
  8
0
100
AcDbLine
 10
55.59999499999999
 20
125.726
 30
0.0
 11
55.59999499999999
 21
131.726
 31
0.0
  0
LINE
  5
7D
330
1E
100
AcDbEntity
  8
0
100
AcDbLine
 10
54.999995
 20
119.326
 30
0.0
 11
54.999995
 21
113.026
 31
0.0
  0
LINE
  5
7E
330
1E
100
AcDbEntity
  8
0
100
AcDbLine
 10
54.999995
 20
119.326
 30
0.0
 11
54.999995
 21
125.626
 31
0.0
  0
LINE
  5
7F
330
1E
100
AcDbEntity
  8
0
100
AcDbLine
 10
55.59999499999999
 20
119.326
 30
0.0
 11
55.59999499999999
 21
112.926
 31
0.0
  0
LINE
  5
80
330
1E
100
AcDbEntity
  8
0
100
AcDbLine
 10
55.59999499999999
 20
119.326
 30
0.0
 11
55.59999499999999
 21
125.726
 31
0.0
  0
LINE
  5
81
330
1E
100
AcDbEntity
  8
0
100
AcDbLine
 10
51.603495
 20
119.1173
 30
0.0
 11
51.643395
 21
112.6893
 31
0.0
  0
LINE
  5
82
330
1E
100
AcDbEntity
  8
0
100
AcDbLine
 10
49.63439499999999
 20
125.5803
 30
0.0
 11
51.603495
 21
119.1173
 31
0.0
  0
LINE
  5
83
330
1E
100
AcDbEntity
  8
0
100
AcDbLine
 10
55.59999499999999
 20
131.726
 30
0.0
 11
55.59999499999999
 21
125.726
 31
0.0
  0
LINE
  5
84
330
1E
100
AcDbEntity
  8
0
100
AcDbLine
 10
55.59999499999999
 20
131.726
 30
0.0
 11
55.59999499999999
 21
137.026
 31
0.0
  0
LINE
  5
85
330
1E
100
AcDbEntity
  8
0
100
AcDbLine
 10
47.801095
 20
131.4923
 30
0.0
 11
49.63439499999999
 21
125.5803
 31
0.0
  0
LINE
  5
86
330
1E
100
AcDbEntity
  8
0
100
AcDbLine
 10
20.972995
 20
130.4302999999999
 30
0.0
 11
32.079995
 21
141.5043
 31
0.0
  0
LINE
  5
87
330
1E
100
AcDbEntity
  8
0
100
AcDbLine
 10
51.6065769419357
 20
95.40089
 30
0.0
 11
54.999995
 21
95.40089
 31
0.0
  0
LINE
  5
88
330
1E
100
AcDbEntity
  8
0
100
AcDbLine
 10
84.572295
 20
60.174
 30
0.0
 11
84.97229499999999
 21
60.174
 31
0.0
  0
LINE
  5
89
330
1E
100
AcDbEntity
  8
0
100
AcDbLine
 10
83.97229499999999
 20
90.17402
 30
0.0
 11
85.07229499999999
 21
90.17402
 31
0.0
  0
LINE
  5
8A
330
1E
100
AcDbEntity
  8
0
100
AcDbLine
 10
85.07229499999999
 20
90.17402
 30
0.0
 11
86.97229499999998
 21
90.17402
 31
0.0
  0
LINE
  5
8B
330
1E
100
AcDbEntity
  8
0
100
AcDbLine
 10
83.572295
 20
90.17402
 30
0.0
 11
84.572295
 21
60.174
 31
0.0
  0
LINE
  5
8C
330
1E
100
AcDbEntity
  8
0
100
AcDbLine
 10
83.572295
 20
90.17402
 30
0.0
 11
83.97229499999999
 21
90.17402
 31
0.0
  0
LINE
  5
8D
330
1E
100
AcDbEntity
  8
0
100
AcDbLine
 10
84.97229499999999
 20
60.174
 30
0.0
 11
85.97229499999999
 21
60.174
 31
0.0
  0
LINE
  5
8E
330
1E
100
AcDbEntity
  8
0
100
AcDbLine
 10
96.97199499999999
 20
0.20030000000001
 30
0.0
 11
98.77199499999999
 21
0.275199999999995
 31
0.0
  0
LINE
  5
8F
330
1E
100
AcDbEntity
  8
0
100
AcDbLine
 10
95.071995
 20
0.174000000000004
 30
0.0
 11
96.97199499999999
 21
0.20030000000001
 31
0.0
  0
LINE
  5
90
330
1E
100
AcDbEntity
  8
0
100
AcDbLine
 10
86.97229499999998
 20
90.17402
 30
0.0
 11
89.37229499999999
 21
90.17402
 31
0.0
  0
LINE
  5
91
330
1E
100
AcDbEntity
  8
0
100
AcDbLine
 10
87.57229499999999
 20
60.174
 30
0.0
 11
87.57229499999999
 21
4.435799999999979
 31
0.0
  0
LINE
  5
92
330
1E
100
AcDbEntity
  8
0
100
AcDbLine
 10
87.57229499999999
 20
60.174
 30
0.0
 11
87.872295
 21
60.174
 31
0.0
  0
LINE
  5
93
330
1E
100
AcDbEntity
  8
0
100
AcDbLine
 10
87.872295
 20
5.78519999999999
 30
0.0
 11
88.572295
 21
6.98459999999998
 31
0.0
  0
LINE
  5
94
330
1E
100
AcDbEntity
  8
0
100
AcDbLine
 10
87.67229499999999
 20
60.174
 30
0.0
 11
89.87229499999999
 21
60.174
 31
0.0
  0
LINE
  5
95
330
1E
100
AcDbEntity
  8
0
100
AcDbLine
 10
87.872295
 20
60.174
 30
0.0
 11
88.572295
 21
60.174
 31
0.0
  0
LINE
  5
96
330
1E
100
AcDbEntity
  8
0
100
AcDbLine
 10
88.572295
 20
60.174
 30
0.0
 11
89.77229499999999
 21
60.174
 31
0.0
  0
LINE
  5
97
330
1E
100
AcDbEntity
  8
0
100
AcDbLine
 10
88.572295
 20
6.98459999999998
 30
0.0
 11
89.77229499999999
 21
8.183999999999999
 31
0.0
  0
LINE
  5
98
330
1E
100
AcDbEntity
  8
0
100
AcDbLine
 10
87.57229499999999
 20
4.435799999999979
 30
0.0
 11
87.872295
 21
2.449199999999999
 31
0.0
  0
LINE
  5
99
330
1E
100
AcDbEntity
  8
0
100
AcDbLine
 10
87.57229499999999
 20
4.435799999999979
 30
0.0
 11
87.57229499999999
 21
60.174
 31
0.0
  0
LINE
  5
9A
330
1E
100
AcDbEntity
  8
0
100
AcDbLine
 10
87.57229499999999
 20
4.435799999999979
 30
0.0
 11
87.872295
 21
5.78519999999999
 31
0.0
  0
LINE
  5
9B
330
1E
100
AcDbEntity
  8
0
100
AcDbLine
 10
87.872295
 20
2.449199999999999
 30
0.0
 11
88.572295
 21
1.324699999999989
 31
0.0
  0
LINE
  5
9C
330
1E
100
AcDbEntity
  8
0
100
AcDbLine
 10
89.77229499999999
 20
8.183999999999999
 30
0.0
 11
91.372295
 21
9.23349999999999
 31
0.0
  0
LINE
  5
9D
330
1E
100
AcDbEntity
  8
0
100
AcDbLine
 10
89.37229499999999
 20
90.17402
 30
0.0
 11
92.072295
 21
90.17402
 31
0.0
  0
LINE
  5
9E
330
1E
100
AcDbEntity
  8
0
100
AcDbLine
 10
89.87229499999999
 20
60.174
 30
0.0
 11
92.37229499999999
 21
60.174
 31
0.0
  0
LINE
  5
9F
330
1E
100
AcDbEntity
  8
0
100
AcDbLine
 10
89.77229499999999
 20
60.174
 30
0.0
 11
91.372295
 21
60.174
 31
0.0
  0
LINE
  5
A0
330
1E
100
AcDbEntity
  8
0
100
AcDbLine
 10
91.372295
 20
9.23349999999999
 30
0.0
 11
93.17229499999999
 21
9.9457
 31
0.0
  0
LINE
  5
A1
330
1E
100
AcDbEntity
  8
0
100
AcDbLine
 10
88.572295
 20
1.324699999999989
 30
0.0
 11
89.77229499999999
 21
0.6501000000000072
 31
0.0
  0
LINE
  5
A2
330
1E
100
AcDbEntity
  8
0
100
AcDbLine
 10
89.77229499999999
 20
0.6501000000000072
 30
0.0
 11
91.372295
 21
0.2751999999999961
 31
0.0
  0
LINE
  5
A3
330
1E
100
AcDbEntity
  8
0
100
AcDbLine
 10
100.371995
 20
0.650100000000006
 30
0.0
 11
101.571995
 21
1.324699999999989
 31
0.0
  0
LINE
  5
A4
330
1E
100
AcDbEntity
  8
0
100
AcDbLine
 10
98.77199499999999
 20
0.275199999999995
 30
0.0
 11
100.371995
 21
0.650100000000006
 31
0.0
  0
LINE
  5
A5
330
1E
100
AcDbEntity
  8
0
100
AcDbLine
 10
102.2719949999999
 20
2.449199999999999
 30
0.0
 11
102.571995
 21
4.435799999999979
 31
0.0
  0
LINE
  5
A6
330
1E
100
AcDbEntity
  8
0
100
AcDbLine
 10
101.571995
 20
1.324699999999989
 30
0.0
 11
102.2719949999999
 21
2.449199999999999
 31
0.0
  0
LINE
  5
A7
330
1E
100
AcDbEntity
  8
0
100
AcDbLine
 10
102.2719949999999
 20
5.78519999999999
 30
0.0
 11
102.571995
 21
4.435799999999979
 31
0.0
  0
LINE
  5
A8
330
1E
100
AcDbEntity
  8
0
100
AcDbLine
 10
102.571995
 20
4.435799999999979
 30
0.0
 11
102.571995
 21
60.174
 31
0.0
  0
LINE
  5
A9
330
1E
100
AcDbEntity
  8
0
100
AcDbLine
 10
101.571995
 20
6.98459999999998
 30
0.0
 11
102.2719949999999
 21
5.78519999999999
 31
0.0
  0
LINE
  5
AA
330
1E
100
AcDbEntity
  8
0
100
AcDbLine
 10
100.371995
 20
8.18399999999999
 30
0.0
 11
101.571995
 21
6.98459999999998
 31
0.0
  0
LINE
  5
AB
330
1E
100
AcDbEntity
  8
0
100
AcDbLine
 10
98.77199499999999
 20
9.23349999999999
 30
0.0
 11
100.371995
 21
8.18399999999999
 31
0.0
  0
LINE
  5
AC
330
1E
100
AcDbEntity
  8
0
100
AcDbLine
 10
96.97199499999999
 20
9.9457
 30
0.0
 11
98.77199499999999
 21
9.23349999999999
 31
0.0
  0
LINE
  5
AD
330
1E
100
AcDbEntity
  8
0
100
AcDbLine
 10
92.37229499999999
 20
60.174
 30
0.0
 11
95.071995
 21
60.174
 31
0.0
  0
LINE
  5
AE
330
1E
100
AcDbEntity
  8
0
100
AcDbLine
 10
92.072295
 20
90.17402
 30
0.0
 11
95.071995
 21
90.17402
 31
0.0
  0
LINE
  5
AF
330
1E
100
AcDbEntity
  8
0
100
AcDbLine
 10
91.372295
 20
60.174
 30
0.0
 11
93.17229499999999
 21
60.174
 31
0.0
  0
LINE
  5
B0
330
1E
100
AcDbEntity
  8
0
100
AcDbLine
 10
96.97199499999999
 20
60.174
 30
0.0
 11
98.77199499999999
 21
60.174
 31
0.0
  0
LINE
  5
B1
330
1E
100
AcDbEntity
  8
0
100
AcDbLine
 10
95.071995
 20
10.174
 30
0.0
 11
96.97199499999999
 21
9.9457
 31
0.0
  0
LINE
  5
B2
330
1E
100
AcDbEntity
  8
0
100
AcDbLine
 10
102.2719949999999
 20
60.174
 30
0.0
 11
102.571995
 21
60.174
 31
0.0
  0
LINE
  5
B3
330
1E
100
AcDbEntity
  8
0
100
AcDbLine
 10
101.571995
 20
60.174
 30
0.0
 11
102.2719949999999
 21
60.174
 31
0.0
  0
LINE
  5
B4
330
1E
100
AcDbEntity
  8
0
100
AcDbLine
 10
100.371995
 20
60.174
 30
0.0
 11
101.571995
 21
60.174
 31
0.0
  0
LINE
  5
B5
330
1E
100
AcDbEntity
  8
0
100
AcDbLine
 10
98.77199499999999
 20
60.174
 30
0.0
 11
100.371995
 21
60.174
 31
0.0
  0
LINE
  5
B6
330
1E
100
AcDbEntity
  8
0
100
AcDbLine
 10
102.4719949999999
 20
60.174
 30
0.0
 11
104.171995
 21
60.174
 31
0.0
  0
LINE
  5
B7
330
1E
100
AcDbEntity
  8
0
100
AcDbLine
 10
100.2719949999999
 20
60.174
 30
0.0
 11
102.4719949999999
 21
60.174
 31
0.0
  0
LINE
  5
B8
330
1E
100
AcDbEntity
  8
0
100
AcDbLine
 10
97.771995
 20
60.174
 30
0.0
 11
100.2719949999999
 21
60.174
 31
0.0
  0
LINE
  5
B9
330
1E
100
AcDbEntity
  8
0
100
AcDbLine
 10
95.071995
 20
60.174
 30
0.0
 11
97.771995
 21
60.174
 31
0.0
  0
LINE
  5
BA
330
1E
100
AcDbEntity
  8
0
100
AcDbLine
 10
95.071995
 20
60.174
 30
0.0
 11
96.97199499999999
 21
60.174
 31
0.0
  0
LINE
  5
BB
330
1E
100
AcDbEntity
  8
0
100
AcDbLine
 10
105.171995
 20
60.174
 30
0.0
 11
105.571995
 21
60.174
 31
0.0
  0
LINE
  5
BC
330
1E
100
AcDbEntity
  8
0
100
AcDbLine
 10
105.571995
 20
60.174
 30
0.0
 11
106.571995
 21
90.17402
 31
0.0
  0
LINE
  5
BD
330
1E
100
AcDbEntity
  8
0
100
AcDbLine
 10
104.171995
 20
60.174
 30
0.0
 11
105.171995
 21
60.174
 31
0.0
  0
LINE
  5
BE
330
1E
100
AcDbEntity
  8
0
100
AcDbLine
 10
105.0719949999999
 20
90.17402
 30
0.0
 11
106.171995
 21
90.17402
 31
0.0
  0
LINE
  5
BF
330
1E
100
AcDbEntity
  8
0
100
AcDbLine
 10
103.171995
 20
90.17402
 30
0.0
 11
105.0719949999999
 21
90.17402
 31
0.0
  0
LINE
  5
C0
330
1E
100
AcDbEntity
  8
0
100
AcDbLine
 10
100.7719949999999
 20
90.17402
 30
0.0
 11
103.171995
 21
90.17402
 31
0.0
  0
LINE
  5
C1
330
1E
100
AcDbEntity
  8
0
100
AcDbLine
 10
98.07199500000001
 20
90.17402
 30
0.0
 11
100.7719949999999
 21
90.17402
 31
0.0
  0
LINE
  5
C2
330
1E
100
AcDbEntity
  8
0
100
AcDbLine
 10
95.071995
 20
90.17402
 30
0.0
 11
98.07199500000001
 21
90.17402
 31
0.0
  0
LINE
  5
C3
330
1E
100
AcDbEntity
  8
0
100
AcDbLine
 10
102.571995
 20
60.174
 30
0.0
 11
104.171995
 21
60.174
 31
0.0
  0
LINE
  5
C4
330
1E
100
AcDbEntity
  8
0
100
AcDbLine
 10
102.571995
 20
60.174
 30
0.0
 11
102.571995
 21
4.435799999999979
 31
0.0
  0
LINE
  5
C5
330
1E
100
AcDbEntity
  8
0
100
AcDbLine
 10
93.17229499999999
 20
60.174
 30
0.0
 11
95.071995
 21
60.174
 31
0.0
  0
LINE
  5
C6
330
1E
100
AcDbEntity
  8
0
100
AcDbLine
 10
93.17229499999999
 20
9.9457
 30
0.0
 11
95.071995
 21
10.174
 31
0.0
  0
LINE
  5
C7
330
1E
100
AcDbEntity
  8
0
100
AcDbLine
 10
91.372295
 20
0.2751999999999961
 30
0.0
 11
93.17229499999999
 21
0.20030000000001
 31
0.0
  0
LINE
  5
C8
330
1E
100
AcDbEntity
  8
0
100
AcDbLine
 10
93.17229499999999
 20
0.20030000000001
 30
0.0
 11
95.071995
 21
0.174000000000004
 31
0.0
  0
LINE
  5
C9
330
1E
100
AcDbEntity
  8
0
100
AcDbLine
 10
85.97229499999999
 20
60.174
 30
0.0
 11
87.57229499999999
 21
60.174
 31
0.0
  0
LINE
  5
CA
330
1E
100
AcDbEntity
  8
0
100
AcDbLine
 10
85.97229499999999
 20
60.174
 30
0.0
 11
87.67229499999999
 21
60.174
 31
0.0
  0
LINE
  5
CB
330
1E
100
AcDbEntity
  8
0
100
AcDbLine
 10
84.07229499999999
 20
90.53402
 30
0.0
 11
84.07229499999999
 21
91.80336999999999
 31
0.0
  0
LINE
  5
CC
330
1E
100
AcDbEntity
  8
0
100
AcDbLine
 10
84.07229499999999
 20
90.53402
 30
0.0
 11
84.46829499999999
 21
90.53402
 31
0.0
  0
LINE
  5
CD
330
1E
100
AcDbEntity
  8
0
100
AcDbLine
 10
84.07229499999999
 20
90.53402
 30
0.0
 11
84.336295
 21
90.17402
 31
0.0
  0
LINE
  5
CE
330
1E
100
AcDbEntity
  8
0
100
AcDbLine
 10
84.46829499999999
 20
90.53402
 30
0.0
 11
85.524295
 21
90.53402
 31
0.0
  0
LINE
  5
CF
330
1E
100
AcDbEntity
  8
0
100
AcDbLine
 10
85.524295
 20
90.53402
 30
0.0
 11
87.284295
 21
90.53402
 31
0.0
  0
LINE
  5
D0
330
1E
100
AcDbEntity
  8
0
100
AcDbLine
 10
87.284295
 20
90.53402
 30
0.0
 11
89.61629499999999
 21
90.53402
 31
0.0
  0
LINE
  5
D1
330
1E
100
AcDbEntity
  8
0
100
AcDbLine
 10
89.61629499999999
 20
90.53402
 30
0.0
 11
92.256295
 21
90.53402
 31
0.0
  0
LINE
  5
D2
330
1E
100
AcDbEntity
  8
0
100
AcDbLine
 10
84.07229499999999
 20
91.80336999999999
 30
0.0
 11
84.07229499999999
 21
90.53402
 31
0.0
  0
LINE
  5
D3
330
1E
100
AcDbEntity
  8
0
100
AcDbLine
 10
92.256295
 20
90.53402
 30
0.0
 11
95.071995
 21
90.53402
 31
0.0
  0
LINE
  5
D4
330
1E
100
AcDbEntity
  8
0
100
AcDbLine
 10
105.675995
 20
90.53402
 30
0.0
 11
106.0719949999999
 21
90.53402
 31
0.0
  0
LINE
  5
D5
330
1E
100
AcDbEntity
  8
0
100
AcDbLine
 10
104.6199949999999
 20
90.53402
 30
0.0
 11
105.675995
 21
90.53402
 31
0.0
  0
LINE
  5
D6
330
1E
100
AcDbEntity
  8
0
100
AcDbLine
 10
102.859995
 20
90.53402
 30
0.0
 11
104.6199949999999
 21
90.53402
 31
0.0
  0
LINE
  5
D7
330
1E
100
AcDbEntity
  8
0
100
AcDbLine
 10
100.5279949999999
 20
90.53402
 30
0.0
 11
102.859995
 21
90.53402
 31
0.0
  0
LINE
  5
D8
330
1E
100
AcDbEntity
  8
0
100
AcDbLine
 10
97.88799499999999
 20
90.53402
 30
0.0
 11
100.5279949999999
 21
90.53402
 31
0.0
  0
LINE
  5
D9
330
1E
100
AcDbEntity
  8
0
100
AcDbLine
 10
95.071995
 20
90.53402
 30
0.0
 11
97.88799499999999
 21
90.53402
 31
0.0
  0
LINE
  5
DA
330
1E
100
AcDbEntity
  8
0
100
AcDbLine
 10
105.8079949999999
 20
90.17402
 30
0.0
 11
106.0719949999999
 21
90.53402
 31
0.0
  0
LINE
  5
DB
330
1E
100
AcDbEntity
  8
0
100
AcDbLine
 10
106.171995
 20
90.17402
 30
0.0
 11
106.571995
 21
90.17402
 31
0.0
  0
LINE
  5
DC
330
1E
100
AcDbEntity
  8
0
100
AcDbLine
 10
106.0719949999999
 20
90.53402
 30
0.0
 11
106.0719949999999
 21
91.826
 31
0.0
  0
LINE
  5
DF
330
1E
100
AcDbEntity
  8
0
100
AcDbLine
 10
92.38942494352501
 20
91.826
 30
0.0
 11
92.46999499999999
 21
91.826
 31
0.0
  0
LINE
  5
E0
330
1E
100
AcDbEntity
  8
0
100
AcDbLine
 10
92.46999499999999
 20
91.826
 30
0.0
 11
106.9999949999999
 21
91.826
 31
0.0
  0
LINE
  5
E4
330
1E
100
AcDbEntity
  8
0
100
AcDbLine
 10
106.9999949999999
 20
92.1565
 30
0.0
 11
106.9999949999999
 21
91.826
 31
0.0
  0
LINE
  5
E5
330
1E
100
AcDbEntity
  8
0
100
AcDbLine
 10
106.9999949999999
 20
92.1565
 30
0.0
 11
106.9999949999999
 21
92.65089999999998
 31
0.0
  0
LINE
  5
E6
330
1E
100
AcDbEntity
  8
0
100
AcDbLine
 10
106.9999949999999
 20
97.726
 30
0.0
 11
106.9999949999999
 21
96.49148000000002
 31
0.0
  0
LINE
  5
E7
330
1E
100
AcDbEntity
  8
0
100
AcDbLine
 10
106.9999949999999
 20
97.726
 30
0.0
 11
106.9999949999999
 21
100.2259999999999
 31
0.0
  0
LINE
  5
E8
330
1E
100
AcDbEntity
  8
0
100
AcDbLine
 10
106.9999949999999
 20
100.2259999999999
 30
0.0
 11
106.9999949999999
 21
97.726
 31
0.0
  0
LINE
  5
E9
330
1E
100
AcDbEntity
  8
0
100
AcDbLine
 10
106.9999949999999
 20
100.2259999999999
 30
0.0
 11
106.9999949999999
 21
104.2259999999999
 31
0.0
  0
LINE
  5
EA
330
1E
100
AcDbEntity
  8
0
100
AcDbLine
 10
106.9999949999999
 20
104.2259999999999
 30
0.0
 11
106.9999949999999
 21
100.2259999999999
 31
0.0
  0
LINE
  5
EB
330
1E
100
AcDbEntity
  8
0
100
AcDbLine
 10
106.9999949999999
 20
104.2259999999999
 30
0.0
 11
106.9999949999999
 21
109.526
 31
0.0
  0
LINE
  5
EC
330
1E
100
AcDbEntity
  8
0
100
AcDbLine
 10
106.9999949999999
 20
109.526
 30
0.0
 11
106.9999949999999
 21
104.2259999999999
 31
0.0
  0
LINE
  5
ED
330
1E
100
AcDbEntity
  8
0
100
AcDbLine
 10
106.9999949999999
 20
109.526
 30
0.0
 11
106.9999949999999
 21
115.426
 31
0.0
  0
LINE
  5
EE
330
1E
100
AcDbEntity
  8
0
100
AcDbLine
 10
106.9999949999999
 20
115.426
 30
0.0
 11
106.9999949999999
 21
109.526
 31
0.0
  0
LINE
  5
EF
330
1E
100
AcDbEntity
  8
0
100
AcDbLine
 10
106.9999949999999
 20
115.426
 30
0.0
 11
106.9999949999999
 21
121.826
 31
0.0
  0
LINE
  5
F0
330
1E
100
AcDbEntity
  8
0
100
AcDbLine
 10
106.9999949999999
 20
128.2259999999999
 30
0.0
 11
106.9999949999999
 21
134.126
 31
0.0
  0
LINE
  5
F1
330
1E
100
AcDbEntity
  8
0
100
AcDbLine
 10
106.9999949999999
 20
128.2259999999999
 30
0.0
 11
106.9999949999999
 21
121.826
 31
0.0
  0
LINE
  5
F2
330
1E
100
AcDbEntity
  8
0
100
AcDbLine
 10
106.9999949999999
 20
121.826
 30
0.0
 11
106.9999949999999
 21
128.2259999999999
 31
0.0
  0
LINE
  5
F3
330
1E
100
AcDbEntity
  8
0
100
AcDbLine
 10
106.9999949999999
 20
121.826
 30
0.0
 11
106.9999949999999
 21
115.426
 31
0.0
  0
LINE
  5
F4
330
1E
100
AcDbEntity
  8
0
100
AcDbLine
 10
106.9999949999999
 20
96.49148000000002
 30
0.0
 11
106.9999949999999
 21
93.85943000000001
 31
0.0
  0
LINE
  5
F5
330
1E
100
AcDbEntity
  8
0
100
AcDbLine
 10
106.9999949999999
 20
96.49148000000002
 30
0.0
 11
106.9999949999999
 21
97.726
 31
0.0
  0
LINE
  5
F6
330
1E
100
AcDbEntity
  8
0
100
AcDbLine
 10
106.9999949999999
 20
92.65089999999998
 30
0.0
 11
106.9999949999999
 21
92.1565
 31
0.0
  0
LINE
  5
F7
330
1E
100
AcDbEntity
  8
0
100
AcDbLine
 10
106.9999949999999
 20
92.65089999999998
 30
0.0
 11
106.9999949999999
 21
93.85943000000001
 31
0.0
  0
LINE
  5
F8
330
1E
100
AcDbEntity
  8
0
100
AcDbLine
 10
107.9999949999999
 20
94.75899
 30
0.0
 11
107.9999949999999
 21
92.826
 31
0.0
  0
LINE
  5
F9
330
1E
100
AcDbEntity
  8
0
100
AcDbLine
 10
107.9999949999999
 20
94.75899
 30
0.0
 11
107.9999949999999
 21
97.5909
 31
0.0
  0
LINE
  5
FA
330
1E
100
AcDbEntity
  8
0
100
AcDbLine
 10
107.9999949999999
 20
97.5909
 30
0.0
 11
107.9999949999999
 21
94.75899
 31
0.0
  0
LINE
  5
FB
330
1E
100
AcDbEntity
  8
0
100
AcDbLine
 10
107.9999949999999
 20
97.5909
 30
0.0
 11
107.9999949999999
 21
98.7349
 31
0.0
  0
LINE
  5
FC
330
1E
100
AcDbEntity
  8
0
100
AcDbLine
 10
107.9999949999999
 20
98.7349
 30
0.0
 11
107.9999949999999
 21
97.5909
 31
0.0
  0
LINE
  5
FD
330
1E
100
AcDbEntity
  8
0
100
AcDbLine
 10
107.9999949999999
 20
98.7349
 30
0.0
 11
107.9999949999999
 21
101.1867
 31
0.0
  0
LINE
  5
FE
330
1E
100
AcDbEntity
  8
0
100
AcDbLine
 10
107.9999949999999
 20
101.1867
 30
0.0
 11
107.9999949999999
 21
98.7349
 31
0.0
  0
LINE
  5
FF
330
1E
100
AcDbEntity
  8
0
100
AcDbLine
 10
107.9999949999999
 20
101.1867
 30
0.0
 11
107.9999949999999
 21
105.0097
 31
0.0
  0
LINE
  5
100
330
1E
100
AcDbEntity
  8
0
100
AcDbLine
 10
107.9999949999999
 20
105.0097
 30
0.0
 11
107.9999949999999
 21
101.1867
 31
0.0
  0
LINE
  5
101
330
1E
100
AcDbEntity
  8
0
100
AcDbLine
 10
107.9999949999999
 20
105.0097
 30
0.0
 11
107.9999949999999
 21
110.0794999999999
 31
0.0
  0
LINE
  5
102
330
1E
100
AcDbEntity
  8
0
100
AcDbLine
 10
107.9999949999999
 20
110.0794999999999
 30
0.0
 11
107.9999949999999
 21
105.0097
 31
0.0
  0
LINE
  5
103
330
1E
100
AcDbEntity
  8
0
100
AcDbLine
 10
107.9999949999999
 20
110.0794999999999
 30
0.0
 11
107.9999949999999
 21
115.826
 31
0.0
  0
LINE
  5
104
330
1E
100
AcDbEntity
  8
0
100
AcDbLine
 10
107.9999949999999
 20
115.826
 30
0.0
 11
107.9999949999999
 21
110.0794999999999
 31
0.0
  0
LINE
  5
105
330
1E
100
AcDbEntity
  8
0
100
AcDbLine
 10
107.9999949999999
 20
115.826
 30
0.0
 11
107.9999949999999
 21
121.826
 31
0.0
  0
LINE
  5
106
330
1E
100
AcDbEntity
  8
0
100
AcDbLine
 10
107.9999949999999
 20
121.826
 30
0.0
 11
107.9999949999999
 21
115.826
 31
0.0
  0
LINE
  5
107
330
1E
100
AcDbEntity
  8
0
100
AcDbLine
 10
107.9999949999999
 20
121.826
 30
0.0
 11
107.9999949999999
 21
127.826
 31
0.0
  0
LINE
  5
108
330
1E
100
AcDbEntity
  8
0
100
AcDbLine
 10
107.9999949999999
 20
127.826
 30
0.0
 11
107.9999949999999
 21
121.826
 31
0.0
  0
LINE
  5
109
330
1E
100
AcDbEntity
  8
0
100
AcDbLine
 10
107.9999949999999
 20
127.826
 30
0.0
 11
107.9999949999999
 21
133.5724999999999
 31
0.0
  0
LINE
  5
10A
330
1E
100
AcDbEntity
  8
0
100
AcDbLine
 10
107.9999949999999
 20
92.826
 30
0.0
 11
107.9999949999999
 21
94.75899
 31
0.0
  0
LINE
  5
10B
330
1E
100
AcDbEntity
  8
0
100
AcDbLine
 10
106.9999949999999
 20
93.85943000000001
 30
0.0
 11
106.9999949999999
 21
92.65089999999998
 31
0.0
  0
LINE
  5
10C
330
1E
100
AcDbEntity
  8
0
100
AcDbLine
 10
106.9999949999999
 20
93.85943000000001
 30
0.0
 11
106.9999949999999
 21
96.49148000000002
 31
0.0
  0
LINE
  5
10D
330
1E
100
AcDbEntity
  8
0
100
AcDbLine
 10
106.9999949999999
 20
91.826
 30
0.0
 11
107.9999949999999
 21
92.826
 31
0.0
  0
LINE
  5
10E
330
1E
100
AcDbEntity
  8
0
100
AcDbLine
 10
106.9999949999999
 20
91.826
 30
0.0
 11
106.9999949999999
 21
92.1565
 31
0.0
  0
LINE
  5
10F
330
1E
100
AcDbEntity
  8
0
100
AcDbLine
 10
106.0719949999999
 20
91.826
 30
0.0
 11
106.9999949999999
 21
91.826
 31
0.0
  0
LINE
  5
110
330
1E
100
AcDbEntity
  8
0
100
AcDbLine
 10
106.0719949999999
 20
91.826
 30
0.0
 11
106.0719949999999
 21
90.53402
 31
0.0
  0
LINE
  5
111
330
1E
100
AcDbEntity
  8
0
100
AcDbLine
 10
82.199995
 20
91.80336999999999
 30
0.0
 11
84.07229499999999
 21
91.80336999999999
 31
0.0
  0
LINE
  5
112
330
1E
100
AcDbEntity
  8
0
100
AcDbLine
 10
82.199995
 20
91.80336999999999
 30
0.0
 11
92.472495
 21
91.80336999999999
 31
0.0
  0
LINE
  5
113
330
1E
100
AcDbEntity
  8
0
100
AcDbLine
 10
70.211995
 20
92.74055999999999
 30
0.0
 11
82.1075366521182
 21
91.83305361249908
 31
0.0
  0
LINE
  5
114
330
1E
100
AcDbEntity
  8
0
100
AcDbLine
 10
46.292695
 20
136.4843
 30
0.0
 11
47.801095
 21
131.4923
 31
0.0
  0
LINE
  5
115
330
1E
100
AcDbEntity
  8
0
100
AcDbLine
 10
45.109095
 20
140.5572999999999
 30
0.0
 11
46.292695
 21
136.4843
 31
0.0
  0
LINE
  5
116
330
1E
100
AcDbEntity
  8
0
100
AcDbLine
 10
32.079995
 20
141.5043
 30
0.0
 11
42.810595
 21
143.6773
 31
0.0
  0
LINE
  5
117
330
1E
100
AcDbEntity
  8
0
100
AcDbLine
 10
44.589195
 20
142.9523
 30
0.0
 11
45.109095
 21
140.5572999999999
 31
0.0
  0
LINE
  5
118
330
1E
100
AcDbEntity
  8
0
100
AcDbLine
 10
44.7419478301743
 20
142.248620391869
 30
0.0
 11
47.457095
 21
142.9012999999999
 31
0.0
  0
LINE
  5
119
330
1E
100
AcDbEntity
  8
0
100
AcDbLine
 10
54.999995
 20
140.426
 30
0.0
 11
54.999995
 21
136.526
 31
0.0
  0
LINE
  5
11A
330
1E
100
AcDbEntity
  8
0
100
AcDbLine
 10
54.999995
 20
140.426
 30
0.0
 11
54.999995
 21
142.8259999999999
 31
0.0
  0
LINE
  5
11B
330
1E
100
AcDbEntity
  8
0
100
AcDbLine
 10
54.999995
 20
136.526
 30
0.0
 11
54.999995
 21
131.426
 31
0.0
  0
LINE
  5
11C
330
1E
100
AcDbEntity
  8
0
100
AcDbLine
 10
54.999995
 20
136.526
 30
0.0
 11
54.999995
 21
140.426
 31
0.0
  0
LINE
  5
11D
330
1E
100
AcDbEntity
  8
0
100
AcDbLine
 10
54.999995
 20
142.8259999999999
 30
0.0
 11
54.999995
 21
140.426
 31
0.0
  0
LINE
  5
11E
330
1E
100
AcDbEntity
  8
0
100
AcDbLine
 10
54.999995
 20
142.8259999999999
 30
0.0
 11
54.999995
 21
143.726
 31
0.0
  0
LINE
  5
11F
330
1E
100
AcDbEntity
  8
0
100
AcDbLine
 10
55.59999499999999
 20
141.026
 30
0.0
 11
55.59999499999999
 21
137.026
 31
0.0
  0
LINE
  5
120
330
1E
100
AcDbEntity
  8
0
100
AcDbLine
 10
55.59999499999999
 20
141.026
 30
0.0
 11
55.59999499999999
 21
143.426
 31
0.0
  0
LINE
  5
121
330
1E
100
AcDbEntity
  8
0
100
AcDbLine
 10
55.59999499999999
 20
137.026
 30
0.0
 11
55.59999499999999
 21
131.726
 31
0.0
  0
LINE
  5
122
330
1E
100
AcDbEntity
  8
0
100
AcDbLine
 10
55.59999499999999
 20
137.026
 30
0.0
 11
55.59999499999999
 21
141.026
 31
0.0
  0
LINE
  5
123
330
1E
100
AcDbEntity
  8
0
100
AcDbLine
 10
54.999995
 20
143.4013
 30
0.0
 11
54.999995
 21
143.726
 31
0.0
  0
LINE
  5
124
330
1E
100
AcDbEntity
  8
0
100
AcDbLine
 10
47.457095
 20
142.9012999999999
 30
0.0
 11
51.09709500000001
 21
143.4013
 31
0.0
  0
LINE
  5
125
330
1E
100
AcDbEntity
  8
0
100
AcDbLine
 10
55.59999499999999
 20
143.426
 30
0.0
 11
55.59999499999999
 21
141.026
 31
0.0
  0
LINE
  5
126
330
1E
100
AcDbEntity
  8
0
100
AcDbLine
 10
55.59999499999999
 20
143.426
 30
0.0
 11
55.59999499999999
 21
144.3259999999999
 31
0.0
  0
LINE
  5
127
330
1E
100
AcDbEntity
  8
0
100
AcDbLine
 10
54.999995
 20
143.726
 30
0.0
 11
55.59999499999999
 21
144.3259999999999
 31
0.0
  0
LINE
  5
128
330
1E
100
AcDbEntity
  8
0
100
AcDbLine
 10
54.999995
 20
143.726
 30
0.0
 11
54.999995
 21
143.4013
 31
0.0
  0
LINE
  5
129
330
1E
100
AcDbEntity
  8
0
100
AcDbLine
 10
54.999995
 20
143.726
 30
0.0
 11
54.999995
 21
142.8259999999999
 31
0.0
  0
LINE
  5
12A
330
1E
100
AcDbEntity
  8
0
100
AcDbLine
 10
55.59999499999999
 20
144.3259999999999
 30
0.0
 11
70.274895
 21
146.0633
 31
0.0
  0
LINE
  5
12B
330
1E
100
AcDbEntity
  8
0
100
AcDbLine
 10
44.33779499999999
 20
143.7842999999999
 30
0.0
 11
44.589195
 21
142.9523
 31
0.0
  0
LINE
  5
12C
330
1E
100
AcDbEntity
  8
0
100
AcDbLine
 10
42.810595
 20
143.6773
 30
0.0
 11
44.33779499999999
 21
143.7842999999999
 31
0.0
  0
LINE
  5
12D
330
1E
100
AcDbEntity
  8
0
100
AcDbLine
 10
51.09709500000001
 20
143.4013
 30
0.0
 11
54.999995
 21
143.4013
 31
0.0
  0
LINE
  5
12E
330
1E
100
AcDbEntity
  8
0
100
AcDbLine
 10
106.9999949999999
 20
134.126
 30
0.0
 11
106.9999949999999
 21
139.426
 31
0.0
  0
LINE
  5
12F
330
1E
100
AcDbEntity
  8
0
100
AcDbLine
 10
106.9999949999999
 20
134.126
 30
0.0
 11
106.9999949999999
 21
128.2259999999999
 31
0.0
  0
LINE
  5
130
330
1E
100
AcDbEntity
  8
0
100
AcDbLine
 10
106.9999949999999
 20
143.426
 30
0.0
 11
106.9999949999999
 21
145.926
 31
0.0
  0
LINE
  5
131
330
1E
100
AcDbEntity
  8
0
100
AcDbLine
 10
106.9999949999999
 20
143.426
 30
0.0
 11
106.9999949999999
 21
139.426
 31
0.0
  0
LINE
  5
132
330
1E
100
AcDbEntity
  8
0
100
AcDbLine
 10
106.9999949999999
 20
139.426
 30
0.0
 11
106.9999949999999
 21
143.426
 31
0.0
  0
LINE
  5
133
330
1E
100
AcDbEntity
  8
0
100
AcDbLine
 10
106.9999949999999
 20
139.426
 30
0.0
 11
106.9999949999999
 21
134.126
 31
0.0
  0
LINE
  5
135
330
1E
100
AcDbEntity
  8
0
100
AcDbLine
 10
106.9999949999999
 20
146.8259999999999
 30
0.0
 11
106.9999949999999
 21
145.926
 31
0.0
  0
LINE
  5
136
330
1E
100
AcDbEntity
  8
0
100
AcDbLine
 10
106.9999949999999
 20
146.8259999999999
 30
0.0
 11
107.9999949999999
 21
145.8259999999999
 31
0.0
  0
LINE
  5
137
330
1E
100
AcDbEntity
  8
0
100
AcDbLine
 10
106.9999949999999
 20
145.926
 30
0.0
 11
106.9999949999999
 21
146.8259999999999
 31
0.0
  0
LINE
  5
138
330
1E
100
AcDbEntity
  8
0
100
AcDbLine
 10
106.9999949999999
 20
145.926
 30
0.0
 11
106.9999949999999
 21
143.426
 31
0.0
  0
LINE
  5
139
330
1E
100
AcDbEntity
  8
0
100
AcDbLine
 10
92.472495
 20
146.8259999999999
 30
0.0
 11
100.354995
 21
146.8259999999999
 31
0.0
  0
LINE
  5
13A
330
1E
100
AcDbEntity
  8
0
100
AcDbLine
 10
100.354995
 20
146.8259999999999
 30
0.0
 11
105.309995
 21
146.8259999999999
 31
0.0
  0
LINE
  5
13B
330
1E
100
AcDbEntity
  8
0
100
AcDbLine
 10
107.9999949999999
 20
145.8259999999999
 30
0.0
 11
107.9999949999999
 21
144.9170999999999
 31
0.0
  0
LINE
  5
13C
330
1E
100
AcDbEntity
  8
0
100
AcDbLine
 10
107.9999949999999
 20
144.9170999999999
 30
0.0
 11
107.9999949999999
 21
142.4653
 31
0.0
  0
LINE
  5
13D
330
1E
100
AcDbEntity
  8
0
100
AcDbLine
 10
107.9999949999999
 20
144.9170999999999
 30
0.0
 11
107.9999949999999
 21
145.8259999999999
 31
0.0
  0
LINE
  5
13E
330
1E
100
AcDbEntity
  8
0
100
AcDbLine
 10
107.9999949999999
 20
142.4653
 30
0.0
 11
107.9999949999999
 21
138.6423
 31
0.0
  0
LINE
  5
13F
330
1E
100
AcDbEntity
  8
0
100
AcDbLine
 10
107.9999949999999
 20
142.4653
 30
0.0
 11
107.9999949999999
 21
144.9170999999999
 31
0.0
  0
LINE
  5
140
330
1E
100
AcDbEntity
  8
0
100
AcDbLine
 10
107.9999949999999
 20
138.6423
 30
0.0
 11
107.9999949999999
 21
133.5724999999999
 31
0.0
  0
LINE
  5
141
330
1E
100
AcDbEntity
  8
0
100
AcDbLine
 10
107.9999949999999
 20
138.6423
 30
0.0
 11
107.9999949999999
 21
142.4653
 31
0.0
  0
LINE
  5
142
330
1E
100
AcDbEntity
  8
0
100
AcDbLine
 10
107.9999949999999
 20
133.5724999999999
 30
0.0
 11
107.9999949999999
 21
127.826
 31
0.0
  0
LINE
  5
143
330
1E
100
AcDbEntity
  8
0
100
AcDbLine
 10
107.9999949999999
 20
133.5724999999999
 30
0.0
 11
107.9999949999999
 21
138.6423
 31
0.0
  0
LINE
  5
144
330
1E
100
AcDbEntity
  8
0
100
AcDbLine
 10
105.309995
 20
146.8259999999999
 30
0.0
 11
106.9999949999999
 21
146.8259999999999
 31
0.0
  0
LINE
  5
145
330
1E
100
AcDbEntity
  8
0
100
AcDbLine
 10
82.199995
 20
146.8259999999999
 30
0.0
 11
92.472495
 21
146.8259999999999
 31
0.0
  0
LINE
  5
146
330
1E
100
AcDbEntity
  8
0
100
AcDbLine
 10
107.9999949999999
 20
132.8259999999999
 30
0.0
 11
109.9999949999999
 21
134.826
 31
0.0
  0
LINE
  5
147
330
1E
100
AcDbEntity
  8
0
100
AcDbLine
 10
114.9999949999999
 20
107.8259999999999
 30
0.0
 11
117.999995
 21
107.8259999999999
 31
0.0
  0
LINE
  5
148
330
1E
100
AcDbEntity
  8
0
100
AcDbLine
 10
148.9999949999999
 20
104.4259999999999
 30
0.0
 11
148.9999949999999
 21
97.12600000000001
 31
0.0
  0
LINE
  5
149
330
1E
100
AcDbEntity
  8
0
100
AcDbLine
 10
148.9999949999999
 20
104.4259999999999
 30
0.0
 11
148.9999949999999
 21
112.826
 31
0.0
  0
LINE
  5
14A
330
1E
100
AcDbEntity
  8
0
100
AcDbLine
 10
148.9999949999999
 20
97.12600000000001
 30
0.0
 11
148.9999949999999
 21
91.52600000000001
 31
0.0
  0
LINE
  5
14B
330
1E
100
AcDbEntity
  8
0
100
AcDbLine
 10
148.9999949999999
 20
97.12600000000001
 30
0.0
 11
148.9999949999999
 21
104.4259999999999
 31
0.0
  0
LINE
  5
14C
330
1E
100
AcDbEntity
  8
0
100
AcDbLine
 10
148.9999949999999
 20
91.52600000000001
 30
0.0
 11
148.9999949999999
 21
88.12600000000001
 31
0.0
  0
LINE
  5
14D
330
1E
100
AcDbEntity
  8
0
100
AcDbLine
 10
148.9999949999999
 20
91.52600000000001
 30
0.0
 11
148.9999949999999
 21
97.12600000000001
 31
0.0
  0
LINE
  5
14E
330
1E
100
AcDbEntity
  8
0
100
AcDbLine
 10
148.9999949999999
 20
88.12600000000001
 30
0.0
 11
148.9999949999999
 21
86.826
 31
0.0
  0
LINE
  5
14F
330
1E
100
AcDbEntity
  8
0
100
AcDbLine
 10
148.9999949999999
 20
88.12600000000001
 30
0.0
 11
148.9999949999999
 21
91.52600000000001
 31
0.0
  0
LINE
  5
150
330
1E
100
AcDbEntity
  8
0
100
AcDbLine
 10
153.9999949999999
 20
104.4259999999999
 30
0.0
 11
153.9999949999999
 21
97.12600000000001
 31
0.0
  0
LINE
  5
151
330
1E
100
AcDbEntity
  8
0
100
AcDbLine
 10
153.9999949999999
 20
97.12600000000001
 30
0.0
 11
153.9999949999999
 21
91.52600000000001
 31
0.0
  0
LINE
  5
152
330
1E
100
AcDbEntity
  8
0
100
AcDbLine
 10
153.9999949999999
 20
91.52600000000001
 30
0.0
 11
153.9999949999999
 21
88.12600000000001
 31
0.0
  0
LINE
  5
153
330
1E
100
AcDbEntity
  8
0
100
AcDbLine
 10
153.9999949999999
 20
88.12600000000001
 30
0.0
 11
153.9999949999999
 21
86.826
 31
0.0
  0
LINE
  5
154
330
1E
100
AcDbEntity
  8
0
100
AcDbLine
 10
148.9999949999999
 20
86.826
 30
0.0
 11
153.9999949999999
 21
86.826
 31
0.0
  0
LINE
  5
155
330
1E
100
AcDbEntity
  8
0
100
AcDbLine
 10
148.9999949999999
 20
86.826
 30
0.0
 11
148.9999949999999
 21
88.12600000000001
 31
0.0
  0
LINE
  5
156
330
1E
100
AcDbEntity
  8
0
100
AcDbLine
 10
128.9999949999999
 20
107.8259999999999
 30
0.0
 11
128.9999949999999
 21
108.326
 31
0.0
  0
LINE
  5
157
330
1E
100
AcDbEntity
  8
0
100
AcDbLine
 10
128.9999949999999
 20
107.8259999999999
 30
0.0
 11
148.9999949999999
 21
86.826
 31
0.0
  0
LINE
  5
158
330
1E
100
AcDbEntity
  8
0
100
AcDbLine
 10
117.999995
 20
107.8259999999999
 30
0.0
 11
119.999995
 21
108.826
 31
0.0
  0
LINE
  5
15A
330
1E
100
AcDbEntity
  8
0
100
AcDbLine
 10
109.9999949999999
 20
108.826
 30
0.0
 11
111.9999949999999
 21
107.8259999999999
 31
0.0
  0
LINE
  5
15C
330
1E
100
AcDbEntity
  8
0
100
AcDbLine
 10
109.9999949999999
 20
108.826
 30
0.0
 11
109.9999949999999
 21
133.126
 31
0.0
  0
LINE
  5
15E
330
1E
100
AcDbEntity
  8
0
100
AcDbLine
 10
109.9999949999999
 20
134.826
 30
0.0
 11
111.9999949999999
 21
135.826
 31
0.0
  0
LINE
  5
15F
330
1E
100
AcDbEntity
  8
0
100
AcDbLine
 10
109.9999949999999
 20
133.126
 30
0.0
 11
109.9999949999999
 21
108.826
 31
0.0
  0
LINE
  5
160
330
1E
100
AcDbEntity
  8
0
100
AcDbLine
 10
109.9999949999999
 20
133.126
 30
0.0
 11
109.9999949999999
 21
134.826
 31
0.0
  0
LINE
  5
161
330
1E
100
AcDbEntity
  8
0
100
AcDbLine
 10
109.9999949999999
 20
134.826
 30
0.0
 11
109.9999949999999
 21
133.126
 31
0.0
  0
LINE
  5
164
330
1E
100
AcDbEntity
  8
0
100
AcDbLine
 10
114.9999949999999
 20
135.826
 30
0.0
 11
117.999995
 21
135.826
 31
0.0
  0
LINE
  5
165
330
1E
100
AcDbEntity
  8
0
100
AcDbLine
 10
111.9999949999999
 20
135.826
 30
0.0
 11
114.9999949999999
 21
135.826
 31
0.0
  0
LINE
  5
16A
330
1E
100
AcDbEntity
  8
0
100
AcDbLine
 10
119.999995
 20
108.826
 30
0.0
 11
121.999995
 21
110.826
 31
0.0
  0
LINE
  5
16D
330
1E
100
AcDbEntity
  8
0
100
AcDbLine
 10
128.9999949999999
 20
110.826
 30
0.0
 11
128.9999949999999
 21
109.726
 31
0.0
  0
LINE
  5
16E
330
1E
100
AcDbEntity
  8
0
100
AcDbLine
 10
128.9999949999999
 20
110.826
 30
0.0
 11
128.9999949999999
 21
111.226
 31
0.0
  0
LINE
  5
16F
330
1E
100
AcDbEntity
  8
0
100
AcDbLine
 10
128.9999949999999
 20
109.726
 30
0.0
 11
128.9999949999999
 21
108.326
 31
0.0
  0
LINE
  5
170
330
1E
100
AcDbEntity
  8
0
100
AcDbLine
 10
128.9999949999999
 20
109.726
 30
0.0
 11
128.9999949999999
 21
110.826
 31
0.0
  0
LINE
  5
171
330
1E
100
AcDbEntity
  8
0
100
AcDbLine
 10
128.9999949999999
 20
109.726
 30
0.0
 11
128.9999949999999
 21
111.926
 31
0.0
  0
LINE
  5
172
330
1E
100
AcDbEntity
  8
0
100
AcDbLine
 10
128.9999949999999
 20
108.326
 30
0.0
 11
128.9999949999999
 21
107.8259999999999
 31
0.0
  0
LINE
  5
173
330
1E
100
AcDbEntity
  8
0
100
AcDbLine
 10
128.9999949999999
 20
108.326
 30
0.0
 11
128.9999949999999
 21
109.726
 31
0.0
  0
LINE
  5
177
330
1E
100
AcDbEntity
  8
0
100
AcDbLine
 10
121.999995
 20
121.826
 30
0.0
 11
121.999995
 21
119.026
 31
0.0
  0
LINE
  5
178
330
1E
100
AcDbEntity
  8
0
100
AcDbLine
 10
121.999995
 20
121.826
 30
0.0
 11
121.999995
 21
124.626
 31
0.0
  0
LINE
  5
179
330
1E
100
AcDbEntity
  8
0
100
AcDbLine
 10
121.999995
 20
119.026
 30
0.0
 11
121.999995
 21
116.326
 31
0.0
  0
LINE
  5
17A
330
1E
100
AcDbEntity
  8
0
100
AcDbLine
 10
121.999995
 20
119.026
 30
0.0
 11
121.999995
 21
121.826
 31
0.0
  0
LINE
  5
17B
330
1E
100
AcDbEntity
  8
0
100
AcDbLine
 10
121.999995
 20
116.326
 30
0.0
 11
121.999995
 21
114.026
 31
0.0
  0
LINE
  5
17C
330
1E
100
AcDbEntity
  8
0
100
AcDbLine
 10
121.999995
 20
116.326
 30
0.0
 11
121.999995
 21
119.026
 31
0.0
  0
LINE
  5
17D
330
1E
100
AcDbEntity
  8
0
100
AcDbLine
 10
121.999995
 20
114.026
 30
0.0
 11
121.999995
 21
112.326
 31
0.0
  0
LINE
  5
17E
330
1E
100
AcDbEntity
  8
0
100
AcDbLine
 10
121.999995
 20
114.026
 30
0.0
 11
121.999995
 21
116.326
 31
0.0
  0
LINE
  5
17F
330
1E
100
AcDbEntity
  8
0
100
AcDbLine
 10
121.999995
 20
112.326
 30
0.0
 11
121.999995
 21
111.226
 31
0.0
  0
LINE
  5
180
330
1E
100
AcDbEntity
  8
0
100
AcDbLine
 10
121.999995
 20
112.326
 30
0.0
 11
121.999995
 21
114.026
 31
0.0
  0
LINE
  5
181
330
1E
100
AcDbEntity
  8
0
100
AcDbLine
 10
121.999995
 20
111.226
 30
0.0
 11
121.999995
 21
110.826
 31
0.0
  0
LINE
  5
182
330
1E
100
AcDbEntity
  8
0
100
AcDbLine
 10
121.999995
 20
111.226
 30
0.0
 11
121.999995
 21
112.326
 31
0.0
  0
LINE
  5
183
330
1E
100
AcDbEntity
  8
0
100
AcDbLine
 10
121.999995
 20
124.626
 30
0.0
 11
121.999995
 21
121.826
 31
0.0
  0
LINE
  5
184
330
1E
100
AcDbEntity
  8
0
100
AcDbLine
 10
121.999995
 20
124.626
 30
0.0
 11
121.999995
 21
127.326
 31
0.0
  0
LINE
  5
187
330
1E
100
AcDbEntity
  8
0
100
AcDbLine
 10
121.999995
 20
127.326
 30
0.0
 11
121.999995
 21
124.626
 31
0.0
  0
LINE
  5
188
330
1E
100
AcDbEntity
  8
0
100
AcDbLine
 10
121.999995
 20
127.326
 30
0.0
 11
121.999995
 21
129.6259999999999
 31
0.0
  0
LINE
  5
189
330
1E
100
AcDbEntity
  8
0
100
AcDbLine
 10
121.999995
 20
129.6259999999999
 30
0.0
 11
121.999995
 21
127.326
 31
0.0
  0
LINE
  5
18A
330
1E
100
AcDbEntity
  8
0
100
AcDbLine
 10
121.999995
 20
129.6259999999999
 30
0.0
 11
121.999995
 21
131.3259999999999
 31
0.0
  0
LINE
  5
18B
330
1E
100
AcDbEntity
  8
0
100
AcDbLine
 10
119.999995
 20
108.826
 30
0.0
 11
119.999995
 21
133.126
 31
0.0
  0
LINE
  5
18C
330
1E
100
AcDbEntity
  8
0
100
AcDbLine
 10
121.999995
 20
131.3259999999999
 30
0.0
 11
121.999995
 21
129.6259999999999
 31
0.0
  0
LINE
  5
18D
330
1E
100
AcDbEntity
  8
0
100
AcDbLine
 10
121.999995
 20
131.3259999999999
 30
0.0
 11
121.999995
 21
132.426
 31
0.0
  0
LINE
  5
18E
330
1E
100
AcDbEntity
  8
0
100
AcDbLine
 10
121.999995
 20
132.426
 30
0.0
 11
121.999995
 21
131.3259999999999
 31
0.0
  0
LINE
  5
18F
330
1E
100
AcDbEntity
  8
0
100
AcDbLine
 10
121.999995
 20
132.426
 30
0.0
 11
121.999995
 21
132.8259999999999
 31
0.0
  0
LINE
  5
190
330
1E
100
AcDbEntity
  8
0
100
AcDbLine
 10
128.9999949999999
 20
111.926
 30
0.0
 11
128.9999949999999
 21
109.726
 31
0.0
  0
LINE
  5
191
330
1E
100
AcDbEntity
  8
0
100
AcDbLine
 10
128.9999949999999
 20
111.926
 30
0.0
 11
128.9999949999999
 21
114.826
 31
0.0
  0
LINE
  5
192
330
1E
100
AcDbEntity
  8
0
100
AcDbLine
 10
128.9999949999999
 20
118.226
 30
0.0
 11
128.9999949999999
 21
114.826
 31
0.0
  0
LINE
  5
193
330
1E
100
AcDbEntity
  8
0
100
AcDbLine
 10
128.9999949999999
 20
118.226
 30
0.0
 11
128.9999949999999
 21
121.826
 31
0.0
  0
LINE
  5
194
330
1E
100
AcDbEntity
  8
0
100
AcDbLine
 10
128.9999949999999
 20
114.826
 30
0.0
 11
128.9999949999999
 21
111.926
 31
0.0
  0
LINE
  5
195
330
1E
100
AcDbEntity
  8
0
100
AcDbLine
 10
128.9999949999999
 20
114.826
 30
0.0
 11
128.9999949999999
 21
118.226
 31
0.0
  0
LINE
  5
196
330
1E
100
AcDbEntity
  8
0
100
AcDbLine
 10
128.9999949999999
 20
125.426
 30
0.0
 11
128.9999949999999
 21
121.826
 31
0.0
  0
LINE
  5
197
330
1E
100
AcDbEntity
  8
0
100
AcDbLine
 10
128.9999949999999
 20
125.426
 30
0.0
 11
128.9999949999999
 21
128.8259999999999
 31
0.0
  0
LINE
  5
198
330
1E
100
AcDbEntity
  8
0
100
AcDbLine
 10
128.9999949999999
 20
128.8259999999999
 30
0.0
 11
128.9999949999999
 21
125.426
 31
0.0
  0
LINE
  5
199
330
1E
100
AcDbEntity
  8
0
100
AcDbLine
 10
128.9999949999999
 20
128.8259999999999
 30
0.0
 11
128.9999949999999
 21
131.726
 31
0.0
  0
LINE
  5
19A
330
1E
100
AcDbEntity
  8
0
100
AcDbLine
 10
128.9999949999999
 20
124.626
 30
0.0
 11
128.9999949999999
 21
121.826
 31
0.0
  0
LINE
  5
19B
330
1E
100
AcDbEntity
  8
0
100
AcDbLine
 10
128.9999949999999
 20
124.626
 30
0.0
 11
128.9999949999999
 21
127.326
 31
0.0
  0
LINE
  5
19C
330
1E
100
AcDbEntity
  8
0
100
AcDbLine
 10
128.9999949999999
 20
127.326
 30
0.0
 11
128.9999949999999
 21
124.626
 31
0.0
  0
LINE
  5
19D
330
1E
100
AcDbEntity
  8
0
100
AcDbLine
 10
128.9999949999999
 20
127.326
 30
0.0
 11
128.9999949999999
 21
129.6259999999999
 31
0.0
  0
LINE
  5
19E
330
1E
100
AcDbEntity
  8
0
100
AcDbLine
 10
128.9999949999999
 20
131.726
 30
0.0
 11
128.9999949999999
 21
128.8259999999999
 31
0.0
  0
LINE
  5
19F
330
1E
100
AcDbEntity
  8
0
100
AcDbLine
 10
128.9999949999999
 20
131.726
 30
0.0
 11
128.9999949999999
 21
133.926
 31
0.0
  0
LINE
  5
1A0
330
1E
100
AcDbEntity
  8
0
100
AcDbLine
 10
128.9999949999999
 20
129.6259999999999
 30
0.0
 11
128.9999949999999
 21
127.326
 31
0.0
  0
LINE
  5
1A1
330
1E
100
AcDbEntity
  8
0
100
AcDbLine
 10
128.9999949999999
 20
129.6259999999999
 30
0.0
 11
128.9999949999999
 21
131.3259999999999
 31
0.0
  0
LINE
  5
1A2
330
1E
100
AcDbEntity
  8
0
100
AcDbLine
 10
128.9999949999999
 20
131.3259999999999
 30
0.0
 11
128.9999949999999
 21
129.6259999999999
 31
0.0
  0
LINE
  5
1A3
330
1E
100
AcDbEntity
  8
0
100
AcDbLine
 10
128.9999949999999
 20
131.3259999999999
 30
0.0
 11
128.9999949999999
 21
132.426
 31
0.0
  0
LINE
  5
1A4
330
1E
100
AcDbEntity
  8
0
100
AcDbLine
 10
128.9999949999999
 20
132.426
 30
0.0
 11
128.9999949999999
 21
131.3259999999999
 31
0.0
  0
LINE
  5
1A5
330
1E
100
AcDbEntity
  8
0
100
AcDbLine
 10
128.9999949999999
 20
132.426
 30
0.0
 11
128.9999949999999
 21
132.8259999999999
 31
0.0
  0
LINE
  5
1A6
330
1E
100
AcDbEntity
  8
0
100
AcDbLine
 10
128.9999949999999
 20
121.826
 30
0.0
 11
128.9999949999999
 21
119.026
 31
0.0
  0
LINE
  5
1A7
330
1E
100
AcDbEntity
  8
0
100
AcDbLine
 10
128.9999949999999
 20
121.826
 30
0.0
 11
128.9999949999999
 21
118.226
 31
0.0
  0
LINE
  5
1A8
330
1E
100
AcDbEntity
  8
0
100
AcDbLine
 10
128.9999949999999
 20
121.826
 30
0.0
 11
128.9999949999999
 21
124.626
 31
0.0
  0
LINE
  5
1A9
330
1E
100
AcDbEntity
  8
0
100
AcDbLine
 10
128.9999949999999
 20
121.826
 30
0.0
 11
128.9999949999999
 21
125.426
 31
0.0
  0
LINE
  5
1AA
330
1E
100
AcDbEntity
  8
0
100
AcDbLine
 10
128.9999949999999
 20
119.026
 30
0.0
 11
128.9999949999999
 21
116.326
 31
0.0
  0
LINE
  5
1AB
330
1E
100
AcDbEntity
  8
0
100
AcDbLine
 10
128.9999949999999
 20
119.026
 30
0.0
 11
128.9999949999999
 21
121.826
 31
0.0
  0
LINE
  5
1AC
330
1E
100
AcDbEntity
  8
0
100
AcDbLine
 10
128.9999949999999
 20
116.326
 30
0.0
 11
128.9999949999999
 21
114.026
 31
0.0
  0
LINE
  5
1AD
330
1E
100
AcDbEntity
  8
0
100
AcDbLine
 10
128.9999949999999
 20
116.326
 30
0.0
 11
128.9999949999999
 21
119.026
 31
0.0
  0
LINE
  5
1AE
330
1E
100
AcDbEntity
  8
0
100
AcDbLine
 10
128.9999949999999
 20
114.026
 30
0.0
 11
128.9999949999999
 21
112.326
 31
0.0
  0
LINE
  5
1AF
330
1E
100
AcDbEntity
  8
0
100
AcDbLine
 10
128.9999949999999
 20
114.026
 30
0.0
 11
128.9999949999999
 21
116.326
 31
0.0
  0
LINE
  5
1B0
330
1E
100
AcDbEntity
  8
0
100
AcDbLine
 10
128.9999949999999
 20
112.326
 30
0.0
 11
128.9999949999999
 21
111.226
 31
0.0
  0
LINE
  5
1B1
330
1E
100
AcDbEntity
  8
0
100
AcDbLine
 10
128.9999949999999
 20
112.326
 30
0.0
 11
128.9999949999999
 21
114.026
 31
0.0
  0
LINE
  5
1B2
330
1E
100
AcDbEntity
  8
0
100
AcDbLine
 10
128.9999949999999
 20
111.226
 30
0.0
 11
128.9999949999999
 21
110.826
 31
0.0
  0
LINE
  5
1B3
330
1E
100
AcDbEntity
  8
0
100
AcDbLine
 10
128.9999949999999
 20
111.226
 30
0.0
 11
128.9999949999999
 21
112.326
 31
0.0
  0
LINE
  5
1B4
330
1E
100
AcDbEntity
  8
0
100
AcDbLine
 10
121.999995
 20
132.8259999999999
 30
0.0
 11
121.999995
 21
132.426
 31
0.0
  0
LINE
  5
1B5
330
1E
100
AcDbEntity
  8
0
100
AcDbLine
 10
121.999995
 20
132.8259999999999
 30
0.0
 11
128.9999949999999
 21
132.8259999999999
 31
0.0
  0
LINE
  5
1B6
330
1E
100
AcDbEntity
  8
0
100
AcDbLine
 10
119.999995
 20
134.826
 30
0.0
 11
119.999995
 21
133.126
 31
0.0
  0
LINE
  5
1B7
330
1E
100
AcDbEntity
  8
0
100
AcDbLine
 10
119.999995
 20
133.126
 30
0.0
 11
119.999995
 21
134.826
 31
0.0
  0
LINE
  5
1B8
330
1E
100
AcDbEntity
  8
0
100
AcDbLine
 10
119.999995
 20
133.126
 30
0.0
 11
119.999995
 21
108.826
 31
0.0
  0
LINE
  5
1B9
330
1E
100
AcDbEntity
  8
0
100
AcDbLine
 10
119.999995
 20
134.826
 30
0.0
 11
121.999995
 21
132.8259999999999
 31
0.0
  0
LINE
  5
1BA
330
1E
100
AcDbEntity
  8
0
100
AcDbLine
 10
128.9999949999999
 20
132.8259999999999
 30
0.0
 11
128.9999949999999
 21
133.926
 31
0.0
  0
LINE
  5
1BB
330
1E
100
AcDbEntity
  8
0
100
AcDbLine
 10
128.9999949999999
 20
132.8259999999999
 30
0.0
 11
128.9999949999999
 21
132.426
 31
0.0
  0
LINE
  5
1BC
330
1E
100
AcDbEntity
  8
0
100
AcDbLine
 10
128.9999949999999
 20
133.926
 30
0.0
 11
128.9999949999999
 21
132.8259999999999
 31
0.0
  0
LINE
  5
1BD
330
1E
100
AcDbEntity
  8
0
100
AcDbLine
 10
128.9999949999999
 20
133.926
 30
0.0
 11
128.9999949999999
 21
135.3259999999999
 31
0.0
  0
LINE
  5
1BE
330
1E
100
AcDbEntity
  8
0
100
AcDbLine
 10
128.9999949999999
 20
133.926
 30
0.0
 11
128.9999949999999
 21
131.726
 31
0.0
  0
LINE
  5
1BF
330
1E
100
AcDbEntity
  8
0
100
AcDbLine
 10
128.9999949999999
 20
135.3259999999999
 30
0.0
 11
128.9999949999999
 21
133.926
 31
0.0
  0
LINE
  5
1C0
330
1E
100
AcDbEntity
  8
0
100
AcDbLine
 10
128.9999949999999
 20
135.3259999999999
 30
0.0
 11
128.9999949999999
 21
135.826
 31
0.0
  0
LINE
  5
1C1
330
1E
100
AcDbEntity
  8
0
100
AcDbLine
 10
153.9999949999999
 20
112.826
 30
0.0
 11
153.9999949999999
 21
104.4259999999999
 31
0.0
  0
LINE
  5
1C2
330
1E
100
AcDbEntity
  8
0
100
AcDbLine
 10
148.9999949999999
 20
130.8259999999999
 30
0.0
 11
148.9999949999999
 21
121.826
 31
0.0
  0
LINE
  5
1C3
330
1E
100
AcDbEntity
  8
0
100
AcDbLine
 10
148.9999949999999
 20
130.8259999999999
 30
0.0
 11
148.9999949999999
 21
139.226
 31
0.0
  0
LINE
  5
1C4
330
1E
100
AcDbEntity
  8
0
100
AcDbLine
 10
148.9999949999999
 20
139.226
 30
0.0
 11
148.9999949999999
 21
130.8259999999999
 31
0.0
  0
LINE
  5
1C5
330
1E
100
AcDbEntity
  8
0
100
AcDbLine
 10
148.9999949999999
 20
139.226
 30
0.0
 11
148.9999949999999
 21
146.526
 31
0.0
  0
LINE
  5
1C6
330
1E
100
AcDbEntity
  8
0
100
AcDbLine
 10
148.9999949999999
 20
146.526
 30
0.0
 11
148.9999949999999
 21
139.226
 31
0.0
  0
LINE
  5
1C7
330
1E
100
AcDbEntity
  8
0
100
AcDbLine
 10
148.9999949999999
 20
146.526
 30
0.0
 11
148.9999949999999
 21
152.126
 31
0.0
  0
LINE
  5
1C8
330
1E
100
AcDbEntity
  8
0
100
AcDbLine
 10
148.9999949999999
 20
152.126
 30
0.0
 11
148.9999949999999
 21
146.526
 31
0.0
  0
LINE
  5
1C9
330
1E
100
AcDbEntity
  8
0
100
AcDbLine
 10
148.9999949999999
 20
152.126
 30
0.0
 11
148.9999949999999
 21
155.526
 31
0.0
  0
LINE
  5
1CA
330
1E
100
AcDbEntity
  8
0
100
AcDbLine
 10
148.9999949999999
 20
155.526
 30
0.0
 11
148.9999949999999
 21
152.126
 31
0.0
  0
LINE
  5
1CB
330
1E
100
AcDbEntity
  8
0
100
AcDbLine
 10
148.9999949999999
 20
155.526
 30
0.0
 11
148.9999949999999
 21
156.8259999999999
 31
0.0
  0
LINE
  5
1CC
330
1E
100
AcDbEntity
  8
0
100
AcDbLine
 10
148.9999949999999
 20
156.8259999999999
 30
0.0
 11
148.9999949999999
 21
155.526
 31
0.0
  0
LINE
  5
1CD
330
1E
100
AcDbEntity
  8
0
100
AcDbLine
 10
148.9999949999999
 20
156.8259999999999
 30
0.0
 11
153.9999949999999
 21
156.8259999999999
 31
0.0
  0
LINE
  5
1CE
330
1E
100
AcDbEntity
  8
0
100
AcDbLine
 10
153.9999949999999
 20
130.8259999999999
 30
0.0
 11
153.9999949999999
 21
121.826
 31
0.0
  0
LINE
  5
1CF
330
1E
100
AcDbEntity
  8
0
100
AcDbLine
 10
153.9999949999999
 20
139.226
 30
0.0
 11
153.9999949999999
 21
130.8259999999999
 31
0.0
  0
LINE
  5
1D0
330
1E
100
AcDbEntity
  8
0
100
AcDbLine
 10
153.9999949999999
 20
146.526
 30
0.0
 11
153.9999949999999
 21
139.226
 31
0.0
  0
LINE
  5
1D1
330
1E
100
AcDbEntity
  8
0
100
AcDbLine
 10
153.9999949999999
 20
152.126
 30
0.0
 11
153.9999949999999
 21
146.526
 31
0.0
  0
LINE
  5
1D2
330
1E
100
AcDbEntity
  8
0
100
AcDbLine
 10
153.9999949999999
 20
155.526
 30
0.0
 11
153.9999949999999
 21
152.126
 31
0.0
  0
LINE
  5
1D3
330
1E
100
AcDbEntity
  8
0
100
AcDbLine
 10
153.9999949999999
 20
156.8259999999999
 30
0.0
 11
153.9999949999999
 21
155.526
 31
0.0
  0
LINE
  5
1D4
330
1E
100
AcDbEntity
  8
0
100
AcDbLine
 10
153.9999949999999
 20
121.826
 30
0.0
 11
153.9999949999999
 21
112.826
 31
0.0
  0
LINE
  5
1D5
330
1E
100
AcDbEntity
  8
0
100
AcDbLine
 10
148.9999949999999
 20
121.826
 30
0.0
 11
148.9999949999999
 21
112.826
 31
0.0
  0
LINE
  5
1D6
330
1E
100
AcDbEntity
  8
0
100
AcDbLine
 10
148.9999949999999
 20
121.826
 30
0.0
 11
148.9999949999999
 21
130.8259999999999
 31
0.0
  0
LINE
  5
1D7
330
1E
100
AcDbEntity
  8
0
100
AcDbLine
 10
148.9999949999999
 20
112.826
 30
0.0
 11
148.9999949999999
 21
104.4259999999999
 31
0.0
  0
LINE
  5
1D8
330
1E
100
AcDbEntity
  8
0
100
AcDbLine
 10
148.9999949999999
 20
112.826
 30
0.0
 11
148.9999949999999
 21
121.826
 31
0.0
  0
LINE
  5
1D9
330
1E
100
AcDbEntity
  8
0
100
AcDbLine
 10
128.9999949999999
 20
135.826
 30
0.0
 11
128.9999949999999
 21
135.3259999999999
 31
0.0
  0
LINE
  5
1DA
330
1E
100
AcDbEntity
  8
0
100
AcDbLine
 10
128.9999949999999
 20
135.826
 30
0.0
 11
148.9999949999999
 21
156.8259999999999
 31
0.0
  0
LINE
  5
1DB
330
1E
100
AcDbEntity
  8
0
100
AcDbLine
 10
121.999995
 20
110.826
 30
0.0
 11
128.9999949999999
 21
110.826
 31
0.0
  0
LINE
  5
1DC
330
1E
100
AcDbEntity
  8
0
100
AcDbLine
 10
121.999995
 20
110.826
 30
0.0
 11
121.999995
 21
111.226
 31
0.0
  0
LINE
  5
1DD
330
1E
100
AcDbEntity
  8
0
100
AcDbLine
 10
117.999995
 20
135.826
 30
0.0
 11
119.999995
 21
134.826
 31
0.0
  0
LINE
  5
1DE
330
1E
100
AcDbEntity
  8
0
100
AcDbLine
 10
111.9999949999999
 20
107.8259999999999
 30
0.0
 11
114.9999949999999
 21
107.8259999999999
 31
0.0
  0
LINE
  5
1DF
330
1E
100
AcDbEntity
  8
0
100
AcDbLine
 10
107.9999949999999
 20
110.826
 30
0.0
 11
109.9999949999999
 21
108.826
 31
0.0
  0
LINE
  5
1E4
330
1E
100
AcDbEntity
  8
0
100
AcDbLine
 10
82.199995
 20
146.8259999999999
 30
0.0
 11
70.274895
 21
146.0633
 31
0.0
  0
ENDSEC
  0
SECTION
  2
OBJECTS
  0
DICTIONARY
  5
C
330
0
100
AcDbDictionary
  3
ACAD_GROUP
350
D
  3
ACAD_LAYOUT
350
19
  3
ACAD_MLINESTYLE
350
16
  3
ACAD_PLOTSETTINGS
350
18
  3
ACAD_PLOTSTYLENAME
350
E
  3
ACDBHEADERROUNDTRIPXREC
350
1E8
  3
ACDBVARIABLEDICTIONARY
350
1E5
  0
DICTIONARY
  5
20A
330
1E
100
AcDbDictionary
280
     1
  3
ACAD_LAYOUTSELFREF
360
20B
  0
DICTIONARY
  5
208
330
1A
100
AcDbDictionary
280
     1
  3
ACAD_LAYOUTSELFREF
360
209
  0
DICTIONARY
  5
D
102
{ACAD_REACTORS
330
C
102
}
330
C
100
AcDbDictionary
  0
DICTIONARY
  5
19
102
{ACAD_REACTORS
330
C
102
}
330
C
100
AcDbDictionary
  0
DICTIONARY
  5
16
102
{ACAD_REACTORS
330
C
102
}
330
C
100
AcDbDictionary
  3
STANDARD
350
17
  0
DICTIONARY
  5
18
102
{ACAD_REACTORS
330
C
102
}
330
C
100
AcDbDictionary
  0
ACDBDICTIONARYWDFLT
  5
E
102
{ACAD_REACTORS
330
C
102
}
330
C
100
AcDbDictionary
281
     1
  3
Normal
350
F
100
AcDbDictionaryWithDefault
340
F
  0
DICTIONARY
  5
1E8
102
{ACAD_REACTORS
330
C
102
}
330
C
100
AcDbDictionary
  3
CEPSNTYPE
350
1F2
  3
FINGERPRINTGUID
350
1F3
  3
HYPERLINKBASE
350
1EB
  3
INSUNITS
350
1F1
  3
LAYOUTDICT
350
1ED
  3
LWETCUNION
350
1F0
  3
PLOTSETDICT
350
1EE
  3
PLOTSTYLNAMDICT
350
1EF
  3
PSVPSCALE
350
1F5
  3
PUCSBASE
350
1F8
  3
PUCSORGBACK
350
1FE
  3
PUCSORGBOTTOM
350
1FA
  3
PUCSORGFRONT
350
1FD
  3
PUCSORGLEFT
350
1FB
  3
PUCSORGRIGHT
350
1FC
  3
PUCSORGTOP
350
1F9
  3
PUCSORTHOREF
350
1F6
  3
PUCSORTHOVIEW
350
1F7
  3
STYLESHEET
350
1EC
  3
TSTACKALIGN
350
1E9
  3
TSTACKSIZE
350
1EA
  3
UCSBASE
350
201
  3
UCSORGBACK
350
207
  3
UCSORGBOTTOM
350
203
  3
UCSORGFRONT
350
206
  3
UCSORGLEFT
350
204
  3
UCSORGRIGHT
350
205
  3
UCSORGTOP
350
202
  3
UCSORTHOREF
350
1FF
  3
UCSORTHOVIEW
350
200
  3
VERSIONGUID
350
1F4
  0
DICTIONARY
  5
1E5
102
{ACAD_REACTORS
330
C
102
}
330
C
100
AcDbDictionary
  3
DIMASSOC
350
1E6
  0
XRECORD
  5
20B
102
{ACAD_REACTORS
330
20A
102
}
330
20A
100
AcDbXrecord
340
1E
  0
XRECORD
  5
209
102
{ACAD_REACTORS
330
208
102
}
330
208
100
AcDbXrecord
340
1A
  0
MLINESTYLE
  5
17
102
{ACAD_REACTORS
330
16
102
}
330
16
100
AcDbMlineStyle
  2
STANDARD
 70
     0
  3

 62
   256
 51
90.0
 52
90.0
 71
     2
 49
0.5
 62
   256
  6
BYLAYER
 49
-0.5
 62
   256
  6
BYLAYER
  0
ACDBPLACEHOLDER
  5
F
102
{ACAD_REACTORS
330
E
102
}
330
E
100
AcDbPlaceHolder
280
     0
  0
XRECORD
  5
1F2
102
{ACAD_REACTORS
330
1E8
102
}
330
1E8
100
AcDbXrecord
 90
        0
  0
XRECORD
  5
1F3
102
{ACAD_REACTORS
330
1E8
102
}
330
1E8
100
AcDbXrecord
  1
{4AF04574-2250-4365-9C76-C8FA15DE293F}
  0
XRECORD
  5
1EB
102
{ACAD_REACTORS
330
1E8
102
}
330
1E8
100
AcDbXrecord
  1

  0
XRECORD
  5
1F1
102
{ACAD_REACTORS
330
1E8
102
}
330
1E8
100
AcDbXrecord
 90
        0
  0
XRECORD
  5
1ED
102
{ACAD_REACTORS
330
1E8
102
}
330
1E8
100
AcDbXrecord
340
19
  0
XRECORD
  5
1F0
102
{ACAD_REACTORS
330
1E8
102
}
330
1E8
100
AcDbXrecord
 90
    10781
  0
XRECORD
  5
1EE
102
{ACAD_REACTORS
330
1E8
102
}
330
1E8
100
AcDbXrecord
340
18
  0
XRECORD
  5
1EF
102
{ACAD_REACTORS
330
1E8
102
}
330
1E8
100
AcDbXrecord
340
E
  0
XRECORD
  5
1F5
102
{ACAD_REACTORS
330
1E8
102
}
330
1E8
100
AcDbXrecord
 40
0.0
  0
XRECORD
  5
1F8
102
{ACAD_REACTORS
330
1E8
102
}
330
1E8
100
AcDbXrecord
340
0
  0
XRECORD
  5
1FE
102
{ACAD_REACTORS
330
1E8
102
}
330
1E8
100
AcDbXrecord
 10
0.0
 20
0.0
 30
0.0
  0
XRECORD
  5
1FA
102
{ACAD_REACTORS
330
1E8
102
}
330
1E8
100
AcDbXrecord
 10
0.0
 20
0.0
 30
0.0
  0
XRECORD
  5
1FD
102
{ACAD_REACTORS
330
1E8
102
}
330
1E8
100
AcDbXrecord
 10
0.0
 20
0.0
 30
0.0
  0
XRECORD
  5
1FB
102
{ACAD_REACTORS
330
1E8
102
}
330
1E8
100
AcDbXrecord
 10
0.0
 20
0.0
 30
0.0
  0
XRECORD
  5
1FC
102
{ACAD_REACTORS
330
1E8
102
}
330
1E8
100
AcDbXrecord
 10
0.0
 20
0.0
 30
0.0
  0
XRECORD
  5
1F9
102
{ACAD_REACTORS
330
1E8
102
}
330
1E8
100
AcDbXrecord
 10
0.0
 20
0.0
 30
0.0
  0
XRECORD
  5
1F6
102
{ACAD_REACTORS
330
1E8
102
}
330
1E8
100
AcDbXrecord
340
0
  0
XRECORD
  5
1F7
102
{ACAD_REACTORS
330
1E8
102
}
330
1E8
100
AcDbXrecord
 70
     0
  0
XRECORD
  5
1EC
102
{ACAD_REACTORS
330
1E8
102
}
330
1E8
100
AcDbXrecord
  1

  0
XRECORD
  5
1E9
102
{ACAD_REACTORS
330
1E8
102
}
330
1E8
100
AcDbXrecord
 90
        1
  0
XRECORD
  5
1EA
102
{ACAD_REACTORS
330
1E8
102
}
330
1E8
100
AcDbXrecord
 90
       70
  0
XRECORD
  5
201
102
{ACAD_REACTORS
330
1E8
102
}
330
1E8
100
AcDbXrecord
340
0
  0
XRECORD
  5
207
102
{ACAD_REACTORS
330
1E8
102
}
330
1E8
100
AcDbXrecord
 10
0.0
 20
0.0
 30
0.0
  0
XRECORD
  5
203
102
{ACAD_REACTORS
330
1E8
102
}
330
1E8
100
AcDbXrecord
 10
0.0
 20
0.0
 30
0.0
  0
XRECORD
  5
206
102
{ACAD_REACTORS
330
1E8
102
}
330
1E8
100
AcDbXrecord
 10
0.0
 20
0.0
 30
0.0
  0
XRECORD
  5
204
102
{ACAD_REACTORS
330
1E8
102
}
330
1E8
100
AcDbXrecord
 10
0.0
 20
0.0
 30
0.0
  0
XRECORD
  5
205
102
{ACAD_REACTORS
330
1E8
102
}
330
1E8
100
AcDbXrecord
 10
0.0
 20
0.0
 30
0.0
  0
XRECORD
  5
202
102
{ACAD_REACTORS
330
1E8
102
}
330
1E8
100
AcDbXrecord
 10
0.0
 20
0.0
 30
0.0
  0
XRECORD
  5
1FF
102
{ACAD_REACTORS
330
1E8
102
}
330
1E8
100
AcDbXrecord
340
0
  0
XRECORD
  5
200
102
{ACAD_REACTORS
330
1E8
102
}
330
1E8
100
AcDbXrecord
 70
     1
  0
XRECORD
  5
1F4
102
{ACAD_REACTORS
330
1E8
102
}
330
1E8
100
AcDbXrecord
  1
{6CDC5933-FBD0-4E81-9EAE-46F92C26E68D}
  0
DICTIONARYVAR
  5
1E6
102
{ACAD_REACTORS
330
1E5
102
}
330
1E5
100
DictionaryVariables
280
     0
  1
1
  0
ENDSEC
  0
EOF
