  0
SECTION
  2
HEADER
  9
$ACADVER
  1
AC1014
  9
$ACADMAINTVER
 70
     9
  9
$DWGCODEPAGE
  3
ANSI_1252
  9
$INSBASE
 10
0.0
 20
0.0
 30
0.0
  9
$EXTMIN
 10
0.0000000000000053
 20
0.173999999999988
 30
0.0
  9
$EXTMAX
 10
220.0
 20
206.8259999999999
 30
0.0
  9
$LIMMIN
 10
0.0
 20
0.0
  9
$LIMMAX
 10
12.0
 20
9.0
  9
$ORTHOMODE
 70
     0
  9
$REGENMODE
 70
     1
  9
$FILLMODE
 70
     1
  9
$QTEXTMODE
 70
     0
  9
$MIRRTEXT
 70
     1
  9
$DRAGMODE
 70
     2
  9
$LTSCALE
 40
1.0
  9
$OSMODE
 70
    37
  9
$ATTMODE
 70
     1
  9
$TEXTSIZE
 40
0.2
  9
$TRACEWID
 40
0.05
  9
$TEXTSTYLE
  7
STANDARD
  9
$CLAYER
  8
0
  9
$CELTYPE
  6
CONTINUOUS
  9
$CECOLOR
 62
   256
  9
$CELTSCALE
 40
1.0
  9
$DELOBJ
 70
     1
  9
$DISPSILH
 70
     0
  9
$DIMSCALE
 40
1.0
  9
$DIMASZ
 40
0.18
  9
$DIMEXO
 40
0.0625
  9
$DIMDLI
 40
0.38
  9
$DIMRND
 40
0.0
  9
$DIMDLE
 40
0.0
  9
$DIMEXE
 40
0.18
  9
$DIMTP
 40
0.0
  9
$DIMTM
 40
0.0
  9
$DIMTXT
 40
0.18
  9
$DIMCEN
 40
0.09
  9
$DIMTSZ
 40
0.0
  9
$DIMTOL
 70
     0
  9
$DIMLIM
 70
     0
  9
$DIMTIH
 70
     1
  9
$DIMTOH
 70
     1
  9
$DIMSE1
 70
     0
  9
$DIMSE2
 70
     0
  9
$DIMTAD
 70
     0
  9
$DIMZIN
 70
     0
  9
$DIMBLK
  1

  9
$DIMASO
 70
     1
  9
$DIMSHO
 70
     1
  9
$DIMPOST
  1

  9
$DIMAPOST
  1

  9
$DIMALT
 70
     0
  9
$DIMALTD
 70
     2
  9
$DIMALTF
 40
25.4
  9
$DIMLFAC
 40
1.0
  9
$DIMTOFL
 70
     0
  9
$DIMTVP
 40
0.0
  9
$DIMTIX
 70
     0
  9
$DIMSOXD
 70
     0
  9
$DIMSAH
 70
     0
  9
$DIMBLK1
  1

  9
$DIMBLK2
  1

  9
$DIMSTYLE
  2
STANDARD
  9
$DIMCLRD
 70
     0
  9
$DIMCLRE
 70
     0
  9
$DIMCLRT
 70
     0
  9
$DIMTFAC
 40
1.0
  9
$DIMGAP
 40
0.09
  9
$DIMJUST
 70
     0
  9
$DIMSD1
 70
     0
  9
$DIMSD2
 70
     0
  9
$DIMTOLJ
 70
     1
  9
$DIMTZIN
 70
     0
  9
$DIMALTZ
 70
     0
  9
$DIMALTTZ
 70
     0
  9
$DIMFIT
 70
     3
  9
$DIMUPT
 70
     0
  9
$DIMUNIT
 70
     2
  9
$DIMDEC
 70
     4
  9
$DIMTDEC
 70
     4
  9
$DIMALTU
 70
     2
  9
$DIMALTTD
 70
     2
  9
$DIMTXSTY
  7
STANDARD
  9
$DIMAUNIT
 70
     0
  9
$LUNITS
 70
     2
  9
$LUPREC
 70
     4
  9
$SKETCHINC
 40
0.1
  9
$FILLETRAD
 40
0.0
  9
$AUNITS
 70
     0
  9
$AUPREC
 70
     0
  9
$MENU
  1
.
  9
$ELEVATION
 40
0.0
  9
$PELEVATION
 40
0.0
  9
$THICKNESS
 40
0.0
  9
$LIMCHECK
 70
     0
  9
$BLIPMODE
 70
     0
  9
$CHAMFERA
 40
0.0
  9
$CHAMFERB
 40
0.0
  9
$CHAMFERC
 40
0.0
  9
$CHAMFERD
 40
0.0
  9
$SKPOLY
 70
     0
  9
$TDCREATE
 40
2454696.805340705
  9
$TDUPDATE
 40
2454696.810441793
  9
$TDINDWG
 40
0.0051012731
  9
$TDUSRTIMER
 40
0.0051012731
  9
$USRTIMER
 70
     1
  9
$ANGBASE
 50
0.0
  9
$ANGDIR
 70
     0
  9
$PDMODE
 70
     0
  9
$PDSIZE
 40
0.0
  9
$PLINEWID
 40
0.0
  9
$COORDS
 70
     1
  9
$SPLFRAME
 70
     0
  9
$SPLINETYPE
 70
     6
  9
$SPLINESEGS
 70
     8
  9
$ATTDIA
 70
     0
  9
$ATTREQ
 70
     1
  9
$HANDLING
 70
 22529
  9
$HANDSEED
  5
1C5
  9
$SURFTAB1
 70
     6
  9
$SURFTAB2
 70
     6
  9
$SURFTYPE
 70
     6
  9
$SURFU
 70
     6
  9
$SURFV
 70
     6
  9
$UCSNAME
  2

  9
$UCSORG
 10
0.0
 20
0.0
 30
0.0
  9
$UCSXDIR
 10
1.0
 20
0.0
 30
0.0
  9
$UCSYDIR
 10
0.0
 20
1.0
 30
0.0
  9
$PUCSNAME
  2

  9
$PUCSORG
 10
0.0
 20
0.0
 30
0.0
  9
$PUCSXDIR
 10
1.0
 20
0.0
 30
0.0
  9
$PUCSYDIR
 10
0.0
 20
1.0
 30
0.0
  9
$USERI1
 70
     0
  9
$USERI2
 70
     0
  9
$USERI3
 70
     0
  9
$USERI4
 70
     0
  9
$USERI5
 70
     0
  9
$USERR1
 40
0.0
  9
$USERR2
 40
0.0
  9
$USERR3
 40
0.0
  9
$USERR4
 40
0.0
  9
$USERR5
 40
0.0
  9
$WORLDVIEW
 70
     1
  9
$SHADEDGE
 70
     3
  9
$SHADEDIF
 70
    70
  9
$TILEMODE
 70
     1
  9
$MAXACTVP
 70
    64
  9
$PINSBASE
 10
0.0
 20
0.0
 30
0.0
  9
$PLIMCHECK
 70
     0
  9
$PEXTMIN
 10
1.000000000000000E+20
 20
1.000000000000000E+20
 30
1.000000000000000E+20
  9
$PEXTMAX
 10
-1.000000000000000E+20
 20
-1.000000000000000E+20
 30
-1.000000000000000E+20
  9
$PLIMMIN
 10
0.0
 20
0.0
  9
$PLIMMAX
 10
12.0
 20
9.0
  9
$UNITMODE
 70
     0
  9
$VISRETAIN
 70
     1
  9
$PLINEGEN
 70
     0
  9
$PSLTSCALE
 70
     1
  9
$TREEDEPTH
 70
  3020
  9
$PICKSTYLE
 70
     1
  9
$CMLSTYLE
  2
STANDARD
  9
$CMLJUST
 70
     0
  9
$CMLSCALE
 40
1.0
  9
$PROXYGRAPHICS
 70
     1
  9
$MEASUREMENT
 70
     0
  0
ENDSEC
  0
SECTION
  2
CLASSES
  0
CLASS
  1
ACDBDICTIONARYWDFLT
  2
AcDbDictionaryWithDefault
  3
AutoCAD 2000
 90
        0
280
     0
281
     0
  0
CLASS
  1
ACDBPLACEHOLDER
  2
AcDbPlaceHolder
  3
AutoCAD 2000
 90
        0
280
     0
281
     0
  0
CLASS
  1
LAYOUT
  2
AcDbLayout
  3
AutoCAD 2000
 90
        0
280
     0
281
     0
  0
CLASS
  1
DICTIONARYVAR
  2
AcDbDictionaryVar
  3
AutoCAD 2000
 90
        0
280
     0
281
     0
  0
CLASS
  1
LONG_TRANSACTION
  2
AcDbLongTransaction
  3
AutoCAD 2000
 90
        0
280
     0
281
     0
  0
CLASS
  1
LWPOLYLINE
  2
AcDbPolyline
  3
AutoCAD 2000
 90
        0
280
     0
281
     1
  0
CLASS
  1
HATCH
  2
AcDbHatch
  3
AutoCAD 2000
 90
        0
280
     0
281
     1
  0
CLASS
  1
XRECORD
  2
AcDbXrecord
  3
AutoCAD 2000
 90
        0
280
     0
281
     0
  0
ENDSEC
  0
SECTION
  2
TABLES
  0
TABLE
  2
VPORT
  5
8
330
0
100
AcDbSymbolTable
 70
     2
  0
VPORT
  5
1A0
330
8
100
AcDbSymbolTableRecord
100
AcDbViewportTableRecord
  2
*ACTIVE
 70
     0
 10
0.0
 20
0.0
 11
1.0
 21
1.0
 12
110.0
 22
103.4999999999999
 13
0.0
 23
0.0
 14
1.0
 24
1.0
 15
0.0
 25
0.0
 16
0.0
 26
0.0
 36
1.0
 17
0.0
 27
0.0
 37
0.0
 40
208.2375652173912
 41
2.078104993597951
 42
50.0
 43
0.0
 44
0.0
 50
0.0
 51
0.0
 71
     0
 72
   100
 73
     1
 74
     3
 75
     0
 76
     0
 77
     0
 78
     0
  0
ENDTAB
  0
TABLE
  2
LTYPE
  5
5
330
0
100
AcDbSymbolTable
 70
     1
  0
LTYPE
  5
13
330
5
100
AcDbSymbolTableRecord
100
AcDbLinetypeTableRecord
  2
BYBLOCK
 70
     0
  3

 72
    65
 73
     0
 40
0.0
  0
LTYPE
  5
14
330
5
100
AcDbSymbolTableRecord
100
AcDbLinetypeTableRecord
  2
BYLAYER
 70
     0
  3

 72
    65
 73
     0
 40
0.0
  0
LTYPE
  5
15
330
5
100
AcDbSymbolTableRecord
100
AcDbLinetypeTableRecord
  2
CONTINUOUS
 70
     0
  3
Solid line
 72
    65
 73
     0
 40
0.0
  0
ENDTAB
  0
TABLE
  2
LAYER
  5
2
330
0
100
AcDbSymbolTable
 70
     1
  0
LAYER
  5
10
330
2
100
AcDbSymbolTableRecord
100
AcDbLayerTableRecord
  2
0
 70
     0
 62
     7
  6
CONTINUOUS
  0
ENDTAB
  0
TABLE
  2
STYLE
  5
3
330
0
100
AcDbSymbolTable
 70
     1
  0
STYLE
  5
11
330
3
100
AcDbSymbolTableRecord
100
AcDbTextStyleTableRecord
  2
STANDARD
 70
     0
 40
0.0
 41
1.0
 50
0.0
 71
     0
 42
0.2
  3
txt
  4

  0
ENDTAB
  0
TABLE
  2
VIEW
  5
6
330
0
100
AcDbSymbolTable
 70
     0
  0
ENDTAB
  0
TABLE
  2
UCS
  5
7
330
0
100
AcDbSymbolTable
 70
     0
  0
ENDTAB
  0
TABLE
  2
APPID
  5
9
330
0
100
AcDbSymbolTable
 70
     1
  0
APPID
  5
12
330
9
100
AcDbSymbolTableRecord
100
AcDbRegAppTableRecord
  2
ACAD
 70
     0
  0
ENDTAB
  0
TABLE
  2
DIMSTYLE
  5
A
330
0
100
AcDbSymbolTable
 70
     1
  0
DIMSTYLE
105
182
330
A
100
AcDbSymbolTableRecord
100
AcDbDimStyleTableRecord
  2
STANDARD
 70
     0
  3

  4

  5

  6

  7

 40
1.0
 41
0.18
 42
0.0625
 43
0.38
 44
0.18
 45
0.0
 46
0.0
 47
0.0
 48
0.0
140
0.18
141
0.09
142
0.0
143
25.4
144
1.0
145
0.0
146
1.0
147
0.09
 71
     0
 72
     0
 73
     1
 74
     1
 75
     0
 76
     0
 77
     0
 78
     0
170
     0
171
     2
172
     0
173
     0
174
     0
175
     0
176
     0
177
     0
178
     0
270
     2
271
     4
272
     4
273
     2
274
     2
340
11
275
     0
280
     0
281
     0
282
     0
283
     1
284
     0
285
     0
286
     0
287
     3
288
     0
  0
ENDTAB
  0
TABLE
  2
BLOCK_RECORD
  5
1
330
0
100
AcDbSymbolTable
 70
     0
  0
BLOCK_RECORD
  5
1E
102
{ACAD_XDICTIONARY
360
1C3
102
}
330
1
100
AcDbSymbolTableRecord
100
AcDbBlockTableRecord
  2
*MODEL_SPACE
  0
BLOCK_RECORD
  5
1A
102
{ACAD_XDICTIONARY
360
1C1
102
}
330
1
100
AcDbSymbolTableRecord
100
AcDbBlockTableRecord
  2
*PAPER_SPACE
  0
ENDTAB
  0
ENDSEC
  0
SECTION
  2
BLOCKS
  0
BLOCK
  5
1F
330
1E
100
AcDbEntity
  8
0
100
AcDbBlockBegin
  2
*MODEL_SPACE
 70
     0
 10
0.0
 20
0.0
 30
0.0
  3
*MODEL_SPACE
  1

  0
ENDBLK
  5
20
330
1E
100
AcDbEntity
  8
0
100
AcDbBlockEnd
  0
BLOCK
  5
1B
330
1A
100
AcDbEntity
 67
     1
  8
0
100
AcDbBlockBegin
  2
*PAPER_SPACE
 70
     0
 10
0.0
 20
0.0
 30
0.0
  3
*PAPER_SPACE
  1

  0
ENDBLK
  5
1C
330
1A
100
AcDbEntity
 67
     1
  8
0
100
AcDbBlockEnd
  0
ENDSEC
  0
SECTION
  2
ENTITIES
  0
LINE
  5
22
330
1E
100
AcDbEntity
  8
0
100
AcDbLine
 10
1.30000000000001
 20
130.8259999999999
 30
0.0
 11
4.700000000000009
 21
139.226
 31
0.0
  0
LINE
  5
23
330
1E
100
AcDbEntity
  8
0
100
AcDbLine
 10
0.0000000000000053
 20
121.826
 30
0.0
 11
1.30000000000001
 21
112.826
 31
0.0
  0
LINE
  5
24
330
1E
100
AcDbEntity
  8
0
100
AcDbLine
 10
0.0000000000000053
 20
121.826
 30
0.0
 11
1.30000000000001
 21
130.8259999999999
 31
0.0
  0
LINE
  5
25
330
1E
100
AcDbEntity
  8
0
100
AcDbLine
 10
10.0
 20
121.826
 30
0.0
 11
10.9
 21
128.2259999999999
 31
0.0
  0
LINE
  5
26
330
1E
100
AcDbEntity
  8
0
100
AcDbLine
 10
10.0
 20
121.826
 30
0.0
 11
10.9
 21
115.426
 31
0.0
  0
LINE
  5
27
330
1E
100
AcDbEntity
  8
0
100
AcDbLine
 10
4.700000000000009
 20
139.226
 30
0.0
 11
10.3
 21
146.526
 31
0.0
  0
LINE
  5
28
330
1E
100
AcDbEntity
  8
0
100
AcDbLine
 10
10.3
 20
146.526
 30
0.0
 11
17.6
 21
152.126
 31
0.0
  0
LINE
  5
29
330
1E
100
AcDbEntity
  8
0
100
AcDbLine
 10
1.30000000000001
 20
112.826
 30
0.0
 11
4.700000000000009
 21
104.4259999999999
 31
0.0
  0
LINE
  5
2A
330
1E
100
AcDbEntity
  8
0
100
AcDbLine
 10
4.700000000000009
 20
104.4259999999999
 30
0.0
 11
10.3
 21
97.12600000000001
 31
0.0
  0
LINE
  5
2B
330
1E
100
AcDbEntity
  8
0
100
AcDbLine
 10
17.3
 20
104.2259999999999
 30
0.0
 11
22.6
 21
100.2259999999999
 31
0.0
  0
LINE
  5
2C
330
1E
100
AcDbEntity
  8
0
100
AcDbLine
 10
13.4
 20
109.526
 30
0.0
 11
17.3
 21
104.2259999999999
 31
0.0
  0
LINE
  5
2D
330
1E
100
AcDbEntity
  8
0
100
AcDbLine
 10
10.9
 20
115.426
 30
0.0
 11
13.4
 21
109.526
 31
0.0
  0
LINE
  5
2E
330
1E
100
AcDbEntity
  8
0
100
AcDbLine
 10
17.3
 20
139.426
 30
0.0
 11
22.6
 21
143.426
 31
0.0
  0
LINE
  5
2F
330
1E
100
AcDbEntity
  8
0
100
AcDbLine
 10
13.4
 20
134.126
 30
0.0
 11
17.3
 21
139.426
 31
0.0
  0
LINE
  5
30
330
1E
100
AcDbEntity
  8
0
100
AcDbLine
 10
10.9
 20
128.2259999999999
 30
0.0
 11
13.4
 21
134.126
 31
0.0
  0
LINE
  5
31
330
1E
100
AcDbEntity
  8
0
100
AcDbLine
 10
22.6
 20
100.2259999999999
 30
0.0
 11
28.6
 21
97.726
 31
0.0
  0
LINE
  5
32
330
1E
100
AcDbEntity
  8
0
100
AcDbLine
 10
22.6
 20
143.426
 30
0.0
 11
28.6
 21
145.926
 31
0.0
  0
LINE
  5
33
330
1E
100
AcDbEntity
  8
0
100
AcDbLine
 10
17.6
 20
152.126
 30
0.0
 11
26.0
 21
155.526
 31
0.0
  0
LINE
  5
34
330
1E
100
AcDbEntity
  8
0
100
AcDbLine
 10
26.0
 20
155.526
 30
0.0
 11
35.0
 21
156.8259999999999
 31
0.0
  0
LINE
  5
35
330
1E
100
AcDbEntity
  8
0
100
AcDbLine
 10
10.3
 20
97.12600000000001
 30
0.0
 11
17.6
 21
91.52600000000001
 31
0.0
  0
LINE
  5
36
330
1E
100
AcDbEntity
  8
0
100
AcDbLine
 10
17.6
 20
91.52600000000001
 30
0.0
 11
26.0
 21
88.12600000000001
 31
0.0
  0
LINE
  5
37
330
1E
100
AcDbEntity
  8
0
100
AcDbLine
 10
34.9977
 20
96.49148000000002
 30
0.0
 11
58.032
 21
93.85943000000001
 31
0.0
  0
LINE
  5
38
330
1E
100
AcDbEntity
  8
0
100
AcDbLine
 10
28.6
 20
97.726
 30
0.0
 11
34.9977
 21
96.49148000000002
 31
0.0
  0
LINE
  5
39
330
1E
100
AcDbEntity
  8
0
100
AcDbLine
 10
35.0
 20
146.8259999999999
 30
0.0
 11
58.0
 21
146.8259999999999
 31
0.0
  0
LINE
  5
3A
330
1E
100
AcDbEntity
  8
0
100
AcDbLine
 10
28.6
 20
145.926
 30
0.0
 11
35.0
 21
146.8259999999999
 31
0.0
  0
LINE
  5
3B
330
1E
100
AcDbEntity
  8
0
100
AcDbLine
 10
44.0
 20
88.12600000000001
 30
0.0
 11
52.4
 21
91.52600000000001
 31
0.0
  0
LINE
  5
3C
330
1E
100
AcDbEntity
  8
0
100
AcDbLine
 10
35.0
 20
86.826
 30
0.0
 11
44.0
 21
88.12600000000001
 31
0.0
  0
LINE
  5
3D
330
1E
100
AcDbEntity
  8
0
100
AcDbLine
 10
70.81999999999999
 20
92.65089999999998
 30
0.0
 11
82.9
 21
92.1565
 31
0.0
  0
LINE
  5
3E
330
1E
100
AcDbEntity
  8
0
100
AcDbLine
 10
58.032
 20
93.85943000000001
 30
0.0
 11
70.81999999999999
 21
92.65089999999998
 31
0.0
  0
LINE
  5
3F
330
1E
100
AcDbEntity
  8
0
100
AcDbLine
 10
82.9
 20
92.1565
 30
0.0
 11
92.92677025161742
 21
91.82839628038021
 31
0.0
  0
LINE
  5
40
330
1E
100
AcDbEntity
  8
0
100
AcDbLine
 10
102.4999999999999
 20
60.174
 30
0.0
 11
102.4999999999999
 21
0.173999999999993
 31
0.0
  0
LINE
  5
41
330
1E
100
AcDbEntity
  8
0
100
AcDbLine
 10
102.4999999999999
 20
60.174
 30
0.0
 11
102.8
 21
60.174
 31
0.0
  0
LINE
  5
42
330
1E
100
AcDbEntity
  8
0
100
AcDbLine
 10
102.4999999999999
 20
0.173999999999988
 30
0.0
 11
102.8629999999999
 21
0.200299999999994
 31
0.0
  0
LINE
  5
43
330
1E
100
AcDbEntity
  8
0
100
AcDbLine
 10
102.4999999999999
 20
0.173999999999988
 30
0.0
 11
102.4999999999999
 21
60.174
 31
0.0
  0
LINE
  5
44
330
1E
100
AcDbEntity
  8
0
100
AcDbLine
 10
102.4999999999999
 20
0.173999999999988
 30
0.0
 11
102.8629999999999
 21
0.200299999999994
 31
0.0
  0
LINE
  5
45
330
1E
100
AcDbEntity
  8
0
100
AcDbLine
 10
102.8629999999999
 20
0.200299999999994
 30
0.0
 11
103.5379999999999
 21
0.275199999999979
 31
0.0
  0
LINE
  5
46
330
1E
100
AcDbEntity
  8
0
100
AcDbLine
 10
103.5379999999999
 20
0.275199999999979
 30
0.0
 11
104.776
 21
0.65009999999999
 31
0.0
  0
LINE
  5
47
330
1E
100
AcDbEntity
  8
0
100
AcDbLine
 10
104.776
 20
0.65009999999999
 30
0.0
 11
106.2769999999999
 21
1.324699999999969
 31
0.0
  0
LINE
  5
48
330
1E
100
AcDbEntity
  8
0
100
AcDbLine
 10
106.2769999999999
 20
1.324699999999969
 30
0.0
 11
108.077
 21
2.44919999999999
 31
0.0
  0
LINE
  5
49
330
1E
100
AcDbEntity
  8
0
100
AcDbLine
 10
106.2999999999999
 20
60.174
 30
0.0
 11
108.0999999999999
 21
60.174
 31
0.0
  0
LINE
  5
4A
330
1E
100
AcDbEntity
  8
0
100
AcDbLine
 10
106.2769999999999
 20
1.324699999999969
 30
0.0
 11
108.077
 21
2.44919999999999
 31
0.0
  0
LINE
  5
4B
330
1E
100
AcDbEntity
  8
0
100
AcDbLine
 10
104.776
 20
0.6500999999999911
 30
0.0
 11
106.2769999999999
 21
1.324699999999969
 31
0.0
  0
LINE
  5
4C
330
1E
100
AcDbEntity
  8
0
100
AcDbLine
 10
104.7
 20
60.174
 30
0.0
 11
106.2999999999999
 21
60.174
 31
0.0
  0
LINE
  5
4D
330
1E
100
AcDbEntity
  8
0
100
AcDbLine
 10
103.4999999999999
 20
60.174
 30
0.0
 11
104.7
 21
60.174
 31
0.0
  0
LINE
  5
4E
330
1E
100
AcDbEntity
  8
0
100
AcDbLine
 10
103.5379999999999
 20
0.27519999999998
 30
0.0
 11
104.776
 21
0.6500999999999911
 31
0.0
  0
LINE
  5
4F
330
1E
100
AcDbEntity
  8
0
100
AcDbLine
 10
102.8
 20
60.174
 30
0.0
 11
103.4999999999999
 21
60.174
 31
0.0
  0
LINE
  5
50
330
1E
100
AcDbEntity
  8
0
100
AcDbLine
 10
102.8629999999999
 20
0.200299999999994
 30
0.0
 11
103.5379999999999
 21
0.27519999999998
 31
0.0
  0
LINE
  5
51
330
1E
100
AcDbEntity
  8
0
100
AcDbLine
 10
108.077
 20
2.44919999999999
 30
0.0
 11
110.0279999999999
 21
4.435799999999969
 31
0.0
  0
LINE
  5
52
330
1E
100
AcDbEntity
  8
0
100
AcDbLine
 10
110.0279999999999
 20
4.435799999999969
 30
0.0
 11
111.7909999999999
 21
5.78519999999997
 31
0.0
  0
LINE
  5
53
330
1E
100
AcDbEntity
  8
0
100
AcDbLine
 10
111.7909999999999
 20
5.78519999999997
 30
0.0
 11
113.629
 21
6.98459999999997
 31
0.0
  0
LINE
  5
54
330
1E
100
AcDbEntity
  8
0
100
AcDbLine
 10
110.0279999999999
 20
4.435799999999969
 30
0.0
 11
111.7909999999999
 21
5.78519999999997
 31
0.0
  0
LINE
  5
55
330
1E
100
AcDbEntity
  8
0
100
AcDbLine
 10
111.7909999999999
 20
5.78519999999997
 30
0.0
 11
113.629
 21
6.98459999999997
 31
0.0
  0
LINE
  5
56
330
1E
100
AcDbEntity
  8
0
100
AcDbLine
 10
113.629
 20
6.98459999999997
 30
0.0
 11
115.43
 21
8.183999999999981
 31
0.0
  0
LINE
  5
57
330
1E
100
AcDbEntity
  8
0
100
AcDbLine
 10
115.43
 20
8.183999999999981
 30
0.0
 11
116.5179999999999
 21
9.23349999999997
 31
0.0
  0
LINE
  5
58
330
1E
100
AcDbEntity
  8
0
100
AcDbLine
 10
116.5179999999999
 20
9.23349999999997
 30
0.0
 11
117.231
 21
9.94569999999998
 31
0.0
  0
LINE
  5
59
330
1E
100
AcDbEntity
  8
0
100
AcDbLine
 10
110.0
 20
60.174
 30
0.0
 11
111.8999999999999
 21
60.174
 31
0.0
  0
LINE
  5
5A
330
1E
100
AcDbEntity
  8
0
100
AcDbLine
 10
110.0
 20
60.174
 30
0.0
 11
112.7
 21
60.174
 31
0.0
  0
LINE
  5
5B
330
1E
100
AcDbEntity
  8
0
100
AcDbLine
 10
112.7
 20
60.174
 30
0.0
 11
115.2
 21
60.174
 31
0.0
  0
LINE
  5
5C
330
1E
100
AcDbEntity
  8
0
100
AcDbLine
 10
115.2
 20
60.174
 30
0.0
 11
117.4
 21
60.174
 31
0.0
  0
LINE
  5
5D
330
1E
100
AcDbEntity
  8
0
100
AcDbLine
 10
111.8999999999999
 20
60.174
 30
0.0
 11
113.7
 21
60.174
 31
0.0
  0
LINE
  5
5E
330
1E
100
AcDbEntity
  8
0
100
AcDbLine
 10
113.7
 20
60.174
 30
0.0
 11
115.3
 21
60.174
 31
0.0
  0
LINE
  5
5F
330
1E
100
AcDbEntity
  8
0
100
AcDbLine
 10
115.3
 20
60.174
 30
0.0
 11
116.5
 21
60.174
 31
0.0
  0
LINE
  5
60
330
1E
100
AcDbEntity
  8
0
100
AcDbLine
 10
116.5
 20
60.174
 30
0.0
 11
117.2
 21
60.174
 31
0.0
  0
LINE
  5
61
330
1E
100
AcDbEntity
  8
0
100
AcDbLine
 10
117.5
 20
60.174
 30
0.0
 11
119.1
 21
60.174
 31
0.0
  0
LINE
  5
62
330
1E
100
AcDbEntity
  8
0
100
AcDbLine
 10
117.5
 20
60.174
 30
0.0
 11
117.5
 21
10.174
 31
0.0
  0
LINE
  5
63
330
1E
100
AcDbEntity
  8
0
100
AcDbLine
 10
117.4
 20
60.174
 30
0.0
 11
119.1
 21
60.174
 31
0.0
  0
LINE
  5
64
330
1E
100
AcDbEntity
  8
0
100
AcDbLine
 10
119.1
 20
60.174
 30
0.0
 11
120.1
 21
60.174
 31
0.0
  0
LINE
  5
65
330
1E
100
AcDbEntity
  8
0
100
AcDbLine
 10
120.5
 20
60.174
 30
0.0
 11
121.5
 21
90.17402
 31
0.0
  0
LINE
  5
66
330
1E
100
AcDbEntity
  8
0
100
AcDbLine
 10
120.1
 20
60.174
 30
0.0
 11
120.5
 21
60.174
 31
0.0
  0
LINE
  5
67
330
1E
100
AcDbEntity
  8
0
100
AcDbLine
 10
117.5
 20
10.174
 30
0.0
 11
117.5
 21
60.174
 31
0.0
  0
LINE
  5
68
330
1E
100
AcDbEntity
  8
0
100
AcDbLine
 10
117.2
 20
60.174
 30
0.0
 11
117.5
 21
60.174
 31
0.0
  0
LINE
  5
69
330
1E
100
AcDbEntity
  8
0
100
AcDbLine
 10
117.231
 20
9.94569999999998
 30
0.0
 11
117.5
 21
10.174
 31
0.0
  0
LINE
  5
6A
330
1E
100
AcDbEntity
  8
0
100
AcDbLine
 10
108.0999999999999
 20
60.174
 30
0.0
 11
110.0
 21
60.174
 31
0.0
  0
LINE
  5
6B
330
1E
100
AcDbEntity
  8
0
100
AcDbLine
 10
108.077
 20
2.44919999999999
 30
0.0
 11
110.0279999999999
 21
4.435799999999969
 31
0.0
  0
LINE
  5
6C
330
1E
100
AcDbEntity
  8
0
100
AcDbLine
 10
107.2999999999999
 20
60.174
 30
0.0
 11
110.0
 21
60.174
 31
0.0
  0
LINE
  5
6D
330
1E
100
AcDbEntity
  8
0
100
AcDbLine
 10
104.8
 20
60.174
 30
0.0
 11
107.2999999999999
 21
60.174
 31
0.0
  0
LINE
  5
6E
330
1E
100
AcDbEntity
  8
0
100
AcDbLine
 10
102.6
 20
60.174
 30
0.0
 11
104.8
 21
60.174
 31
0.0
  0
LINE
  5
6F
330
1E
100
AcDbEntity
  8
0
100
AcDbLine
 10
100.9
 20
60.174
 30
0.0
 11
102.6
 21
60.174
 31
0.0
  0
LINE
  5
70
330
1E
100
AcDbEntity
  8
0
100
AcDbLine
 10
100.9
 20
60.174
 30
0.0
 11
102.4999999999999
 21
60.174
 31
0.0
  0
LINE
  5
71
330
1E
100
AcDbEntity
  8
0
100
AcDbLine
 10
99.90000000000001
 20
60.174
 30
0.0
 11
100.9
 21
60.174
 31
0.0
  0
LINE
  5
72
330
1E
100
AcDbEntity
  8
0
100
AcDbLine
 10
110.0
 20
90.17402
 30
0.0
 11
113.0
 21
90.17402
 31
0.0
  0
LINE
  5
73
330
1E
100
AcDbEntity
  8
0
100
AcDbLine
 10
113.0
 20
90.17402
 30
0.0
 11
115.7
 21
90.17402
 31
0.0
  0
LINE
  5
74
330
1E
100
AcDbEntity
  8
0
100
AcDbLine
 10
115.7
 20
90.17402
 30
0.0
 11
118.1
 21
90.17402
 31
0.0
  0
LINE
  5
75
330
1E
100
AcDbEntity
  8
0
100
AcDbLine
 10
118.1
 20
90.17402
 30
0.0
 11
120.0
 21
90.17402
 31
0.0
  0
LINE
  5
76
330
1E
100
AcDbEntity
  8
0
100
AcDbLine
 10
120.0
 20
90.17402
 30
0.0
 11
121.1
 21
90.17402
 31
0.0
  0
LINE
  5
77
330
1E
100
AcDbEntity
  8
0
100
AcDbLine
 10
107.0
 20
90.17402
 30
0.0
 11
110.0
 21
90.17402
 31
0.0
  0
LINE
  5
78
330
1E
100
AcDbEntity
  8
0
100
AcDbLine
 10
104.2999999999999
 20
90.17402
 30
0.0
 11
107.0
 21
90.17402
 31
0.0
  0
LINE
  5
79
330
1E
100
AcDbEntity
  8
0
100
AcDbLine
 10
101.9
 20
90.17402
 30
0.0
 11
104.2999999999999
 21
90.17402
 31
0.0
  0
LINE
  5
7A
330
1E
100
AcDbEntity
  8
0
100
AcDbLine
 10
100.0
 20
90.17402
 30
0.0
 11
101.9
 21
90.17402
 31
0.0
  0
LINE
  5
7B
330
1E
100
AcDbEntity
  8
0
100
AcDbLine
 10
98.9
 20
90.17402
 30
0.0
 11
100.0
 21
90.17402
 31
0.0
  0
LINE
  5
7C
330
1E
100
AcDbEntity
  8
0
100
AcDbLine
 10
99.50000000000001
 20
60.174
 30
0.0
 11
99.90000000000001
 21
60.174
 31
0.0
  0
LINE
  5
7D
330
1E
100
AcDbEntity
  8
0
100
AcDbLine
 10
98.50000000000001
 20
90.17402
 30
0.0
 11
99.50000000000001
 21
60.174
 31
0.0
  0
LINE
  5
7E
330
1E
100
AcDbEntity
  8
0
100
AcDbLine
 10
98.50000000000001
 20
90.17402
 30
0.0
 11
98.9
 21
90.17402
 31
0.0
  0
LINE
  5
7F
330
1E
100
AcDbEntity
  8
0
100
AcDbLine
 10
107.1839999999999
 20
90.53402
 30
0.0
 11
110.0
 21
90.53402
 31
0.0
  0
LINE
  5
80
330
1E
100
AcDbEntity
  8
0
100
AcDbLine
 10
104.5439999999999
 20
90.53402
 30
0.0
 11
107.1839999999999
 21
90.53402
 31
0.0
  0
LINE
  5
81
330
1E
100
AcDbEntity
  8
0
100
AcDbLine
 10
102.212
 20
90.53402
 30
0.0
 11
104.5439999999999
 21
90.53402
 31
0.0
  0
LINE
  5
82
330
1E
100
AcDbEntity
  8
0
100
AcDbLine
 10
100.452
 20
90.53402
 30
0.0
 11
102.212
 21
90.53402
 31
0.0
  0
LINE
  5
83
330
1E
100
AcDbEntity
  8
0
100
AcDbLine
 10
99.396
 20
90.53402
 30
0.0
 11
100.452
 21
90.53402
 31
0.0
  0
LINE
  5
84
330
1E
100
AcDbEntity
  8
0
100
AcDbLine
 10
110.0
 20
90.53402
 30
0.0
 11
112.816
 21
90.53402
 31
0.0
  0
LINE
  5
85
330
1E
100
AcDbEntity
  8
0
100
AcDbLine
 10
112.816
 20
90.53402
 30
0.0
 11
115.456
 21
90.53402
 31
0.0
  0
LINE
  5
86
330
1E
100
AcDbEntity
  8
0
100
AcDbLine
 10
115.456
 20
90.53402
 30
0.0
 11
117.788
 21
90.53402
 31
0.0
  0
LINE
  5
87
330
1E
100
AcDbEntity
  8
0
100
AcDbLine
 10
117.788
 20
90.53402
 30
0.0
 11
119.5479999999999
 21
90.53402
 31
0.0
  0
LINE
  5
88
330
1E
100
AcDbEntity
  8
0
100
AcDbLine
 10
119.5479999999999
 20
90.53402
 30
0.0
 11
120.604
 21
90.53402
 31
0.0
  0
LINE
  5
89
330
1E
100
AcDbEntity
  8
0
100
AcDbLine
 10
120.604
 20
90.53402
 30
0.0
 11
121.0
 21
90.53402
 31
0.0
  0
LINE
  5
8A
330
1E
100
AcDbEntity
  8
0
100
AcDbLine
 10
120.7359999999999
 20
90.17402
 30
0.0
 11
121.0
 21
90.53402
 31
0.0
  0
LINE
  5
8B
330
1E
100
AcDbEntity
  8
0
100
AcDbLine
 10
121.0
 20
90.53402
 30
0.0
 11
121.0
 21
98.2473114754098
 31
0.0
  0
LINE
  5
8C
330
1E
100
AcDbEntity
  8
0
100
AcDbLine
 10
99.0
 20
90.53402
 30
0.0
 11
99.26400000000001
 21
90.17402
 31
0.0
  0
LINE
  5
8D
330
1E
100
AcDbEntity
  8
0
100
AcDbLine
 10
99.0
 20
90.53402
 30
0.0
 11
99.0
 21
98.2473114754098
 31
0.0
  0
LINE
  5
8E
330
1E
100
AcDbEntity
  8
0
100
AcDbLine
 10
99.0
 20
90.53402
 30
0.0
 11
99.396
 21
90.53402
 31
0.0
  0
LINE
  5
8F
330
1E
100
AcDbEntity
  8
0
100
AcDbLine
 10
121.1
 20
90.17402
 30
0.0
 11
121.5
 21
90.17402
 31
0.0
  0
LINE
  5
90
330
1E
100
AcDbEntity
  8
0
100
AcDbLine
 10
121.0
 20
91.80336999999999
 30
0.0
 11
126.984
 21
91.80336999999999
 31
0.0
  0
LINE
  5
95
330
1E
100
AcDbEntity
  8
0
100
AcDbLine
 10
127.073007853464
 20
91.82838901936328
 30
0.0
 11
137.0999999999999
 21
92.1565
 31
0.0
  0
LINE
  5
96
330
1E
100
AcDbEntity
  8
0
100
AcDbLine
 10
167.5999999999999
 20
91.52600000000001
 30
0.0
 11
176.0
 21
88.12600000000001
 31
0.0
  0
LINE
  5
97
330
1E
100
AcDbEntity
  8
0
100
AcDbLine
 10
176.0
 20
88.12600000000001
 30
0.0
 11
185.0
 21
86.826
 31
0.0
  0
LINE
  5
98
330
1E
100
AcDbEntity
  8
0
100
AcDbLine
 10
202.4
 20
91.52600000000001
 30
0.0
 11
209.6999999999999
 21
97.12600000000001
 31
0.0
  0
LINE
  5
99
330
1E
100
AcDbEntity
  8
0
100
AcDbLine
 10
194.0
 20
88.12600000000001
 30
0.0
 11
202.4
 21
91.52600000000001
 31
0.0
  0
LINE
  5
9A
330
1E
100
AcDbEntity
  8
0
100
AcDbLine
 10
185.0
 20
86.826
 30
0.0
 11
194.0
 21
88.12600000000001
 31
0.0
  0
LINE
  5
9B
330
1E
100
AcDbEntity
  8
0
100
AcDbLine
 10
137.0999999999999
 20
92.1565
 30
0.0
 11
149.18
 21
92.65089999999998
 31
0.0
  0
LINE
  5
9C
330
1E
100
AcDbEntity
  8
0
100
AcDbLine
 10
149.18
 20
92.65089999999998
 30
0.0
 11
161.9679999999999
 21
93.85943000000001
 31
0.0
  0
LINE
  5
9D
330
1E
100
AcDbEntity
  8
0
100
AcDbLine
 10
93.01579999999999
 20
91.80336999999999
 30
0.0
 11
99.0
 21
91.80336999999999
 31
0.0
  0
LINE
  5
9E
330
1E
100
AcDbEntity
  8
0
100
AcDbLine
 10
85.0
 20
143.4823377057839
 30
0.0
 11
85.0
 21
151.6644
 31
0.0
  0
LINE
  5
9F
330
1E
100
AcDbEntity
  8
0
100
AcDbLine
 10
98.0
 20
108.3943
 30
0.0
 11
98.0
 21
100.8585
 31
0.0
  0
LINE
  5
A0
330
1E
100
AcDbEntity
  8
0
100
AcDbLine
 10
106.976
 20
97.5768
 30
0.0
 11
110.0
 21
97.46500000000001
 31
0.0
  0
LINE
  5
A1
330
1E
100
AcDbEntity
  8
0
100
AcDbLine
 10
110.0
 20
97.46500000000001
 30
0.0
 11
113.024
 21
97.5768
 31
0.0
  0
LINE
  5
A2
330
1E
100
AcDbEntity
  8
0
100
AcDbLine
 10
99.0
 20
98.2473114754098
 30
0.0
 11
99.0
 21
90.53402
 31
0.0
  0
LINE
  5
A3
330
1E
100
AcDbEntity
  8
0
100
AcDbLine
 10
104.192
 20
97.87500000000001
 30
0.0
 11
106.976
 21
97.5768
 31
0.0
  0
LINE
  5
A4
330
1E
100
AcDbEntity
  8
0
100
AcDbLine
 10
101.744
 20
98.3595
 30
0.0
 11
104.192
 21
97.87500000000001
 31
0.0
  0
LINE
  5
A5
330
1E
100
AcDbEntity
  8
0
100
AcDbLine
 10
113.024
 20
97.5768
 30
0.0
 11
115.8079999999999
 21
97.87500000000001
 31
0.0
  0
LINE
  5
A6
330
1E
100
AcDbEntity
  8
0
100
AcDbLine
 10
115.8079999999999
 20
97.87500000000001
 30
0.0
 11
118.256
 21
98.3595
 31
0.0
  0
LINE
  5
A7
330
1E
100
AcDbEntity
  8
0
100
AcDbLine
 10
99.87200000000001
 20
98.99309999999999
 30
0.0
 11
101.744
 21
98.3595
 31
0.0
  0
LINE
  5
A8
330
1E
100
AcDbEntity
  8
0
100
AcDbLine
 10
98.71999999999999
 20
99.7137
 30
0.0
 11
99.87200000000001
 21
98.99309999999999
 31
0.0
  0
LINE
  5
A9
330
1E
100
AcDbEntity
  8
0
100
AcDbLine
 10
118.256
 20
98.3595
 30
0.0
 11
120.1279999999999
 21
98.99309999999999
 31
0.0
  0
LINE
  5
AA
330
1E
100
AcDbEntity
  8
0
100
AcDbLine
 10
121.0
 20
98.2473114754098
 30
0.0
 11
121.0
 21
90.53402
 31
0.0
  0
LINE
  5
AB
330
1E
100
AcDbEntity
  8
0
100
AcDbLine
 10
120.1279999999999
 20
98.99309999999999
 30
0.0
 11
121.28
 21
99.7137
 31
0.0
  0
LINE
  5
AC
330
1E
100
AcDbEntity
  8
0
100
AcDbLine
 10
98.43200000000001
 20
100.0635
 30
0.0
 11
98.71999999999999
 21
99.7137
 31
0.0
  0
LINE
  5
AD
330
1E
100
AcDbEntity
  8
0
100
AcDbLine
 10
121.28
 20
99.7137
 30
0.0
 11
121.7119999999999
 21
100.4963
 31
0.0
  0
LINE
  5
AE
330
1E
100
AcDbEntity
  8
0
100
AcDbLine
 10
121.28
 20
99.7137
 30
0.0
 11
121.568
 21
100.0635
 31
0.0
  0
LINE
  5
AF
330
1E
100
AcDbEntity
  8
0
100
AcDbLine
 10
122.0
 20
100.8585
 30
0.0
 11
122.0
 21
108.3943
 31
0.0
  0
LINE
  5
B0
330
1E
100
AcDbEntity
  8
0
100
AcDbLine
 10
121.568
 20
100.0635
 30
0.0
 11
122.0
 21
100.8585
 31
0.0
  0
LINE
  5
B1
330
1E
100
AcDbEntity
  8
0
100
AcDbLine
 10
121.28
 20
101.279
 30
0.0
 11
121.7119999999999
 21
100.4963
 31
0.0
  0
LINE
  5
B2
330
1E
100
AcDbEntity
  8
0
100
AcDbLine
 10
121.568
 20
101.6535999999999
 30
0.0
 11
122.0
 21
100.8585
 31
0.0
  0
LINE
  5
B3
330
1E
100
AcDbEntity
  8
0
100
AcDbLine
 10
98.71999999999999
 20
101.279
 30
0.0
 11
99.87200000000001
 21
101.9994999999999
 31
0.0
  0
LINE
  5
B4
330
1E
100
AcDbEntity
  8
0
100
AcDbLine
 10
98.28800000000001
 20
100.4963
 30
0.0
 11
98.71999999999999
 21
101.279
 31
0.0
  0
LINE
  5
B5
330
1E
100
AcDbEntity
  8
0
100
AcDbLine
 10
98.28800000000001
 20
100.4963
 30
0.0
 11
98.71999999999999
 21
99.7137
 31
0.0
  0
LINE
  5
B6
330
1E
100
AcDbEntity
  8
0
100
AcDbLine
 10
118.256
 20
102.6331
 30
0.0
 11
120.1279999999999
 21
101.9994999999999
 31
0.0
  0
LINE
  5
B7
330
1E
100
AcDbEntity
  8
0
100
AcDbLine
 10
120.1279999999999
 20
101.9994999999999
 30
0.0
 11
121.28
 21
101.279
 31
0.0
  0
LINE
  5
B8
330
1E
100
AcDbEntity
  8
0
100
AcDbLine
 10
120.4159999999999
 20
102.3989999999999
 30
0.0
 11
121.568
 21
101.6535999999999
 31
0.0
  0
LINE
  5
B9
330
1E
100
AcDbEntity
  8
0
100
AcDbLine
 10
118.496
 20
103.0575
 30
0.0
 11
120.4159999999999
 21
102.3989999999999
 31
0.0
  0
LINE
  5
BA
330
1E
100
AcDbEntity
  8
0
100
AcDbLine
 10
101.744
 20
102.6331
 30
0.0
 11
104.192
 21
103.1175999999999
 31
0.0
  0
LINE
  5
BB
330
1E
100
AcDbEntity
  8
0
100
AcDbLine
 10
99.87200000000001
 20
101.9994999999999
 30
0.0
 11
101.744
 21
102.6331
 31
0.0
  0
LINE
  5
BC
330
1E
100
AcDbEntity
  8
0
100
AcDbLine
 10
104.0
 20
142.1095820895519
 30
0.0
 11
104.0
 21
146.6669
 31
0.0
  0
LINE
  5
BD
330
1E
100
AcDbEntity
  8
0
100
AcDbLine
 10
113.024
 20
103.4158
 30
0.0
 11
115.8079999999999
 21
103.1175999999999
 31
0.0
  0
LINE
  5
BE
330
1E
100
AcDbEntity
  8
0
100
AcDbLine
 10
115.8079999999999
 20
103.1175999999999
 30
0.0
 11
118.256
 21
102.6331
 31
0.0
  0
LINE
  5
BF
330
1E
100
AcDbEntity
  8
0
100
AcDbLine
 10
110.0
 20
103.5276
 30
0.0
 11
113.024
 21
103.4158
 31
0.0
  0
LINE
  5
C0
330
1E
100
AcDbEntity
  8
0
100
AcDbLine
 10
113.0719999999999
 20
103.8526
 30
0.0
 11
115.952
 21
103.5544
 31
0.0
  0
LINE
  5
C1
330
1E
100
AcDbEntity
  8
0
100
AcDbLine
 10
115.952
 20
103.5544
 30
0.0
 11
118.496
 21
103.0575
 31
0.0
  0
LINE
  5
C2
330
1E
100
AcDbEntity
  8
0
100
AcDbLine
 10
106.976
 20
103.4158
 30
0.0
 11
110.0
 21
103.5276
 31
0.0
  0
LINE
  5
C3
330
1E
100
AcDbEntity
  8
0
100
AcDbLine
 10
104.192
 20
103.1175999999999
 30
0.0
 11
106.976
 21
103.4158
 31
0.0
  0
LINE
  5
C4
330
1E
100
AcDbEntity
  8
0
100
AcDbLine
 10
116.0
 20
142.1095820895519
 30
0.0
 11
116.0
 21
146.6669
 31
0.0
  0
LINE
  5
C5
330
1E
100
AcDbEntity
  8
0
100
AcDbLine
 10
110.0
 20
103.9644
 30
0.0
 11
113.0719999999999
 21
103.8526
 31
0.0
  0
LINE
  5
C6
330
1E
100
AcDbEntity
  8
0
100
AcDbLine
 10
122.0
 20
108.3943
 30
0.0
 11
122.0
 21
100.8585
 31
0.0
  0
LINE
  5
C7
330
1E
100
AcDbEntity
  8
0
100
AcDbLine
 10
106.928
 20
103.8526
 30
0.0
 11
110.0
 21
103.9644
 31
0.0
  0
LINE
  5
C8
330
1E
100
AcDbEntity
  8
0
100
AcDbLine
 10
104.0479999999999
 20
103.5544
 30
0.0
 11
106.928
 21
103.8526
 31
0.0
  0
LINE
  5
C9
330
1E
100
AcDbEntity
  8
0
100
AcDbLine
 10
101.5039999999999
 20
103.0575
 30
0.0
 11
104.0479999999999
 21
103.5544
 31
0.0
  0
LINE
  5
CA
330
1E
100
AcDbEntity
  8
0
100
AcDbLine
 10
99.58400000000001
 20
102.3989999999999
 30
0.0
 11
101.5039999999999
 21
103.0575
 31
0.0
  0
LINE
  5
CB
330
1E
100
AcDbEntity
  8
0
100
AcDbLine
 10
98.43200000000001
 20
101.6535999999999
 30
0.0
 11
99.58400000000001
 21
102.3989999999999
 31
0.0
  0
LINE
  5
CC
330
1E
100
AcDbEntity
  8
0
100
AcDbLine
 10
98.0
 20
100.8585
 30
0.0
 11
98.0
 21
108.3943
 31
0.0
  0
LINE
  5
CD
330
1E
100
AcDbEntity
  8
0
100
AcDbLine
 10
98.0
 20
100.8585
 30
0.0
 11
98.43200000000001
 21
101.6535999999999
 31
0.0
  0
LINE
  5
CE
330
1E
100
AcDbEntity
  8
0
100
AcDbLine
 10
98.0
 20
100.8585
 30
0.0
 11
98.43200000000001
 21
100.0635
 31
0.0
  0
LINE
  5
CF
330
1E
100
AcDbEntity
  8
0
100
AcDbLine
 10
104.0
 20
146.6669
 30
0.0
 11
104.0
 21
142.1095820895519
 31
0.0
  0
LINE
  5
D0
330
1E
100
AcDbEntity
  8
0
100
AcDbLine
 10
104.0
 20
146.6669
 30
0.0
 11
104.2
 21
146.68
 31
0.0
  0
LINE
  5
D1
330
1E
100
AcDbEntity
  8
0
100
AcDbLine
 10
104.2
 20
146.68
 30
0.0
 11
104.8
 21
146.6930999999999
 31
0.0
  0
LINE
  5
D2
330
1E
100
AcDbEntity
  8
0
100
AcDbLine
 10
104.8
 20
146.6930999999999
 30
0.0
 11
105.8
 21
146.7036
 31
0.0
  0
LINE
  5
D3
330
1E
100
AcDbEntity
  8
0
100
AcDbLine
 10
105.8
 20
146.7036
 30
0.0
 11
107.0
 21
146.7122999999999
 31
0.0
  0
LINE
  5
D4
330
1E
100
AcDbEntity
  8
0
100
AcDbLine
 10
107.0
 20
146.7122999999999
 30
0.0
 11
108.4999999999999
 21
146.7175
 31
0.0
  0
LINE
  5
D5
330
1E
100
AcDbEntity
  8
0
100
AcDbLine
 10
116.0
 20
146.6669
 30
0.0
 11
116.0
 21
142.1095820895519
 31
0.0
  0
LINE
  5
D6
330
1E
100
AcDbEntity
  8
0
100
AcDbLine
 10
116.0
 20
146.6669
 30
0.0
 11
118.5
 21
149.6667999999999
 31
0.0
  0
LINE
  5
D7
330
1E
100
AcDbEntity
  8
0
100
AcDbLine
 10
115.7999999999999
 20
146.68
 30
0.0
 11
116.0
 21
146.6669
 31
0.0
  0
LINE
  5
D8
330
1E
100
AcDbEntity
  8
0
100
AcDbLine
 10
115.2
 20
146.6930999999999
 30
0.0
 11
115.7999999999999
 21
146.68
 31
0.0
  0
LINE
  5
D9
330
1E
100
AcDbEntity
  8
0
100
AcDbLine
 10
114.2
 20
146.7036
 30
0.0
 11
115.2
 21
146.6930999999999
 31
0.0
  0
LINE
  5
DA
330
1E
100
AcDbEntity
  8
0
100
AcDbLine
 10
113.0
 20
146.7122999999999
 30
0.0
 11
114.2
 21
146.7036
 31
0.0
  0
LINE
  5
DB
330
1E
100
AcDbEntity
  8
0
100
AcDbLine
 10
111.4999999999999
 20
146.7175
 30
0.0
 11
113.0
 21
146.7122999999999
 31
0.0
  0
LINE
  5
DC
330
1E
100
AcDbEntity
  8
0
100
AcDbLine
 10
110.0
 20
146.7192999999999
 30
0.0
 11
111.4999999999999
 21
146.7175
 31
0.0
  0
LINE
  5
DD
330
1E
100
AcDbEntity
  8
0
100
AcDbLine
 10
108.4999999999999
 20
146.7175
 30
0.0
 11
110.0
 21
146.7192999999999
 31
0.0
  0
LINE
  5
DE
330
1E
100
AcDbEntity
  8
0
100
AcDbLine
 10
135.0
 20
143.482360595123
 30
0.0
 11
135.0
 21
151.6644
 31
0.0
  0
LINE
  5
DF
330
1E
100
AcDbEntity
  8
0
100
AcDbLine
 10
161.9679999999999
 20
93.85943000000001
 30
0.0
 11
185.002
 21
96.49148000000002
 31
0.0
  0
LINE
  5
E0
330
1E
100
AcDbEntity
  8
0
100
AcDbLine
 10
164.222399716729
 20
94.11703583374208
 30
0.0
 11
167.5999999999999
 21
91.52600000000001
 31
0.0
  0
LINE
  5
E1
330
1E
100
AcDbEntity
  8
0
100
AcDbLine
 10
185.002
 20
96.49148000000002
 30
0.0
 11
191.4
 21
97.726
 31
0.0
  0
LINE
  5
E2
330
1E
100
AcDbEntity
  8
0
100
AcDbLine
 10
191.4
 20
97.726
 30
0.0
 11
197.4
 21
100.2259999999999
 31
0.0
  0
LINE
  5
E3
330
1E
100
AcDbEntity
  8
0
100
AcDbLine
 10
197.4
 20
100.2259999999999
 30
0.0
 11
202.7
 21
104.2259999999999
 31
0.0
  0
LINE
  5
E4
330
1E
100
AcDbEntity
  8
0
100
AcDbLine
 10
202.7
 20
104.2259999999999
 30
0.0
 11
206.5999999999999
 21
109.526
 31
0.0
  0
LINE
  5
E5
330
1E
100
AcDbEntity
  8
0
100
AcDbLine
 10
218.6999999999999
 20
112.826
 30
0.0
 11
220.0
 21
121.826
 31
0.0
  0
LINE
  5
E6
330
1E
100
AcDbEntity
  8
0
100
AcDbLine
 10
215.3
 20
104.4259999999999
 30
0.0
 11
218.6999999999999
 21
112.826
 31
0.0
  0
LINE
  5
E7
330
1E
100
AcDbEntity
  8
0
100
AcDbLine
 10
209.6999999999999
 20
97.12600000000001
 30
0.0
 11
215.3
 21
104.4259999999999
 31
0.0
  0
LINE
  5
E8
330
1E
100
AcDbEntity
  8
0
100
AcDbLine
 10
206.5999999999999
 20
109.526
 30
0.0
 11
209.1
 21
115.426
 31
0.0
  0
LINE
  5
E9
330
1E
100
AcDbEntity
  8
0
100
AcDbLine
 10
162.0
 20
146.8259999999999
 30
0.0
 11
185.0
 21
146.8259999999999
 31
0.0
  0
LINE
  5
EA
330
1E
100
AcDbEntity
  8
0
100
AcDbLine
 10
185.0
 20
146.8259999999999
 30
0.0
 11
191.4
 21
145.926
 31
0.0
  0
LINE
  5
EB
330
1E
100
AcDbEntity
  8
0
100
AcDbLine
 10
191.4
 20
145.926
 30
0.0
 11
197.4
 21
143.426
 31
0.0
  0
LINE
  5
EC
330
1E
100
AcDbEntity
  8
0
100
AcDbLine
 10
197.4
 20
143.426
 30
0.0
 11
202.7
 21
139.426
 31
0.0
  0
LINE
  5
ED
330
1E
100
AcDbEntity
  8
0
100
AcDbLine
 10
202.7
 20
139.426
 30
0.0
 11
206.5999999999999
 21
134.126
 31
0.0
  0
LINE
  5
EE
330
1E
100
AcDbEntity
  8
0
100
AcDbLine
 10
206.5999999999999
 20
134.126
 30
0.0
 11
209.1
 21
128.2259999999999
 31
0.0
  0
LINE
  5
EF
330
1E
100
AcDbEntity
  8
0
100
AcDbLine
 10
209.1
 20
128.2259999999999
 30
0.0
 11
210.0
 21
121.826
 31
0.0
  0
LINE
  5
F0
330
1E
100
AcDbEntity
  8
0
100
AcDbLine
 10
160.691071428571
 20
146.8259999999999
 30
0.0
 11
167.5999999999999
 21
152.126
 31
0.0
  0
LINE
  5
F1
330
1E
100
AcDbEntity
  8
0
100
AcDbLine
 10
218.6999999999999
 20
130.8259999999999
 30
0.0
 11
220.0
 21
121.826
 31
0.0
  0
LINE
  5
F2
330
1E
100
AcDbEntity
  8
0
100
AcDbLine
 10
215.3
 20
139.226
 30
0.0
 11
218.6999999999999
 21
130.8259999999999
 31
0.0
  0
LINE
  5
F3
330
1E
100
AcDbEntity
  8
0
100
AcDbLine
 10
209.6999999999999
 20
146.526
 30
0.0
 11
215.3
 21
139.226
 31
0.0
  0
LINE
  5
F4
330
1E
100
AcDbEntity
  8
0
100
AcDbLine
 10
209.1
 20
115.426
 30
0.0
 11
210.0
 21
121.826
 31
0.0
  0
LINE
  5
F5
330
1E
100
AcDbEntity
  8
0
100
AcDbLine
 10
137.1999999999999
 20
146.8259999999999
 30
0.0
 11
162.0
 21
146.8259999999999
 31
0.0
  0
LINE
  5
F6
330
1E
100
AcDbEntity
  8
0
100
AcDbLine
 10
135.0
 20
146.8259999999999
 30
0.0
 11
137.1999999999999
 21
146.8259999999999
 31
0.0
  0
LINE
  5
FB
330
1E
100
AcDbEntity
  8
0
100
AcDbLine
 10
82.79999999999999
 20
146.8259999999999
 30
0.0
 11
85.0
 21
146.8259999999999
 31
0.0
  0
LINE
  5
FC
330
1E
100
AcDbEntity
  8
0
100
AcDbLine
 10
118.5
 20
149.6667999999999
 30
0.0
 11
119.0
 21
153.6665999999999
 31
0.0
  0
LINE
  5
FD
330
1E
100
AcDbEntity
  8
0
100
AcDbLine
 10
101.5
 20
149.6667999999999
 30
0.0
 11
104.0
 21
146.6669
 31
0.0
  0
LINE
  5
FE
330
1E
100
AcDbEntity
  8
0
100
AcDbLine
 10
118.749712485624
 20
151.6644
 30
0.0
 11
122.3999999999999
 21
151.6644
 31
0.0
  0
LINE
  5
FF
330
1E
100
AcDbEntity
  8
0
100
AcDbLine
 10
122.3999999999999
 20
151.6644
 30
0.0
 11
127.7
 21
151.6644
 31
0.0
  0
LINE
  5
100
330
1E
100
AcDbEntity
  8
0
100
AcDbLine
 10
127.7
 20
151.6644
 30
0.0
 11
131.6999999999999
 21
151.6644
 31
0.0
  0
LINE
  5
101
330
1E
100
AcDbEntity
  8
0
100
AcDbLine
 10
135.0
 20
151.6644
 30
0.0
 11
135.0
 21
143.482360595123
 31
0.0
  0
LINE
  5
102
330
1E
100
AcDbEntity
  8
0
100
AcDbLine
 10
131.6999999999999
 20
151.6644
 30
0.0
 11
134.0999999999999
 21
151.6644
 31
0.0
  0
LINE
  5
103
330
1E
100
AcDbEntity
  8
0
100
AcDbLine
 10
134.0999999999999
 20
151.6644
 30
0.0
 11
135.0
 21
151.6644
 31
0.0
  0
LINE
  5
104
330
1E
100
AcDbEntity
  8
0
100
AcDbLine
 10
97.59999999999999
 20
151.6644
 30
0.0
 11
101.2502875143759
 21
151.6644
 31
0.0
  0
LINE
  5
105
330
1E
100
AcDbEntity
  8
0
100
AcDbLine
 10
92.3
 20
151.6644
 30
0.0
 11
97.59999999999999
 21
151.6644
 31
0.0
  0
LINE
  5
106
330
1E
100
AcDbEntity
  8
0
100
AcDbLine
 10
88.3
 20
151.6644
 30
0.0
 11
92.3
 21
151.6644
 31
0.0
  0
LINE
  5
107
330
1E
100
AcDbEntity
  8
0
100
AcDbLine
 10
85.90000000000001
 20
151.6644
 30
0.0
 11
88.3
 21
151.6644
 31
0.0
  0
LINE
  5
108
330
1E
100
AcDbEntity
  8
0
100
AcDbLine
 10
85.0
 20
151.6644
 30
0.0
 11
85.0
 21
143.4823377057839
 31
0.0
  0
LINE
  5
109
330
1E
100
AcDbEntity
  8
0
100
AcDbLine
 10
85.0
 20
151.6644
 30
0.0
 11
85.90000000000001
 21
151.6644
 31
0.0
  0
LINE
  5
10A
330
1E
100
AcDbEntity
  8
0
100
AcDbLine
 10
85.0
 20
151.6644
 30
0.0
 11
85.6
 21
152.2643999999999
 31
0.0
  0
LINE
  5
10B
330
1E
100
AcDbEntity
  8
0
100
AcDbLine
 10
167.5999999999999
 20
152.126
 30
0.0
 11
176.0
 21
155.526
 31
0.0
  0
LINE
  5
10C
330
1E
100
AcDbEntity
  8
0
100
AcDbLine
 10
202.4
 20
152.126
 30
0.0
 11
209.6999999999999
 21
146.526
 31
0.0
  0
LINE
  5
10D
330
1E
100
AcDbEntity
  8
0
100
AcDbLine
 10
58.0
 20
146.8259999999999
 30
0.0
 11
82.79999999999999
 21
146.8259999999999
 31
0.0
  0
LINE
  5
10E
330
1E
100
AcDbEntity
  8
0
100
AcDbLine
 10
52.4
 20
91.52600000000001
 30
0.0
 11
55.7775964767004
 21
94.1170329136332
 31
0.0
  0
LINE
  5
10F
330
1E
100
AcDbEntity
  8
0
100
AcDbLine
 10
85.0
 20
155.2224999999999
 30
0.0
 11
85.0
 21
166.1942999999999
 31
0.0
  0
LINE
  5
110
330
1E
100
AcDbEntity
  8
0
100
AcDbLine
 10
85.0
 20
155.2224999999999
 30
0.0
 11
85.90000000000001
 21
155.1826
 31
0.0
  0
LINE
  5
111
330
1E
100
AcDbEntity
  8
0
100
AcDbLine
 10
86.0
 20
152.2643999999999
 30
0.0
 11
86.0
 21
155.183592
 31
0.0
  0
LINE
  5
112
330
1E
100
AcDbEntity
  8
0
100
AcDbLine
 10
118.8247162358119
 20
152.2643999999999
 30
0.0
 11
122.0999999999999
 21
152.2643999999999
 31
0.0
  0
LINE
  5
113
330
1E
100
AcDbEntity
  8
0
100
AcDbLine
 10
122.0999999999999
 20
152.2643999999999
 30
0.0
 11
127.2
 21
152.2643999999999
 31
0.0
  0
LINE
  5
114
330
1E
100
AcDbEntity
  8
0
100
AcDbLine
 10
127.2
 20
152.2643999999999
 30
0.0
 11
131.0999999999999
 21
152.2643999999999
 31
0.0
  0
LINE
  5
115
330
1E
100
AcDbEntity
  8
0
100
AcDbLine
 10
131.0999999999999
 20
152.2643999999999
 30
0.0
 11
133.4999999999999
 21
152.2643999999999
 31
0.0
  0
LINE
  5
116
330
1E
100
AcDbEntity
  8
0
100
AcDbLine
 10
134.0
 20
152.2643999999999
 30
0.0
 11
134.0
 21
155.183592
 31
0.0
  0
LINE
  5
117
330
1E
100
AcDbEntity
  8
0
100
AcDbLine
 10
133.4999999999999
 20
152.2643999999999
 30
0.0
 11
134.4
 21
152.2643999999999
 31
0.0
  0
LINE
  5
118
330
1E
100
AcDbEntity
  8
0
100
AcDbLine
 10
134.4
 20
152.2643999999999
 30
0.0
 11
135.0
 21
151.6644
 31
0.0
  0
LINE
  5
119
330
1E
100
AcDbEntity
  8
0
100
AcDbLine
 10
97.9
 20
152.2643999999999
 30
0.0
 11
101.175283764188
 21
152.2643999999999
 31
0.0
  0
LINE
  5
11A
330
1E
100
AcDbEntity
  8
0
100
AcDbLine
 10
92.79999999999999
 20
152.2643999999999
 30
0.0
 11
97.9
 21
152.2643999999999
 31
0.0
  0
LINE
  5
11B
330
1E
100
AcDbEntity
  8
0
100
AcDbLine
 10
88.9
 20
152.2643999999999
 30
0.0
 11
92.79999999999999
 21
152.2643999999999
 31
0.0
  0
LINE
  5
11C
330
1E
100
AcDbEntity
  8
0
100
AcDbLine
 10
85.90000000000001
 20
155.1826
 30
0.0
 11
88.40000000000001
 21
155.2074
 31
0.0
  0
LINE
  5
11D
330
1E
100
AcDbEntity
  8
0
100
AcDbLine
 10
101.0
 20
153.6665999999999
 30
0.0
 11
101.5
 21
156.6665
 31
0.0
  0
LINE
  5
11E
330
1E
100
AcDbEntity
  8
0
100
AcDbLine
 10
101.0
 20
153.6665999999999
 30
0.0
 11
101.5
 21
149.6667999999999
 31
0.0
  0
LINE
  5
11F
330
1E
100
AcDbEntity
  8
0
100
AcDbLine
 10
134.0999999999999
 20
155.1826
 30
0.0
 11
135.0
 21
155.2224999999999
 31
0.0
  0
LINE
  5
120
330
1E
100
AcDbEntity
  8
0
100
AcDbLine
 10
118.741934730769
 20
155.214940002335
 30
0.0
 11
122.3999999999999
 21
155.2036
 31
0.0
  0
LINE
  5
121
330
1E
100
AcDbEntity
  8
0
100
AcDbLine
 10
122.3999999999999
 20
155.2036
 30
0.0
 11
127.7
 21
155.2534999999999
 31
0.0
  0
LINE
  5
122
330
1E
100
AcDbEntity
  8
0
100
AcDbLine
 10
131.6
 20
155.2074
 30
0.0
 11
134.0999999999999
 21
155.1826
 31
0.0
  0
LINE
  5
123
330
1E
100
AcDbEntity
  8
0
100
AcDbLine
 10
127.7
 20
155.2534999999999
 30
0.0
 11
131.6
 21
155.2074
 31
0.0
  0
LINE
  5
124
330
1E
100
AcDbEntity
  8
0
100
AcDbLine
 10
135.0
 20
155.2224999999999
 30
0.0
 11
135.0
 21
166.1942999999999
 31
0.0
  0
LINE
  5
125
330
1E
100
AcDbEntity
  8
0
100
AcDbLine
 10
97.59999999999999
 20
155.2036
 30
0.0
 11
101.258065269231
 21
155.214940002335
 31
0.0
  0
LINE
  5
126
330
1E
100
AcDbEntity
  8
0
100
AcDbLine
 10
92.3
 20
155.2534999999999
 30
0.0
 11
97.59999999999999
 21
155.2036
 31
0.0
  0
LINE
  5
127
330
1E
100
AcDbEntity
  8
0
100
AcDbLine
 10
88.40000000000001
 20
155.2074
 30
0.0
 11
92.3
 21
155.2534999999999
 31
0.0
  0
LINE
  5
128
330
1E
100
AcDbEntity
  8
0
100
AcDbLine
 10
134.0
 20
155.183592
 30
0.0
 11
134.0
 21
152.2643999999999
 31
0.0
  0
LINE
  5
129
330
1E
100
AcDbEntity
  8
0
100
AcDbLine
 10
86.0
 20
155.183592
 30
0.0
 11
86.0
 21
152.2643999999999
 31
0.0
  0
LINE
  5
12A
330
1E
100
AcDbEntity
  8
0
100
AcDbLine
 10
86.5
 20
152.2643999999999
 30
0.0
 11
88.9
 21
152.2643999999999
 31
0.0
  0
LINE
  5
12B
330
1E
100
AcDbEntity
  8
0
100
AcDbLine
 10
85.6
 20
152.2643999999999
 30
0.0
 11
86.5
 21
152.2643999999999
 31
0.0
  0
LINE
  5
12C
330
1E
100
AcDbEntity
  8
0
100
AcDbLine
 10
118.5
 20
156.6665
 30
0.0
 11
119.0
 21
153.6665999999999
 31
0.0
  0
LINE
  5
12D
330
1E
100
AcDbEntity
  8
0
100
AcDbLine
 10
101.5
 20
156.6665
 30
0.0
 11
104.0
 21
160.6664
 31
0.0
  0
LINE
  5
12E
330
1E
100
AcDbEntity
  8
0
100
AcDbLine
 10
176.0
 20
155.526
 30
0.0
 11
185.0
 21
156.8259999999999
 31
0.0
  0
LINE
  5
12F
330
1E
100
AcDbEntity
  8
0
100
AcDbLine
 10
194.0
 20
155.526
 30
0.0
 11
202.4
 21
152.126
 31
0.0
  0
LINE
  5
130
330
1E
100
AcDbEntity
  8
0
100
AcDbLine
 10
185.0
 20
156.8259999999999
 30
0.0
 11
194.0
 21
155.526
 31
0.0
  0
LINE
  5
131
330
1E
100
AcDbEntity
  8
0
100
AcDbLine
 10
52.4
 20
152.126
 30
0.0
 11
59.3089285714286
 21
146.8259999999999
 31
0.0
  0
LINE
  5
132
330
1E
100
AcDbEntity
  8
0
100
AcDbLine
 10
44.0
 20
155.526
 30
0.0
 11
52.4
 21
152.126
 31
0.0
  0
LINE
  5
133
330
1E
100
AcDbEntity
  8
0
100
AcDbLine
 10
104.0
 20
160.6664
 30
0.0
 11
107.0
 21
162.1663
 31
0.0
  0
LINE
  5
134
330
1E
100
AcDbEntity
  8
0
100
AcDbLine
 10
107.0
 20
162.1663
 30
0.0
 11
110.0
 21
162.6663
 31
0.0
  0
LINE
  5
135
330
1E
100
AcDbEntity
  8
0
100
AcDbLine
 10
110.0
 20
162.6663
 30
0.0
 11
113.0
 21
162.1663
 31
0.0
  0
LINE
  5
136
330
1E
100
AcDbEntity
  8
0
100
AcDbLine
 10
112.328229641011
 20
162.2782617264979
 30
0.0
 11
112.6039999999999
 21
162.6435999999999
 31
0.0
  0
LINE
  5
137
330
1E
100
AcDbEntity
  8
0
100
AcDbLine
 10
116.0
 20
160.6664
 30
0.0
 11
118.5
 21
156.6665
 31
0.0
  0
LINE
  5
138
330
1E
100
AcDbEntity
  8
0
100
AcDbLine
 10
113.0
 20
162.1663
 30
0.0
 11
116.0
 21
160.6664
 31
0.0
  0
LINE
  5
139
330
1E
100
AcDbEntity
  8
0
100
AcDbLine
 10
112.6039999999999
 20
162.6435999999999
 30
0.0
 11
112.892
 21
163.3634999999999
 31
0.0
  0
LINE
  5
13A
330
1E
100
AcDbEntity
  8
0
100
AcDbLine
 10
112.892
 20
163.3634999999999
 30
0.0
 11
113.0
 21
164.1313
 31
0.0
  0
LINE
  5
13B
330
1E
100
AcDbEntity
  8
0
100
AcDbLine
 10
107.396
 20
162.6435999999999
 30
0.0
 11
107.671770358989
 21
162.2782617264979
 31
0.0
  0
LINE
  5
13C
330
1E
100
AcDbEntity
  8
0
100
AcDbLine
 10
107.396
 20
165.6190999999999
 30
0.0
 11
107.876
 21
166.2549999999999
 31
0.0
  0
LINE
  5
13D
330
1E
100
AcDbEntity
  8
0
100
AcDbLine
 10
107.108
 20
164.8991999999999
 30
0.0
 11
107.396
 21
165.6190999999999
 31
0.0
  0
LINE
  5
13E
330
1E
100
AcDbEntity
  8
0
100
AcDbLine
 10
108.512
 20
166.735
 30
0.0
 11
109.232
 21
167.0228999999999
 31
0.0
  0
LINE
  5
13F
330
1E
100
AcDbEntity
  8
0
100
AcDbLine
 10
107.876
 20
166.2549999999999
 30
0.0
 11
108.512
 21
166.735
 31
0.0
  0
LINE
  5
140
330
1E
100
AcDbEntity
  8
0
100
AcDbLine
 10
109.232
 20
167.0228999999999
 30
0.0
 11
110.0
 21
167.1308999999999
 31
0.0
  0
LINE
  5
141
330
1E
100
AcDbEntity
  8
0
100
AcDbLine
 10
110.0
 20
167.1308999999999
 30
0.0
 11
110.7679999999999
 21
167.0228999999999
 31
0.0
  0
LINE
  5
142
330
1E
100
AcDbEntity
  8
0
100
AcDbLine
 10
110.7679999999999
 20
167.0228999999999
 30
0.0
 11
111.488
 21
166.735
 31
0.0
  0
LINE
  5
143
330
1E
100
AcDbEntity
  8
0
100
AcDbLine
 10
111.488
 20
166.735
 30
0.0
 11
112.124
 21
166.2549999999999
 31
0.0
  0
LINE
  5
144
330
1E
100
AcDbEntity
  8
0
100
AcDbLine
 10
112.124
 20
166.2549999999999
 30
0.0
 11
112.6039999999999
 21
165.6190999999999
 31
0.0
  0
LINE
  5
145
330
1E
100
AcDbEntity
  8
0
100
AcDbLine
 10
112.6039999999999
 20
165.6190999999999
 30
0.0
 11
112.892
 21
164.8991999999999
 31
0.0
  0
LINE
  5
146
330
1E
100
AcDbEntity
  8
0
100
AcDbLine
 10
134.6999999999999
 20
172.666
 30
0.0
 11
135.0
 21
166.1942999999999
 31
0.0
  0
LINE
  5
147
330
1E
100
AcDbEntity
  8
0
100
AcDbLine
 10
135.0
 20
166.1942999999999
 30
0.0
 11
135.0
 21
155.2224999999999
 31
0.0
  0
LINE
  5
148
330
1E
100
AcDbEntity
  8
0
100
AcDbLine
 10
112.892
 20
164.8991999999999
 30
0.0
 11
113.0
 21
164.1313
 31
0.0
  0
LINE
  5
149
330
1E
100
AcDbEntity
  8
0
100
AcDbLine
 10
107.108
 20
163.3634999999999
 30
0.0
 11
107.396
 21
162.6435999999999
 31
0.0
  0
LINE
  5
14A
330
1E
100
AcDbEntity
  8
0
100
AcDbLine
 10
107.0
 20
164.1313
 30
0.0
 11
107.108
 21
163.3634999999999
 31
0.0
  0
LINE
  5
14B
330
1E
100
AcDbEntity
  8
0
100
AcDbLine
 10
107.0
 20
164.1313
 30
0.0
 11
107.108
 21
164.8991999999999
 31
0.0
  0
LINE
  5
14C
330
1E
100
AcDbEntity
  8
0
100
AcDbLine
 10
133.0999999999999
 20
187.291
 30
0.0
 11
134.0
 21
181.141
 31
0.0
  0
LINE
  5
14D
330
1E
100
AcDbEntity
  8
0
100
AcDbLine
 10
134.0
 20
181.141
 30
0.0
 11
134.6999999999999
 21
172.666
 31
0.0
  0
LINE
  5
14E
330
1E
100
AcDbEntity
  8
0
100
AcDbLine
 10
110.0
 20
196.3659999999999
 30
0.0
 11
113.9
 21
196.4649999999999
 31
0.0
  0
LINE
  5
14F
330
1E
100
AcDbEntity
  8
0
100
AcDbLine
 10
113.9
 20
196.4649999999999
 30
0.0
 11
117.5
 21
197.0629999999999
 31
0.0
  0
LINE
  5
150
330
1E
100
AcDbEntity
  8
0
100
AcDbLine
 10
130.4
 20
196.724
 30
0.0
 11
131.6
 21
193.5609999999999
 31
0.0
  0
LINE
  5
151
330
1E
100
AcDbEntity
  8
0
100
AcDbLine
 10
131.6
 20
193.5609999999999
 30
0.0
 11
133.0999999999999
 21
187.291
 31
0.0
  0
LINE
  5
152
330
1E
100
AcDbEntity
  8
0
100
AcDbLine
 10
106.0999999999999
 20
196.4649999999999
 30
0.0
 11
110.0
 21
196.3659999999999
 31
0.0
  0
LINE
  5
153
330
1E
100
AcDbEntity
  8
0
100
AcDbLine
 10
90.8
 20
198.9079999999999
 30
0.0
 11
91.90000000000001
 21
199.965
 31
0.0
  0
LINE
  5
156
330
1E
100
AcDbEntity
  8
0
100
AcDbLine
 10
128.0999999999999
 20
199.965
 30
0.0
 11
129.1999999999999
 21
198.9079999999999
 31
0.0
  0
LINE
  5
157
330
1E
100
AcDbEntity
  8
0
100
AcDbLine
 10
129.1999999999999
 20
198.9079999999999
 30
0.0
 11
130.4
 21
196.724
 31
0.0
  0
LINE
  5
158
330
1E
100
AcDbEntity
  8
0
100
AcDbLine
 10
129.6999999999999
 20
198.382
 30
0.0
 11
130.4
 21
196.724
 31
0.0
  0
LINE
  5
159
330
1E
100
AcDbEntity
  8
0
100
AcDbLine
 10
102.4999999999999
 20
197.0629999999999
 30
0.0
 11
106.0999999999999
 21
196.4649999999999
 31
0.0
  0
LINE
  5
15C
330
1E
100
AcDbEntity
  8
0
100
AcDbLine
 10
126.4
 20
201.1849999999999
 30
0.0
 11
128.0999999999999
 21
199.965
 31
0.0
  0
LINE
  5
15D
330
1E
100
AcDbEntity
  8
0
100
AcDbLine
 10
127.4
 20
201.459
 30
0.0
 11
128.6
 21
200.402
 31
0.0
  0
LINE
  5
15E
330
1E
100
AcDbEntity
  8
0
100
AcDbLine
 10
128.6
 20
200.402
 30
0.0
 11
129.6999999999999
 21
198.382
 31
0.0
  0
LINE
  5
160
330
1E
100
AcDbEntity
  8
0
100
AcDbLine
 10
91.90000000000001
 20
199.965
 30
0.0
 11
93.59999999999999
 21
201.1849999999999
 31
0.0
  0
LINE
  5
161
330
1E
100
AcDbEntity
  8
0
100
AcDbLine
 10
91.4
 20
200.402
 30
0.0
 11
92.59999999999999
 21
201.459
 31
0.0
  0
LINE
  5
164
330
1E
100
AcDbEntity
  8
0
100
AcDbLine
 10
95.8
 20
203.8749999999999
 30
0.0
 11
96.90000000000001
 21
204.435
 31
0.0
  0
LINE
  5
165
330
1E
100
AcDbEntity
  8
0
100
AcDbLine
 10
96.90000000000001
 20
204.435
 30
0.0
 11
99.29999999999999
 21
205.431
 31
0.0
  0
LINE
  5
166
330
1E
100
AcDbEntity
  8
0
100
AcDbLine
 10
99.29999999999999
 20
205.431
 30
0.0
 11
102.4999999999999
 21
206.2279999999999
 31
0.0
  0
LINE
  5
16A
330
1E
100
AcDbEntity
  8
0
100
AcDbLine
 10
123.0999999999999
 20
204.435
 30
0.0
 11
124.1999999999999
 21
203.8749999999999
 31
0.0
  0
LINE
  5
16B
330
1E
100
AcDbEntity
  8
0
100
AcDbLine
 10
124.1999999999999
 20
203.8749999999999
 30
0.0
 11
125.7
 21
202.953
 31
0.0
  0
LINE
  5
16C
330
1E
100
AcDbEntity
  8
0
100
AcDbLine
 10
125.7
 20
202.953
 30
0.0
 11
127.4
 21
201.459
 31
0.0
  0
LINE
  5
16E
330
1E
100
AcDbEntity
  8
0
100
AcDbLine
 10
120.7
 20
205.431
 30
0.0
 11
123.0999999999999
 21
204.435
 31
0.0
  0
LINE
  5
16F
330
1E
100
AcDbEntity
  8
0
100
AcDbLine
 10
117.5
 20
206.2279999999999
 30
0.0
 11
120.7
 21
205.431
 31
0.0
  0
LINE
  5
170
330
1E
100
AcDbEntity
  8
0
100
AcDbLine
 10
113.9
 20
206.726
 30
0.0
 11
117.5
 21
206.2279999999999
 31
0.0
  0
LINE
  5
172
330
1E
100
AcDbEntity
  8
0
100
AcDbLine
 10
102.4999999999999
 20
206.2279999999999
 30
0.0
 11
106.0999999999999
 21
206.726
 31
0.0
  0
LINE
  5
173
330
1E
100
AcDbEntity
  8
0
100
AcDbLine
 10
110.0
 20
206.8259999999999
 30
0.0
 11
113.9
 21
206.726
 31
0.0
  0
LINE
  5
174
330
1E
100
AcDbEntity
  8
0
100
AcDbLine
 10
106.0999999999999
 20
206.726
 30
0.0
 11
110.0
 21
206.8259999999999
 31
0.0
  0
LINE
  5
175
330
1E
100
AcDbEntity
  8
0
100
AcDbLine
 10
94.29999999999999
 20
202.953
 30
0.0
 11
95.8
 21
203.8749999999999
 31
0.0
  0
LINE
  5
176
330
1E
100
AcDbEntity
  8
0
100
AcDbLine
 10
92.59999999999999
 20
201.459
 30
0.0
 11
94.29999999999999
 21
202.953
 31
0.0
  0
LINE
  5
177
330
1E
100
AcDbEntity
  8
0
100
AcDbLine
 10
90.29999999999999
 20
198.382
 30
0.0
 11
91.4
 21
200.402
 31
0.0
  0
LINE
  5
178
330
1E
100
AcDbEntity
  8
0
100
AcDbLine
 10
89.59999999999999
 20
196.724
 30
0.0
 11
90.29999999999999
 21
198.382
 31
0.0
  0
LINE
  5
179
330
1E
100
AcDbEntity
  8
0
100
AcDbLine
 10
89.59999999999999
 20
196.724
 30
0.0
 11
90.8
 21
198.9079999999999
 31
0.0
  0
LINE
  5
17A
330
1E
100
AcDbEntity
  8
0
100
AcDbLine
 10
88.40000000000001
 20
193.5609999999999
 30
0.0
 11
89.59999999999999
 21
196.724
 31
0.0
  0
LINE
  5
17B
330
1E
100
AcDbEntity
  8
0
100
AcDbLine
 10
86.90000000000001
 20
187.291
 30
0.0
 11
88.40000000000001
 21
193.5609999999999
 31
0.0
  0
LINE
  5
17C
330
1E
100
AcDbEntity
  8
0
100
AcDbLine
 10
86.0
 20
181.141
 30
0.0
 11
86.90000000000001
 21
187.291
 31
0.0
  0
LINE
  5
17D
330
1E
100
AcDbEntity
  8
0
100
AcDbLine
 10
85.29999999999999
 20
172.666
 30
0.0
 11
86.0
 21
181.141
 31
0.0
  0
LINE
  5
17E
330
1E
100
AcDbEntity
  8
0
100
AcDbLine
 10
85.0
 20
166.1942999999999
 30
0.0
 11
85.0
 21
155.2224999999999
 31
0.0
  0
LINE
  5
17F
330
1E
100
AcDbEntity
  8
0
100
AcDbLine
 10
85.0
 20
166.1942999999999
 30
0.0
 11
85.29999999999999
 21
172.666
 31
0.0
  0
LINE
  5
180
330
1E
100
AcDbEntity
  8
0
100
AcDbLine
 10
35.0
 20
156.8259999999999
 30
0.0
 11
44.0
 21
155.526
 31
0.0
  0
LINE
  5
181
330
1E
100
AcDbEntity
  8
0
100
AcDbLine
 10
26.0
 20
88.12600000000001
 30
0.0
 11
35.0
 21
86.826
 31
0.0
  0
LINE
  5
18A
330
1E
100
AcDbEntity
  8
0
100
AcDbLine
 10
117.5
 20
197.0629999999999
 30
0.0
 11
121.2595676655132
 21
198.8717088995924
 31
0.0
  0
LINE
  5
18B
330
1E
100
AcDbEntity
  8
0
100
AcDbLine
 10
121.2595676655132
 20
198.8717088995924
 30
0.0
 11
123.9573609617918
 21
200.4978700054424
 31
0.0
  0
LINE
  5
18C
330
1E
100
AcDbEntity
  8
0
100
AcDbLine
 10
123.9573609617918
 20
200.4978700054424
 30
0.0
 11
126.4
 21
201.1849999999999
 31
0.0
  0
LINE
  5
18D
330
1E
100
AcDbEntity
  8
0
100
AcDbLine
 10
98.74043233448674
 20
198.8717088995924
 30
0.0
 11
96.04263903820811
 21
200.4978700054424
 31
0.0
  0
LINE
  5
18E
330
1E
100
AcDbEntity
  8
0
100
AcDbLine
 10
102.4999999999999
 20
197.0629999999999
 30
0.0
 11
98.74043233448674
 21
198.8717088995924
 31
0.0
  0
LINE
  5
18F
330
1E
100
AcDbEntity
  8
0
100
AcDbLine
 10
96.04263903820811
 20
200.4978700054424
 30
0.0
 11
93.59999999999999
 21
201.1849999999999
 31
0.0
  0
LINE
  5
190
330
1E
100
AcDbEntity
  8
0
100
AcDbLine
 10
110.0
 20
107.0
 30
0.0
 11
103.9184928646773
 21
107.0817839421457
 31
0.0
  0
LINE
  5
191
330
1E
100
AcDbEntity
  8
0
100
AcDbLine
 10
103.9184928646773
 20
107.0817839421457
 30
0.0
 11
97.26367705961365
 21
108.031841251092
 31
0.0
  0
LINE
  5
192
330
1E
100
AcDbEntity
  8
0
100
AcDbLine
 10
97.26367705961365
 20
108.031841251092
 30
0.0
 11
92.70037531145295
 21
109.9319558689849
 31
0.0
  0
LINE
  5
193
330
1E
100
AcDbEntity
  8
0
100
AcDbLine
 10
92.70037531145295
 20
109.9319558689849
 30
0.0
 11
90.4187244373727
 21
112.7821273109834
 31
0.0
  0
LINE
  5
194
330
1E
100
AcDbEntity
  8
0
100
AcDbLine
 10
90.4187244373727
 20
112.7821273109834
 30
0.0
 11
88.04200414715342
 21
122.75772857008
 31
0.0
  0
LINE
  5
195
330
1E
100
AcDbEntity
  8
0
100
AcDbLine
 10
88.04200414715342
 20
122.75772857008
 30
0.0
 11
85.0
 21
143.4823377057839
 31
0.0
  0
LINE
  5
196
330
1E
100
AcDbEntity
  8
0
100
AcDbLine
 10
122.7363229403863
 20
108.031841251092
 30
0.0
 11
127.299624688547
 21
109.9319558689849
 31
0.0
  0
LINE
  5
197
330
1E
100
AcDbEntity
  8
0
100
AcDbLine
 10
129.5812755626273
 20
112.7821273109834
 30
0.0
 11
131.9579958528465
 21
122.75772857008
 31
0.0
  0
LINE
  5
198
330
1E
100
AcDbEntity
  8
0
100
AcDbLine
 10
127.299624688547
 20
109.9319558689849
 30
0.0
 11
129.5812755626273
 21
112.7821273109834
 31
0.0
  0
LINE
  5
199
330
1E
100
AcDbEntity
  8
0
100
AcDbLine
 10
116.0815071353226
 20
107.0817839421457
 30
0.0
 11
122.7363229403863
 21
108.031841251092
 31
0.0
  0
LINE
  5
19A
330
1E
100
AcDbEntity
  8
0
100
AcDbLine
 10
110.0
 20
107.0
 30
0.0
 11
116.0815071353226
 21
107.0817839421457
 31
0.0
  0
LINE
  5
19B
330
1E
100
AcDbEntity
  8
0
100
AcDbLine
 10
131.9579958528465
 20
122.75772857008
 30
0.0
 11
135.0
 21
143.4823377057839
 31
0.0
  0
ENDSEC
  0
SECTION
  2
OBJECTS
  0
DICTIONARY
  5
C
330
0
100
AcDbDictionary
  3
ACAD_GROUP
350
D
  3
ACAD_LAYOUT
350
19
  3
ACAD_MLINESTYLE
350
16
  3
ACAD_PLOTSETTINGS
350
18
  3
ACAD_PLOTSTYLENAME
350
E
  3
ACDBHEADERROUNDTRIPXREC
350
1A1
  3
ACDBVARIABLEDICTIONARY
350
19E
  0
DICTIONARY
  5
1C3
330
1E
100
AcDbDictionary
280
     1
  3
ACAD_LAYOUTSELFREF
360
1C4
  0
DICTIONARY
  5
1C1
330
1A
100
AcDbDictionary
280
     1
  3
ACAD_LAYOUTSELFREF
360
1C2
  0
DICTIONARY
  5
D
102
{ACAD_REACTORS
330
C
102
}
330
C
100
AcDbDictionary
  0
DICTIONARY
  5
19
102
{ACAD_REACTORS
330
C
102
}
330
C
100
AcDbDictionary
  0
DICTIONARY
  5
16
102
{ACAD_REACTORS
330
C
102
}
330
C
100
AcDbDictionary
  3
STANDARD
350
17
  0
DICTIONARY
  5
18
102
{ACAD_REACTORS
330
C
102
}
330
C
100
AcDbDictionary
  0
ACDBDICTIONARYWDFLT
  5
E
102
{ACAD_REACTORS
330
C
102
}
330
C
100
AcDbDictionary
281
     1
  3
Normal
350
F
100
AcDbDictionaryWithDefault
340
F
  0
DICTIONARY
  5
1A1
102
{ACAD_REACTORS
330
C
102
}
330
C
100
AcDbDictionary
  3
CEPSNTYPE
350
1AB
  3
FINGERPRINTGUID
350
1AC
  3
HYPERLINKBASE
350
1A4
  3
INSUNITS
350
1AA
  3
LAYOUTDICT
350
1A6
  3
LWETCUNION
350
1A9
  3
PLOTSETDICT
350
1A7
  3
PLOTSTYLNAMDICT
350
1A8
  3
PSVPSCALE
350
1AE
  3
PUCSBASE
350
1B1
  3
PUCSORGBACK
350
1B7
  3
PUCSORGBOTTOM
350
1B3
  3
PUCSORGFRONT
350
1B6
  3
PUCSORGLEFT
350
1B4
  3
PUCSORGRIGHT
350
1B5
  3
PUCSORGTOP
350
1B2
  3
PUCSORTHOREF
350
1AF
  3
PUCSORTHOVIEW
350
1B0
  3
STYLESHEET
350
1A5
  3
TSTACKALIGN
350
1A2
  3
TSTACKSIZE
350
1A3
  3
UCSBASE
350
1BA
  3
UCSORGBACK
350
1C0
  3
UCSORGBOTTOM
350
1BC
  3
UCSORGFRONT
350
1BF
  3
UCSORGLEFT
350
1BD
  3
UCSORGRIGHT
350
1BE
  3
UCSORGTOP
350
1BB
  3
UCSORTHOREF
350
1B8
  3
UCSORTHOVIEW
350
1B9
  3
VERSIONGUID
350
1AD
  0
DICTIONARY
  5
19E
102
{ACAD_REACTORS
330
C
102
}
330
C
100
AcDbDictionary
  3
DIMASSOC
350
19F
  0
XRECORD
  5
1C4
102
{ACAD_REACTORS
330
1C3
102
}
330
1C3
100
AcDbXrecord
340
1E
  0
XRECORD
  5
1C2
102
{ACAD_REACTORS
330
1C1
102
}
330
1C1
100
AcDbXrecord
340
1A
  0
MLINESTYLE
  5
17
102
{ACAD_REACTORS
330
16
102
}
330
16
100
AcDbMlineStyle
  2
STANDARD
 70
     0
  3

 62
   256
 51
90.0
 52
90.0
 71
     2
 49
0.5
 62
   256
  6
BYLAYER
 49
-0.5
 62
   256
  6
BYLAYER
  0
ACDBPLACEHOLDER
  5
F
102
{ACAD_REACTORS
330
E
102
}
330
E
100
AcDbPlaceHolder
280
     0
  0
XRECORD
  5
1AB
102
{ACAD_REACTORS
330
1A1
102
}
330
1A1
100
AcDbXrecord
 90
        0
  0
XRECORD
  5
1AC
102
{ACAD_REACTORS
330
1A1
102
}
330
1A1
100
AcDbXrecord
  1
{8D116508-2567-40FC-939C-A95569B7295F}
  0
XRECORD
  5
1A4
102
{ACAD_REACTORS
330
1A1
102
}
330
1A1
100
AcDbXrecord
  1

  0
XRECORD
  5
1AA
102
{ACAD_REACTORS
330
1A1
102
}
330
1A1
100
AcDbXrecord
 90
        0
  0
XRECORD
  5
1A6
102
{ACAD_REACTORS
330
1A1
102
}
330
1A1
100
AcDbXrecord
340
19
  0
XRECORD
  5
1A9
102
{ACAD_REACTORS
330
1A1
102
}
330
1A1
100
AcDbXrecord
 90
    10781
  0
XRECORD
  5
1A7
102
{ACAD_REACTORS
330
1A1
102
}
330
1A1
100
AcDbXrecord
340
18
  0
XRECORD
  5
1A8
102
{ACAD_REACTORS
330
1A1
102
}
330
1A1
100
AcDbXrecord
340
E
  0
XRECORD
  5
1AE
102
{ACAD_REACTORS
330
1A1
102
}
330
1A1
100
AcDbXrecord
 40
0.0
  0
XRECORD
  5
1B1
102
{ACAD_REACTORS
330
1A1
102
}
330
1A1
100
AcDbXrecord
340
0
  0
XRECORD
  5
1B7
102
{ACAD_REACTORS
330
1A1
102
}
330
1A1
100
AcDbXrecord
 10
0.0
 20
0.0
 30
0.0
  0
XRECORD
  5
1B3
102
{ACAD_REACTORS
330
1A1
102
}
330
1A1
100
AcDbXrecord
 10
0.0
 20
0.0
 30
0.0
  0
XRECORD
  5
1B6
102
{ACAD_REACTORS
330
1A1
102
}
330
1A1
100
AcDbXrecord
 10
0.0
 20
0.0
 30
0.0
  0
XRECORD
  5
1B4
102
{ACAD_REACTORS
330
1A1
102
}
330
1A1
100
AcDbXrecord
 10
0.0
 20
0.0
 30
0.0
  0
XRECORD
  5
1B5
102
{ACAD_REACTORS
330
1A1
102
}
330
1A1
100
AcDbXrecord
 10
0.0
 20
0.0
 30
0.0
  0
XRECORD
  5
1B2
102
{ACAD_REACTORS
330
1A1
102
}
330
1A1
100
AcDbXrecord
 10
0.0
 20
0.0
 30
0.0
  0
XRECORD
  5
1AF
102
{ACAD_REACTORS
330
1A1
102
}
330
1A1
100
AcDbXrecord
340
0
  0
XRECORD
  5
1B0
102
{ACAD_REACTORS
330
1A1
102
}
330
1A1
100
AcDbXrecord
 70
     0
  0
XRECORD
  5
1A5
102
{ACAD_REACTORS
330
1A1
102
}
330
1A1
100
AcDbXrecord
  1

  0
XRECORD
  5
1A2
102
{ACAD_REACTORS
330
1A1
102
}
330
1A1
100
AcDbXrecord
 90
        1
  0
XRECORD
  5
1A3
102
{ACAD_REACTORS
330
1A1
102
}
330
1A1
100
AcDbXrecord
 90
       70
  0
XRECORD
  5
1BA
102
{ACAD_REACTORS
330
1A1
102
}
330
1A1
100
AcDbXrecord
340
0
  0
XRECORD
  5
1C0
102
{ACAD_REACTORS
330
1A1
102
}
330
1A1
100
AcDbXrecord
 10
0.0
 20
0.0
 30
0.0
  0
XRECORD
  5
1BC
102
{ACAD_REACTORS
330
1A1
102
}
330
1A1
100
AcDbXrecord
 10
0.0
 20
0.0
 30
0.0
  0
XRECORD
  5
1BF
102
{ACAD_REACTORS
330
1A1
102
}
330
1A1
100
AcDbXrecord
 10
0.0
 20
0.0
 30
0.0
  0
XRECORD
  5
1BD
102
{ACAD_REACTORS
330
1A1
102
}
330
1A1
100
AcDbXrecord
 10
0.0
 20
0.0
 30
0.0
  0
XRECORD
  5
1BE
102
{ACAD_REACTORS
330
1A1
102
}
330
1A1
100
AcDbXrecord
 10
0.0
 20
0.0
 30
0.0
  0
XRECORD
  5
1BB
102
{ACAD_REACTORS
330
1A1
102
}
330
1A1
100
AcDbXrecord
 10
0.0
 20
0.0
 30
0.0
  0
XRECORD
  5
1B8
102
{ACAD_REACTORS
330
1A1
102
}
330
1A1
100
AcDbXrecord
340
0
  0
XRECORD
  5
1B9
102
{ACAD_REACTORS
330
1A1
102
}
330
1A1
100
AcDbXrecord
 70
     1
  0
XRECORD
  5
1AD
102
{ACAD_REACTORS
330
1A1
102
}
330
1A1
100
AcDbXrecord
  1
{3635D40D-D792-4F48-AF1E-41A5D9869301}
  0
DICTIONARYVAR
  5
19F
102
{ACAD_REACTORS
330
19E
102
}
330
19E
100
DictionaryVariables
280
     0
  1
1
  0
ENDSEC
  0
EOF
