  0
SECTION
  2
HEADER
  9
$ACADVER
  1
AC1014
  9
$ACADMAINTVER
 70
     9
  9
$DWGCODEPAGE
  3
ANSI_1252
  9
$INSBASE
 10
0.0
 20
0.0
 30
0.0
  9
$EXTMIN
 10
-0.0000000000000018
 20
0.0000000000000005
 30
0.0
  9
$EXTMAX
 10
65.0
 20
330.0
 30
0.0
  9
$LIMMIN
 10
0.0
 20
0.0
  9
$LIMMAX
 10
12.0
 20
9.0
  9
$ORTHOMODE
 70
     0
  9
$REGENMODE
 70
     1
  9
$FILLMODE
 70
     1
  9
$QTEXTMODE
 70
     0
  9
$MIRRTEXT
 70
     1
  9
$DRAGMODE
 70
     2
  9
$LTSCALE
 40
1.0
  9
$OSMODE
 70
    37
  9
$ATTMODE
 70
     1
  9
$TEXTSIZE
 40
0.2
  9
$TRACEWID
 40
0.05
  9
$TEXTSTYLE
  7
STANDARD
  9
$CLAYER
  8
0
  9
$CELTYPE
  6
CONTINUOUS
  9
$CECOLOR
 62
   256
  9
$CELTSCALE
 40
1.0
  9
$DELOBJ
 70
     1
  9
$DISPSILH
 70
     0
  9
$DIMSCALE
 40
1.0
  9
$DIMASZ
 40
0.18
  9
$DIMEXO
 40
0.0625
  9
$DIMDLI
 40
0.38
  9
$DIMRND
 40
0.0
  9
$DIMDLE
 40
0.0
  9
$DIMEXE
 40
0.18
  9
$DIMTP
 40
0.0
  9
$DIMTM
 40
0.0
  9
$DIMTXT
 40
0.18
  9
$DIMCEN
 40
0.09
  9
$DIMTSZ
 40
0.0
  9
$DIMTOL
 70
     0
  9
$DIMLIM
 70
     0
  9
$DIMTIH
 70
     1
  9
$DIMTOH
 70
     1
  9
$DIMSE1
 70
     0
  9
$DIMSE2
 70
     0
  9
$DIMTAD
 70
     0
  9
$DIMZIN
 70
     0
  9
$DIMBLK
  1

  9
$DIMASO
 70
     1
  9
$DIMSHO
 70
     1
  9
$DIMPOST
  1

  9
$DIMAPOST
  1

  9
$DIMALT
 70
     0
  9
$DIMALTD
 70
     2
  9
$DIMALTF
 40
25.4
  9
$DIMLFAC
 40
1.0
  9
$DIMTOFL
 70
     0
  9
$DIMTVP
 40
0.0
  9
$DIMTIX
 70
     0
  9
$DIMSOXD
 70
     0
  9
$DIMSAH
 70
     0
  9
$DIMBLK1
  1

  9
$DIMBLK2
  1

  9
$DIMSTYLE
  2
STANDARD
  9
$DIMCLRD
 70
     0
  9
$DIMCLRE
 70
     0
  9
$DIMCLRT
 70
     0
  9
$DIMTFAC
 40
1.0
  9
$DIMGAP
 40
0.09
  9
$DIMJUST
 70
     0
  9
$DIMSD1
 70
     0
  9
$DIMSD2
 70
     0
  9
$DIMTOLJ
 70
     1
  9
$DIMTZIN
 70
     0
  9
$DIMALTZ
 70
     0
  9
$DIMALTTZ
 70
     0
  9
$DIMFIT
 70
     3
  9
$DIMUPT
 70
     0
  9
$DIMUNIT
 70
     2
  9
$DIMDEC
 70
     4
  9
$DIMTDEC
 70
     4
  9
$DIMALTU
 70
     2
  9
$DIMALTTD
 70
     2
  9
$DIMTXSTY
  7
STANDARD
  9
$DIMAUNIT
 70
     0
  9
$LUNITS
 70
     2
  9
$LUPREC
 70
     4
  9
$SKETCHINC
 40
0.1
  9
$FILLETRAD
 40
0.0
  9
$AUNITS
 70
     0
  9
$AUPREC
 70
     0
  9
$MENU
  1
.
  9
$ELEVATION
 40
0.0
  9
$PELEVATION
 40
0.0
  9
$THICKNESS
 40
0.0
  9
$LIMCHECK
 70
     0
  9
$BLIPMODE
 70
     0
  9
$CHAMFERA
 40
0.0
  9
$CHAMFERB
 40
0.0
  9
$CHAMFERC
 40
0.0
  9
$CHAMFERD
 40
0.0
  9
$SKPOLY
 70
     0
  9
$TDCREATE
 40
2454696.784135740
  9
$TDUPDATE
 40
2454696.788297881
  9
$TDINDWG
 40
0.0041623264
  9
$TDUSRTIMER
 40
0.0041623264
  9
$USRTIMER
 70
     1
  9
$ANGBASE
 50
0.0
  9
$ANGDIR
 70
     0
  9
$PDMODE
 70
     0
  9
$PDSIZE
 40
0.0
  9
$PLINEWID
 40
0.0
  9
$COORDS
 70
     1
  9
$SPLFRAME
 70
     0
  9
$SPLINETYPE
 70
     6
  9
$SPLINESEGS
 70
     8
  9
$ATTDIA
 70
     0
  9
$ATTREQ
 70
     1
  9
$HANDLING
 70
 22529
  9
$HANDSEED
  5
3C4
  9
$SURFTAB1
 70
     6
  9
$SURFTAB2
 70
     6
  9
$SURFTYPE
 70
     6
  9
$SURFU
 70
     6
  9
$SURFV
 70
     6
  9
$UCSNAME
  2

  9
$UCSORG
 10
0.0
 20
0.0
 30
0.0
  9
$UCSXDIR
 10
1.0
 20
0.0
 30
0.0
  9
$UCSYDIR
 10
0.0
 20
1.0
 30
0.0
  9
$PUCSNAME
  2

  9
$PUCSORG
 10
0.0
 20
0.0
 30
0.0
  9
$PUCSXDIR
 10
1.0
 20
0.0
 30
0.0
  9
$PUCSYDIR
 10
0.0
 20
1.0
 30
0.0
  9
$USERI1
 70
     0
  9
$USERI2
 70
     0
  9
$USERI3
 70
     0
  9
$USERI4
 70
     0
  9
$USERI5
 70
     0
  9
$USERR1
 40
0.0
  9
$USERR2
 40
0.0
  9
$USERR3
 40
0.0
  9
$USERR4
 40
0.0
  9
$USERR5
 40
0.0
  9
$WORLDVIEW
 70
     1
  9
$SHADEDGE
 70
     3
  9
$SHADEDIF
 70
    70
  9
$TILEMODE
 70
     1
  9
$MAXACTVP
 70
    64
  9
$PINSBASE
 10
0.0
 20
0.0
 30
0.0
  9
$PLIMCHECK
 70
     0
  9
$PEXTMIN
 10
1.000000000000000E+20
 20
1.000000000000000E+20
 30
1.000000000000000E+20
  9
$PEXTMAX
 10
-1.000000000000000E+20
 20
-1.000000000000000E+20
 30
-1.000000000000000E+20
  9
$PLIMMIN
 10
0.0
 20
0.0
  9
$PLIMMAX
 10
12.0
 20
9.0
  9
$UNITMODE
 70
     0
  9
$VISRETAIN
 70
     1
  9
$PLINEGEN
 70
     0
  9
$PSLTSCALE
 70
     1
  9
$TREEDEPTH
 70
  3020
  9
$PICKSTYLE
 70
     1
  9
$CMLSTYLE
  2
STANDARD
  9
$CMLJUST
 70
     0
  9
$CMLSCALE
 40
1.0
  9
$PROXYGRAPHICS
 70
     1
  9
$MEASUREMENT
 70
     0
  0
ENDSEC
  0
SECTION
  2
CLASSES
  0
CLASS
  1
ACDBDICTIONARYWDFLT
  2
AcDbDictionaryWithDefault
  3
AutoCAD 2000
 90
        0
280
     0
281
     0
  0
CLASS
  1
ACDBPLACEHOLDER
  2
AcDbPlaceHolder
  3
AutoCAD 2000
 90
        0
280
     0
281
     0
  0
CLASS
  1
LAYOUT
  2
AcDbLayout
  3
AutoCAD 2000
 90
        0
280
     0
281
     0
  0
CLASS
  1
DICTIONARYVAR
  2
AcDbDictionaryVar
  3
AutoCAD 2000
 90
        0
280
     0
281
     0
  0
CLASS
  1
LONG_TRANSACTION
  2
AcDbLongTransaction
  3
AutoCAD 2000
 90
        0
280
     0
281
     0
  0
CLASS
  1
LWPOLYLINE
  2
AcDbPolyline
  3
AutoCAD 2000
 90
        0
280
     0
281
     1
  0
CLASS
  1
HATCH
  2
AcDbHatch
  3
AutoCAD 2000
 90
        0
280
     0
281
     1
  0
CLASS
  1
XRECORD
  2
AcDbXrecord
  3
AutoCAD 2000
 90
        0
280
     0
281
     0
  0
ENDSEC
  0
SECTION
  2
TABLES
  0
TABLE
  2
VPORT
  5
8
330
0
100
AcDbSymbolTable
 70
     2
  0
VPORT
  5
39F
330
8
100
AcDbSymbolTableRecord
100
AcDbViewportTableRecord
  2
*ACTIVE
 70
     0
 10
0.0
 20
0.0
 11
1.0
 21
1.0
 12
32.5
 22
165.0
 13
0.0
 23
0.0
 14
1.0
 24
1.0
 15
0.0
 25
0.0
 16
0.0
 26
0.0
 36
1.0
 17
0.0
 27
0.0
 37
0.0
 40
332.5319693094629
 41
2.078104993597951
 42
50.0
 43
0.0
 44
0.0
 50
0.0
 51
0.0
 71
     0
 72
   100
 73
     1
 74
     3
 75
     0
 76
     0
 77
     0
 78
     0
  0
ENDTAB
  0
TABLE
  2
LTYPE
  5
5
330
0
100
AcDbSymbolTable
 70
     1
  0
LTYPE
  5
13
330
5
100
AcDbSymbolTableRecord
100
AcDbLinetypeTableRecord
  2
BYBLOCK
 70
     0
  3

 72
    65
 73
     0
 40
0.0
  0
LTYPE
  5
14
330
5
100
AcDbSymbolTableRecord
100
AcDbLinetypeTableRecord
  2
BYLAYER
 70
     0
  3

 72
    65
 73
     0
 40
0.0
  0
LTYPE
  5
15
330
5
100
AcDbSymbolTableRecord
100
AcDbLinetypeTableRecord
  2
CONTINUOUS
 70
     0
  3
Solid line
 72
    65
 73
     0
 40
0.0
  0
ENDTAB
  0
TABLE
  2
LAYER
  5
2
330
0
100
AcDbSymbolTable
 70
     1
  0
LAYER
  5
10
330
2
100
AcDbSymbolTableRecord
100
AcDbLayerTableRecord
  2
0
 70
     0
 62
     7
  6
CONTINUOUS
  0
ENDTAB
  0
TABLE
  2
STYLE
  5
3
330
0
100
AcDbSymbolTable
 70
     1
  0
STYLE
  5
11
330
3
100
AcDbSymbolTableRecord
100
AcDbTextStyleTableRecord
  2
STANDARD
 70
     0
 40
0.0
 41
1.0
 50
0.0
 71
     0
 42
0.2
  3
txt
  4

  0
ENDTAB
  0
TABLE
  2
VIEW
  5
6
330
0
100
AcDbSymbolTable
 70
     0
  0
ENDTAB
  0
TABLE
  2
UCS
  5
7
330
0
100
AcDbSymbolTable
 70
     0
  0
ENDTAB
  0
TABLE
  2
APPID
  5
9
330
0
100
AcDbSymbolTable
 70
     1
  0
APPID
  5
12
330
9
100
AcDbSymbolTableRecord
100
AcDbRegAppTableRecord
  2
ACAD
 70
     0
  0
ENDTAB
  0
TABLE
  2
DIMSTYLE
  5
A
330
0
100
AcDbSymbolTable
 70
     1
  0
DIMSTYLE
105
396
330
A
100
AcDbSymbolTableRecord
100
AcDbDimStyleTableRecord
  2
STANDARD
 70
     0
  3

  4

  5

  6

  7

 40
1.0
 41
0.18
 42
0.0625
 43
0.38
 44
0.18
 45
0.0
 46
0.0
 47
0.0
 48
0.0
140
0.18
141
0.09
142
0.0
143
25.4
144
1.0
145
0.0
146
1.0
147
0.09
 71
     0
 72
     0
 73
     1
 74
     1
 75
     0
 76
     0
 77
     0
 78
     0
170
     0
171
     2
172
     0
173
     0
174
     0
175
     0
176
     0
177
     0
178
     0
270
     2
271
     4
272
     4
273
     2
274
     2
340
11
275
     0
280
     0
281
     0
282
     0
283
     1
284
     0
285
     0
286
     0
287
     3
288
     0
  0
ENDTAB
  0
TABLE
  2
BLOCK_RECORD
  5
1
330
0
100
AcDbSymbolTable
 70
     0
  0
BLOCK_RECORD
  5
1E
102
{ACAD_XDICTIONARY
360
3C2
102
}
330
1
100
AcDbSymbolTableRecord
100
AcDbBlockTableRecord
  2
*MODEL_SPACE
  0
BLOCK_RECORD
  5
1A
102
{ACAD_XDICTIONARY
360
3C0
102
}
330
1
100
AcDbSymbolTableRecord
100
AcDbBlockTableRecord
  2
*PAPER_SPACE
  0
ENDTAB
  0
ENDSEC
  0
SECTION
  2
BLOCKS
  0
BLOCK
  5
1F
330
1E
100
AcDbEntity
  8
0
100
AcDbBlockBegin
  2
*MODEL_SPACE
 70
     0
 10
0.0
 20
0.0
 30
0.0
  3
*MODEL_SPACE
  1

  0
ENDBLK
  5
20
330
1E
100
AcDbEntity
  8
0
100
AcDbBlockEnd
  0
BLOCK
  5
1B
330
1A
100
AcDbEntity
 67
     1
  8
0
100
AcDbBlockBegin
  2
*PAPER_SPACE
 70
     0
 10
0.0
 20
0.0
 30
0.0
  3
*PAPER_SPACE
  1

  0
ENDBLK
  5
1C
330
1A
100
AcDbEntity
 67
     1
  8
0
100
AcDbBlockEnd
  0
ENDSEC
  0
SECTION
  2
ENTITIES
  0
LINE
  5
22
330
1E
100
AcDbEntity
  8
0
100
AcDbLine
 10
2.0
 20
300.0
 30
0.0
 11
2.0
 21
300.504
 31
0.0
  0
LINE
  5
23
330
1E
100
AcDbEntity
  8
0
100
AcDbLine
 10
2.0
 20
300.0
 30
0.0
 11
4.0
 21
300.0
 31
0.0
  0
LINE
  5
24
330
1E
100
AcDbEntity
  8
0
100
AcDbLine
 10
2.0
 20
300.504
 30
0.0
 11
2.0
 21
301.848
 31
0.0
  0
LINE
  5
25
330
1E
100
AcDbEntity
  8
0
100
AcDbLine
 10
2.0
 20
300.504
 30
0.0
 11
2.0
 21
300.0
 31
0.0
  0
LINE
  5
26
330
1E
100
AcDbEntity
  8
0
100
AcDbLine
 10
4.0
 20
300.0
 30
0.0
 11
4.0
 21
300.504
 31
0.0
  0
LINE
  5
27
330
1E
100
AcDbEntity
  8
0
100
AcDbLine
 10
4.0
 20
300.504
 30
0.0
 11
4.0
 21
301.848
 31
0.0
  0
LINE
  5
28
330
1E
100
AcDbEntity
  8
0
100
AcDbLine
 10
4.0
 20
300.504
 30
0.0
 11
4.0
 21
300.0
 31
0.0
  0
LINE
  5
29
330
1E
100
AcDbEntity
  8
0
100
AcDbLine
 10
2.0
 20
301.848
 30
0.0
 11
2.0
 21
304.0879999999999
 31
0.0
  0
LINE
  5
2A
330
1E
100
AcDbEntity
  8
0
100
AcDbLine
 10
2.0
 20
301.848
 30
0.0
 11
2.0
 21
300.504
 31
0.0
  0
LINE
  5
2B
330
1E
100
AcDbEntity
  8
0
100
AcDbLine
 10
0.9999999999999978
 20
302.0
 30
0.0
 11
2.0
 21
300.0
 31
0.0
  0
LINE
  5
2C
330
1E
100
AcDbEntity
  8
0
100
AcDbLine
 10
4.0
 20
301.848
 30
0.0
 11
4.0
 21
304.0879999999999
 31
0.0
  0
LINE
  5
2D
330
1E
100
AcDbEntity
  8
0
100
AcDbLine
 10
4.0
 20
301.848
 30
0.0
 11
4.0
 21
300.504
 31
0.0
  0
LINE
  5
2E
330
1E
100
AcDbEntity
  8
0
100
AcDbLine
 10
14.0
 20
302.0
 30
0.0
 11
14.0
 21
302.432
 31
0.0
  0
LINE
  5
2F
330
1E
100
AcDbEntity
  8
0
100
AcDbLine
 10
14.0
 20
302.432
 30
0.0
 11
14.0
 21
302.0
 31
0.0
  0
LINE
  5
30
330
1E
100
AcDbEntity
  8
0
100
AcDbLine
 10
14.0
 20
302.432
 30
0.0
 11
14.0
 21
303.584
 31
0.0
  0
LINE
  5
31
330
1E
100
AcDbEntity
  8
0
100
AcDbLine
 10
14.0
 20
303.584
 30
0.0
 11
14.0
 21
302.432
 31
0.0
  0
LINE
  5
32
330
1E
100
AcDbEntity
  8
0
100
AcDbLine
 10
14.0
 20
303.584
 30
0.0
 11
14.0
 21
305.504
 31
0.0
  0
LINE
  5
33
330
1E
100
AcDbEntity
  8
0
100
AcDbLine
 10
4.0
 20
302.0
 30
0.0
 11
14.0
 21
302.0
 31
0.0
  0
LINE
  5
34
330
1E
100
AcDbEntity
  8
0
100
AcDbLine
 10
14.0
 20
304.0
 30
0.0
 11
16.0
 21
304.0
 31
0.0
  0
LINE
  5
35
330
1E
100
AcDbEntity
  8
0
100
AcDbLine
 10
2.0
 20
304.0879999999999
 30
0.0
 11
2.0
 21
307.0559999999999
 31
0.0
  0
LINE
  5
36
330
1E
100
AcDbEntity
  8
0
100
AcDbLine
 10
2.0
 20
304.0879999999999
 30
0.0
 11
2.0
 21
301.848
 31
0.0
  0
LINE
  5
37
330
1E
100
AcDbEntity
  8
0
100
AcDbLine
 10
4.0
 20
304.0879999999999
 30
0.0
 11
4.0
 21
307.0559999999999
 31
0.0
  0
LINE
  5
38
330
1E
100
AcDbEntity
  8
0
100
AcDbLine
 10
4.0
 20
304.0879999999999
 30
0.0
 11
4.0
 21
301.848
 31
0.0
  0
LINE
  5
39
330
1E
100
AcDbEntity
  8
0
100
AcDbLine
 10
16.0
 20
304.36
 30
0.0
 11
16.0
 21
305.3199999999999
 31
0.0
  0
LINE
  5
3A
330
1E
100
AcDbEntity
  8
0
100
AcDbLine
 10
-0.0000000000000018
 20
307.0
 30
0.0
 11
0.9999999999999978
 21
302.0
 31
0.0
  0
LINE
  5
3B
330
1E
100
AcDbEntity
  8
0
100
AcDbLine
 10
-0.0000000000000018
 20
307.0
 30
0.0
 11
-0.0000000000000018
 21
307.252
 31
0.0
  0
LINE
  5
3C
330
1E
100
AcDbEntity
  8
0
100
AcDbLine
 10
2.0
 20
307.0559999999999
 30
0.0
 11
2.0
 21
310.416
 31
0.0
  0
LINE
  5
3D
330
1E
100
AcDbEntity
  8
0
100
AcDbLine
 10
2.0
 20
307.0559999999999
 30
0.0
 11
2.0
 21
304.0879999999999
 31
0.0
  0
LINE
  5
3E
330
1E
100
AcDbEntity
  8
0
100
AcDbLine
 10
4.0
 20
307.0559999999999
 30
0.0
 11
4.0
 21
310.416
 31
0.0
  0
LINE
  5
3F
330
1E
100
AcDbEntity
  8
0
100
AcDbLine
 10
4.0
 20
307.0559999999999
 30
0.0
 11
4.0
 21
304.0879999999999
 31
0.0
  0
LINE
  5
40
330
1E
100
AcDbEntity
  8
0
100
AcDbLine
 10
14.0
 20
305.504
 30
0.0
 11
14.0
 21
303.584
 31
0.0
  0
LINE
  5
41
330
1E
100
AcDbEntity
  8
0
100
AcDbLine
 10
14.0
 20
305.504
 30
0.0
 11
14.0
 21
308.048
 31
0.0
  0
LINE
  5
42
330
1E
100
AcDbEntity
  8
0
100
AcDbLine
 10
16.0
 20
305.3199999999999
 30
0.0
 11
16.0
 21
306.92
 31
0.0
  0
LINE
  5
43
330
1E
100
AcDbEntity
  8
0
100
AcDbLine
 10
16.0
 20
306.92
 30
0.0
 11
16.0
 21
309.04
 31
0.0
  0
LINE
  5
44
330
1E
100
AcDbEntity
  8
0
100
AcDbLine
 10
-0.0000000000000018
 20
307.252
 30
0.0
 11
-0.0000000000000018
 21
307.0
 31
0.0
  0
LINE
  5
45
330
1E
100
AcDbEntity
  8
0
100
AcDbLine
 10
-0.0000000000000018
 20
307.252
 30
0.0
 11
-0.0000000000000018
 21
307.924
 31
0.0
  0
LINE
  5
46
330
1E
100
AcDbEntity
  8
0
100
AcDbLine
 10
-0.0000000000000018
 20
307.924
 30
0.0
 11
-0.0000000000000018
 21
307.252
 31
0.0
  0
LINE
  5
47
330
1E
100
AcDbEntity
  8
0
100
AcDbLine
 10
-0.0000000000000018
 20
307.924
 30
0.0
 11
-0.0000000000000018
 21
309.044
 31
0.0
  0
LINE
  5
48
330
1E
100
AcDbEntity
  8
0
100
AcDbLine
 10
14.0
 20
308.048
 30
0.0
 11
14.0
 21
305.504
 31
0.0
  0
LINE
  5
49
330
1E
100
AcDbEntity
  8
0
100
AcDbLine
 10
14.0
 20
308.048
 30
0.0
 11
14.0
 21
310.928
 31
0.0
  0
LINE
  5
4A
330
1E
100
AcDbEntity
  8
0
100
AcDbLine
 10
-0.0000000000000018
 20
309.044
 30
0.0
 11
-0.0000000000000018
 21
307.924
 31
0.0
  0
LINE
  5
4B
330
1E
100
AcDbEntity
  8
0
100
AcDbLine
 10
-0.0000000000000018
 20
309.044
 30
0.0
 11
-0.0000000000000018
 21
310.528
 31
0.0
  0
LINE
  5
4C
330
1E
100
AcDbEntity
  8
0
100
AcDbLine
 10
-0.0000000000000018
 20
310.528
 30
0.0
 11
-0.0000000000000018
 21
309.044
 31
0.0
  0
LINE
  5
4D
330
1E
100
AcDbEntity
  8
0
100
AcDbLine
 10
-0.0000000000000018
 20
310.528
 30
0.0
 11
-0.0000000000000018
 21
312.2079999999999
 31
0.0
  0
LINE
  5
4E
330
1E
100
AcDbEntity
  8
0
100
AcDbLine
 10
2.0
 20
310.416
 30
0.0
 11
2.0
 21
314.0
 31
0.0
  0
LINE
  5
4F
330
1E
100
AcDbEntity
  8
0
100
AcDbLine
 10
2.0
 20
310.416
 30
0.0
 11
2.0
 21
307.0559999999999
 31
0.0
  0
LINE
  5
50
330
1E
100
AcDbEntity
  8
0
100
AcDbLine
 10
4.0
 20
310.416
 30
0.0
 11
4.0
 21
314.0
 31
0.0
  0
LINE
  5
51
330
1E
100
AcDbEntity
  8
0
100
AcDbLine
 10
4.0
 20
310.416
 30
0.0
 11
4.0
 21
307.0559999999999
 31
0.0
  0
LINE
  5
52
330
1E
100
AcDbEntity
  8
0
100
AcDbLine
 10
-0.0000000000000018
 20
312.2079999999999
 30
0.0
 11
-0.0000000000000018
 21
310.528
 31
0.0
  0
LINE
  5
53
330
1E
100
AcDbEntity
  8
0
100
AcDbLine
 10
-0.0000000000000018
 20
312.2079999999999
 30
0.0
 11
-0.0000000000000018
 21
314.0
 31
0.0
  0
LINE
  5
54
330
1E
100
AcDbEntity
  8
0
100
AcDbLine
 10
-0.0000000000000018
 20
314.0
 30
0.0
 11
-0.0000000000000018
 21
312.2079999999999
 31
0.0
  0
LINE
  5
55
330
1E
100
AcDbEntity
  8
0
100
AcDbLine
 10
-0.0000000000000018
 20
314.0
 30
0.0
 11
-0.0000000000000018
 21
315.792
 31
0.0
  0
LINE
  5
56
330
1E
100
AcDbEntity
  8
0
100
AcDbLine
 10
2.0
 20
314.0
 30
0.0
 11
2.0
 21
317.5839999999999
 31
0.0
  0
LINE
  5
57
330
1E
100
AcDbEntity
  8
0
100
AcDbLine
 10
2.0
 20
314.0
 30
0.0
 11
2.0
 21
310.416
 31
0.0
  0
LINE
  5
58
330
1E
100
AcDbEntity
  8
0
100
AcDbLine
 10
4.0
 20
314.0
 30
0.0
 11
4.0
 21
317.5839999999999
 31
0.0
  0
LINE
  5
59
330
1E
100
AcDbEntity
  8
0
100
AcDbLine
 10
4.0
 20
314.0
 30
0.0
 11
4.0
 21
310.416
 31
0.0
  0
LINE
  5
5A
330
1E
100
AcDbEntity
  8
0
100
AcDbLine
 10
14.0
 20
310.928
 30
0.0
 11
14.0
 21
308.048
 31
0.0
  0
LINE
  5
5B
330
1E
100
AcDbEntity
  8
0
100
AcDbLine
 10
14.0
 20
310.928
 30
0.0
 11
14.0
 21
314.0
 31
0.0
  0
LINE
  5
5C
330
1E
100
AcDbEntity
  8
0
100
AcDbLine
 10
14.0
 20
314.0
 30
0.0
 11
14.0
 21
310.928
 31
0.0
  0
LINE
  5
5D
330
1E
100
AcDbEntity
  8
0
100
AcDbLine
 10
14.0
 20
314.0
 30
0.0
 11
14.0
 21
317.072
 31
0.0
  0
LINE
  5
5E
330
1E
100
AcDbEntity
  8
0
100
AcDbLine
 10
16.0
 20
309.04
 30
0.0
 11
16.0
 21
311.4399999999999
 31
0.0
  0
LINE
  5
5F
330
1E
100
AcDbEntity
  8
0
100
AcDbLine
 10
16.0
 20
311.4399999999999
 30
0.0
 11
16.0
 21
314.0
 31
0.0
  0
LINE
  5
60
330
1E
100
AcDbEntity
  8
0
100
AcDbLine
 10
-0.0000000000000018
 20
315.792
 30
0.0
 11
-0.0000000000000018
 21
314.0
 31
0.0
  0
LINE
  5
61
330
1E
100
AcDbEntity
  8
0
100
AcDbLine
 10
-0.0000000000000018
 20
315.792
 30
0.0
 11
-0.0000000000000018
 21
317.4719999999999
 31
0.0
  0
LINE
  5
62
330
1E
100
AcDbEntity
  8
0
100
AcDbLine
 10
-0.0000000000000018
 20
317.4719999999999
 30
0.0
 11
-0.0000000000000018
 21
315.792
 31
0.0
  0
LINE
  5
63
330
1E
100
AcDbEntity
  8
0
100
AcDbLine
 10
-0.0000000000000018
 20
317.4719999999999
 30
0.0
 11
-0.0000000000000018
 21
318.9559999999999
 31
0.0
  0
LINE
  5
64
330
1E
100
AcDbEntity
  8
0
100
AcDbLine
 10
2.0
 20
317.5839999999999
 30
0.0
 11
2.0
 21
320.944
 31
0.0
  0
LINE
  5
65
330
1E
100
AcDbEntity
  8
0
100
AcDbLine
 10
2.0
 20
317.5839999999999
 30
0.0
 11
2.0
 21
314.0
 31
0.0
  0
LINE
  5
66
330
1E
100
AcDbEntity
  8
0
100
AcDbLine
 10
-0.0000000000000018
 20
320.7479999999999
 30
0.0
 11
-0.0000000000000018
 21
320.0759999999999
 31
0.0
  0
LINE
  5
67
330
1E
100
AcDbEntity
  8
0
100
AcDbLine
 10
-0.0000000000000018
 20
320.7479999999999
 30
0.0
 11
-0.0000000000000018
 21
321.0
 31
0.0
  0
LINE
  5
68
330
1E
100
AcDbEntity
  8
0
100
AcDbLine
 10
-0.0000000000000018
 20
320.0759999999999
 30
0.0
 11
-0.0000000000000018
 21
318.9559999999999
 31
0.0
  0
LINE
  5
69
330
1E
100
AcDbEntity
  8
0
100
AcDbLine
 10
-0.0000000000000018
 20
320.0759999999999
 30
0.0
 11
-0.0000000000000018
 21
320.7479999999999
 31
0.0
  0
LINE
  5
6A
330
1E
100
AcDbEntity
  8
0
100
AcDbLine
 10
-0.0000000000000018
 20
318.9559999999999
 30
0.0
 11
-0.0000000000000018
 21
317.4719999999999
 31
0.0
  0
LINE
  5
6B
330
1E
100
AcDbEntity
  8
0
100
AcDbLine
 10
-0.0000000000000018
 20
318.9559999999999
 30
0.0
 11
-0.0000000000000018
 21
320.0759999999999
 31
0.0
  0
LINE
  5
6C
330
1E
100
AcDbEntity
  8
0
100
AcDbLine
 10
2.0
 20
320.944
 30
0.0
 11
2.0
 21
323.912
 31
0.0
  0
LINE
  5
6D
330
1E
100
AcDbEntity
  8
0
100
AcDbLine
 10
2.0
 20
320.944
 30
0.0
 11
2.0
 21
317.5839999999999
 31
0.0
  0
LINE
  5
6E
330
1E
100
AcDbEntity
  8
0
100
AcDbLine
 10
4.0
 20
320.944
 30
0.0
 11
4.0
 21
323.912
 31
0.0
  0
LINE
  5
6F
330
1E
100
AcDbEntity
  8
0
100
AcDbLine
 10
4.0
 20
320.944
 30
0.0
 11
4.0
 21
317.5839999999999
 31
0.0
  0
LINE
  5
70
330
1E
100
AcDbEntity
  8
0
100
AcDbLine
 10
4.0
 20
317.5839999999999
 30
0.0
 11
4.0
 21
320.944
 31
0.0
  0
LINE
  5
71
330
1E
100
AcDbEntity
  8
0
100
AcDbLine
 10
4.0
 20
317.5839999999999
 30
0.0
 11
4.0
 21
314.0
 31
0.0
  0
LINE
  5
72
330
1E
100
AcDbEntity
  8
0
100
AcDbLine
 10
14.0
 20
319.952
 30
0.0
 11
14.0
 21
317.072
 31
0.0
  0
LINE
  5
73
330
1E
100
AcDbEntity
  8
0
100
AcDbLine
 10
14.0
 20
319.952
 30
0.0
 11
14.0
 21
322.4959999999999
 31
0.0
  0
LINE
  5
74
330
1E
100
AcDbEntity
  8
0
100
AcDbLine
 10
14.0
 20
317.072
 30
0.0
 11
14.0
 21
314.0
 31
0.0
  0
LINE
  5
75
330
1E
100
AcDbEntity
  8
0
100
AcDbLine
 10
14.0
 20
317.072
 30
0.0
 11
14.0
 21
319.952
 31
0.0
  0
LINE
  5
76
330
1E
100
AcDbEntity
  8
0
100
AcDbLine
 10
16.0
 20
318.9599999999999
 30
0.0
 11
16.0
 21
321.0799999999999
 31
0.0
  0
LINE
  5
77
330
1E
100
AcDbEntity
  8
0
100
AcDbLine
 10
16.0
 20
316.5599999999999
 30
0.0
 11
16.0
 21
318.9599999999999
 31
0.0
  0
LINE
  5
78
330
1E
100
AcDbEntity
  8
0
100
AcDbLine
 10
16.0
 20
317.5839999999999
 30
0.0
 11
16.0
 21
314.0
 31
0.0
  0
LINE
  5
79
330
1E
100
AcDbEntity
  8
0
100
AcDbLine
 10
16.0
 20
317.5839999999999
 30
0.0
 11
16.0
 21
320.944
 31
0.0
  0
LINE
  5
7A
330
1E
100
AcDbEntity
  8
0
100
AcDbLine
 10
-0.0000000000000018
 20
321.0
 30
0.0
 11
0.9999999999999978
 21
326.0
 31
0.0
  0
LINE
  5
7B
330
1E
100
AcDbEntity
  8
0
100
AcDbLine
 10
-0.0000000000000018
 20
321.0
 30
0.0
 11
-0.0000000000000018
 21
320.7479999999999
 31
0.0
  0
LINE
  5
7C
330
1E
100
AcDbEntity
  8
0
100
AcDbLine
 10
14.0
 20
322.4959999999999
 30
0.0
 11
14.0
 21
319.952
 31
0.0
  0
LINE
  5
7D
330
1E
100
AcDbEntity
  8
0
100
AcDbLine
 10
14.0
 20
322.4959999999999
 30
0.0
 11
14.0
 21
324.4159999999999
 31
0.0
  0
LINE
  5
7E
330
1E
100
AcDbEntity
  8
0
100
AcDbLine
 10
2.0
 20
323.912
 30
0.0
 11
2.0
 21
326.1519999999999
 31
0.0
  0
LINE
  5
7F
330
1E
100
AcDbEntity
  8
0
100
AcDbLine
 10
2.0
 20
323.912
 30
0.0
 11
2.0
 21
320.944
 31
0.0
  0
LINE
  5
80
330
1E
100
AcDbEntity
  8
0
100
AcDbLine
 10
4.0
 20
323.912
 30
0.0
 11
4.0
 21
326.1519999999999
 31
0.0
  0
LINE
  5
81
330
1E
100
AcDbEntity
  8
0
100
AcDbLine
 10
4.0
 20
323.912
 30
0.0
 11
4.0
 21
320.944
 31
0.0
  0
LINE
  5
82
330
1E
100
AcDbEntity
  8
0
100
AcDbLine
 10
14.0
 20
324.0
 30
0.0
 11
16.0
 21
324.0
 31
0.0
  0
LINE
  5
83
330
1E
100
AcDbEntity
  8
0
100
AcDbLine
 10
16.0
 20
323.6399999999999
 30
0.0
 11
16.0
 21
324.0
 31
0.0
  0
LINE
  5
84
330
1E
100
AcDbEntity
  8
0
100
AcDbLine
 10
16.0
 20
322.68
 30
0.0
 11
16.0
 21
323.6399999999999
 31
0.0
  0
LINE
  5
85
330
1E
100
AcDbEntity
  8
0
100
AcDbLine
 10
16.0
 20
321.0799999999999
 30
0.0
 11
16.0
 21
322.68
 31
0.0
  0
LINE
  5
86
330
1E
100
AcDbEntity
  8
0
100
AcDbLine
 10
16.0
 20
320.944
 30
0.0
 11
16.0
 21
317.5839999999999
 31
0.0
  0
LINE
  5
87
330
1E
100
AcDbEntity
  8
0
100
AcDbLine
 10
16.0
 20
320.944
 30
0.0
 11
16.0
 21
323.912
 31
0.0
  0
LINE
  5
88
330
1E
100
AcDbEntity
  8
0
100
AcDbLine
 10
16.0
 20
323.912
 30
0.0
 11
16.0
 21
320.944
 31
0.0
  0
LINE
  5
89
330
1E
100
AcDbEntity
  8
0
100
AcDbLine
 10
16.0
 20
323.912
 30
0.0
 11
16.0
 21
326.1519999999999
 31
0.0
  0
LINE
  5
8A
330
1E
100
AcDbEntity
  8
0
100
AcDbLine
 10
16.0
 20
314.0
 30
0.0
 11
16.0
 21
310.416
 31
0.0
  0
LINE
  5
8B
330
1E
100
AcDbEntity
  8
0
100
AcDbLine
 10
16.0
 20
314.0
 30
0.0
 11
16.0
 21
317.5839999999999
 31
0.0
  0
LINE
  5
8C
330
1E
100
AcDbEntity
  8
0
100
AcDbLine
 10
16.0
 20
314.0
 30
0.0
 11
16.0
 21
316.5599999999999
 31
0.0
  0
LINE
  5
8D
330
1E
100
AcDbEntity
  8
0
100
AcDbLine
 10
16.0
 20
310.416
 30
0.0
 11
16.0
 21
307.0559999999999
 31
0.0
  0
LINE
  5
8E
330
1E
100
AcDbEntity
  8
0
100
AcDbLine
 10
16.0
 20
310.416
 30
0.0
 11
16.0
 21
314.0
 31
0.0
  0
LINE
  5
8F
330
1E
100
AcDbEntity
  8
0
100
AcDbLine
 10
16.0
 20
307.0559999999999
 30
0.0
 11
16.0
 21
304.0879999999999
 31
0.0
  0
LINE
  5
90
330
1E
100
AcDbEntity
  8
0
100
AcDbLine
 10
16.0
 20
307.0559999999999
 30
0.0
 11
16.0
 21
310.416
 31
0.0
  0
LINE
  5
91
330
1E
100
AcDbEntity
  8
0
100
AcDbLine
 10
16.0
 20
304.0879999999999
 30
0.0
 11
16.0
 21
301.848
 31
0.0
  0
LINE
  5
92
330
1E
100
AcDbEntity
  8
0
100
AcDbLine
 10
16.0
 20
304.0879999999999
 30
0.0
 11
16.0
 21
307.0559999999999
 31
0.0
  0
LINE
  5
93
330
1E
100
AcDbEntity
  8
0
100
AcDbLine
 10
16.0
 20
304.0
 30
0.0
 11
16.0
 21
301.848
 31
0.0
  0
LINE
  5
94
330
1E
100
AcDbEntity
  8
0
100
AcDbLine
 10
16.0
 20
304.0
 30
0.0
 11
16.0
 21
304.36
 31
0.0
  0
LINE
  5
95
330
1E
100
AcDbEntity
  8
0
100
AcDbLine
 10
16.0
 20
301.848
 30
0.0
 11
16.0
 21
304.0
 31
0.0
  0
LINE
  5
96
330
1E
100
AcDbEntity
  8
0
100
AcDbLine
 10
16.0
 20
301.848
 30
0.0
 11
16.0
 21
300.504
 31
0.0
  0
LINE
  5
97
330
1E
100
AcDbEntity
  8
0
100
AcDbLine
 10
16.0
 20
301.848
 30
0.0
 11
16.0
 21
304.0879999999999
 31
0.0
  0
LINE
  5
98
330
1E
100
AcDbEntity
  8
0
100
AcDbLine
 10
16.0
 20
300.504
 30
0.0
 11
16.0
 21
301.848
 31
0.0
  0
LINE
  5
99
330
1E
100
AcDbEntity
  8
0
100
AcDbLine
 10
16.0
 20
300.504
 30
0.0
 11
16.0
 21
300.0
 31
0.0
  0
LINE
  5
9A
330
1E
100
AcDbEntity
  8
0
100
AcDbLine
 10
16.0
 20
300.0
 30
0.0
 11
16.0
 21
300.504
 31
0.0
  0
LINE
  5
9B
330
1E
100
AcDbEntity
  8
0
100
AcDbLine
 10
16.0
 20
300.0
 30
0.0
 11
29.0362568181817
 21
300.0
 31
0.0
  0
LINE
  5
9C
330
1E
100
AcDbEntity
  8
0
100
AcDbLine
 10
0.9999999999999978
 20
326.0
 30
0.0
 11
2.0
 21
328.0
 31
0.0
  0
LINE
  5
9D
330
1E
100
AcDbEntity
  8
0
100
AcDbLine
 10
2.0
 20
327.496
 30
0.0
 11
2.0
 21
328.0
 31
0.0
  0
LINE
  5
9E
330
1E
100
AcDbEntity
  8
0
100
AcDbLine
 10
2.0
 20
327.496
 30
0.0
 11
2.0
 21
326.1519999999999
 31
0.0
  0
LINE
  5
9F
330
1E
100
AcDbEntity
  8
0
100
AcDbLine
 10
2.0
 20
326.1519999999999
 30
0.0
 11
2.0
 21
327.496
 31
0.0
  0
LINE
  5
A0
330
1E
100
AcDbEntity
  8
0
100
AcDbLine
 10
2.0
 20
326.1519999999999
 30
0.0
 11
2.0
 21
323.912
 31
0.0
  0
LINE
  5
A1
330
1E
100
AcDbEntity
  8
0
100
AcDbLine
 10
4.0
 20
327.496
 30
0.0
 11
4.0
 21
328.0
 31
0.0
  0
LINE
  5
A2
330
1E
100
AcDbEntity
  8
0
100
AcDbLine
 10
4.0
 20
327.496
 30
0.0
 11
4.0
 21
326.1519999999999
 31
0.0
  0
LINE
  5
A3
330
1E
100
AcDbEntity
  8
0
100
AcDbLine
 10
4.0
 20
326.1519999999999
 30
0.0
 11
4.0
 21
327.496
 31
0.0
  0
LINE
  5
A4
330
1E
100
AcDbEntity
  8
0
100
AcDbLine
 10
4.0
 20
326.1519999999999
 30
0.0
 11
4.0
 21
323.912
 31
0.0
  0
LINE
  5
A5
330
1E
100
AcDbEntity
  8
0
100
AcDbLine
 10
4.0
 20
326.0
 30
0.0
 11
14.0
 21
326.0
 31
0.0
  0
LINE
  5
A6
330
1E
100
AcDbEntity
  8
0
100
AcDbLine
 10
14.0
 20
326.0
 30
0.0
 11
14.0
 21
325.5679999999999
 31
0.0
  0
LINE
  5
A7
330
1E
100
AcDbEntity
  8
0
100
AcDbLine
 10
14.0
 20
325.5679999999999
 30
0.0
 11
14.0
 21
324.4159999999999
 31
0.0
  0
LINE
  5
A8
330
1E
100
AcDbEntity
  8
0
100
AcDbLine
 10
14.0
 20
325.5679999999999
 30
0.0
 11
14.0
 21
326.0
 31
0.0
  0
LINE
  5
A9
330
1E
100
AcDbEntity
  8
0
100
AcDbLine
 10
14.0
 20
324.4159999999999
 30
0.0
 11
14.0
 21
322.4959999999999
 31
0.0
  0
LINE
  5
AA
330
1E
100
AcDbEntity
  8
0
100
AcDbLine
 10
14.0
 20
324.4159999999999
 30
0.0
 11
14.0
 21
325.5679999999999
 31
0.0
  0
LINE
  5
AB
330
1E
100
AcDbEntity
  8
0
100
AcDbLine
 10
16.0
 20
324.0
 30
0.0
 11
16.0
 21
326.1519999999999
 31
0.0
  0
LINE
  5
AC
330
1E
100
AcDbEntity
  8
0
100
AcDbLine
 10
16.0
 20
326.1519999999999
 30
0.0
 11
16.0
 21
327.496
 31
0.0
  0
LINE
  5
AD
330
1E
100
AcDbEntity
  8
0
100
AcDbLine
 10
16.0
 20
326.1519999999999
 30
0.0
 11
16.0
 21
324.0
 31
0.0
  0
LINE
  5
AE
330
1E
100
AcDbEntity
  8
0
100
AcDbLine
 10
16.0
 20
326.1519999999999
 30
0.0
 11
16.0
 21
323.912
 31
0.0
  0
LINE
  5
AF
330
1E
100
AcDbEntity
  8
0
100
AcDbLine
 10
2.0
 20
328.0
 30
0.0
 11
4.0
 21
328.0
 31
0.0
  0
LINE
  5
B0
330
1E
100
AcDbEntity
  8
0
100
AcDbLine
 10
2.0
 20
328.0
 30
0.0
 11
2.0
 21
327.496
 31
0.0
  0
LINE
  5
B1
330
1E
100
AcDbEntity
  8
0
100
AcDbLine
 10
4.0
 20
328.0
 30
0.0
 11
4.0
 21
327.496
 31
0.0
  0
LINE
  5
B2
330
1E
100
AcDbEntity
  8
0
100
AcDbLine
 10
16.0
 20
327.496
 30
0.0
 11
16.0
 21
328.0
 31
0.0
  0
LINE
  5
B3
330
1E
100
AcDbEntity
  8
0
100
AcDbLine
 10
16.0
 20
327.496
 30
0.0
 11
16.0
 21
326.1519999999999
 31
0.0
  0
LINE
  5
B4
330
1E
100
AcDbEntity
  8
0
100
AcDbLine
 10
20.0
 20
14.0
 30
0.0
 11
20.5
 21
10.5
 31
0.0
  0
LINE
  5
B5
330
1E
100
AcDbEntity
  8
0
100
AcDbLine
 10
20.0
 20
14.0
 30
0.0
 11
20.0
 21
300.0
 31
0.0
  0
LINE
  5
B6
330
1E
100
AcDbEntity
  8
0
100
AcDbLine
 10
20.0
 20
10.4
 30
0.0
 11
21.4
 21
7.0
 31
0.0
  0
LINE
  5
B7
330
1E
100
AcDbEntity
  8
0
100
AcDbLine
 10
20.0
 20
300.0
 30
0.0
 11
20.0
 21
14.0
 31
0.0
  0
LINE
  5
B8
330
1E
100
AcDbEntity
  8
0
100
AcDbLine
 10
19.5
 20
300.0
 30
0.0
 11
19.5
 21
14.0
 31
0.0
  0
LINE
  5
B9
330
1E
100
AcDbEntity
  8
0
100
AcDbLine
 10
19.5
 20
14.0
 30
0.0
 11
20.0
 21
10.4
 31
0.0
  0
LINE
  5
BA
330
1E
100
AcDbEntity
  8
0
100
AcDbLine
 10
19.5
 20
14.0
 30
0.0
 11
19.5
 21
300.0
 31
0.0
  0
LINE
  5
BB
330
1E
100
AcDbEntity
  8
0
100
AcDbLine
 10
26.5
 20
1.9
 30
0.0
 11
29.9
 21
0.500000000000001
 31
0.0
  0
LINE
  5
BC
330
1E
100
AcDbEntity
  8
0
100
AcDbLine
 10
23.6
 20
4.099999999999999
 30
0.0
 11
26.5
 21
1.9
 31
0.0
  0
LINE
  5
BD
330
1E
100
AcDbEntity
  8
0
100
AcDbLine
 10
24.0
 20
4.5
 30
0.0
 11
26.8
 21
2.299999999999999
 31
0.0
  0
LINE
  5
BE
330
1E
100
AcDbEntity
  8
0
100
AcDbLine
 10
23.6
 20
4.099999999999999
 30
0.0
 11
26.5
 21
1.9
 31
0.0
  0
LINE
  5
BF
330
1E
100
AcDbEntity
  8
0
100
AcDbLine
 10
26.5
 20
1.9
 30
0.0
 11
29.9
 21
0.500000000000001
 31
0.0
  0
LINE
  5
C0
330
1E
100
AcDbEntity
  8
0
100
AcDbLine
 10
26.8
 20
2.299999999999999
 30
0.0
 11
30.0
 21
1.0
 31
0.0
  0
LINE
  5
C1
330
1E
100
AcDbEntity
  8
0
100
AcDbLine
 10
26.8
 20
2.299999999999999
 30
0.0
 11
30.0
 21
1.0
 31
0.0
  0
LINE
  5
C2
330
1E
100
AcDbEntity
  8
0
100
AcDbLine
 10
20.5
 20
10.5
 30
0.0
 11
21.8
 21
7.299999999999999
 31
0.0
  0
LINE
  5
C3
330
1E
100
AcDbEntity
  8
0
100
AcDbLine
 10
21.8
 20
7.299999999999999
 30
0.0
 11
24.0
 21
4.5
 31
0.0
  0
LINE
  5
C4
330
1E
100
AcDbEntity
  8
0
100
AcDbLine
 10
21.4
 20
7.0
 30
0.0
 11
23.6
 21
4.099999999999999
 31
0.0
  0
LINE
  5
C5
330
1E
100
AcDbEntity
  8
0
100
AcDbLine
 10
21.4
 20
7.0
 30
0.0
 11
23.6
 21
4.099999999999999
 31
0.0
  0
LINE
  5
C6
330
1E
100
AcDbEntity
  8
0
100
AcDbLine
 10
20.0
 20
10.4
 30
0.0
 11
21.4
 21
7.0
 31
0.0
  0
LINE
  5
C7
330
1E
100
AcDbEntity
  8
0
100
AcDbLine
 10
29.0362568181817
 20
300.0
 30
0.0
 11
29.4201
 21
299.791
 31
0.0
  0
LINE
  5
C8
330
1E
100
AcDbEntity
  8
0
100
AcDbLine
 10
33.5
 20
0.500000000000001
 30
0.0
 11
37.0
 21
1.0
 31
0.0
  0
LINE
  5
C9
330
1E
100
AcDbEntity
  8
0
100
AcDbLine
 10
33.5
 20
0.0000000000000005
 30
0.0
 11
37.1
 21
0.500000000000001
 31
0.0
  0
LINE
  5
CA
330
1E
100
AcDbEntity
  8
0
100
AcDbLine
 10
33.5
 20
0.0000000000000005
 30
0.0
 11
37.1
 21
0.500000000000001
 31
0.0
  0
LINE
  5
CB
330
1E
100
AcDbEntity
  8
0
100
AcDbLine
 10
30.0
 20
1.0
 30
0.0
 11
33.5
 21
0.500000000000001
 31
0.0
  0
LINE
  5
CC
330
1E
100
AcDbEntity
  8
0
100
AcDbLine
 10
29.9
 20
0.500000000000001
 30
0.0
 11
33.5
 21
0.0000000000000005
 31
0.0
  0
LINE
  5
CD
330
1E
100
AcDbEntity
  8
0
100
AcDbLine
 10
29.9
 20
0.500000000000001
 30
0.0
 11
33.5
 21
0.0000000000000005
 31
0.0
  0
LINE
  5
CE
330
1E
100
AcDbEntity
  8
0
100
AcDbLine
 10
33.5
 20
298.0
 30
0.0
 11
34.36719999999999
 21
298.112
 31
0.0
  0
LINE
  5
CF
330
1E
100
AcDbEntity
  8
0
100
AcDbLine
 10
31.6461
 20
298.612
 30
0.0
 11
32.6328
 21
298.112
 31
0.0
  0
LINE
  5
D0
330
1E
100
AcDbEntity
  8
0
100
AcDbLine
 10
32.6328
 20
298.112
 30
0.0
 11
33.5
 21
298.0
 31
0.0
  0
LINE
  5
D1
330
1E
100
AcDbEntity
  8
0
100
AcDbLine
 10
37.0
 20
1.0
 30
0.0
 11
40.2
 21
2.299999999999999
 31
0.0
  0
LINE
  5
D2
330
1E
100
AcDbEntity
  8
0
100
AcDbLine
 10
37.0
 20
1.0
 30
0.0
 11
40.2
 21
2.299999999999999
 31
0.0
  0
LINE
  5
D3
330
1E
100
AcDbEntity
  8
0
100
AcDbLine
 10
35.3539
 20
298.612
 30
0.0
 11
37.5799
 21
299.791
 31
0.0
  0
LINE
  5
D4
330
1E
100
AcDbEntity
  8
0
100
AcDbLine
 10
35.3539
 20
298.612
 30
0.0
 11
37.5799
 21
299.791
 31
0.0
  0
LINE
  5
D7
330
1E
100
AcDbEntity
  8
0
100
AcDbLine
 10
37.5799
 20
299.791
 30
0.0
 11
41.13539999999999
 21
301.727
 31
0.0
  0
LINE
  5
D8
330
1E
100
AcDbEntity
  8
0
100
AcDbLine
 10
37.5799
 20
299.791
 30
0.0
 11
37.9637323863637
 21
300.0
 31
0.0
  0
LINE
  5
DF
330
1E
100
AcDbEntity
  8
0
100
AcDbLine
 10
29.4201
 20
299.791
 30
0.0
 11
31.6461
 21
298.612
 31
0.0
  0
LINE
  5
E2
330
1E
100
AcDbEntity
  8
0
100
AcDbLine
 10
29.4201
 20
299.791
 30
0.0
 11
31.6461
 21
298.612
 31
0.0
  0
LINE
  5
E3
330
1E
100
AcDbEntity
  8
0
100
AcDbLine
 10
19.78559999999999
 20
305.0359999999999
 30
0.0
 11
22.2895
 21
303.6729999999999
 31
0.0
  0
LINE
  5
E5
330
1E
100
AcDbEntity
  8
0
100
AcDbLine
 10
18.5
 20
305.98
 30
0.0
 11
18.5
 21
306.939
 31
0.0
  0
LINE
  5
E6
330
1E
100
AcDbEntity
  8
0
100
AcDbLine
 10
18.5
 20
305.98
 30
0.0
 11
18.886
 21
305.525
 31
0.0
  0
LINE
  5
E7
330
1E
100
AcDbEntity
  8
0
100
AcDbLine
 10
18.5
 20
306.939
 30
0.0
 11
18.5
 21
310.3349999999999
 31
0.0
  0
LINE
  5
E8
330
1E
100
AcDbEntity
  8
0
100
AcDbLine
 10
18.5
 20
306.939
 30
0.0
 11
18.5
 21
305.98
 31
0.0
  0
LINE
  5
EC
330
1E
100
AcDbEntity
  8
0
100
AcDbLine
 10
18.5
 20
310.3349999999999
 30
0.0
 11
18.5
 21
314.0
 31
0.0
  0
LINE
  5
ED
330
1E
100
AcDbEntity
  8
0
100
AcDbLine
 10
18.5
 20
310.3349999999999
 30
0.0
 11
18.5
 21
306.939
 31
0.0
  0
LINE
  5
EE
330
1E
100
AcDbEntity
  8
0
100
AcDbLine
 10
18.886
 20
305.525
 30
0.0
 11
19.78559999999999
 21
305.0359999999999
 31
0.0
  0
LINE
  5
F0
330
1E
100
AcDbEntity
  8
0
100
AcDbLine
 10
25.8645
 20
301.727
 30
0.0
 11
29.4201
 21
299.791
 31
0.0
  0
LINE
  5
F3
330
1E
100
AcDbEntity
  8
0
100
AcDbLine
 10
36.5444
 20
302.6949999999999
 30
0.0
 11
39.4612
 21
303.8699999999999
 31
0.0
  0
LINE
  5
F4
330
1E
100
AcDbEntity
  8
0
100
AcDbLine
 10
33.55939999999999
 20
302.293
 30
0.0
 11
36.5444
 21
302.6949999999999
 31
0.0
  0
LINE
  5
F9
330
1E
100
AcDbEntity
  8
0
100
AcDbLine
 10
22.1064
 20
311.1329999999999
 30
0.0
 11
23.1304
 21
308.475
 31
0.0
  0
LINE
  5
FC
330
1E
100
AcDbEntity
  8
0
100
AcDbLine
 10
26.7769
 20
307.2769999999999
 30
0.0
 11
28.75
 21
305.8149999999999
 31
0.0
  0
LINE
  5
FD
330
1E
100
AcDbEntity
  8
0
100
AcDbLine
 10
26.066
 20
306.5659999999999
 30
0.0
 11
28.292
 21
304.8859999999999
 31
0.0
  0
LINE
  5
FE
330
1E
100
AcDbEntity
  8
0
100
AcDbLine
 10
24.9952
 20
305.817
 30
0.0
 11
27.6017
 21
303.839
 31
0.0
  0
LINE
  5
FF
330
1E
100
AcDbEntity
  8
0
100
AcDbLine
 10
36.188
 20
303.878
 30
0.0
 11
38.708
 21
304.8859999999999
 31
0.0
  0
LINE
  5
100
330
1E
100
AcDbEntity
  8
0
100
AcDbLine
 10
33.5
 20
303.5
 30
0.0
 11
36.188
 21
303.878
 31
0.0
  0
LINE
  5
103
330
1E
100
AcDbEntity
  8
0
100
AcDbLine
 10
31.01539999999999
 20
304.865
 30
0.0
 11
33.5
 21
304.4999999999999
 31
0.0
  0
LINE
  5
10C
330
1E
100
AcDbEntity
  8
0
100
AcDbLine
 10
28.75
 20
305.8149999999999
 30
0.0
 11
31.01539999999999
 21
304.865
 31
0.0
  0
LINE
  5
115
330
1E
100
AcDbEntity
  8
0
100
AcDbLine
 10
35.9846
 20
304.865
 30
0.0
 11
38.25
 21
305.8149999999999
 31
0.0
  0
LINE
  5
116
330
1E
100
AcDbEntity
  8
0
100
AcDbLine
 10
33.5
 20
304.4999999999999
 30
0.0
 11
35.9846
 21
304.865
 31
0.0
  0
LINE
  5
117
330
1E
100
AcDbEntity
  8
0
100
AcDbLine
 10
28.292
 20
304.8859999999999
 30
0.0
 11
30.81199999999999
 21
303.878
 31
0.0
  0
LINE
  5
118
330
1E
100
AcDbEntity
  8
0
100
AcDbLine
 10
30.81199999999999
 20
303.878
 30
0.0
 11
33.5
 21
303.5
 31
0.0
  0
LINE
  5
119
330
1E
100
AcDbEntity
  8
0
100
AcDbLine
 10
27.6017
 20
303.839
 30
0.0
 11
30.54949999999999
 21
302.6949999999999
 31
0.0
  0
LINE
  5
11A
330
1E
100
AcDbEntity
  8
0
100
AcDbLine
 10
24.3654
 20
311.5149999999999
 30
0.0
 11
25.3154
 21
309.25
 31
0.0
  0
LINE
  5
129
330
1E
100
AcDbEntity
  8
0
100
AcDbLine
 10
25.3154
 20
309.25
 30
0.0
 11
26.7769
 21
307.2769999999999
 31
0.0
  0
LINE
  5
130
330
1E
100
AcDbEntity
  8
0
100
AcDbLine
 10
24.0
 20
314.0
 30
0.0
 11
24.3654
 21
316.485
 31
0.0
  0
LINE
  5
132
330
1E
100
AcDbEntity
  8
0
100
AcDbLine
 10
24.0
 20
314.0
 30
0.0
 11
24.3654
 21
311.5149999999999
 31
0.0
  0
LINE
  5
133
330
1E
100
AcDbEntity
  8
0
100
AcDbLine
 10
23.378
 20
311.312
 30
0.0
 11
24.386
 21
308.792
 31
0.0
  0
LINE
  5
134
330
1E
100
AcDbEntity
  8
0
100
AcDbLine
 10
24.386
 20
308.792
 30
0.0
 11
26.066
 21
306.5659999999999
 31
0.0
  0
LINE
  5
135
330
1E
100
AcDbEntity
  8
0
100
AcDbLine
 10
23.0
 20
314.0
 30
0.0
 11
23.378
 21
316.6879999999999
 31
0.0
  0
LINE
  5
136
330
1E
100
AcDbEntity
  8
0
100
AcDbLine
 10
23.0
 20
314.0
 30
0.0
 11
23.378
 21
311.312
 31
0.0
  0
LINE
  5
137
330
1E
100
AcDbEntity
  8
0
100
AcDbLine
 10
23.1304
 20
308.475
 30
0.0
 11
24.9952
 21
305.817
 31
0.0
  0
LINE
  5
138
330
1E
100
AcDbEntity
  8
0
100
AcDbLine
 10
22.2895
 20
303.6729999999999
 30
0.0
 11
25.8645
 21
301.727
 31
0.0
  0
LINE
  5
139
330
1E
100
AcDbEntity
  8
0
100
AcDbLine
 10
30.54949999999999
 20
302.6949999999999
 30
0.0
 11
33.55939999999999
 21
302.293
 31
0.0
  0
LINE
  5
13A
330
1E
100
AcDbEntity
  8
0
100
AcDbLine
 10
21.703
 20
313.822
 30
0.0
 11
22.0133
 21
316.5729999999999
 31
0.0
  0
LINE
  5
13B
330
1E
100
AcDbEntity
  8
0
100
AcDbLine
 10
21.703
 20
313.822
 30
0.0
 11
22.1064
 21
311.1329999999999
 31
0.0
  0
LINE
  5
13C
330
1E
100
AcDbEntity
  8
0
100
AcDbLine
 10
18.5
 20
322.0199999999999
 30
0.0
 11
18.5
 21
321.0609999999999
 31
0.0
  0
LINE
  5
13D
330
1E
100
AcDbEntity
  8
0
100
AcDbLine
 10
18.5
 20
322.0199999999999
 30
0.0
 11
18.886
 21
322.475
 31
0.0
  0
LINE
  5
13E
330
1E
100
AcDbEntity
  8
0
100
AcDbLine
 10
18.5
 20
321.0609999999999
 30
0.0
 11
18.5
 21
317.665
 31
0.0
  0
LINE
  5
13F
330
1E
100
AcDbEntity
  8
0
100
AcDbLine
 10
18.5
 20
321.0609999999999
 30
0.0
 11
18.5
 21
322.0199999999999
 31
0.0
  0
LINE
  5
143
330
1E
100
AcDbEntity
  8
0
100
AcDbLine
 10
22.0133
 20
316.5729999999999
 30
0.0
 11
22.94719999999999
 21
319.2
 31
0.0
  0
LINE
  5
147
330
1E
100
AcDbEntity
  8
0
100
AcDbLine
 10
24.3654
 20
316.485
 30
0.0
 11
25.3154
 21
318.75
 31
0.0
  0
LINE
  5
14F
330
1E
100
AcDbEntity
  8
0
100
AcDbLine
 10
25.3154
 20
318.75
 30
0.0
 11
26.7769
 21
320.723
 31
0.0
  0
LINE
  5
152
330
1E
100
AcDbEntity
  8
0
100
AcDbLine
 10
26.7769
 20
320.723
 30
0.0
 11
28.75
 21
322.1849999999999
 31
0.0
  0
LINE
  5
153
330
1E
100
AcDbEntity
  8
0
100
AcDbLine
 10
24.386
 20
319.2079999999999
 30
0.0
 11
26.066
 21
321.434
 31
0.0
  0
LINE
  5
154
330
1E
100
AcDbEntity
  8
0
100
AcDbLine
 10
23.378
 20
316.6879999999999
 30
0.0
 11
24.386
 21
319.2079999999999
 31
0.0
  0
LINE
  5
155
330
1E
100
AcDbEntity
  8
0
100
AcDbLine
 10
26.066
 20
321.434
 30
0.0
 11
28.292
 21
323.114
 31
0.0
  0
LINE
  5
156
330
1E
100
AcDbEntity
  8
0
100
AcDbLine
 10
22.94719999999999
 20
319.2
 30
0.0
 11
24.778
 21
321.889
 31
0.0
  0
LINE
  5
157
330
1E
100
AcDbEntity
  8
0
100
AcDbLine
 10
22.2895
 20
324.3269999999999
 30
0.0
 11
25.8645
 21
326.2729999999999
 31
0.0
  0
LINE
  5
158
330
1E
100
AcDbEntity
  8
0
100
AcDbLine
 10
19.78559999999999
 20
322.9639999999999
 30
0.0
 11
22.2895
 21
324.3269999999999
 31
0.0
  0
LINE
  5
15A
330
1E
100
AcDbEntity
  8
0
100
AcDbLine
 10
18.886
 20
322.475
 30
0.0
 11
19.78559999999999
 21
322.9639999999999
 31
0.0
  0
LINE
  5
15B
330
1E
100
AcDbEntity
  8
0
100
AcDbLine
 10
24.778
 20
321.889
 30
0.0
 11
27.3224
 21
324.0219999999999
 31
0.0
  0
LINE
  5
160
330
1E
100
AcDbEntity
  8
0
100
AcDbLine
 10
28.75
 20
322.1849999999999
 30
0.0
 11
31.01539999999999
 21
323.1349999999999
 31
0.0
  0
LINE
  5
161
330
1E
100
AcDbEntity
  8
0
100
AcDbLine
 10
28.292
 20
323.114
 30
0.0
 11
30.81199999999999
 21
324.122
 31
0.0
  0
LINE
  5
16D
330
1E
100
AcDbEntity
  8
0
100
AcDbLine
 10
31.01539999999999
 20
323.1349999999999
 30
0.0
 11
33.5
 21
323.4999999999999
 31
0.0
  0
LINE
  5
16E
330
1E
100
AcDbEntity
  8
0
100
AcDbLine
 10
35.9846
 20
323.1349999999999
 30
0.0
 11
38.25
 21
322.1849999999999
 31
0.0
  0
LINE
  5
16F
330
1E
100
AcDbEntity
  8
0
100
AcDbLine
 10
33.5
 20
323.4999999999999
 30
0.0
 11
35.9846
 21
323.1349999999999
 31
0.0
  0
LINE
  5
176
330
1E
100
AcDbEntity
  8
0
100
AcDbLine
 10
36.188
 20
324.122
 30
0.0
 11
38.708
 21
323.114
 31
0.0
  0
LINE
  5
177
330
1E
100
AcDbEntity
  8
0
100
AcDbLine
 10
33.5
 20
324.5
 30
0.0
 11
36.188
 21
324.122
 31
0.0
  0
LINE
  5
178
330
1E
100
AcDbEntity
  8
0
100
AcDbLine
 10
30.81199999999999
 20
324.122
 30
0.0
 11
33.5
 21
324.5
 31
0.0
  0
LINE
  5
179
330
1E
100
AcDbEntity
  8
0
100
AcDbLine
 10
36.5352
 20
325.2889999999999
 30
0.0
 11
39.483
 21
324.115
 31
0.0
  0
LINE
  5
17A
330
1E
100
AcDbEntity
  8
0
100
AcDbLine
 10
33.4012
 20
325.753
 30
0.0
 11
36.5352
 21
325.2889999999999
 31
0.0
  0
LINE
  5
17B
330
1E
100
AcDbEntity
  8
0
100
AcDbLine
 10
30.081
 20
325.1959999999999
 30
0.0
 11
33.4012
 21
325.753
 31
0.0
  0
LINE
  5
17C
330
1E
100
AcDbEntity
  8
0
100
AcDbLine
 10
27.3224
 20
324.0219999999999
 30
0.0
 11
30.081
 21
325.1959999999999
 31
0.0
  0
LINE
  5
17D
330
1E
100
AcDbEntity
  8
0
100
AcDbLine
 10
29.0362568181818
 20
328.0
 30
0.0
 11
29.4201
 21
328.209
 31
0.0
  0
LINE
  5
182
330
1E
100
AcDbEntity
  8
0
100
AcDbLine
 10
25.8645
 20
326.2729999999999
 30
0.0
 11
29.4201
 21
328.209
 31
0.0
  0
LINE
  5
184
330
1E
100
AcDbEntity
  8
0
100
AcDbLine
 10
18.5
 20
317.665
 30
0.0
 11
18.5
 21
314.0
 31
0.0
  0
LINE
  5
185
330
1E
100
AcDbEntity
  8
0
100
AcDbLine
 10
18.5
 20
317.665
 30
0.0
 11
18.5
 21
321.0609999999999
 31
0.0
  0
LINE
  5
186
330
1E
100
AcDbEntity
  8
0
100
AcDbLine
 10
18.5
 20
314.0
 30
0.0
 11
18.5
 21
317.665
 31
0.0
  0
LINE
  5
187
330
1E
100
AcDbEntity
  8
0
100
AcDbLine
 10
18.5
 20
314.0
 30
0.0
 11
18.5
 21
310.3349999999999
 31
0.0
  0
LINE
  5
188
330
1E
100
AcDbEntity
  8
0
100
AcDbLine
 10
16.0
 20
328.0
 30
0.0
 11
29.0362568181818
 21
328.0
 31
0.0
  0
LINE
  5
189
330
1E
100
AcDbEntity
  8
0
100
AcDbLine
 10
16.0
 20
300.0
 30
0.0
 11
29.0362568181817
 21
300.0
 31
0.0
  0
LINE
  5
18A
330
1E
100
AcDbEntity
  8
0
100
AcDbLine
 10
40.2
 20
2.299999999999999
 30
0.0
 11
43.0
 21
4.5
 31
0.0
  0
LINE
  5
18B
330
1E
100
AcDbEntity
  8
0
100
AcDbLine
 10
40.49999999999999
 20
1.9
 30
0.0
 11
43.39999999999999
 21
4.099999999999999
 31
0.0
  0
LINE
  5
18C
330
1E
100
AcDbEntity
  8
0
100
AcDbLine
 10
43.39999999999999
 20
4.099999999999999
 30
0.0
 11
45.6
 21
7.0
 31
0.0
  0
LINE
  5
18D
330
1E
100
AcDbEntity
  8
0
100
AcDbLine
 10
43.0
 20
4.5
 30
0.0
 11
45.2
 21
7.299999999999999
 31
0.0
  0
LINE
  5
18E
330
1E
100
AcDbEntity
  8
0
100
AcDbLine
 10
43.39999999999999
 20
4.099999999999999
 30
0.0
 11
45.6
 21
7.0
 31
0.0
  0
LINE
  5
18F
330
1E
100
AcDbEntity
  8
0
100
AcDbLine
 10
45.6
 20
7.0
 30
0.0
 11
47.0
 21
10.4
 31
0.0
  0
LINE
  5
190
330
1E
100
AcDbEntity
  8
0
100
AcDbLine
 10
45.2
 20
7.299999999999999
 30
0.0
 11
46.5
 21
10.5
 31
0.0
  0
LINE
  5
191
330
1E
100
AcDbEntity
  8
0
100
AcDbLine
 10
47.0
 20
10.4
 30
0.0
 11
47.5
 21
14.0
 31
0.0
  0
LINE
  5
192
330
1E
100
AcDbEntity
  8
0
100
AcDbLine
 10
46.5
 20
10.5
 30
0.0
 11
47.0
 21
14.0
 31
0.0
  0
LINE
  5
193
330
1E
100
AcDbEntity
  8
0
100
AcDbLine
 10
45.6
 20
7.0
 30
0.0
 11
47.0
 21
10.4
 31
0.0
  0
LINE
  5
194
330
1E
100
AcDbEntity
  8
0
100
AcDbLine
 10
47.0
 20
14.0
 30
0.0
 11
47.0
 21
300.0
 31
0.0
  0
LINE
  5
195
330
1E
100
AcDbEntity
  8
0
100
AcDbLine
 10
47.0
 20
300.0
 30
0.0
 11
47.0
 21
14.0
 31
0.0
  0
LINE
  5
196
330
1E
100
AcDbEntity
  8
0
100
AcDbLine
 10
47.5
 20
14.0
 30
0.0
 11
47.5
 21
300.0
 31
0.0
  0
LINE
  5
197
330
1E
100
AcDbEntity
  8
0
100
AcDbLine
 10
47.5
 20
300.0
 30
0.0
 11
47.5
 21
14.0
 31
0.0
  0
LINE
  5
198
330
1E
100
AcDbEntity
  8
0
100
AcDbLine
 10
51.0
 20
300.0
 30
0.0
 11
51.0
 21
300.504
 31
0.0
  0
LINE
  5
199
330
1E
100
AcDbEntity
  8
0
100
AcDbLine
 10
39.4612
 20
303.8699999999999
 30
0.0
 11
42.0677
 21
305.848
 31
0.0
  0
LINE
  5
19A
330
1E
100
AcDbEntity
  8
0
100
AcDbLine
 10
41.13539999999999
 20
301.727
 30
0.0
 11
44.7106
 21
303.6729999999999
 31
0.0
  0
LINE
  5
19B
330
1E
100
AcDbEntity
  8
0
100
AcDbLine
 10
51.0
 20
302.0
 30
0.0
 11
53.0
 21
302.0
 31
0.0
  0
LINE
  5
19C
330
1E
100
AcDbEntity
  8
0
100
AcDbLine
 10
44.7106
 20
303.6729999999999
 30
0.0
 11
47.2144
 21
305.0359999999999
 31
0.0
  0
LINE
  5
19D
330
1E
100
AcDbEntity
  8
0
100
AcDbLine
 10
38.25
 20
305.8149999999999
 30
0.0
 11
40.2231
 21
307.2769999999999
 31
0.0
  0
LINE
  5
19E
330
1E
100
AcDbEntity
  8
0
100
AcDbLine
 10
40.93399999999999
 20
306.5659999999999
 30
0.0
 11
42.614
 21
308.792
 31
0.0
  0
LINE
  5
19F
330
1E
100
AcDbEntity
  8
0
100
AcDbLine
 10
38.708
 20
304.8859999999999
 30
0.0
 11
40.93399999999999
 21
306.5659999999999
 31
0.0
  0
LINE
  5
1A0
330
1E
100
AcDbEntity
  8
0
100
AcDbLine
 10
42.0677
 20
305.848
 30
0.0
 11
43.83639999999999
 21
308.5059999999999
 31
0.0
  0
LINE
  5
1A3
330
1E
100
AcDbEntity
  8
0
100
AcDbLine
 10
40.2231
 20
307.2769999999999
 30
0.0
 11
41.6846
 21
309.25
 31
0.0
  0
LINE
  5
1A6
330
1E
100
AcDbEntity
  8
0
100
AcDbLine
 10
41.6846
 20
309.25
 30
0.0
 11
42.6346
 21
311.5149999999999
 31
0.0
  0
LINE
  5
1A7
330
1E
100
AcDbEntity
  8
0
100
AcDbLine
 10
42.614
 20
308.792
 30
0.0
 11
43.622
 21
311.312
 31
0.0
  0
LINE
  5
1A8
330
1E
100
AcDbEntity
  8
0
100
AcDbLine
 10
43.83639999999999
 20
308.5059999999999
 30
0.0
 11
44.9224
 21
311.102
 31
0.0
  0
LINE
  5
1AB
330
1E
100
AcDbEntity
  8
0
100
AcDbLine
 10
48.11399999999999
 20
305.525
 30
0.0
 11
48.5
 21
305.98
 31
0.0
  0
LINE
  5
1AC
330
1E
100
AcDbEntity
  8
0
100
AcDbLine
 10
48.5
 20
305.98
 30
0.0
 11
48.5
 21
306.939
 31
0.0
  0
LINE
  5
1AE
330
1E
100
AcDbEntity
  8
0
100
AcDbLine
 10
48.5
 20
310.3349999999999
 30
0.0
 11
48.5
 21
306.939
 31
0.0
  0
LINE
  5
1AF
330
1E
100
AcDbEntity
  8
0
100
AcDbLine
 10
48.5
 20
310.3349999999999
 30
0.0
 11
48.5
 21
314.0
 31
0.0
  0
LINE
  5
1B0
330
1E
100
AcDbEntity
  8
0
100
AcDbLine
 10
48.5
 20
306.939
 30
0.0
 11
48.5
 21
310.3349999999999
 31
0.0
  0
LINE
  5
1B1
330
1E
100
AcDbEntity
  8
0
100
AcDbLine
 10
48.5
 20
306.939
 30
0.0
 11
48.5
 21
305.98
 31
0.0
  0
LINE
  5
1B2
330
1E
100
AcDbEntity
  8
0
100
AcDbLine
 10
47.2144
 20
305.0359999999999
 30
0.0
 11
48.11399999999999
 21
305.525
 31
0.0
  0
LINE
  5
1B6
330
1E
100
AcDbEntity
  8
0
100
AcDbLine
 10
42.6346
 20
311.5149999999999
 30
0.0
 11
43.0
 21
314.0
 31
0.0
  0
LINE
  5
1B7
330
1E
100
AcDbEntity
  8
0
100
AcDbLine
 10
43.622
 20
311.312
 30
0.0
 11
44.0
 21
314.0
 31
0.0
  0
LINE
  5
1B8
330
1E
100
AcDbEntity
  8
0
100
AcDbLine
 10
44.9224
 20
311.102
 30
0.0
 11
45.2637
 21
313.884
 31
0.0
  0
LINE
  5
1BD
330
1E
100
AcDbEntity
  8
0
100
AcDbLine
 10
42.6346
 20
316.485
 30
0.0
 11
43.0
 21
314.0
 31
0.0
  0
LINE
  5
1BF
330
1E
100
AcDbEntity
  8
0
100
AcDbLine
 10
41.6846
 20
318.75
 30
0.0
 11
42.6346
 21
316.485
 31
0.0
  0
LINE
  5
1C1
330
1E
100
AcDbEntity
  8
0
100
AcDbLine
 10
43.622
 20
316.6879999999999
 30
0.0
 11
44.0
 21
314.0
 31
0.0
  0
LINE
  5
1C4
330
1E
100
AcDbEntity
  8
0
100
AcDbLine
 10
40.2231
 20
320.723
 30
0.0
 11
41.6846
 21
318.75
 31
0.0
  0
LINE
  5
1C6
330
1E
100
AcDbEntity
  8
0
100
AcDbLine
 10
42.614
 20
319.2079999999999
 30
0.0
 11
43.622
 21
316.6879999999999
 31
0.0
  0
LINE
  5
1C7
330
1E
100
AcDbEntity
  8
0
100
AcDbLine
 10
44.9224
 20
316.5729999999999
 30
0.0
 11
45.2637
 21
313.884
 31
0.0
  0
LINE
  5
1C8
330
1E
100
AcDbEntity
  8
0
100
AcDbLine
 10
48.5
 20
317.665
 30
0.0
 11
48.5
 21
314.0
 31
0.0
  0
LINE
  5
1C9
330
1E
100
AcDbEntity
  8
0
100
AcDbLine
 10
48.5
 20
317.665
 30
0.0
 11
48.5
 21
321.0609999999999
 31
0.0
  0
LINE
  5
1CA
330
1E
100
AcDbEntity
  8
0
100
AcDbLine
 10
44.0536
 20
319.169
 30
0.0
 11
44.9224
 21
316.5729999999999
 31
0.0
  0
LINE
  5
1CB
330
1E
100
AcDbEntity
  8
0
100
AcDbLine
 10
48.5
 20
314.0
 30
0.0
 11
48.5
 21
310.3349999999999
 31
0.0
  0
LINE
  5
1CC
330
1E
100
AcDbEntity
  8
0
100
AcDbLine
 10
48.5
 20
314.0
 30
0.0
 11
48.5
 21
317.665
 31
0.0
  0
LINE
  5
1CD
330
1E
100
AcDbEntity
  8
0
100
AcDbLine
 10
51.0
 20
317.5839999999999
 30
0.0
 11
51.0
 21
314.0
 31
0.0
  0
LINE
  5
1CE
330
1E
100
AcDbEntity
  8
0
100
AcDbLine
 10
51.0
 20
317.5839999999999
 30
0.0
 11
51.0
 21
320.944
 31
0.0
  0
LINE
  5
1CF
330
1E
100
AcDbEntity
  8
0
100
AcDbLine
 10
38.25
 20
322.1849999999999
 30
0.0
 11
40.2231
 21
320.723
 31
0.0
  0
LINE
  5
1D0
330
1E
100
AcDbEntity
  8
0
100
AcDbLine
 10
40.93399999999999
 20
321.434
 30
0.0
 11
42.614
 21
319.2079999999999
 31
0.0
  0
LINE
  5
1D1
330
1E
100
AcDbEntity
  8
0
100
AcDbLine
 10
38.708
 20
323.114
 30
0.0
 11
40.93399999999999
 21
321.434
 31
0.0
  0
LINE
  5
1D2
330
1E
100
AcDbEntity
  8
0
100
AcDbLine
 10
39.483
 20
324.115
 30
0.0
 11
42.2228
 21
321.796
 31
0.0
  0
LINE
  5
1D5
330
1E
100
AcDbEntity
  8
0
100
AcDbLine
 10
42.2228
 20
321.796
 30
0.0
 11
44.0536
 21
319.169
 31
0.0
  0
LINE
  5
1D7
330
1E
100
AcDbEntity
  8
0
100
AcDbLine
 10
44.7106
 20
324.3269999999999
 30
0.0
 11
47.2144
 21
322.9639999999999
 31
0.0
  0
LINE
  5
1D9
330
1E
100
AcDbEntity
  8
0
100
AcDbLine
 10
51.0
 20
326.0
 30
0.0
 11
53.0
 21
326.0
 31
0.0
  0
LINE
  5
1DA
330
1E
100
AcDbEntity
  8
0
100
AcDbLine
 10
48.5
 20
322.0199999999999
 30
0.0
 11
48.5
 21
321.0609999999999
 31
0.0
  0
LINE
  5
1DB
330
1E
100
AcDbEntity
  8
0
100
AcDbLine
 10
48.5
 20
321.0609999999999
 30
0.0
 11
48.5
 21
317.665
 31
0.0
  0
LINE
  5
1DC
330
1E
100
AcDbEntity
  8
0
100
AcDbLine
 10
48.5
 20
321.0609999999999
 30
0.0
 11
48.5
 21
322.0199999999999
 31
0.0
  0
LINE
  5
1DD
330
1E
100
AcDbEntity
  8
0
100
AcDbLine
 10
47.2144
 20
322.9639999999999
 30
0.0
 11
48.11399999999999
 21
322.475
 31
0.0
  0
LINE
  5
1DF
330
1E
100
AcDbEntity
  8
0
100
AcDbLine
 10
51.0
 20
320.944
 30
0.0
 11
51.0
 21
317.5839999999999
 31
0.0
  0
LINE
  5
1E0
330
1E
100
AcDbEntity
  8
0
100
AcDbLine
 10
51.0
 20
320.944
 30
0.0
 11
51.0
 21
323.912
 31
0.0
  0
LINE
  5
1E1
330
1E
100
AcDbEntity
  8
0
100
AcDbLine
 10
51.0
 20
323.912
 30
0.0
 11
51.0
 21
320.944
 31
0.0
  0
LINE
  5
1E2
330
1E
100
AcDbEntity
  8
0
100
AcDbLine
 10
51.0
 20
323.912
 30
0.0
 11
51.0
 21
326.1519999999999
 31
0.0
  0
LINE
  5
1E3
330
1E
100
AcDbEntity
  8
0
100
AcDbLine
 10
41.13539999999999
 20
326.2729999999999
 30
0.0
 11
44.7106
 21
324.3269999999999
 31
0.0
  0
LINE
  5
1E5
330
1E
100
AcDbEntity
  8
0
100
AcDbLine
 10
51.0
 20
326.1519999999999
 30
0.0
 11
51.0
 21
323.912
 31
0.0
  0
LINE
  5
1E6
330
1E
100
AcDbEntity
  8
0
100
AcDbLine
 10
51.0
 20
326.1519999999999
 30
0.0
 11
51.0
 21
327.496
 31
0.0
  0
LINE
  5
1E7
330
1E
100
AcDbEntity
  8
0
100
AcDbLine
 10
51.0
 20
327.496
 30
0.0
 11
51.0
 21
326.1519999999999
 31
0.0
  0
LINE
  5
1E8
330
1E
100
AcDbEntity
  8
0
100
AcDbLine
 10
51.0
 20
327.496
 30
0.0
 11
51.0
 21
328.0
 31
0.0
  0
LINE
  5
1E9
330
1E
100
AcDbEntity
  8
0
100
AcDbLine
 10
51.0
 20
328.0
 30
0.0
 11
51.0
 21
327.496
 31
0.0
  0
LINE
  5
1EA
330
1E
100
AcDbEntity
  8
0
100
AcDbLine
 10
51.0
 20
314.0
 30
0.0
 11
51.0
 21
310.416
 31
0.0
  0
LINE
  5
1EB
330
1E
100
AcDbEntity
  8
0
100
AcDbLine
 10
51.0
 20
314.0
 30
0.0
 11
51.0
 21
317.5839999999999
 31
0.0
  0
LINE
  5
1EC
330
1E
100
AcDbEntity
  8
0
100
AcDbLine
 10
51.0
 20
310.416
 30
0.0
 11
51.0
 21
307.0559999999999
 31
0.0
  0
LINE
  5
1ED
330
1E
100
AcDbEntity
  8
0
100
AcDbLine
 10
51.0
 20
310.416
 30
0.0
 11
51.0
 21
314.0
 31
0.0
  0
LINE
  5
1EE
330
1E
100
AcDbEntity
  8
0
100
AcDbLine
 10
51.0
 20
307.0559999999999
 30
0.0
 11
51.0
 21
304.0879999999999
 31
0.0
  0
LINE
  5
1EF
330
1E
100
AcDbEntity
  8
0
100
AcDbLine
 10
51.0
 20
307.0559999999999
 30
0.0
 11
51.0
 21
310.416
 31
0.0
  0
LINE
  5
1F0
330
1E
100
AcDbEntity
  8
0
100
AcDbLine
 10
51.0
 20
304.0879999999999
 30
0.0
 11
51.0
 21
301.848
 31
0.0
  0
LINE
  5
1F1
330
1E
100
AcDbEntity
  8
0
100
AcDbLine
 10
51.0
 20
304.0879999999999
 30
0.0
 11
51.0
 21
307.0559999999999
 31
0.0
  0
LINE
  5
1F2
330
1E
100
AcDbEntity
  8
0
100
AcDbLine
 10
53.0
 20
302.0
 30
0.0
 11
53.0
 21
302.432
 31
0.0
  0
LINE
  5
1F3
330
1E
100
AcDbEntity
  8
0
100
AcDbLine
 10
53.0
 20
303.846
 30
0.0
 11
53.6776860759494
 21
303.846
 31
0.0
  0
LINE
  5
1F4
330
1E
100
AcDbEntity
  8
0
100
AcDbLine
 10
53.0
 20
310.928
 30
0.0
 11
53.0
 21
308.048
 31
0.0
  0
LINE
  5
1F5
330
1E
100
AcDbEntity
  8
0
100
AcDbLine
 10
53.0
 20
310.928
 30
0.0
 11
53.0
 21
314.0
 31
0.0
  0
LINE
  5
1F6
330
1E
100
AcDbEntity
  8
0
100
AcDbLine
 10
53.0
 20
308.048
 30
0.0
 11
53.0
 21
305.504
 31
0.0
  0
LINE
  5
1F7
330
1E
100
AcDbEntity
  8
0
100
AcDbLine
 10
53.0
 20
308.048
 30
0.0
 11
53.0
 21
310.928
 31
0.0
  0
LINE
  5
1F8
330
1E
100
AcDbEntity
  8
0
100
AcDbLine
 10
53.0
 20
305.504
 30
0.0
 11
53.0
 21
303.584
 31
0.0
  0
LINE
  5
1F9
330
1E
100
AcDbEntity
  8
0
100
AcDbLine
 10
53.0
 20
305.504
 30
0.0
 11
53.0
 21
308.048
 31
0.0
  0
LINE
  5
1FA
330
1E
100
AcDbEntity
  8
0
100
AcDbLine
 10
53.0
 20
303.584
 30
0.0
 11
53.0
 21
302.432
 31
0.0
  0
LINE
  5
1FB
330
1E
100
AcDbEntity
  8
0
100
AcDbLine
 10
53.0
 20
303.584
 30
0.0
 11
53.0
 21
305.504
 31
0.0
  0
LINE
  5
1FC
330
1E
100
AcDbEntity
  8
0
100
AcDbLine
 10
53.0
 20
302.432
 30
0.0
 11
53.0
 21
302.0
 31
0.0
  0
LINE
  5
1FD
330
1E
100
AcDbEntity
  8
0
100
AcDbLine
 10
53.0
 20
302.432
 30
0.0
 11
53.0
 21
303.584
 31
0.0
  0
LINE
  5
1FE
330
1E
100
AcDbEntity
  8
0
100
AcDbLine
 10
53.0
 20
314.0
 30
0.0
 11
53.0
 21
317.072
 31
0.0
  0
LINE
  5
1FF
330
1E
100
AcDbEntity
  8
0
100
AcDbLine
 10
53.0
 20
314.0
 30
0.0
 11
53.0
 21
310.928
 31
0.0
  0
LINE
  5
200
330
1E
100
AcDbEntity
  8
0
100
AcDbLine
 10
53.0
 20
317.072
 30
0.0
 11
53.0
 21
314.0
 31
0.0
  0
LINE
  5
201
330
1E
100
AcDbEntity
  8
0
100
AcDbLine
 10
53.0
 20
317.072
 30
0.0
 11
53.0
 21
319.952
 31
0.0
  0
LINE
  5
202
330
1E
100
AcDbEntity
  8
0
100
AcDbLine
 10
53.0
 20
324.052
 30
0.0
 11
53.0693
 21
323.815
 31
0.0
  0
LINE
  5
203
330
1E
100
AcDbEntity
  8
0
100
AcDbLine
 10
53.0
 20
324.238
 30
0.0
 11
53.2673
 21
325.0
 31
0.0
  0
LINE
  5
204
330
1E
100
AcDbEntity
  8
0
100
AcDbLine
 10
53.0
 20
324.238
 30
0.0
 11
53.3663
 21
324.577
 31
0.0
  0
LINE
  5
205
330
1E
100
AcDbEntity
  8
0
100
AcDbLine
 10
53.0
 20
319.952
 30
0.0
 11
53.0
 21
317.072
 31
0.0
  0
LINE
  5
206
330
1E
100
AcDbEntity
  8
0
100
AcDbLine
 10
53.0
 20
319.952
 30
0.0
 11
53.0
 21
322.4959999999999
 31
0.0
  0
LINE
  5
207
330
1E
100
AcDbEntity
  8
0
100
AcDbLine
 10
53.0
 20
322.4959999999999
 30
0.0
 11
53.0
 21
319.952
 31
0.0
  0
LINE
  5
208
330
1E
100
AcDbEntity
  8
0
100
AcDbLine
 10
53.0
 20
322.4959999999999
 30
0.0
 11
53.0
 21
324.4159999999999
 31
0.0
  0
LINE
  5
209
330
1E
100
AcDbEntity
  8
0
100
AcDbLine
 10
53.0
 20
324.4159999999999
 30
0.0
 11
53.0
 21
322.4959999999999
 31
0.0
  0
LINE
  5
20A
330
1E
100
AcDbEntity
  8
0
100
AcDbLine
 10
53.0
 20
324.4159999999999
 30
0.0
 11
53.0
 21
325.5679999999999
 31
0.0
  0
LINE
  5
20B
330
1E
100
AcDbEntity
  8
0
100
AcDbLine
 10
53.86140000000001
 20
303.4229999999999
 30
0.0
 11
53.9604
 21
303.0
 31
0.0
  0
LINE
  5
20C
330
1E
100
AcDbEntity
  8
0
100
AcDbLine
 10
53.9604
 20
303.0
 30
0.0
 11
54.2574
 21
303.846
 31
0.0
  0
LINE
  5
20D
330
1E
100
AcDbEntity
  8
0
100
AcDbLine
 10
55.2475
 20
303.4229999999999
 30
0.0
 11
55.3465
 21
303.0
 31
0.0
  0
LINE
  5
20E
330
1E
100
AcDbEntity
  8
0
100
AcDbLine
 10
55.3465
 20
303.0
 30
0.0
 11
55.6436
 21
303.846
 31
0.0
  0
LINE
  5
20F
330
1E
100
AcDbEntity
  8
0
100
AcDbLine
 10
56.6337
 20
303.4229999999999
 30
0.0
 11
56.7327
 21
303.0
 31
0.0
  0
LINE
  5
210
330
1E
100
AcDbEntity
  8
0
100
AcDbLine
 10
56.7327
 20
303.0
 30
0.0
 11
57.0297
 21
303.846
 31
0.0
  0
LINE
  5
211
330
1E
100
AcDbEntity
  8
0
100
AcDbLine
 10
58.0198
 20
303.4229999999999
 30
0.0
 11
58.1188
 21
303.0
 31
0.0
  0
LINE
  5
212
330
1E
100
AcDbEntity
  8
0
100
AcDbLine
 10
58.1188
 20
303.0
 30
0.0
 11
58.4158
 21
303.846
 31
0.0
  0
LINE
  5
213
330
1E
100
AcDbEntity
  8
0
100
AcDbLine
 10
59.4059
 20
303.4229999999999
 30
0.0
 11
59.505
 21
303.0
 31
0.0
  0
LINE
  5
214
330
1E
100
AcDbEntity
  8
0
100
AcDbLine
 10
59.505
 20
303.0
 30
0.0
 11
59.80199999999999
 21
303.846
 31
0.0
  0
LINE
  5
215
330
1E
100
AcDbEntity
  8
0
100
AcDbLine
 10
60.79209999999999
 20
303.4229999999999
 30
0.0
 11
60.8911
 21
303.0
 31
0.0
  0
LINE
  5
216
330
1E
100
AcDbEntity
  8
0
100
AcDbLine
 10
60.8911
 20
303.0
 30
0.0
 11
61.18809999999999
 21
303.846
 31
0.0
  0
LINE
  5
217
330
1E
100
AcDbEntity
  8
0
100
AcDbLine
 10
62.17819999999999
 20
303.4229999999999
 30
0.0
 11
62.2772
 21
303.0
 31
0.0
  0
LINE
  5
218
330
1E
100
AcDbEntity
  8
0
100
AcDbLine
 10
62.2772
 20
303.0
 30
0.0
 11
62.5743
 21
303.846
 31
0.0
  0
LINE
  5
219
330
1E
100
AcDbEntity
  8
0
100
AcDbLine
 10
54.2574
 20
303.846
 30
0.0
 11
55.0637860759494
 21
303.846
 31
0.0
  0
LINE
  5
21A
330
1E
100
AcDbEntity
  8
0
100
AcDbLine
 10
55.6436
 20
303.846
 30
0.0
 11
56.44991468354429
 21
303.846
 31
0.0
  0
LINE
  5
21B
330
1E
100
AcDbEntity
  8
0
100
AcDbLine
 10
53.6634
 20
303.846
 30
0.0
 11
53.9604
 21
303.0
 31
0.0
  0
LINE
  5
21C
330
1E
100
AcDbEntity
  8
0
100
AcDbLine
 10
55.0495
 20
303.846
 30
0.0
 11
55.3465
 21
303.0
 31
0.0
  0
LINE
  5
21D
330
1E
100
AcDbEntity
  8
0
100
AcDbLine
 10
57.0297
 20
303.846
 30
0.0
 11
57.8360860759494
 21
303.846
 31
0.0
  0
LINE
  5
21E
330
1E
100
AcDbEntity
  8
0
100
AcDbLine
 10
58.4158
 20
303.846
 30
0.0
 11
59.22221468354429
 21
303.846
 31
0.0
  0
LINE
  5
21F
330
1E
100
AcDbEntity
  8
0
100
AcDbLine
 10
56.4356
 20
303.846
 30
0.0
 11
56.7327
 21
303.0
 31
0.0
  0
LINE
  5
220
330
1E
100
AcDbEntity
  8
0
100
AcDbLine
 10
57.8218
 20
303.846
 30
0.0
 11
58.1188
 21
303.0
 31
0.0
  0
LINE
  5
221
330
1E
100
AcDbEntity
  8
0
100
AcDbLine
 10
59.80199999999999
 20
303.846
 30
0.0
 11
60.60831468354429
 21
303.846
 31
0.0
  0
LINE
  5
222
330
1E
100
AcDbEntity
  8
0
100
AcDbLine
 10
61.18809999999999
 20
303.846
 30
0.0
 11
61.9944860759494
 21
303.846
 31
0.0
  0
LINE
  5
223
330
1E
100
AcDbEntity
  8
0
100
AcDbLine
 10
59.2079
 20
303.846
 30
0.0
 11
59.505
 21
303.0
 31
0.0
  0
LINE
  5
224
330
1E
100
AcDbEntity
  8
0
100
AcDbLine
 10
60.59409999999999
 20
303.846
 30
0.0
 11
60.8911
 21
303.0
 31
0.0
  0
LINE
  5
225
330
1E
100
AcDbEntity
  8
0
100
AcDbLine
 10
62.5743
 20
303.846
 30
0.0
 11
63.38061468354429
 21
303.846
 31
0.0
  0
LINE
  5
226
330
1E
100
AcDbEntity
  8
0
100
AcDbLine
 10
61.9802
 20
303.846
 30
0.0
 11
62.2772
 21
303.0
 31
0.0
  0
LINE
  5
227
330
1E
100
AcDbEntity
  8
0
100
AcDbLine
 10
63.5644
 20
303.4229999999999
 30
0.0
 11
63.6634
 21
303.0
 31
0.0
  0
LINE
  5
228
330
1E
100
AcDbEntity
  8
0
100
AcDbLine
 10
63.9604
 20
303.846
 30
0.0
 11
64.6562
 21
303.846
 31
0.0
  0
LINE
  5
229
330
1E
100
AcDbEntity
  8
0
100
AcDbLine
 10
63.6634
 20
303.0
 30
0.0
 11
63.9604
 21
303.846
 31
0.0
  0
LINE
  5
22A
330
1E
100
AcDbEntity
  8
0
100
AcDbLine
 10
53.5644
 20
304.185
 30
0.0
 11
53.6634
 21
303.846
 31
0.0
  0
LINE
  5
22B
330
1E
100
AcDbEntity
  8
0
100
AcDbLine
 10
54.1584
 20
304.185
 30
0.0
 11
54.2574
 21
303.846
 31
0.0
  0
LINE
  5
22C
330
1E
100
AcDbEntity
  8
0
100
AcDbLine
 10
54.95049999999999
 20
304.185
 30
0.0
 11
55.0495
 21
303.846
 31
0.0
  0
LINE
  5
22D
330
1E
100
AcDbEntity
  8
0
100
AcDbLine
 10
55.5446
 20
304.185
 30
0.0
 11
55.6436
 21
303.846
 31
0.0
  0
LINE
  5
22E
330
1E
100
AcDbEntity
  8
0
100
AcDbLine
 10
56.33659999999999
 20
304.185
 30
0.0
 11
56.4356
 21
303.846
 31
0.0
  0
LINE
  5
22F
330
1E
100
AcDbEntity
  8
0
100
AcDbLine
 10
56.9307
 20
304.185
 30
0.0
 11
57.0297
 21
303.846
 31
0.0
  0
LINE
  5
230
330
1E
100
AcDbEntity
  8
0
100
AcDbLine
 10
57.7228
 20
304.185
 30
0.0
 11
57.8218
 21
303.846
 31
0.0
  0
LINE
  5
231
330
1E
100
AcDbEntity
  8
0
100
AcDbLine
 10
58.3168
 20
304.185
 30
0.0
 11
58.4158
 21
303.846
 31
0.0
  0
LINE
  5
232
330
1E
100
AcDbEntity
  8
0
100
AcDbLine
 10
59.1089
 20
304.185
 30
0.0
 11
59.2079
 21
303.846
 31
0.0
  0
LINE
  5
233
330
1E
100
AcDbEntity
  8
0
100
AcDbLine
 10
59.703
 20
304.185
 30
0.0
 11
59.80199999999999
 21
303.846
 31
0.0
  0
LINE
  5
234
330
1E
100
AcDbEntity
  8
0
100
AcDbLine
 10
60.495
 20
304.185
 30
0.0
 11
60.59409999999999
 21
303.846
 31
0.0
  0
LINE
  5
235
330
1E
100
AcDbEntity
  8
0
100
AcDbLine
 10
61.0891
 20
304.185
 30
0.0
 11
61.18809999999999
 21
303.846
 31
0.0
  0
LINE
  5
236
330
1E
100
AcDbEntity
  8
0
100
AcDbLine
 10
61.8812
 20
304.185
 30
0.0
 11
61.9802
 21
303.846
 31
0.0
  0
LINE
  5
237
330
1E
100
AcDbEntity
  8
0
100
AcDbLine
 10
53.7525
 20
304.5229999999999
 30
0.0
 11
53.86140000000001
 21
303.4229999999999
 31
0.0
  0
LINE
  5
238
330
1E
100
AcDbEntity
  8
0
100
AcDbLine
 10
55.1386
 20
304.5229999999999
 30
0.0
 11
55.2475
 21
303.4229999999999
 31
0.0
  0
LINE
  5
239
330
1E
100
AcDbEntity
  8
0
100
AcDbLine
 10
56.5247
 20
304.5229999999999
 30
0.0
 11
56.6337
 21
303.4229999999999
 31
0.0
  0
LINE
  5
23A
330
1E
100
AcDbEntity
  8
0
100
AcDbLine
 10
57.9109
 20
304.5229999999999
 30
0.0
 11
58.0198
 21
303.4229999999999
 31
0.0
  0
LINE
  5
23B
330
1E
100
AcDbEntity
  8
0
100
AcDbLine
 10
59.297
 20
304.5229999999999
 30
0.0
 11
59.4059
 21
303.4229999999999
 31
0.0
  0
LINE
  5
23C
330
1E
100
AcDbEntity
  8
0
100
AcDbLine
 10
60.68319999999999
 20
304.5229999999999
 30
0.0
 11
60.79209999999999
 21
303.4229999999999
 31
0.0
  0
LINE
  5
23D
330
1E
100
AcDbEntity
  8
0
100
AcDbLine
 10
62.06929999999999
 20
304.5229999999999
 30
0.0
 11
62.17819999999999
 21
303.4229999999999
 31
0.0
  0
LINE
  5
23E
330
1E
100
AcDbEntity
  8
0
100
AcDbLine
 10
62.4753
 20
304.185
 30
0.0
 11
62.5743
 21
303.846
 31
0.0
  0
LINE
  5
23F
330
1E
100
AcDbEntity
  8
0
100
AcDbLine
 10
63.2673
 20
304.185
 30
0.0
 11
63.3663
 21
303.846
 31
0.0
  0
LINE
  5
240
330
1E
100
AcDbEntity
  8
0
100
AcDbLine
 10
53.4654
 20
305.2
 30
0.0
 11
53.5644
 21
304.185
 31
0.0
  0
LINE
  5
241
330
1E
100
AcDbEntity
  8
0
100
AcDbLine
 10
54.0594
 20
305.2
 30
0.0
 11
54.1584
 21
304.185
 31
0.0
  0
LINE
  5
242
330
1E
100
AcDbEntity
  8
0
100
AcDbLine
 10
54.8515
 20
305.2
 30
0.0
 11
54.95049999999999
 21
304.185
 31
0.0
  0
LINE
  5
243
330
1E
100
AcDbEntity
  8
0
100
AcDbLine
 10
55.4455
 20
305.2
 30
0.0
 11
55.5446
 21
304.185
 31
0.0
  0
LINE
  5
244
330
1E
100
AcDbEntity
  8
0
100
AcDbLine
 10
56.2376
 20
305.2
 30
0.0
 11
56.33659999999999
 21
304.185
 31
0.0
  0
LINE
  5
245
330
1E
100
AcDbEntity
  8
0
100
AcDbLine
 10
56.8317
 20
305.2
 30
0.0
 11
56.9307
 21
304.185
 31
0.0
  0
LINE
  5
246
330
1E
100
AcDbEntity
  8
0
100
AcDbLine
 10
57.6238
 20
305.2
 30
0.0
 11
57.7228
 21
304.185
 31
0.0
  0
LINE
  5
247
330
1E
100
AcDbEntity
  8
0
100
AcDbLine
 10
58.2178
 20
305.2
 30
0.0
 11
58.3168
 21
304.185
 31
0.0
  0
LINE
  5
248
330
1E
100
AcDbEntity
  8
0
100
AcDbLine
 10
59.0099
 20
305.2
 30
0.0
 11
59.1089
 21
304.185
 31
0.0
  0
LINE
  5
249
330
1E
100
AcDbEntity
  8
0
100
AcDbLine
 10
59.60399999999999
 20
305.2
 30
0.0
 11
59.703
 21
304.185
 31
0.0
  0
LINE
  5
24A
330
1E
100
AcDbEntity
  8
0
100
AcDbLine
 10
60.396
 20
305.2
 30
0.0
 11
60.495
 21
304.185
 31
0.0
  0
LINE
  5
24B
330
1E
100
AcDbEntity
  8
0
100
AcDbLine
 10
60.99009999999999
 20
305.2
 30
0.0
 11
61.0891
 21
304.185
 31
0.0
  0
LINE
  5
24C
330
1E
100
AcDbEntity
  8
0
100
AcDbLine
 10
61.7822
 20
305.2
 30
0.0
 11
61.8812
 21
304.185
 31
0.0
  0
LINE
  5
24D
330
1E
100
AcDbEntity
  8
0
100
AcDbLine
 10
53.6931
 20
306.2149999999999
 30
0.0
 11
53.7525
 21
304.5229999999999
 31
0.0
  0
LINE
  5
24E
330
1E
100
AcDbEntity
  8
0
100
AcDbLine
 10
55.0792
 20
306.2149999999999
 30
0.0
 11
55.1386
 21
304.5229999999999
 31
0.0
  0
LINE
  5
24F
330
1E
100
AcDbEntity
  8
0
100
AcDbLine
 10
56.4654
 20
306.2149999999999
 30
0.0
 11
56.5247
 21
304.5229999999999
 31
0.0
  0
LINE
  5
250
330
1E
100
AcDbEntity
  8
0
100
AcDbLine
 10
57.8515
 20
306.2149999999999
 30
0.0
 11
57.9109
 21
304.5229999999999
 31
0.0
  0
LINE
  5
251
330
1E
100
AcDbEntity
  8
0
100
AcDbLine
 10
59.2376
 20
306.2149999999999
 30
0.0
 11
59.297
 21
304.5229999999999
 31
0.0
  0
LINE
  5
252
330
1E
100
AcDbEntity
  8
0
100
AcDbLine
 10
60.6238
 20
306.2149999999999
 30
0.0
 11
60.68319999999999
 21
304.5229999999999
 31
0.0
  0
LINE
  5
253
330
1E
100
AcDbEntity
  8
0
100
AcDbLine
 10
62.0099
 20
306.2149999999999
 30
0.0
 11
62.06929999999999
 21
304.5229999999999
 31
0.0
  0
LINE
  5
254
330
1E
100
AcDbEntity
  8
0
100
AcDbLine
 10
62.37619999999999
 20
305.2
 30
0.0
 11
62.4753
 21
304.185
 31
0.0
  0
LINE
  5
255
330
1E
100
AcDbEntity
  8
0
100
AcDbLine
 10
63.1683
 20
305.2
 30
0.0
 11
63.2673
 21
304.185
 31
0.0
  0
LINE
  5
256
330
1E
100
AcDbEntity
  8
0
100
AcDbLine
 10
53.4158
 20
306.808
 30
0.0
 11
53.4654
 21
305.2
 31
0.0
  0
LINE
  5
257
330
1E
100
AcDbEntity
  8
0
100
AcDbLine
 10
54.0099
 20
306.808
 30
0.0
 11
54.0594
 21
305.2
 31
0.0
  0
LINE
  5
258
330
1E
100
AcDbEntity
  8
0
100
AcDbLine
 10
54.80199999999999
 20
306.808
 30
0.0
 11
54.8515
 21
305.2
 31
0.0
  0
LINE
  5
259
330
1E
100
AcDbEntity
  8
0
100
AcDbLine
 10
55.396
 20
306.808
 30
0.0
 11
55.4455
 21
305.2
 31
0.0
  0
LINE
  5
25A
330
1E
100
AcDbEntity
  8
0
100
AcDbLine
 10
56.18809999999999
 20
306.808
 30
0.0
 11
56.2376
 21
305.2
 31
0.0
  0
LINE
  5
25B
330
1E
100
AcDbEntity
  8
0
100
AcDbLine
 10
56.7822
 20
306.808
 30
0.0
 11
56.8317
 21
305.2
 31
0.0
  0
LINE
  5
25C
330
1E
100
AcDbEntity
  8
0
100
AcDbLine
 10
57.57419999999999
 20
306.808
 30
0.0
 11
57.6238
 21
305.2
 31
0.0
  0
LINE
  5
25D
330
1E
100
AcDbEntity
  8
0
100
AcDbLine
 10
58.1683
 20
306.808
 30
0.0
 11
58.2178
 21
305.2
 31
0.0
  0
LINE
  5
25E
330
1E
100
AcDbEntity
  8
0
100
AcDbLine
 10
58.9604
 20
306.808
 30
0.0
 11
59.0099
 21
305.2
 31
0.0
  0
LINE
  5
25F
330
1E
100
AcDbEntity
  8
0
100
AcDbLine
 10
59.55449999999999
 20
306.808
 30
0.0
 11
59.60399999999999
 21
305.2
 31
0.0
  0
LINE
  5
260
330
1E
100
AcDbEntity
  8
0
100
AcDbLine
 10
60.3465
 20
306.808
 30
0.0
 11
60.396
 21
305.2
 31
0.0
  0
LINE
  5
261
330
1E
100
AcDbEntity
  8
0
100
AcDbLine
 10
60.9406
 20
306.808
 30
0.0
 11
60.99009999999999
 21
305.2
 31
0.0
  0
LINE
  5
262
330
1E
100
AcDbEntity
  8
0
100
AcDbLine
 10
61.7327
 20
306.808
 30
0.0
 11
61.7822
 21
305.2
 31
0.0
  0
LINE
  5
263
330
1E
100
AcDbEntity
  8
0
100
AcDbLine
 10
53.6436
 20
308.4999999999999
 30
0.0
 11
53.6931
 21
306.2149999999999
 31
0.0
  0
LINE
  5
264
330
1E
100
AcDbEntity
  8
0
100
AcDbLine
 10
55.0297
 20
308.4999999999999
 30
0.0
 11
55.0792
 21
306.2149999999999
 31
0.0
  0
LINE
  5
265
330
1E
100
AcDbEntity
  8
0
100
AcDbLine
 10
56.4158
 20
308.4999999999999
 30
0.0
 11
56.4654
 21
306.2149999999999
 31
0.0
  0
LINE
  5
266
330
1E
100
AcDbEntity
  8
0
100
AcDbLine
 10
57.802
 20
308.4999999999999
 30
0.0
 11
57.8515
 21
306.2149999999999
 31
0.0
  0
LINE
  5
267
330
1E
100
AcDbEntity
  8
0
100
AcDbLine
 10
59.1881
 20
308.4999999999999
 30
0.0
 11
59.2376
 21
306.2149999999999
 31
0.0
  0
LINE
  5
268
330
1E
100
AcDbEntity
  8
0
100
AcDbLine
 10
60.5742
 20
308.4999999999999
 30
0.0
 11
60.6238
 21
306.2149999999999
 31
0.0
  0
LINE
  5
269
330
1E
100
AcDbEntity
  8
0
100
AcDbLine
 10
61.96039999999999
 20
308.4999999999999
 30
0.0
 11
62.0099
 21
306.2149999999999
 31
0.0
  0
LINE
  5
26A
330
1E
100
AcDbEntity
  8
0
100
AcDbLine
 10
62.3267
 20
306.808
 30
0.0
 11
62.37619999999999
 21
305.2
 31
0.0
  0
LINE
  5
26B
330
1E
100
AcDbEntity
  8
0
100
AcDbLine
 10
63.1188
 20
306.808
 30
0.0
 11
63.1683
 21
305.2
 31
0.0
  0
LINE
  5
26C
330
1E
100
AcDbEntity
  8
0
100
AcDbLine
 10
53.3663
 20
308.923
 30
0.0
 11
53.4158
 21
306.808
 31
0.0
  0
LINE
  5
26D
330
1E
100
AcDbEntity
  8
0
100
AcDbLine
 10
53.9604
 20
308.923
 30
0.0
 11
54.0099
 21
306.808
 31
0.0
  0
LINE
  5
26E
330
1E
100
AcDbEntity
  8
0
100
AcDbLine
 10
54.75249999999999
 20
308.923
 30
0.0
 11
54.80199999999999
 21
306.808
 31
0.0
  0
LINE
  5
26F
330
1E
100
AcDbEntity
  8
0
100
AcDbLine
 10
55.3465
 20
308.923
 30
0.0
 11
55.396
 21
306.808
 31
0.0
  0
LINE
  5
270
330
1E
100
AcDbEntity
  8
0
100
AcDbLine
 10
56.13859999999999
 20
308.923
 30
0.0
 11
56.18809999999999
 21
306.808
 31
0.0
  0
LINE
  5
271
330
1E
100
AcDbEntity
  8
0
100
AcDbLine
 10
56.7327
 20
308.923
 30
0.0
 11
56.7822
 21
306.808
 31
0.0
  0
LINE
  5
272
330
1E
100
AcDbEntity
  8
0
100
AcDbLine
 10
57.5247
 20
308.923
 30
0.0
 11
57.57419999999999
 21
306.808
 31
0.0
  0
LINE
  5
273
330
1E
100
AcDbEntity
  8
0
100
AcDbLine
 10
58.1188
 20
308.923
 30
0.0
 11
58.1683
 21
306.808
 31
0.0
  0
LINE
  5
274
330
1E
100
AcDbEntity
  8
0
100
AcDbLine
 10
58.9109
 20
308.923
 30
0.0
 11
58.9604
 21
306.808
 31
0.0
  0
LINE
  5
275
330
1E
100
AcDbEntity
  8
0
100
AcDbLine
 10
59.505
 20
308.923
 30
0.0
 11
59.55449999999999
 21
306.808
 31
0.0
  0
LINE
  5
276
330
1E
100
AcDbEntity
  8
0
100
AcDbLine
 10
60.297
 20
308.923
 30
0.0
 11
60.3465
 21
306.808
 31
0.0
  0
LINE
  5
277
330
1E
100
AcDbEntity
  8
0
100
AcDbLine
 10
60.8911
 20
308.923
 30
0.0
 11
60.9406
 21
306.808
 31
0.0
  0
LINE
  5
278
330
1E
100
AcDbEntity
  8
0
100
AcDbLine
 10
61.6832
 20
308.923
 30
0.0
 11
61.7327
 21
306.808
 31
0.0
  0
LINE
  5
279
330
1E
100
AcDbEntity
  8
0
100
AcDbLine
 10
53.6238
 20
311.1229999999999
 30
0.0
 11
53.6436
 21
308.4999999999999
 31
0.0
  0
LINE
  5
27A
330
1E
100
AcDbEntity
  8
0
100
AcDbLine
 10
55.0099
 20
311.1229999999999
 30
0.0
 11
55.0297
 21
308.4999999999999
 31
0.0
  0
LINE
  5
27B
330
1E
100
AcDbEntity
  8
0
100
AcDbLine
 10
56.396
 20
311.1229999999999
 30
0.0
 11
56.4158
 21
308.4999999999999
 31
0.0
  0
LINE
  5
27C
330
1E
100
AcDbEntity
  8
0
100
AcDbLine
 10
57.78220000000001
 20
311.1229999999999
 30
0.0
 11
57.802
 21
308.4999999999999
 31
0.0
  0
LINE
  5
27D
330
1E
100
AcDbEntity
  8
0
100
AcDbLine
 10
59.1683
 20
311.1229999999999
 30
0.0
 11
59.1881
 21
308.4999999999999
 31
0.0
  0
LINE
  5
27E
330
1E
100
AcDbEntity
  8
0
100
AcDbLine
 10
60.5545
 20
311.1229999999999
 30
0.0
 11
60.5742
 21
308.4999999999999
 31
0.0
  0
LINE
  5
27F
330
1E
100
AcDbEntity
  8
0
100
AcDbLine
 10
61.9406
 20
311.1229999999999
 30
0.0
 11
61.96039999999999
 21
308.4999999999999
 31
0.0
  0
LINE
  5
280
330
1E
100
AcDbEntity
  8
0
100
AcDbLine
 10
62.2772
 20
308.923
 30
0.0
 11
62.3267
 21
306.808
 31
0.0
  0
LINE
  5
281
330
1E
100
AcDbEntity
  8
0
100
AcDbLine
 10
63.0693
 20
308.923
 30
0.0
 11
63.1188
 21
306.808
 31
0.0
  0
LINE
  5
282
330
1E
100
AcDbEntity
  8
0
100
AcDbLine
 10
53.3366
 20
311.377
 30
0.0
 11
53.3663
 21
308.923
 31
0.0
  0
LINE
  5
283
330
1E
100
AcDbEntity
  8
0
100
AcDbLine
 10
53.9307
 20
311.377
 30
0.0
 11
53.9604
 21
308.923
 31
0.0
  0
LINE
  5
284
330
1E
100
AcDbEntity
  8
0
100
AcDbLine
 10
54.7228
 20
311.377
 30
0.0
 11
54.75249999999999
 21
308.923
 31
0.0
  0
LINE
  5
285
330
1E
100
AcDbEntity
  8
0
100
AcDbLine
 10
55.3168
 20
311.377
 30
0.0
 11
55.3465
 21
308.923
 31
0.0
  0
LINE
  5
286
330
1E
100
AcDbEntity
  8
0
100
AcDbLine
 10
56.1089
 20
311.377
 30
0.0
 11
56.13859999999999
 21
308.923
 31
0.0
  0
LINE
  5
287
330
1E
100
AcDbEntity
  8
0
100
AcDbLine
 10
56.70300000000001
 20
311.377
 30
0.0
 11
56.7327
 21
308.923
 31
0.0
  0
LINE
  5
288
330
1E
100
AcDbEntity
  8
0
100
AcDbLine
 10
57.495
 20
311.377
 30
0.0
 11
57.5247
 21
308.923
 31
0.0
  0
LINE
  5
289
330
1E
100
AcDbEntity
  8
0
100
AcDbLine
 10
58.0891
 20
311.377
 30
0.0
 11
58.1188
 21
308.923
 31
0.0
  0
LINE
  5
28A
330
1E
100
AcDbEntity
  8
0
100
AcDbLine
 10
58.8812
 20
311.377
 30
0.0
 11
58.9109
 21
308.923
 31
0.0
  0
LINE
  5
28B
330
1E
100
AcDbEntity
  8
0
100
AcDbLine
 10
59.4753
 20
311.377
 30
0.0
 11
59.505
 21
308.923
 31
0.0
  0
LINE
  5
28C
330
1E
100
AcDbEntity
  8
0
100
AcDbLine
 10
60.2673
 20
311.377
 30
0.0
 11
60.297
 21
308.923
 31
0.0
  0
LINE
  5
28D
330
1E
100
AcDbEntity
  8
0
100
AcDbLine
 10
60.8614
 20
311.377
 30
0.0
 11
60.8911
 21
308.923
 31
0.0
  0
LINE
  5
28E
330
1E
100
AcDbEntity
  8
0
100
AcDbLine
 10
61.6535
 20
311.377
 30
0.0
 11
61.6832
 21
308.923
 31
0.0
  0
LINE
  5
28F
330
1E
100
AcDbEntity
  8
0
100
AcDbLine
 10
62.2475
 20
311.377
 30
0.0
 11
62.2772
 21
308.923
 31
0.0
  0
LINE
  5
290
330
1E
100
AcDbEntity
  8
0
100
AcDbLine
 10
53.3168
 20
314.0
 30
0.0
 11
53.3366
 21
311.377
 31
0.0
  0
LINE
  5
291
330
1E
100
AcDbEntity
  8
0
100
AcDbLine
 10
53.9109
 20
314.0
 30
0.0
 11
53.9307
 21
311.377
 31
0.0
  0
LINE
  5
292
330
1E
100
AcDbEntity
  8
0
100
AcDbLine
 10
53.6139
 20
314.0
 30
0.0
 11
53.6238
 21
311.1229999999999
 31
0.0
  0
LINE
  5
293
330
1E
100
AcDbEntity
  8
0
100
AcDbLine
 10
54.703
 20
314.0
 30
0.0
 11
54.7228
 21
311.377
 31
0.0
  0
LINE
  5
294
330
1E
100
AcDbEntity
  8
0
100
AcDbLine
 10
55.297
 20
314.0
 30
0.0
 11
55.3168
 21
311.377
 31
0.0
  0
LINE
  5
295
330
1E
100
AcDbEntity
  8
0
100
AcDbLine
 10
55.0
 20
314.0
 30
0.0
 11
55.0099
 21
311.1229999999999
 31
0.0
  0
LINE
  5
296
330
1E
100
AcDbEntity
  8
0
100
AcDbLine
 10
56.0891
 20
314.0
 30
0.0
 11
56.1089
 21
311.377
 31
0.0
  0
LINE
  5
297
330
1E
100
AcDbEntity
  8
0
100
AcDbLine
 10
56.6832
 20
314.0
 30
0.0
 11
56.70300000000001
 21
311.377
 31
0.0
  0
LINE
  5
298
330
1E
100
AcDbEntity
  8
0
100
AcDbLine
 10
56.38609999999999
 20
314.0
 30
0.0
 11
56.396
 21
311.1229999999999
 31
0.0
  0
LINE
  5
299
330
1E
100
AcDbEntity
  8
0
100
AcDbLine
 10
57.4753
 20
314.0
 30
0.0
 11
57.495
 21
311.377
 31
0.0
  0
LINE
  5
29A
330
1E
100
AcDbEntity
  8
0
100
AcDbLine
 10
58.0693
 20
314.0
 30
0.0
 11
58.0891
 21
311.377
 31
0.0
  0
LINE
  5
29B
330
1E
100
AcDbEntity
  8
0
100
AcDbLine
 10
57.7723
 20
314.0
 30
0.0
 11
57.78220000000001
 21
311.1229999999999
 31
0.0
  0
LINE
  5
29C
330
1E
100
AcDbEntity
  8
0
100
AcDbLine
 10
58.86140000000001
 20
314.0
 30
0.0
 11
58.8812
 21
311.377
 31
0.0
  0
LINE
  5
29D
330
1E
100
AcDbEntity
  8
0
100
AcDbLine
 10
59.4554
 20
314.0
 30
0.0
 11
59.4753
 21
311.377
 31
0.0
  0
LINE
  5
29E
330
1E
100
AcDbEntity
  8
0
100
AcDbLine
 10
59.1584
 20
314.0
 30
0.0
 11
59.1683
 21
311.1229999999999
 31
0.0
  0
LINE
  5
29F
330
1E
100
AcDbEntity
  8
0
100
AcDbLine
 10
60.2475
 20
314.0
 30
0.0
 11
60.2673
 21
311.377
 31
0.0
  0
LINE
  5
2A0
330
1E
100
AcDbEntity
  8
0
100
AcDbLine
 10
60.8416
 20
314.0
 30
0.0
 11
60.8614
 21
311.377
 31
0.0
  0
LINE
  5
2A1
330
1E
100
AcDbEntity
  8
0
100
AcDbLine
 10
60.5446
 20
314.0
 30
0.0
 11
60.5545
 21
311.1229999999999
 31
0.0
  0
LINE
  5
2A2
330
1E
100
AcDbEntity
  8
0
100
AcDbLine
 10
61.6337
 20
314.0
 30
0.0
 11
61.6535
 21
311.377
 31
0.0
  0
LINE
  5
2A3
330
1E
100
AcDbEntity
  8
0
100
AcDbLine
 10
62.2277
 20
314.0
 30
0.0
 11
62.2475
 21
311.377
 31
0.0
  0
LINE
  5
2A4
330
1E
100
AcDbEntity
  8
0
100
AcDbLine
 10
61.9307
 20
314.0
 30
0.0
 11
61.9406
 21
311.1229999999999
 31
0.0
  0
LINE
  5
2A5
330
1E
100
AcDbEntity
  8
0
100
AcDbLine
 10
63.0198
 20
314.0
 30
0.0
 11
63.0396
 21
311.377
 31
0.0
  0
LINE
  5
2A6
330
1E
100
AcDbEntity
  8
0
100
AcDbLine
 10
63.0396
 20
311.377
 30
0.0
 11
63.0693
 21
308.923
 31
0.0
  0
LINE
  5
2A7
330
1E
100
AcDbEntity
  8
0
100
AcDbLine
 10
63.6139
 20
314.0
 30
0.0
 11
63.63369999999999
 21
311.377
 31
0.0
  0
LINE
  5
2A8
330
1E
100
AcDbEntity
  8
0
100
AcDbLine
 10
53.29699999999999
 20
316.623
 30
0.0
 11
53.3168
 21
314.0
 31
0.0
  0
LINE
  5
2A9
330
1E
100
AcDbEntity
  8
0
100
AcDbLine
 10
54.6832
 20
316.623
 30
0.0
 11
54.703
 21
314.0
 31
0.0
  0
LINE
  5
2AA
330
1E
100
AcDbEntity
  8
0
100
AcDbLine
 10
55.2772
 20
316.623
 30
0.0
 11
55.297
 21
314.0
 31
0.0
  0
LINE
  5
2AB
330
1E
100
AcDbEntity
  8
0
100
AcDbLine
 10
55.2475
 20
319.077
 30
0.0
 11
55.2772
 21
316.623
 31
0.0
  0
LINE
  5
2AC
330
1E
100
AcDbEntity
  8
0
100
AcDbLine
 10
54.9901
 20
316.877
 30
0.0
 11
55.0
 21
314.0
 31
0.0
  0
LINE
  5
2AD
330
1E
100
AcDbEntity
  8
0
100
AcDbLine
 10
54.6535
 20
319.077
 30
0.0
 11
54.6832
 21
316.623
 31
0.0
  0
LINE
  5
2AE
330
1E
100
AcDbEntity
  8
0
100
AcDbLine
 10
53.8911
 20
316.623
 30
0.0
 11
53.9109
 21
314.0
 31
0.0
  0
LINE
  5
2AF
330
1E
100
AcDbEntity
  8
0
100
AcDbLine
 10
54.9703
 20
319.5
 30
0.0
 11
54.9901
 21
316.877
 31
0.0
  0
LINE
  5
2B0
330
1E
100
AcDbEntity
  8
0
100
AcDbLine
 10
53.86140000000001
 20
319.077
 30
0.0
 11
53.8911
 21
316.623
 31
0.0
  0
LINE
  5
2B1
330
1E
100
AcDbEntity
  8
0
100
AcDbLine
 10
53.604
 20
316.877
 30
0.0
 11
53.6139
 21
314.0
 31
0.0
  0
LINE
  5
2B2
330
1E
100
AcDbEntity
  8
0
100
AcDbLine
 10
55.198
 20
321.192
 30
0.0
 11
55.2475
 21
319.077
 31
0.0
  0
LINE
  5
2B3
330
1E
100
AcDbEntity
  8
0
100
AcDbLine
 10
54.60399999999999
 20
321.192
 30
0.0
 11
54.6535
 21
319.077
 31
0.0
  0
LINE
  5
2B4
330
1E
100
AcDbEntity
  8
0
100
AcDbLine
 10
53.8119
 20
321.192
 30
0.0
 11
53.86140000000001
 21
319.077
 31
0.0
  0
LINE
  5
2B5
330
1E
100
AcDbEntity
  8
0
100
AcDbLine
 10
53.5842
 20
319.5
 30
0.0
 11
53.604
 21
316.877
 31
0.0
  0
LINE
  5
2B6
330
1E
100
AcDbEntity
  8
0
100
AcDbLine
 10
53.2673
 20
319.077
 30
0.0
 11
53.29699999999999
 21
316.623
 31
0.0
  0
LINE
  5
2B7
330
1E
100
AcDbEntity
  8
0
100
AcDbLine
 10
53.2178
 20
321.192
 30
0.0
 11
53.2673
 21
319.077
 31
0.0
  0
LINE
  5
2B8
330
1E
100
AcDbEntity
  8
0
100
AcDbLine
 10
56.0693
 20
316.623
 30
0.0
 11
56.0891
 21
314.0
 31
0.0
  0
LINE
  5
2B9
330
1E
100
AcDbEntity
  8
0
100
AcDbLine
 10
56.6634
 20
316.623
 30
0.0
 11
56.6832
 21
314.0
 31
0.0
  0
LINE
  5
2BA
330
1E
100
AcDbEntity
  8
0
100
AcDbLine
 10
56.6337
 20
319.077
 30
0.0
 11
56.6634
 21
316.623
 31
0.0
  0
LINE
  5
2BB
330
1E
100
AcDbEntity
  8
0
100
AcDbLine
 10
56.3762
 20
316.877
 30
0.0
 11
56.38609999999999
 21
314.0
 31
0.0
  0
LINE
  5
2BC
330
1E
100
AcDbEntity
  8
0
100
AcDbLine
 10
56.5842
 20
321.192
 30
0.0
 11
56.6337
 21
319.077
 31
0.0
  0
LINE
  5
2BD
330
1E
100
AcDbEntity
  8
0
100
AcDbLine
 10
56.3564
 20
319.5
 30
0.0
 11
56.3762
 21
316.877
 31
0.0
  0
LINE
  5
2BE
330
1E
100
AcDbEntity
  8
0
100
AcDbLine
 10
56.0396
 20
319.077
 30
0.0
 11
56.0693
 21
316.623
 31
0.0
  0
LINE
  5
2BF
330
1E
100
AcDbEntity
  8
0
100
AcDbLine
 10
55.99009999999999
 20
321.192
 30
0.0
 11
56.0396
 21
319.077
 31
0.0
  0
LINE
  5
2C0
330
1E
100
AcDbEntity
  8
0
100
AcDbLine
 10
57.4554
 20
316.623
 30
0.0
 11
57.4753
 21
314.0
 31
0.0
  0
LINE
  5
2C1
330
1E
100
AcDbEntity
  8
0
100
AcDbLine
 10
58.0495
 20
316.623
 30
0.0
 11
58.0693
 21
314.0
 31
0.0
  0
LINE
  5
2C2
330
1E
100
AcDbEntity
  8
0
100
AcDbLine
 10
58.0198
 20
319.077
 30
0.0
 11
58.0495
 21
316.623
 31
0.0
  0
LINE
  5
2C3
330
1E
100
AcDbEntity
  8
0
100
AcDbLine
 10
57.7624
 20
316.877
 30
0.0
 11
57.7723
 21
314.0
 31
0.0
  0
LINE
  5
2C4
330
1E
100
AcDbEntity
  8
0
100
AcDbLine
 10
57.9703
 20
321.192
 30
0.0
 11
58.0198
 21
319.077
 31
0.0
  0
LINE
  5
2C5
330
1E
100
AcDbEntity
  8
0
100
AcDbLine
 10
57.7426
 20
319.5
 30
0.0
 11
57.7624
 21
316.877
 31
0.0
  0
LINE
  5
2C6
330
1E
100
AcDbEntity
  8
0
100
AcDbLine
 10
57.4258
 20
319.077
 30
0.0
 11
57.4554
 21
316.623
 31
0.0
  0
LINE
  5
2C7
330
1E
100
AcDbEntity
  8
0
100
AcDbLine
 10
57.37619999999999
 20
321.192
 30
0.0
 11
57.4258
 21
319.077
 31
0.0
  0
LINE
  5
2C8
330
1E
100
AcDbEntity
  8
0
100
AcDbLine
 10
58.8416
 20
316.623
 30
0.0
 11
58.86140000000001
 21
314.0
 31
0.0
  0
LINE
  5
2C9
330
1E
100
AcDbEntity
  8
0
100
AcDbLine
 10
59.4356
 20
316.623
 30
0.0
 11
59.4554
 21
314.0
 31
0.0
  0
LINE
  5
2CA
330
1E
100
AcDbEntity
  8
0
100
AcDbLine
 10
59.4059
 20
319.077
 30
0.0
 11
59.4356
 21
316.623
 31
0.0
  0
LINE
  5
2CB
330
1E
100
AcDbEntity
  8
0
100
AcDbLine
 10
59.1485
 20
316.877
 30
0.0
 11
59.1584
 21
314.0
 31
0.0
  0
LINE
  5
2CC
330
1E
100
AcDbEntity
  8
0
100
AcDbLine
 10
59.3564
 20
321.192
 30
0.0
 11
59.4059
 21
319.077
 31
0.0
  0
LINE
  5
2CD
330
1E
100
AcDbEntity
  8
0
100
AcDbLine
 10
59.1287
 20
319.5
 30
0.0
 11
59.1485
 21
316.877
 31
0.0
  0
LINE
  5
2CE
330
1E
100
AcDbEntity
  8
0
100
AcDbLine
 10
58.8119
 20
319.077
 30
0.0
 11
58.8416
 21
316.623
 31
0.0
  0
LINE
  5
2CF
330
1E
100
AcDbEntity
  8
0
100
AcDbLine
 10
58.7624
 20
321.192
 30
0.0
 11
58.8119
 21
319.077
 31
0.0
  0
LINE
  5
2D0
330
1E
100
AcDbEntity
  8
0
100
AcDbLine
 10
60.2277
 20
316.623
 30
0.0
 11
60.2475
 21
314.0
 31
0.0
  0
LINE
  5
2D1
330
1E
100
AcDbEntity
  8
0
100
AcDbLine
 10
60.198
 20
319.077
 30
0.0
 11
60.2277
 21
316.623
 31
0.0
  0
LINE
  5
2D2
330
1E
100
AcDbEntity
  8
0
100
AcDbLine
 10
55.1485
 20
322.8
 30
0.0
 11
55.198
 21
321.192
 31
0.0
  0
LINE
  5
2D3
330
1E
100
AcDbEntity
  8
0
100
AcDbLine
 10
54.9208
 20
321.785
 30
0.0
 11
54.9703
 21
319.5
 31
0.0
  0
LINE
  5
2D4
330
1E
100
AcDbEntity
  8
0
100
AcDbLine
 10
54.55449999999999
 20
322.8
 30
0.0
 11
54.60399999999999
 21
321.192
 31
0.0
  0
LINE
  5
2D5
330
1E
100
AcDbEntity
  8
0
100
AcDbLine
 10
53.7624
 20
322.8
 30
0.0
 11
53.8119
 21
321.192
 31
0.0
  0
LINE
  5
2D6
330
1E
100
AcDbEntity
  8
0
100
AcDbLine
 10
53.5346
 20
321.785
 30
0.0
 11
53.5842
 21
319.5
 31
0.0
  0
LINE
  5
2D7
330
1E
100
AcDbEntity
  8
0
100
AcDbLine
 10
53.1683
 20
322.8
 30
0.0
 11
53.2178
 21
321.192
 31
0.0
  0
LINE
  5
2D8
330
1E
100
AcDbEntity
  8
0
100
AcDbLine
 10
56.53459999999999
 20
322.8
 30
0.0
 11
56.5842
 21
321.192
 31
0.0
  0
LINE
  5
2D9
330
1E
100
AcDbEntity
  8
0
100
AcDbLine
 10
56.3069
 20
321.785
 30
0.0
 11
56.3564
 21
319.5
 31
0.0
  0
LINE
  5
2DA
330
1E
100
AcDbEntity
  8
0
100
AcDbLine
 10
55.9406
 20
322.8
 30
0.0
 11
55.99009999999999
 21
321.192
 31
0.0
  0
LINE
  5
2DB
330
1E
100
AcDbEntity
  8
0
100
AcDbLine
 10
57.9208
 20
322.8
 30
0.0
 11
57.9703
 21
321.192
 31
0.0
  0
LINE
  5
2DC
330
1E
100
AcDbEntity
  8
0
100
AcDbLine
 10
57.6931
 20
321.785
 30
0.0
 11
57.7426
 21
319.5
 31
0.0
  0
LINE
  5
2DD
330
1E
100
AcDbEntity
  8
0
100
AcDbLine
 10
57.3267
 20
322.8
 30
0.0
 11
57.37619999999999
 21
321.192
 31
0.0
  0
LINE
  5
2DE
330
1E
100
AcDbEntity
  8
0
100
AcDbLine
 10
59.3069
 20
322.8
 30
0.0
 11
59.3564
 21
321.192
 31
0.0
  0
LINE
  5
2DF
330
1E
100
AcDbEntity
  8
0
100
AcDbLine
 10
59.0792
 20
321.785
 30
0.0
 11
59.1287
 21
319.5
 31
0.0
  0
LINE
  5
2E0
330
1E
100
AcDbEntity
  8
0
100
AcDbLine
 10
58.7129
 20
322.8
 30
0.0
 11
58.7624
 21
321.192
 31
0.0
  0
LINE
  5
2E1
330
1E
100
AcDbEntity
  8
0
100
AcDbLine
 10
60.1485
 20
321.192
 30
0.0
 11
60.198
 21
319.077
 31
0.0
  0
LINE
  5
2E2
330
1E
100
AcDbEntity
  8
0
100
AcDbLine
 10
60.82180000000001
 20
316.623
 30
0.0
 11
60.8416
 21
314.0
 31
0.0
  0
LINE
  5
2E3
330
1E
100
AcDbEntity
  8
0
100
AcDbLine
 10
60.79209999999999
 20
319.077
 30
0.0
 11
60.82180000000001
 21
316.623
 31
0.0
  0
LINE
  5
2E4
330
1E
100
AcDbEntity
  8
0
100
AcDbLine
 10
60.5346
 20
316.877
 30
0.0
 11
60.5446
 21
314.0
 31
0.0
  0
LINE
  5
2E5
330
1E
100
AcDbEntity
  8
0
100
AcDbLine
 10
60.7426
 20
321.192
 30
0.0
 11
60.79209999999999
 21
319.077
 31
0.0
  0
LINE
  5
2E6
330
1E
100
AcDbEntity
  8
0
100
AcDbLine
 10
60.6931
 20
322.8
 30
0.0
 11
60.7426
 21
321.192
 31
0.0
  0
LINE
  5
2E7
330
1E
100
AcDbEntity
  8
0
100
AcDbLine
 10
60.5149
 20
319.5
 30
0.0
 11
60.5346
 21
316.877
 31
0.0
  0
LINE
  5
2E8
330
1E
100
AcDbEntity
  8
0
100
AcDbLine
 10
60.4654
 20
321.785
 30
0.0
 11
60.5149
 21
319.5
 31
0.0
  0
LINE
  5
2E9
330
1E
100
AcDbEntity
  8
0
100
AcDbLine
 10
60.099
 20
322.8
 30
0.0
 11
60.1485
 21
321.192
 31
0.0
  0
LINE
  5
2EA
330
1E
100
AcDbEntity
  8
0
100
AcDbLine
 10
61.6139
 20
316.623
 30
0.0
 11
61.6337
 21
314.0
 31
0.0
  0
LINE
  5
2EB
330
1E
100
AcDbEntity
  8
0
100
AcDbLine
 10
61.5842
 20
319.077
 30
0.0
 11
61.6139
 21
316.623
 31
0.0
  0
LINE
  5
2EC
330
1E
100
AcDbEntity
  8
0
100
AcDbLine
 10
61.5347
 20
321.192
 30
0.0
 11
61.5842
 21
319.077
 31
0.0
  0
LINE
  5
2ED
330
1E
100
AcDbEntity
  8
0
100
AcDbLine
 10
55.0495
 20
323.815
 30
0.0
 11
55.1485
 21
322.8
 31
0.0
  0
LINE
  5
2EE
330
1E
100
AcDbEntity
  8
0
100
AcDbLine
 10
54.8614
 20
323.477
 30
0.0
 11
54.9208
 21
321.785
 31
0.0
  0
LINE
  5
2EF
330
1E
100
AcDbEntity
  8
0
100
AcDbLine
 10
54.4554
 20
323.815
 30
0.0
 11
54.55449999999999
 21
322.8
 31
0.0
  0
LINE
  5
2F0
330
1E
100
AcDbEntity
  8
0
100
AcDbLine
 10
53.6634
 20
323.815
 30
0.0
 11
53.7624
 21
322.8
 31
0.0
  0
LINE
  5
2F1
330
1E
100
AcDbEntity
  8
0
100
AcDbLine
 10
53.47529999999999
 20
323.477
 30
0.0
 11
53.5346
 21
321.785
 31
0.0
  0
LINE
  5
2F2
330
1E
100
AcDbEntity
  8
0
100
AcDbLine
 10
53.0693
 20
323.815
 30
0.0
 11
53.3663
 21
324.577
 31
0.0
  0
LINE
  5
2F3
330
1E
100
AcDbEntity
  8
0
100
AcDbLine
 10
53.0693
 20
323.815
 30
0.0
 11
53.1683
 21
322.8
 31
0.0
  0
LINE
  5
2F4
330
1E
100
AcDbEntity
  8
0
100
AcDbLine
 10
56.4356
 20
323.815
 30
0.0
 11
56.53459999999999
 21
322.8
 31
0.0
  0
LINE
  5
2F5
330
1E
100
AcDbEntity
  8
0
100
AcDbLine
 10
56.2475
 20
323.477
 30
0.0
 11
56.3069
 21
321.785
 31
0.0
  0
LINE
  5
2F6
330
1E
100
AcDbEntity
  8
0
100
AcDbLine
 10
55.8416
 20
323.815
 30
0.0
 11
55.9406
 21
322.8
 31
0.0
  0
LINE
  5
2F7
330
1E
100
AcDbEntity
  8
0
100
AcDbLine
 10
57.8218
 20
323.815
 30
0.0
 11
57.9208
 21
322.8
 31
0.0
  0
LINE
  5
2F8
330
1E
100
AcDbEntity
  8
0
100
AcDbLine
 10
57.6337
 20
323.477
 30
0.0
 11
57.6931
 21
321.785
 31
0.0
  0
LINE
  5
2F9
330
1E
100
AcDbEntity
  8
0
100
AcDbLine
 10
57.2277
 20
323.815
 30
0.0
 11
57.3267
 21
322.8
 31
0.0
  0
LINE
  5
2FA
330
1E
100
AcDbEntity
  8
0
100
AcDbLine
 10
59.2079
 20
323.815
 30
0.0
 11
59.3069
 21
322.8
 31
0.0
  0
LINE
  5
2FB
330
1E
100
AcDbEntity
  8
0
100
AcDbLine
 10
59.0198
 20
323.477
 30
0.0
 11
59.0792
 21
321.785
 31
0.0
  0
LINE
  5
2FC
330
1E
100
AcDbEntity
  8
0
100
AcDbLine
 10
58.6139
 20
323.815
 30
0.0
 11
58.7129
 21
322.8
 31
0.0
  0
LINE
  5
2FD
330
1E
100
AcDbEntity
  8
0
100
AcDbLine
 10
60.59409999999999
 20
323.815
 30
0.0
 11
60.6931
 21
322.8
 31
0.0
  0
LINE
  5
2FE
330
1E
100
AcDbEntity
  8
0
100
AcDbLine
 10
60.4059
 20
323.477
 30
0.0
 11
60.4654
 21
321.785
 31
0.0
  0
LINE
  5
2FF
330
1E
100
AcDbEntity
  8
0
100
AcDbLine
 10
60.0
 20
323.815
 30
0.0
 11
60.099
 21
322.8
 31
0.0
  0
LINE
  5
300
330
1E
100
AcDbEntity
  8
0
100
AcDbLine
 10
61.4851
 20
322.8
 30
0.0
 11
61.5347
 21
321.192
 31
0.0
  0
LINE
  5
301
330
1E
100
AcDbEntity
  8
0
100
AcDbLine
 10
62.2079
 20
316.623
 30
0.0
 11
62.2277
 21
314.0
 31
0.0
  0
LINE
  5
302
330
1E
100
AcDbEntity
  8
0
100
AcDbLine
 10
62.17819999999999
 20
319.077
 30
0.0
 11
62.2079
 21
316.623
 31
0.0
  0
LINE
  5
303
330
1E
100
AcDbEntity
  8
0
100
AcDbLine
 10
62.1287
 20
321.192
 30
0.0
 11
62.17819999999999
 21
319.077
 31
0.0
  0
LINE
  5
304
330
1E
100
AcDbEntity
  8
0
100
AcDbLine
 10
61.9208
 20
316.877
 30
0.0
 11
61.9307
 21
314.0
 31
0.0
  0
LINE
  5
305
330
1E
100
AcDbEntity
  8
0
100
AcDbLine
 10
61.90100000000001
 20
319.5
 30
0.0
 11
61.9208
 21
316.877
 31
0.0
  0
LINE
  5
306
330
1E
100
AcDbEntity
  8
0
100
AcDbLine
 10
62.0792
 20
322.8
 30
0.0
 11
62.1287
 21
321.192
 31
0.0
  0
LINE
  5
307
330
1E
100
AcDbEntity
  8
0
100
AcDbLine
 10
61.9802
 20
323.815
 30
0.0
 11
62.0792
 21
322.8
 31
0.0
  0
LINE
  5
308
330
1E
100
AcDbEntity
  8
0
100
AcDbLine
 10
61.8515
 20
321.785
 30
0.0
 11
61.90100000000001
 21
319.5
 31
0.0
  0
LINE
  5
309
330
1E
100
AcDbEntity
  8
0
100
AcDbLine
 10
61.7921
 20
323.477
 30
0.0
 11
61.8515
 21
321.785
 31
0.0
  0
LINE
  5
30A
330
1E
100
AcDbEntity
  8
0
100
AcDbLine
 10
61.38609999999999
 20
323.815
 30
0.0
 11
61.4851
 21
322.8
 31
0.0
  0
LINE
  5
30B
330
1E
100
AcDbEntity
  8
0
100
AcDbLine
 10
63.0
 20
316.623
 30
0.0
 11
63.0198
 21
314.0
 31
0.0
  0
LINE
  5
30C
330
1E
100
AcDbEntity
  8
0
100
AcDbLine
 10
63.5941
 20
316.623
 30
0.0
 11
63.6139
 21
314.0
 31
0.0
  0
LINE
  5
30D
330
1E
100
AcDbEntity
  8
0
100
AcDbLine
 10
63.5644
 20
319.077
 30
0.0
 11
63.5941
 21
316.623
 31
0.0
  0
LINE
  5
30E
330
1E
100
AcDbEntity
  8
0
100
AcDbLine
 10
63.3069
 20
316.877
 30
0.0
 11
63.3168
 21
314.0
 31
0.0
  0
LINE
  5
30F
330
1E
100
AcDbEntity
  8
0
100
AcDbLine
 10
63.5149
 20
321.192
 30
0.0
 11
63.5644
 21
319.077
 31
0.0
  0
LINE
  5
310
330
1E
100
AcDbEntity
  8
0
100
AcDbLine
 10
63.2871
 20
319.5
 30
0.0
 11
63.3069
 21
316.877
 31
0.0
  0
LINE
  5
311
330
1E
100
AcDbEntity
  8
0
100
AcDbLine
 10
62.9703
 20
319.077
 30
0.0
 11
63.0
 21
316.623
 31
0.0
  0
LINE
  5
312
330
1E
100
AcDbEntity
  8
0
100
AcDbLine
 10
62.9208
 20
321.192
 30
0.0
 11
62.9703
 21
319.077
 31
0.0
  0
LINE
  5
313
330
1E
100
AcDbEntity
  8
0
100
AcDbLine
 10
63.4653
 20
322.8
 30
0.0
 11
63.5149
 21
321.192
 31
0.0
  0
LINE
  5
314
330
1E
100
AcDbEntity
  8
0
100
AcDbLine
 10
63.2376
 20
321.785
 30
0.0
 11
63.2871
 21
319.5
 31
0.0
  0
LINE
  5
315
330
1E
100
AcDbEntity
  8
0
100
AcDbLine
 10
62.8713
 20
322.8
 30
0.0
 11
62.9208
 21
321.192
 31
0.0
  0
LINE
  5
316
330
1E
100
AcDbEntity
  8
0
100
AcDbLine
 10
63.3663
 20
323.815
 30
0.0
 11
63.4653
 21
322.8
 31
0.0
  0
LINE
  5
317
330
1E
100
AcDbEntity
  8
0
100
AcDbLine
 10
63.1782
 20
323.477
 30
0.0
 11
63.2376
 21
321.785
 31
0.0
  0
LINE
  5
318
330
1E
100
AcDbEntity
  8
0
100
AcDbLine
 10
62.7723
 20
323.815
 30
0.0
 11
62.8713
 21
322.8
 31
0.0
  0
LINE
  5
319
330
1E
100
AcDbEntity
  8
0
100
AcDbLine
 10
63.3168
 20
314.0
 30
0.0
 11
63.3267
 21
311.1229999999999
 31
0.0
  0
LINE
  5
31A
330
1E
100
AcDbEntity
  8
0
100
AcDbLine
 10
63.63369999999999
 20
311.377
 30
0.0
 11
63.6634
 21
308.923
 31
0.0
  0
LINE
  5
31B
330
1E
100
AcDbEntity
  8
0
100
AcDbLine
 10
63.3267
 20
311.1229999999999
 30
0.0
 11
63.34649999999999
 21
308.4999999999999
 31
0.0
  0
LINE
  5
31C
330
1E
100
AcDbEntity
  8
0
100
AcDbLine
 10
63.6634
 20
308.923
 30
0.0
 11
63.7129
 21
306.808
 31
0.0
  0
LINE
  5
31D
330
1E
100
AcDbEntity
  8
0
100
AcDbLine
 10
63.34649999999999
 20
308.4999999999999
 30
0.0
 11
63.396
 21
306.2149999999999
 31
0.0
  0
LINE
  5
31E
330
1E
100
AcDbEntity
  8
0
100
AcDbLine
 10
63.7129
 20
306.808
 30
0.0
 11
63.7624
 21
305.2
 31
0.0
  0
LINE
  5
31F
330
1E
100
AcDbEntity
  8
0
100
AcDbLine
 10
63.396
 20
306.2149999999999
 30
0.0
 11
63.45539999999999
 21
304.5229999999999
 31
0.0
  0
LINE
  5
320
330
1E
100
AcDbEntity
  8
0
100
AcDbLine
 10
63.7624
 20
305.2
 30
0.0
 11
63.86140000000001
 21
304.185
 31
0.0
  0
LINE
  5
321
330
1E
100
AcDbEntity
  8
0
100
AcDbLine
 10
63.45539999999999
 20
304.5229999999999
 30
0.0
 11
63.5644
 21
303.4229999999999
 31
0.0
  0
LINE
  5
322
330
1E
100
AcDbEntity
  8
0
100
AcDbLine
 10
63.86140000000001
 20
304.185
 30
0.0
 11
63.9604
 21
303.846
 31
0.0
  0
LINE
  5
323
330
1E
100
AcDbEntity
  8
0
100
AcDbLine
 10
63.3663
 20
303.846
 30
0.0
 11
63.6634
 21
303.0
 31
0.0
  0
LINE
  5
324
330
1E
100
AcDbEntity
  8
0
100
AcDbLine
 10
64.3861
 20
316.623
 30
0.0
 11
64.4059
 21
314.0
 31
0.0
  0
LINE
  5
325
330
1E
100
AcDbEntity
  8
0
100
AcDbLine
 10
64.4059
 20
314.0
 30
0.0
 11
64.703
 21
314.0
 31
0.0
  0
LINE
  5
326
330
1E
100
AcDbEntity
  8
0
100
AcDbLine
 10
64.35639999999999
 20
319.077
 30
0.0
 11
64.3861
 21
316.623
 31
0.0
  0
LINE
  5
327
330
1E
100
AcDbEntity
  8
0
100
AcDbLine
 10
64.3069
 20
321.192
 30
0.0
 11
64.35639999999999
 21
319.077
 31
0.0
  0
LINE
  5
328
330
1E
100
AcDbEntity
  8
0
100
AcDbLine
 10
64.25740000000001
 20
322.8
 30
0.0
 11
64.3069
 21
321.192
 31
0.0
  0
LINE
  5
329
330
1E
100
AcDbEntity
  8
0
100
AcDbLine
 10
64.6562
 20
303.846
 30
0.0
 11
64.75719999999999
 21
304.185
 31
0.0
  0
LINE
  5
32A
330
1E
100
AcDbEntity
  8
0
100
AcDbLine
 10
64.9543
 20
308.923
 30
0.0
 11
64.98409999999999
 21
311.377
 31
0.0
  0
LINE
  5
32B
330
1E
100
AcDbEntity
  8
0
100
AcDbLine
 10
64.9005
 20
306.808
 30
0.0
 11
64.9543
 21
308.923
 31
0.0
  0
LINE
  5
32C
330
1E
100
AcDbEntity
  8
0
100
AcDbLine
 10
64.8514
 20
305.2
 30
0.0
 11
64.9005
 21
306.808
 31
0.0
  0
LINE
  5
32D
330
1E
100
AcDbEntity
  8
0
100
AcDbLine
 10
64.75719999999999
 20
304.185
 30
0.0
 11
64.8514
 21
305.2
 31
0.0
  0
LINE
  5
32E
330
1E
100
AcDbEntity
  8
0
100
AcDbLine
 10
64.703
 20
314.0
 30
0.0
 11
65.0
 21
314.0
 31
0.0
  0
LINE
  5
32F
330
1E
100
AcDbEntity
  8
0
100
AcDbLine
 10
64.98409999999999
 20
311.377
 30
0.0
 11
65.0
 21
314.0
 31
0.0
  0
LINE
  5
330
330
1E
100
AcDbEntity
  8
0
100
AcDbLine
 10
64.98409999999999
 20
316.623
 30
0.0
 11
65.0
 21
314.0
 31
0.0
  0
LINE
  5
331
330
1E
100
AcDbEntity
  8
0
100
AcDbLine
 10
64.9802
 20
316.623
 30
0.0
 11
65.0
 21
314.0
 31
0.0
  0
LINE
  5
332
330
1E
100
AcDbEntity
  8
0
100
AcDbLine
 10
64.9005
 20
321.192
 30
0.0
 11
64.9543
 21
319.077
 31
0.0
  0
LINE
  5
333
330
1E
100
AcDbEntity
  8
0
100
AcDbLine
 10
64.9543
 20
319.077
 30
0.0
 11
64.98409999999999
 21
316.623
 31
0.0
  0
LINE
  5
334
330
1E
100
AcDbEntity
  8
0
100
AcDbLine
 10
64.9505
 20
319.077
 30
0.0
 11
64.9802
 21
316.623
 31
0.0
  0
LINE
  5
335
330
1E
100
AcDbEntity
  8
0
100
AcDbLine
 10
64.90100000000001
 20
321.192
 30
0.0
 11
64.9505
 21
319.077
 31
0.0
  0
LINE
  5
336
330
1E
100
AcDbEntity
  8
0
100
AcDbLine
 10
64.6931
 20
316.877
 30
0.0
 11
64.703
 21
314.0
 31
0.0
  0
LINE
  5
337
330
1E
100
AcDbEntity
  8
0
100
AcDbLine
 10
64.6733
 20
319.5
 30
0.0
 11
64.6931
 21
316.877
 31
0.0
  0
LINE
  5
338
330
1E
100
AcDbEntity
  8
0
100
AcDbLine
 10
64.8514
 20
322.8
 30
0.0
 11
64.9005
 21
321.192
 31
0.0
  0
LINE
  5
339
330
1E
100
AcDbEntity
  8
0
100
AcDbLine
 10
64.75719999999999
 20
323.815
 30
0.0
 11
64.8514
 21
322.8
 31
0.0
  0
LINE
  5
33A
330
1E
100
AcDbEntity
  8
0
100
AcDbLine
 10
64.8515
 20
322.8
 30
0.0
 11
64.90100000000001
 21
321.192
 31
0.0
  0
LINE
  5
33B
330
1E
100
AcDbEntity
  8
0
100
AcDbLine
 10
64.75249999999999
 20
323.815
 30
0.0
 11
64.8515
 21
322.8
 31
0.0
  0
LINE
  5
33C
330
1E
100
AcDbEntity
  8
0
100
AcDbLine
 10
64.6238
 20
321.785
 30
0.0
 11
64.6733
 21
319.5
 31
0.0
  0
LINE
  5
33D
330
1E
100
AcDbEntity
  8
0
100
AcDbLine
 10
64.5644
 20
323.477
 30
0.0
 11
64.6238
 21
321.785
 31
0.0
  0
LINE
  5
33E
330
1E
100
AcDbEntity
  8
0
100
AcDbLine
 10
64.1584
 20
323.815
 30
0.0
 11
64.25740000000001
 21
322.8
 31
0.0
  0
LINE
  5
33F
330
1E
100
AcDbEntity
  8
0
100
AcDbLine
 10
53.5500853164557
 20
324.154
 30
0.0
 11
54.3564
 21
324.154
 31
0.0
  0
LINE
  5
340
330
1E
100
AcDbEntity
  8
0
100
AcDbLine
 10
54.9362139240506
 20
324.154
 30
0.0
 11
55.7426
 21
324.154
 31
0.0
  0
LINE
  5
341
330
1E
100
AcDbEntity
  8
0
100
AcDbLine
 10
56.3223139240506
 20
324.154
 30
0.0
 11
57.1287
 21
324.154
 31
0.0
  0
LINE
  5
342
330
1E
100
AcDbEntity
  8
0
100
AcDbLine
 10
54.95049999999999
 20
324.154
 30
0.0
 11
55.0495
 21
323.815
 31
0.0
  0
LINE
  5
343
330
1E
100
AcDbEntity
  8
0
100
AcDbLine
 10
54.3564
 20
324.154
 30
0.0
 11
54.6535
 21
325.0
 31
0.0
  0
LINE
  5
344
330
1E
100
AcDbEntity
  8
0
100
AcDbLine
 10
54.3564
 20
324.154
 30
0.0
 11
54.4554
 21
323.815
 31
0.0
  0
LINE
  5
345
330
1E
100
AcDbEntity
  8
0
100
AcDbLine
 10
53.5644
 20
324.154
 30
0.0
 11
53.6634
 21
323.815
 31
0.0
  0
LINE
  5
346
330
1E
100
AcDbEntity
  8
0
100
AcDbLine
 10
57.70851392405059
 20
324.154
 30
0.0
 11
58.5149
 21
324.154
 31
0.0
  0
LINE
  5
347
330
1E
100
AcDbEntity
  8
0
100
AcDbLine
 10
56.33659999999999
 20
324.154
 30
0.0
 11
56.4356
 21
323.815
 31
0.0
  0
LINE
  5
348
330
1E
100
AcDbEntity
  8
0
100
AcDbLine
 10
55.7426
 20
324.154
 30
0.0
 11
56.0396
 21
325.0
 31
0.0
  0
LINE
  5
349
330
1E
100
AcDbEntity
  8
0
100
AcDbLine
 10
55.7426
 20
324.154
 30
0.0
 11
55.8416
 21
323.815
 31
0.0
  0
LINE
  5
34A
330
1E
100
AcDbEntity
  8
0
100
AcDbLine
 10
59.09461392405059
 20
324.154
 30
0.0
 11
59.901
 21
324.154
 31
0.0
  0
LINE
  5
34B
330
1E
100
AcDbEntity
  8
0
100
AcDbLine
 10
57.7228
 20
324.154
 30
0.0
 11
57.8218
 21
323.815
 31
0.0
  0
LINE
  5
34C
330
1E
100
AcDbEntity
  8
0
100
AcDbLine
 10
57.1287
 20
324.154
 30
0.0
 11
57.4258
 21
325.0
 31
0.0
  0
LINE
  5
34D
330
1E
100
AcDbEntity
  8
0
100
AcDbLine
 10
57.1287
 20
324.154
 30
0.0
 11
57.2277
 21
323.815
 31
0.0
  0
LINE
  5
34E
330
1E
100
AcDbEntity
  8
0
100
AcDbLine
 10
60.48078531645571
 20
324.154
 30
0.0
 11
61.2871
 21
324.154
 31
0.0
  0
LINE
  5
34F
330
1E
100
AcDbEntity
  8
0
100
AcDbLine
 10
59.1089
 20
324.154
 30
0.0
 11
59.2079
 21
323.815
 31
0.0
  0
LINE
  5
350
330
1E
100
AcDbEntity
  8
0
100
AcDbLine
 10
58.5149
 20
324.154
 30
0.0
 11
58.8119
 21
325.0
 31
0.0
  0
LINE
  5
351
330
1E
100
AcDbEntity
  8
0
100
AcDbLine
 10
58.5149
 20
324.154
 30
0.0
 11
58.6139
 21
323.815
 31
0.0
  0
LINE
  5
352
330
1E
100
AcDbEntity
  8
0
100
AcDbLine
 10
61.8669139240506
 20
324.154
 30
0.0
 11
62.6733
 21
324.154
 31
0.0
  0
LINE
  5
353
330
1E
100
AcDbEntity
  8
0
100
AcDbLine
 10
60.495
 20
324.154
 30
0.0
 11
60.59409999999999
 21
323.815
 31
0.0
  0
LINE
  5
354
330
1E
100
AcDbEntity
  8
0
100
AcDbLine
 10
59.901
 20
324.154
 30
0.0
 11
60.198
 21
325.0
 31
0.0
  0
LINE
  5
355
330
1E
100
AcDbEntity
  8
0
100
AcDbLine
 10
59.901
 20
324.154
 30
0.0
 11
60.0
 21
323.815
 31
0.0
  0
LINE
  5
356
330
1E
100
AcDbEntity
  8
0
100
AcDbLine
 10
61.8812
 20
324.154
 30
0.0
 11
61.9802
 21
323.815
 31
0.0
  0
LINE
  5
357
330
1E
100
AcDbEntity
  8
0
100
AcDbLine
 10
61.2871
 20
324.154
 30
0.0
 11
61.5842
 21
325.0
 31
0.0
  0
LINE
  5
358
330
1E
100
AcDbEntity
  8
0
100
AcDbLine
 10
61.2871
 20
324.154
 30
0.0
 11
61.38609999999999
 21
323.815
 31
0.0
  0
LINE
  5
359
330
1E
100
AcDbEntity
  8
0
100
AcDbLine
 10
63.2530139240506
 20
324.154
 30
0.0
 11
64.0594
 21
324.154
 31
0.0
  0
LINE
  5
35A
330
1E
100
AcDbEntity
  8
0
100
AcDbLine
 10
63.2673
 20
324.154
 30
0.0
 11
63.3663
 21
323.815
 31
0.0
  0
LINE
  5
35B
330
1E
100
AcDbEntity
  8
0
100
AcDbLine
 10
62.6733
 20
324.154
 30
0.0
 11
62.9703
 21
325.0
 31
0.0
  0
LINE
  5
35C
330
1E
100
AcDbEntity
  8
0
100
AcDbLine
 10
62.6733
 20
324.154
 30
0.0
 11
62.7723
 21
323.815
 31
0.0
  0
LINE
  5
35D
330
1E
100
AcDbEntity
  8
0
100
AcDbLine
 10
54.75249999999999
 20
324.577
 30
0.0
 11
54.8614
 21
323.477
 31
0.0
  0
LINE
  5
35E
330
1E
100
AcDbEntity
  8
0
100
AcDbLine
 10
54.6535
 20
325.0
 30
0.0
 11
54.95049999999999
 21
324.154
 31
0.0
  0
LINE
  5
35F
330
1E
100
AcDbEntity
  8
0
100
AcDbLine
 10
54.6535
 20
325.0
 30
0.0
 11
54.75249999999999
 21
324.577
 31
0.0
  0
LINE
  5
360
330
1E
100
AcDbEntity
  8
0
100
AcDbLine
 10
53.3663
 20
324.577
 30
0.0
 11
53.47529999999999
 21
323.477
 31
0.0
  0
LINE
  5
361
330
1E
100
AcDbEntity
  8
0
100
AcDbLine
 10
53.2673
 20
325.0
 30
0.0
 11
53.5644
 21
324.154
 31
0.0
  0
LINE
  5
362
330
1E
100
AcDbEntity
  8
0
100
AcDbLine
 10
53.2673
 20
325.0
 30
0.0
 11
53.3663
 21
324.577
 31
0.0
  0
LINE
  5
363
330
1E
100
AcDbEntity
  8
0
100
AcDbLine
 10
56.13859999999999
 20
324.577
 30
0.0
 11
56.2475
 21
323.477
 31
0.0
  0
LINE
  5
364
330
1E
100
AcDbEntity
  8
0
100
AcDbLine
 10
56.0396
 20
325.0
 30
0.0
 11
56.33659999999999
 21
324.154
 31
0.0
  0
LINE
  5
365
330
1E
100
AcDbEntity
  8
0
100
AcDbLine
 10
56.0396
 20
325.0
 30
0.0
 11
56.13859999999999
 21
324.577
 31
0.0
  0
LINE
  5
366
330
1E
100
AcDbEntity
  8
0
100
AcDbLine
 10
57.5247
 20
324.577
 30
0.0
 11
57.6337
 21
323.477
 31
0.0
  0
LINE
  5
367
330
1E
100
AcDbEntity
  8
0
100
AcDbLine
 10
57.4258
 20
325.0
 30
0.0
 11
57.7228
 21
324.154
 31
0.0
  0
LINE
  5
368
330
1E
100
AcDbEntity
  8
0
100
AcDbLine
 10
57.4258
 20
325.0
 30
0.0
 11
57.5247
 21
324.577
 31
0.0
  0
LINE
  5
369
330
1E
100
AcDbEntity
  8
0
100
AcDbLine
 10
58.9109
 20
324.577
 30
0.0
 11
59.0198
 21
323.477
 31
0.0
  0
LINE
  5
36A
330
1E
100
AcDbEntity
  8
0
100
AcDbLine
 10
58.8119
 20
325.0
 30
0.0
 11
59.1089
 21
324.154
 31
0.0
  0
LINE
  5
36B
330
1E
100
AcDbEntity
  8
0
100
AcDbLine
 10
58.8119
 20
325.0
 30
0.0
 11
58.9109
 21
324.577
 31
0.0
  0
LINE
  5
36C
330
1E
100
AcDbEntity
  8
0
100
AcDbLine
 10
60.297
 20
324.577
 30
0.0
 11
60.4059
 21
323.477
 31
0.0
  0
LINE
  5
36D
330
1E
100
AcDbEntity
  8
0
100
AcDbLine
 10
60.198
 20
325.0
 30
0.0
 11
60.495
 21
324.154
 31
0.0
  0
LINE
  5
36E
330
1E
100
AcDbEntity
  8
0
100
AcDbLine
 10
60.198
 20
325.0
 30
0.0
 11
60.297
 21
324.577
 31
0.0
  0
LINE
  5
36F
330
1E
100
AcDbEntity
  8
0
100
AcDbLine
 10
61.6832
 20
324.577
 30
0.0
 11
61.7921
 21
323.477
 31
0.0
  0
LINE
  5
370
330
1E
100
AcDbEntity
  8
0
100
AcDbLine
 10
61.5842
 20
325.0
 30
0.0
 11
61.8812
 21
324.154
 31
0.0
  0
LINE
  5
371
330
1E
100
AcDbEntity
  8
0
100
AcDbLine
 10
61.5842
 20
325.0
 30
0.0
 11
61.6832
 21
324.577
 31
0.0
  0
LINE
  5
372
330
1E
100
AcDbEntity
  8
0
100
AcDbLine
 10
63.0693
 20
324.577
 30
0.0
 11
63.1782
 21
323.477
 31
0.0
  0
LINE
  5
373
330
1E
100
AcDbEntity
  8
0
100
AcDbLine
 10
62.9703
 20
325.0
 30
0.0
 11
63.2673
 21
324.154
 31
0.0
  0
LINE
  5
374
330
1E
100
AcDbEntity
  8
0
100
AcDbLine
 10
62.9703
 20
325.0
 30
0.0
 11
63.0693
 21
324.577
 31
0.0
  0
LINE
  5
375
330
1E
100
AcDbEntity
  8
0
100
AcDbLine
 10
64.0594
 20
324.154
 30
0.0
 11
64.35639999999999
 21
325.0
 31
0.0
  0
LINE
  5
376
330
1E
100
AcDbEntity
  8
0
100
AcDbLine
 10
64.0594
 20
324.154
 30
0.0
 11
64.1584
 21
323.815
 31
0.0
  0
LINE
  5
377
330
1E
100
AcDbEntity
  8
0
100
AcDbLine
 10
64.6562
 20
324.154
 30
0.0
 11
64.75719999999999
 21
323.815
 31
0.0
  0
LINE
  5
378
330
1E
100
AcDbEntity
  8
0
100
AcDbLine
 10
64.65349999999999
 20
324.154
 30
0.0
 11
64.75249999999999
 21
323.815
 31
0.0
  0
LINE
  5
379
330
1E
100
AcDbEntity
  8
0
100
AcDbLine
 10
64.4554
 20
324.577
 30
0.0
 11
64.5644
 21
323.477
 31
0.0
  0
LINE
  5
37A
330
1E
100
AcDbEntity
  8
0
100
AcDbLine
 10
64.35639999999999
 20
325.0
 30
0.0
 11
64.65349999999999
 21
324.154
 31
0.0
  0
LINE
  5
37B
330
1E
100
AcDbEntity
  8
0
100
AcDbLine
 10
64.35639999999999
 20
325.0
 30
0.0
 11
64.4554
 21
324.577
 31
0.0
  0
LINE
  5
37C
330
1E
100
AcDbEntity
  8
0
100
AcDbLine
 10
53.0
 20
325.5679999999999
 30
0.0
 11
53.0
 21
324.4159999999999
 31
0.0
  0
LINE
  5
37D
330
1E
100
AcDbEntity
  8
0
100
AcDbLine
 10
53.0
 20
325.5679999999999
 30
0.0
 11
53.0
 21
326.0
 31
0.0
  0
LINE
  5
37E
330
1E
100
AcDbEntity
  8
0
100
AcDbLine
 10
53.0
 20
326.0
 30
0.0
 11
53.0
 21
325.5679999999999
 31
0.0
  0
LINE
  5
37F
330
1E
100
AcDbEntity
  8
0
100
AcDbLine
 10
51.0
 20
301.848
 30
0.0
 11
51.0
 21
300.504
 31
0.0
  0
LINE
  5
380
330
1E
100
AcDbEntity
  8
0
100
AcDbLine
 10
51.0
 20
301.848
 30
0.0
 11
51.0
 21
304.0879999999999
 31
0.0
  0
LINE
  5
381
330
1E
100
AcDbEntity
  8
0
100
AcDbLine
 10
51.0
 20
300.504
 30
0.0
 11
51.0
 21
300.0
 31
0.0
  0
LINE
  5
382
330
1E
100
AcDbEntity
  8
0
100
AcDbLine
 10
51.0
 20
300.504
 30
0.0
 11
51.0
 21
301.848
 31
0.0
  0
LINE
  5
383
330
1E
100
AcDbEntity
  8
0
100
AcDbLine
 10
37.9637323863637
 20
300.0
 30
0.0
 11
51.0
 21
300.0
 31
0.0
  0
LINE
  5
384
330
1E
100
AcDbEntity
  8
0
100
AcDbLine
 10
35.3539
 20
329.388
 30
0.0
 11
37.5799
 21
328.209
 31
0.0
  0
LINE
  5
385
330
1E
100
AcDbEntity
  8
0
100
AcDbLine
 10
37.5799
 20
328.209
 30
0.0
 11
41.13539999999999
 21
326.2729999999999
 31
0.0
  0
LINE
  5
386
330
1E
100
AcDbEntity
  8
0
100
AcDbLine
 10
37.5799
 20
328.209
 30
0.0
 11
37.9637323863637
 21
328.0
 31
0.0
  0
LINE
  5
38B
330
1E
100
AcDbEntity
  8
0
100
AcDbLine
 10
33.5
 20
330.0
 30
0.0
 11
34.36719999999999
 21
329.888
 31
0.0
  0
LINE
  5
38C
330
1E
100
AcDbEntity
  8
0
100
AcDbLine
 10
34.36719999999999
 20
329.888
 30
0.0
 11
35.3539
 21
329.388
 31
0.0
  0
LINE
  5
38D
330
1E
100
AcDbEntity
  8
0
100
AcDbLine
 10
32.6328
 20
329.888
 30
0.0
 11
33.5
 21
330.0
 31
0.0
  0
LINE
  5
38E
330
1E
100
AcDbEntity
  8
0
100
AcDbLine
 10
31.6461
 20
329.388
 30
0.0
 11
32.6328
 21
329.888
 31
0.0
  0
LINE
  5
392
330
1E
100
AcDbEntity
  8
0
100
AcDbLine
 10
29.4201
 20
328.209
 30
0.0
 11
31.6461
 21
329.388
 31
0.0
  0
LINE
  5
393
330
1E
100
AcDbEntity
  8
0
100
AcDbLine
 10
37.9637323863637
 20
328.0
 30
0.0
 11
51.0
 21
328.0
 31
0.0
  0
LINE
  5
394
330
1E
100
AcDbEntity
  8
0
100
AcDbLine
 10
16.0
 20
328.0
 30
0.0
 11
29.0362568181818
 21
328.0
 31
0.0
  0
LINE
  5
395
330
1E
100
AcDbEntity
  8
0
100
AcDbLine
 10
16.0
 20
328.0
 30
0.0
 11
16.0
 21
327.496
 31
0.0
  0
LINE
  5
39A
330
1E
100
AcDbEntity
  8
0
100
AcDbLine
 10
37.1
 20
0.500000000000001
 30
0.0
 11
40.49999999999999
 21
1.9
 31
0.0
  0
LINE
  5
39B
330
1E
100
AcDbEntity
  8
0
100
AcDbLine
 10
48.11399999999999
 20
322.475
 30
0.0
 11
48.5
 21
322.0199999999999
 31
0.0
  0
LINE
  5
39C
330
1E
100
AcDbEntity
  8
0
100
AcDbLine
 10
35.3539
 20
298.612
 30
0.0
 11
34.36719999999999
 21
298.112
 31
0.0
  0
ENDSEC
  0
SECTION
  2
OBJECTS
  0
DICTIONARY
  5
C
330
0
100
AcDbDictionary
  3
ACAD_GROUP
350
D
  3
ACAD_LAYOUT
350
19
  3
ACAD_MLINESTYLE
350
16
  3
ACAD_PLOTSETTINGS
350
18
  3
ACAD_PLOTSTYLENAME
350
E
  3
ACDBHEADERROUNDTRIPXREC
350
3A0
  3
ACDBVARIABLEDICTIONARY
350
39D
  0
DICTIONARY
  5
3C2
330
1E
100
AcDbDictionary
280
     1
  3
ACAD_LAYOUTSELFREF
360
3C3
  0
DICTIONARY
  5
3C0
330
1A
100
AcDbDictionary
280
     1
  3
ACAD_LAYOUTSELFREF
360
3C1
  0
DICTIONARY
  5
D
102
{ACAD_REACTORS
330
C
102
}
330
C
100
AcDbDictionary
  0
DICTIONARY
  5
19
102
{ACAD_REACTORS
330
C
102
}
330
C
100
AcDbDictionary
  0
DICTIONARY
  5
16
102
{ACAD_REACTORS
330
C
102
}
330
C
100
AcDbDictionary
  3
STANDARD
350
17
  0
DICTIONARY
  5
18
102
{ACAD_REACTORS
330
C
102
}
330
C
100
AcDbDictionary
  0
ACDBDICTIONARYWDFLT
  5
E
102
{ACAD_REACTORS
330
C
102
}
330
C
100
AcDbDictionary
281
     1
  3
Normal
350
F
100
AcDbDictionaryWithDefault
340
F
  0
DICTIONARY
  5
3A0
102
{ACAD_REACTORS
330
C
102
}
330
C
100
AcDbDictionary
  3
CEPSNTYPE
350
3AA
  3
FINGERPRINTGUID
350
3AB
  3
HYPERLINKBASE
350
3A3
  3
INSUNITS
350
3A9
  3
LAYOUTDICT
350
3A5
  3
LWETCUNION
350
3A8
  3
PLOTSETDICT
350
3A6
  3
PLOTSTYLNAMDICT
350
3A7
  3
PSVPSCALE
350
3AD
  3
PUCSBASE
350
3B0
  3
PUCSORGBACK
350
3B6
  3
PUCSORGBOTTOM
350
3B2
  3
PUCSORGFRONT
350
3B5
  3
PUCSORGLEFT
350
3B3
  3
PUCSORGRIGHT
350
3B4
  3
PUCSORGTOP
350
3B1
  3
PUCSORTHOREF
350
3AE
  3
PUCSORTHOVIEW
350
3AF
  3
STYLESHEET
350
3A4
  3
TSTACKALIGN
350
3A1
  3
TSTACKSIZE
350
3A2
  3
UCSBASE
350
3B9
  3
UCSORGBACK
350
3BF
  3
UCSORGBOTTOM
350
3BB
  3
UCSORGFRONT
350
3BE
  3
UCSORGLEFT
350
3BC
  3
UCSORGRIGHT
350
3BD
  3
UCSORGTOP
350
3BA
  3
UCSORTHOREF
350
3B7
  3
UCSORTHOVIEW
350
3B8
  3
VERSIONGUID
350
3AC
  0
DICTIONARY
  5
39D
102
{ACAD_REACTORS
330
C
102
}
330
C
100
AcDbDictionary
  3
DIMASSOC
350
39E
  0
XRECORD
  5
3C3
102
{ACAD_REACTORS
330
3C2
102
}
330
3C2
100
AcDbXrecord
340
1E
  0
XRECORD
  5
3C1
102
{ACAD_REACTORS
330
3C0
102
}
330
3C0
100
AcDbXrecord
340
1A
  0
MLINESTYLE
  5
17
102
{ACAD_REACTORS
330
16
102
}
330
16
100
AcDbMlineStyle
  2
STANDARD
 70
     0
  3

 62
   256
 51
90.0
 52
90.0
 71
     2
 49
0.5
 62
   256
  6
BYLAYER
 49
-0.5
 62
   256
  6
BYLAYER
  0
ACDBPLACEHOLDER
  5
F
102
{ACAD_REACTORS
330
E
102
}
330
E
100
AcDbPlaceHolder
280
     0
  0
XRECORD
  5
3AA
102
{ACAD_REACTORS
330
3A0
102
}
330
3A0
100
AcDbXrecord
 90
        0
  0
XRECORD
  5
3AB
102
{ACAD_REACTORS
330
3A0
102
}
330
3A0
100
AcDbXrecord
  1
{6B338FE2-9F3D-43D6-A2FA-66128A75383E}
  0
XRECORD
  5
3A3
102
{ACAD_REACTORS
330
3A0
102
}
330
3A0
100
AcDbXrecord
  1

  0
XRECORD
  5
3A9
102
{ACAD_REACTORS
330
3A0
102
}
330
3A0
100
AcDbXrecord
 90
        0
  0
XRECORD
  5
3A5
102
{ACAD_REACTORS
330
3A0
102
}
330
3A0
100
AcDbXrecord
340
19
  0
XRECORD
  5
3A8
102
{ACAD_REACTORS
330
3A0
102
}
330
3A0
100
AcDbXrecord
 90
    10781
  0
XRECORD
  5
3A6
102
{ACAD_REACTORS
330
3A0
102
}
330
3A0
100
AcDbXrecord
340
18
  0
XRECORD
  5
3A7
102
{ACAD_REACTORS
330
3A0
102
}
330
3A0
100
AcDbXrecord
340
E
  0
XRECORD
  5
3AD
102
{ACAD_REACTORS
330
3A0
102
}
330
3A0
100
AcDbXrecord
 40
0.0
  0
XRECORD
  5
3B0
102
{ACAD_REACTORS
330
3A0
102
}
330
3A0
100
AcDbXrecord
340
0
  0
XRECORD
  5
3B6
102
{ACAD_REACTORS
330
3A0
102
}
330
3A0
100
AcDbXrecord
 10
0.0
 20
0.0
 30
0.0
  0
XRECORD
  5
3B2
102
{ACAD_REACTORS
330
3A0
102
}
330
3A0
100
AcDbXrecord
 10
0.0
 20
0.0
 30
0.0
  0
XRECORD
  5
3B5
102
{ACAD_REACTORS
330
3A0
102
}
330
3A0
100
AcDbXrecord
 10
0.0
 20
0.0
 30
0.0
  0
XRECORD
  5
3B3
102
{ACAD_REACTORS
330
3A0
102
}
330
3A0
100
AcDbXrecord
 10
0.0
 20
0.0
 30
0.0
  0
XRECORD
  5
3B4
102
{ACAD_REACTORS
330
3A0
102
}
330
3A0
100
AcDbXrecord
 10
0.0
 20
0.0
 30
0.0
  0
XRECORD
  5
3B1
102
{ACAD_REACTORS
330
3A0
102
}
330
3A0
100
AcDbXrecord
 10
0.0
 20
0.0
 30
0.0
  0
XRECORD
  5
3AE
102
{ACAD_REACTORS
330
3A0
102
}
330
3A0
100
AcDbXrecord
340
0
  0
XRECORD
  5
3AF
102
{ACAD_REACTORS
330
3A0
102
}
330
3A0
100
AcDbXrecord
 70
     0
  0
XRECORD
  5
3A4
102
{ACAD_REACTORS
330
3A0
102
}
330
3A0
100
AcDbXrecord
  1

  0
XRECORD
  5
3A1
102
{ACAD_REACTORS
330
3A0
102
}
330
3A0
100
AcDbXrecord
 90
        1
  0
XRECORD
  5
3A2
102
{ACAD_REACTORS
330
3A0
102
}
330
3A0
100
AcDbXrecord
 90
       70
  0
XRECORD
  5
3B9
102
{ACAD_REACTORS
330
3A0
102
}
330
3A0
100
AcDbXrecord
340
0
  0
XRECORD
  5
3BF
102
{ACAD_REACTORS
330
3A0
102
}
330
3A0
100
AcDbXrecord
 10
0.0
 20
0.0
 30
0.0
  0
XRECORD
  5
3BB
102
{ACAD_REACTORS
330
3A0
102
}
330
3A0
100
AcDbXrecord
 10
0.0
 20
0.0
 30
0.0
  0
XRECORD
  5
3BE
102
{ACAD_REACTORS
330
3A0
102
}
330
3A0
100
AcDbXrecord
 10
0.0
 20
0.0
 30
0.0
  0
XRECORD
  5
3BC
102
{ACAD_REACTORS
330
3A0
102
}
330
3A0
100
AcDbXrecord
 10
0.0
 20
0.0
 30
0.0
  0
XRECORD
  5
3BD
102
{ACAD_REACTORS
330
3A0
102
}
330
3A0
100
AcDbXrecord
 10
0.0
 20
0.0
 30
0.0
  0
XRECORD
  5
3BA
102
{ACAD_REACTORS
330
3A0
102
}
330
3A0
100
AcDbXrecord
 10
0.0
 20
0.0
 30
0.0
  0
XRECORD
  5
3B7
102
{ACAD_REACTORS
330
3A0
102
}
330
3A0
100
AcDbXrecord
340
0
  0
XRECORD
  5
3B8
102
{ACAD_REACTORS
330
3A0
102
}
330
3A0
100
AcDbXrecord
 70
     1
  0
XRECORD
  5
3AC
102
{ACAD_REACTORS
330
3A0
102
}
330
3A0
100
AcDbXrecord
  1
{254A883C-B6D1-4946-BA73-A9E853B2EF28}
  0
DICTIONARYVAR
  5
39E
102
{ACAD_REACTORS
330
39D
102
}
330
39D
100
DictionaryVariables
280
     0
  1
1
  0
ENDSEC
  0
EOF
