  0
SECTION
  2
HEADER
  9
$ACADVER
  1
AC1014
  9
$ACADMAINTVER
 70
     9
  9
$DWGCODEPAGE
  3
ANSI_1252
  9
$INSBASE
 10
0.0
 20
0.0
 30
0.0
  9
$EXTMIN
 10
0.0000154999999939
 20
0.0000000000000049
 30
0.0
  9
$EXTMAX
 10
158.9999845
 20
68.0
 30
0.0
  9
$LIMMIN
 10
0.0
 20
0.0
  9
$LIMMAX
 10
12.0
 20
9.0
  9
$ORTHOMODE
 70
     0
  9
$REGENMODE
 70
     1
  9
$FILLMODE
 70
     1
  9
$QTEXTMODE
 70
     0
  9
$MIRRTEXT
 70
     1
  9
$DRAGMODE
 70
     2
  9
$LTSCALE
 40
1.0
  9
$OSMODE
 70
    37
  9
$ATTMODE
 70
     1
  9
$TEXTSIZE
 40
0.2
  9
$TRACEWID
 40
0.05
  9
$TEXTSTYLE
  7
STANDARD
  9
$CLAYER
  8
0
  9
$CELTYPE
  6
CONTINUOUS
  9
$CECOLOR
 62
   256
  9
$CELTSCALE
 40
1.0
  9
$DELOBJ
 70
     1
  9
$DISPSILH
 70
     0
  9
$DIMSCALE
 40
1.0
  9
$DIMASZ
 40
0.18
  9
$DIMEXO
 40
0.0625
  9
$DIMDLI
 40
0.38
  9
$DIMRND
 40
0.0
  9
$DIMDLE
 40
0.0
  9
$DIMEXE
 40
0.18
  9
$DIMTP
 40
0.0
  9
$DIMTM
 40
0.0
  9
$DIMTXT
 40
0.18
  9
$DIMCEN
 40
0.09
  9
$DIMTSZ
 40
0.0
  9
$DIMTOL
 70
     0
  9
$DIMLIM
 70
     0
  9
$DIMTIH
 70
     1
  9
$DIMTOH
 70
     1
  9
$DIMSE1
 70
     0
  9
$DIMSE2
 70
     0
  9
$DIMTAD
 70
     0
  9
$DIMZIN
 70
     0
  9
$DIMBLK
  1

  9
$DIMASO
 70
     1
  9
$DIMSHO
 70
     1
  9
$DIMPOST
  1

  9
$DIMAPOST
  1

  9
$DIMALT
 70
     0
  9
$DIMALTD
 70
     2
  9
$DIMALTF
 40
25.4
  9
$DIMLFAC
 40
1.0
  9
$DIMTOFL
 70
     0
  9
$DIMTVP
 40
0.0
  9
$DIMTIX
 70
     0
  9
$DIMSOXD
 70
     0
  9
$DIMSAH
 70
     0
  9
$DIMBLK1
  1

  9
$DIMBLK2
  1

  9
$DIMSTYLE
  2
STANDARD
  9
$DIMCLRD
 70
     0
  9
$DIMCLRE
 70
     0
  9
$DIMCLRT
 70
     0
  9
$DIMTFAC
 40
1.0
  9
$DIMGAP
 40
0.09
  9
$DIMJUST
 70
     0
  9
$DIMSD1
 70
     0
  9
$DIMSD2
 70
     0
  9
$DIMTOLJ
 70
     1
  9
$DIMTZIN
 70
     0
  9
$DIMALTZ
 70
     0
  9
$DIMALTTZ
 70
     0
  9
$DIMFIT
 70
     3
  9
$DIMUPT
 70
     0
  9
$DIMUNIT
 70
     2
  9
$DIMDEC
 70
     4
  9
$DIMTDEC
 70
     4
  9
$DIMALTU
 70
     2
  9
$DIMALTTD
 70
     2
  9
$DIMTXSTY
  7
STANDARD
  9
$DIMAUNIT
 70
     0
  9
$LUNITS
 70
     2
  9
$LUPREC
 70
     4
  9
$SKETCHINC
 40
0.1
  9
$FILLETRAD
 40
0.0
  9
$AUNITS
 70
     0
  9
$AUPREC
 70
     0
  9
$MENU
  1
.
  9
$ELEVATION
 40
0.0
  9
$PELEVATION
 40
0.0
  9
$THICKNESS
 40
0.0
  9
$LIMCHECK
 70
     0
  9
$BLIPMODE
 70
     0
  9
$CHAMFERA
 40
0.0
  9
$CHAMFERB
 40
0.0
  9
$CHAMFERC
 40
0.0
  9
$CHAMFERD
 40
0.0
  9
$SKPOLY
 70
     0
  9
$TDCREATE
 40
2454696.812828044
  9
$TDUPDATE
 40
2454696.813075080
  9
$TDINDWG
 40
0.0002470370
  9
$TDUSRTIMER
 40
0.0002470370
  9
$USRTIMER
 70
     1
  9
$ANGBASE
 50
0.0
  9
$ANGDIR
 70
     0
  9
$PDMODE
 70
     0
  9
$PDSIZE
 40
0.0
  9
$PLINEWID
 40
0.0
  9
$COORDS
 70
     1
  9
$SPLFRAME
 70
     0
  9
$SPLINETYPE
 70
     6
  9
$SPLINESEGS
 70
     8
  9
$ATTDIA
 70
     0
  9
$ATTREQ
 70
     1
  9
$HANDLING
 70
 22529
  9
$HANDSEED
  5
101
  9
$SURFTAB1
 70
     6
  9
$SURFTAB2
 70
     6
  9
$SURFTYPE
 70
     6
  9
$SURFU
 70
     6
  9
$SURFV
 70
     6
  9
$UCSNAME
  2

  9
$UCSORG
 10
0.0
 20
0.0
 30
0.0
  9
$UCSXDIR
 10
1.0
 20
0.0
 30
0.0
  9
$UCSYDIR
 10
0.0
 20
1.0
 30
0.0
  9
$PUCSNAME
  2

  9
$PUCSORG
 10
0.0
 20
0.0
 30
0.0
  9
$PUCSXDIR
 10
1.0
 20
0.0
 30
0.0
  9
$PUCSYDIR
 10
0.0
 20
1.0
 30
0.0
  9
$USERI1
 70
     0
  9
$USERI2
 70
     0
  9
$USERI3
 70
     0
  9
$USERI4
 70
     0
  9
$USERI5
 70
     0
  9
$USERR1
 40
0.0
  9
$USERR2
 40
0.0
  9
$USERR3
 40
0.0
  9
$USERR4
 40
0.0
  9
$USERR5
 40
0.0
  9
$WORLDVIEW
 70
     1
  9
$SHADEDGE
 70
     3
  9
$SHADEDIF
 70
    70
  9
$TILEMODE
 70
     1
  9
$MAXACTVP
 70
    64
  9
$PINSBASE
 10
0.0
 20
0.0
 30
0.0
  9
$PLIMCHECK
 70
     0
  9
$PEXTMIN
 10
1.000000000000000E+20
 20
1.000000000000000E+20
 30
1.000000000000000E+20
  9
$PEXTMAX
 10
-1.000000000000000E+20
 20
-1.000000000000000E+20
 30
-1.000000000000000E+20
  9
$PLIMMIN
 10
0.0
 20
0.0
  9
$PLIMMAX
 10
12.0
 20
9.0
  9
$UNITMODE
 70
     0
  9
$VISRETAIN
 70
     1
  9
$PLINEGEN
 70
     0
  9
$PSLTSCALE
 70
     1
  9
$TREEDEPTH
 70
  3020
  9
$PICKSTYLE
 70
     1
  9
$CMLSTYLE
  2
STANDARD
  9
$CMLJUST
 70
     0
  9
$CMLSCALE
 40
1.0
  9
$PROXYGRAPHICS
 70
     1
  9
$MEASUREMENT
 70
     0
  0
ENDSEC
  0
SECTION
  2
CLASSES
  0
CLASS
  1
ACDBDICTIONARYWDFLT
  2
AcDbDictionaryWithDefault
  3
AutoCAD 2000
 90
        0
280
     0
281
     0
  0
CLASS
  1
ACDBPLACEHOLDER
  2
AcDbPlaceHolder
  3
AutoCAD 2000
 90
        0
280
     0
281
     0
  0
CLASS
  1
LAYOUT
  2
AcDbLayout
  3
AutoCAD 2000
 90
        0
280
     0
281
     0
  0
CLASS
  1
DICTIONARYVAR
  2
AcDbDictionaryVar
  3
AutoCAD 2000
 90
        0
280
     0
281
     0
  0
CLASS
  1
LONG_TRANSACTION
  2
AcDbLongTransaction
  3
AutoCAD 2000
 90
        0
280
     0
281
     0
  0
CLASS
  1
LWPOLYLINE
  2
AcDbPolyline
  3
AutoCAD 2000
 90
        0
280
     0
281
     1
  0
CLASS
  1
HATCH
  2
AcDbHatch
  3
AutoCAD 2000
 90
        0
280
     0
281
     1
  0
CLASS
  1
XRECORD
  2
AcDbXrecord
  3
AutoCAD 2000
 90
        0
280
     0
281
     0
  0
ENDSEC
  0
SECTION
  2
TABLES
  0
TABLE
  2
VPORT
  5
8
330
0
100
AcDbSymbolTable
 70
     2
  0
VPORT
  5
DC
330
8
100
AcDbSymbolTableRecord
100
AcDbViewportTableRecord
  2
*ACTIVE
 70
     0
 10
0.0
 20
0.0
 11
1.0
 21
1.0
 12
79.5
 22
34.0
 13
0.0
 23
0.0
 14
1.0
 24
1.0
 15
0.0
 25
0.0
 16
0.0
 26
0.0
 36
1.0
 17
0.0
 27
0.0
 37
0.0
 40
76.7946796724692
 41
2.078104993597951
 42
50.0
 43
0.0
 44
0.0
 50
0.0
 51
0.0
 71
     0
 72
   100
 73
     1
 74
     3
 75
     0
 76
     0
 77
     0
 78
     0
  0
ENDTAB
  0
TABLE
  2
LTYPE
  5
5
330
0
100
AcDbSymbolTable
 70
     1
  0
LTYPE
  5
13
330
5
100
AcDbSymbolTableRecord
100
AcDbLinetypeTableRecord
  2
BYBLOCK
 70
     0
  3

 72
    65
 73
     0
 40
0.0
  0
LTYPE
  5
14
330
5
100
AcDbSymbolTableRecord
100
AcDbLinetypeTableRecord
  2
BYLAYER
 70
     0
  3

 72
    65
 73
     0
 40
0.0
  0
LTYPE
  5
15
330
5
100
AcDbSymbolTableRecord
100
AcDbLinetypeTableRecord
  2
CONTINUOUS
 70
     0
  3
Solid line
 72
    65
 73
     0
 40
0.0
  0
ENDTAB
  0
TABLE
  2
LAYER
  5
2
330
0
100
AcDbSymbolTable
 70
     1
  0
LAYER
  5
10
330
2
100
AcDbSymbolTableRecord
100
AcDbLayerTableRecord
  2
0
 70
     0
 62
     7
  6
CONTINUOUS
  0
ENDTAB
  0
TABLE
  2
STYLE
  5
3
330
0
100
AcDbSymbolTable
 70
     1
  0
STYLE
  5
11
330
3
100
AcDbSymbolTableRecord
100
AcDbTextStyleTableRecord
  2
STANDARD
 70
     0
 40
0.0
 41
1.0
 50
0.0
 71
     0
 42
0.2
  3
txt
  4

  0
ENDTAB
  0
TABLE
  2
VIEW
  5
6
330
0
100
AcDbSymbolTable
 70
     0
  0
ENDTAB
  0
TABLE
  2
UCS
  5
7
330
0
100
AcDbSymbolTable
 70
     0
  0
ENDTAB
  0
TABLE
  2
APPID
  5
9
330
0
100
AcDbSymbolTable
 70
     1
  0
APPID
  5
12
330
9
100
AcDbSymbolTableRecord
100
AcDbRegAppTableRecord
  2
ACAD
 70
     0
  0
ENDTAB
  0
TABLE
  2
DIMSTYLE
  5
A
330
0
100
AcDbSymbolTable
 70
     1
  0
DIMSTYLE
105
D6
330
A
100
AcDbSymbolTableRecord
100
AcDbDimStyleTableRecord
  2
STANDARD
 70
     0
  3

  4

  5

  6

  7

 40
1.0
 41
0.18
 42
0.0625
 43
0.38
 44
0.18
 45
0.0
 46
0.0
 47
0.0
 48
0.0
140
0.18
141
0.09
142
0.0
143
25.4
144
1.0
145
0.0
146
1.0
147
0.09
 71
     0
 72
     0
 73
     1
 74
     1
 75
     0
 76
     0
 77
     0
 78
     0
170
     0
171
     2
172
     0
173
     0
174
     0
175
     0
176
     0
177
     0
178
     0
270
     2
271
     4
272
     4
273
     2
274
     2
340
11
275
     0
280
     0
281
     0
282
     0
283
     1
284
     0
285
     0
286
     0
287
     3
288
     0
  0
ENDTAB
  0
TABLE
  2
BLOCK_RECORD
  5
1
330
0
100
AcDbSymbolTable
 70
     0
  0
BLOCK_RECORD
  5
1E
102
{ACAD_XDICTIONARY
360
FF
102
}
330
1
100
AcDbSymbolTableRecord
100
AcDbBlockTableRecord
  2
*MODEL_SPACE
  0
BLOCK_RECORD
  5
1A
102
{ACAD_XDICTIONARY
360
FD
102
}
330
1
100
AcDbSymbolTableRecord
100
AcDbBlockTableRecord
  2
*PAPER_SPACE
  0
ENDTAB
  0
ENDSEC
  0
SECTION
  2
BLOCKS
  0
BLOCK
  5
1F
330
1E
100
AcDbEntity
  8
0
100
AcDbBlockBegin
  2
*MODEL_SPACE
 70
     0
 10
0.0
 20
0.0
 30
0.0
  3
*MODEL_SPACE
  1

  0
ENDBLK
  5
20
330
1E
100
AcDbEntity
  8
0
100
AcDbBlockEnd
  0
BLOCK
  5
1B
330
1A
100
AcDbEntity
 67
     1
  8
0
100
AcDbBlockBegin
  2
*PAPER_SPACE
 70
     0
 10
0.0
 20
0.0
 30
0.0
  3
*PAPER_SPACE
  1

  0
ENDBLK
  5
1C
330
1A
100
AcDbEntity
 67
     1
  8
0
100
AcDbBlockEnd
  0
ENDSEC
  0
SECTION
  2
ENTITIES
  0
LINE
  5
22
330
1E
100
AcDbEntity
  8
0
100
AcDbLine
 10
25.9597845
 20
11.3266
 30
0.0
 11
26.61748449999999
 21
12.1514
 31
0.0
  0
LINE
  5
23
330
1E
100
AcDbEntity
  8
0
100
AcDbLine
 10
16.4349845
 20
14.7934
 30
0.0
 11
19.4871845
 21
13.68249999999999
 31
0.0
  0
LINE
  5
24
330
1E
100
AcDbEntity
  8
0
100
AcDbLine
 10
19.4871845
 20
13.68249999999999
 30
0.0
 11
22.17088449999999
 21
12.7057
 31
0.0
  0
LINE
  5
25
330
1E
100
AcDbEntity
  8
0
100
AcDbLine
 10
22.17088449999999
 20
12.7057
 30
0.0
 11
24.2231845
 21
11.95869999999999
 31
0.0
  0
LINE
  5
26
330
1E
100
AcDbEntity
  8
0
100
AcDbLine
 10
24.2231845
 20
11.95869999999999
 30
0.0
 11
25.4861845
 21
11.499
 31
0.0
  0
LINE
  5
27
330
1E
100
AcDbEntity
  8
0
100
AcDbLine
 10
25.4861845
 20
11.499
 30
0.0
 11
25.9597845
 21
11.3266
 31
0.0
  0
LINE
  5
28
330
1E
100
AcDbEntity
  8
0
100
AcDbLine
 10
28.9628845
 20
15.5545
 30
0.0
 11
29.50408449999999
 21
15.3575
 31
0.0
  0
LINE
  5
29
330
1E
100
AcDbEntity
  8
0
100
AcDbLine
 10
26.61748449999999
 20
12.1514
 30
0.0
 11
27.9855752169559
 21
15.9101744952079
 31
0.0
  0
LINE
  5
2A
330
1E
100
AcDbEntity
  8
0
100
AcDbLine
 10
27.9855752169559
 20
15.9101744952079
 30
0.0
 11
28.9628845
 21
15.5545
 31
0.0
  0
LINE
  5
2B
330
1E
100
AcDbEntity
  8
0
100
AcDbLine
 10
29.50408449999999
 20
15.3575
 30
0.0
 11
30.11978449999999
 21
16.0
 31
0.0
  0
LINE
  5
2C
330
1E
100
AcDbEntity
  8
0
100
AcDbLine
 10
25.17398449999999
 20
16.93349999999999
 30
0.0
 11
27.51948449999999
 21
16.07979999999999
 31
0.0
  0
LINE
  5
2D
330
1E
100
AcDbEntity
  8
0
100
AcDbLine
 10
13.1197845
 20
16.0
 30
0.0
 11
16.4349845
 21
14.7934
 31
0.0
  0
LINE
  5
2E
330
1E
100
AcDbEntity
  8
0
100
AcDbLine
 10
9.804544499999989
 20
17.2066
 30
0.0
 11
13.1197845
 21
16.0
 31
0.0
  0
LINE
  5
2F
330
1E
100
AcDbEntity
  8
0
100
AcDbLine
 10
0.0000154999999939
 20
26.7346
 30
0.0
 11
0.155645499999994
 21
26.0394
 31
0.0
  0
LINE
  5
30
330
1E
100
AcDbEntity
  8
0
100
AcDbLine
 10
0.0000154999999939
 20
26.7346
 30
0.0
 11
0.5556394999999941
 21
28.2459
 31
0.0
  0
LINE
  5
31
330
1E
100
AcDbEntity
  8
0
100
AcDbLine
 10
0.306107499999994
 20
21.728
 30
0.0
 11
1.67418449999999
 21
25.48669999999999
 31
0.0
  0
LINE
  5
32
330
1E
100
AcDbEntity
  8
0
100
AcDbLine
 10
0.279824499999994
 20
20.6734
 30
0.0
 11
0.306107499999994
 21
21.728
 31
0.0
  0
LINE
  5
33
330
1E
100
AcDbEntity
  8
0
100
AcDbLine
 10
0.279824499999994
 20
20.6734
 30
0.0
 11
0.7534294999999941
 21
20.501
 31
0.0
  0
LINE
  5
34
330
1E
100
AcDbEntity
  8
0
100
AcDbLine
 10
0.279824499999993
 20
20.6734
 30
0.0
 11
0.7534294999999941
 21
20.501
 31
0.0
  0
LINE
  5
35
330
1E
100
AcDbEntity
  8
0
100
AcDbLine
 10
0.306107499999994
 20
21.728
 30
0.0
 11
1.67418449999999
 21
25.48669999999999
 31
0.0
  0
LINE
  5
36
330
1E
100
AcDbEntity
  8
0
100
AcDbLine
 10
6.75242449999999
 20
18.31749999999999
 30
0.0
 11
9.804544499999989
 21
17.2066
 31
0.0
  0
LINE
  5
37
330
1E
100
AcDbEntity
  8
0
100
AcDbLine
 10
4.06866449999999
 20
19.29429999999999
 30
0.0
 11
6.75242449999999
 21
18.31749999999999
 31
0.0
  0
LINE
  5
38
330
1E
100
AcDbEntity
  8
0
100
AcDbLine
 10
0.7534294999999941
 20
20.501
 30
0.0
 11
2.016374499999989
 21
20.04129999999999
 31
0.0
  0
LINE
  5
39
330
1E
100
AcDbEntity
  8
0
100
AcDbLine
 10
2.016374499999989
 20
20.04129999999999
 30
0.0
 11
4.06866449999999
 21
19.29429999999999
 31
0.0
  0
LINE
  5
3A
330
1E
100
AcDbEntity
  8
0
100
AcDbLine
 10
0.7534294999999941
 20
20.501
 30
0.0
 11
2.016374499999989
 21
20.04129999999999
 31
0.0
  0
LINE
  5
3B
330
1E
100
AcDbEntity
  8
0
100
AcDbLine
 10
10.90892844667219
 20
22.1256011086885
 30
0.0
 11
11.0410845
 21
22.0775
 31
0.0
  0
LINE
  5
3C
330
1E
100
AcDbEntity
  8
0
100
AcDbLine
 10
21.3550845
 20
18.32349999999999
 30
0.0
 11
23.2148284816553
 21
17.64661720481239
 31
0.0
  0
LINE
  5
3D
330
1E
100
AcDbEntity
  8
0
100
AcDbLine
 10
14.8298845
 20
20.6985
 30
0.0
 11
18.6186845
 21
19.3194
 31
0.0
  0
LINE
  5
3E
330
1E
100
AcDbEntity
  8
0
100
AcDbLine
 10
18.6186845
 20
19.3194
 30
0.0
 11
22.1068845
 21
18.0499
 31
0.0
  0
LINE
  5
3F
330
1E
100
AcDbEntity
  8
0
100
AcDbLine
 10
18.8840845
 20
19.86139999999999
 30
0.0
 11
22.4924845
 21
18.548
 31
0.0
  0
LINE
  5
40
330
1E
100
AcDbEntity
  8
0
100
AcDbLine
 10
22.4924845
 20
18.548
 30
0.0
 11
25.6799845
 21
17.38789999999999
 31
0.0
  0
LINE
  5
41
330
1E
100
AcDbEntity
  8
0
100
AcDbLine
 10
11.46198449999999
 20
21.92429999999999
 30
0.0
 11
14.8298845
 21
20.6985
 31
0.0
  0
LINE
  5
42
330
1E
100
AcDbEntity
  8
0
100
AcDbLine
 10
21.08263681822289
 20
18.4226660203016
 30
0.0
 11
21.3550845
 21
18.32349999999999
 31
0.0
  0
LINE
  5
43
330
1E
100
AcDbEntity
  8
0
100
AcDbLine
 10
11.0410845
 20
22.0775
 30
0.0
 11
14.8298845
 21
20.6985
 31
0.0
  0
LINE
  5
44
330
1E
100
AcDbEntity
  8
0
100
AcDbLine
 10
11.0410845
 20
22.0775
 30
0.0
 11
14.8298845
 21
20.6985
 31
0.0
  0
LINE
  5
45
330
1E
100
AcDbEntity
  8
0
100
AcDbLine
 10
2.14027449999999
 20
25.3171
 30
0.0
 11
4.48574449999999
 21
24.4634
 31
0.0
  0
LINE
  5
46
330
1E
100
AcDbEntity
  8
0
100
AcDbLine
 10
7.55290449999999
 20
23.3471
 30
0.0
 11
11.0410845
 21
22.0775
 31
0.0
  0
LINE
  5
47
330
1E
100
AcDbEntity
  8
0
100
AcDbLine
 10
4.48574449999999
 20
24.4634
 30
0.0
 11
7.55290449999999
 21
23.3471
 31
0.0
  0
LINE
  5
48
330
1E
100
AcDbEntity
  8
0
100
AcDbLine
 10
4.39026449999999
 20
25.1367
 30
0.0
 11
18.8840845
 21
19.86139999999999
 31
0.0
  0
LINE
  5
49
330
1E
100
AcDbEntity
  8
0
100
AcDbLine
 10
0.000015499999994
 20
26.7346
 30
0.0
 11
4.39026449999999
 21
25.1367
 31
0.0
  0
LINE
  5
4A
330
1E
100
AcDbEntity
  8
0
100
AcDbLine
 10
1.67418449999999
 20
25.48669999999999
 30
0.0
 11
1.88376508907849
 21
25.41045427989649
 31
0.0
  0
LINE
  5
4B
330
1E
100
AcDbEntity
  8
0
100
AcDbLine
 10
1.67418449999999
 20
25.48669999999999
 30
0.0
 11
1.88376508907849
 21
25.41045427989649
 31
0.0
  0
LINE
  5
4C
330
1E
100
AcDbEntity
  8
0
100
AcDbLine
 10
10.90892844667219
 20
22.1256011086885
 30
0.0
 11
11.0410845
 21
22.0775
 31
0.0
  0
LINE
  5
4D
330
1E
100
AcDbEntity
  8
0
100
AcDbLine
 10
10.90892844667219
 20
22.1256011086885
 30
0.0
 11
11.46198449999999
 21
21.92429999999999
 31
0.0
  0
LINE
  5
4E
330
1E
100
AcDbEntity
  8
0
100
AcDbLine
 10
0.6969084999999941
 20
25.8424
 30
0.0
 11
1.88376508907849
 21
25.41045427989649
 31
0.0
  0
LINE
  5
4F
330
1E
100
AcDbEntity
  8
0
100
AcDbLine
 10
0.6969084999999941
 20
25.8424
 30
0.0
 11
1.88376508907849
 21
25.41045427989649
 31
0.0
  0
LINE
  5
50
330
1E
100
AcDbEntity
  8
0
100
AcDbLine
 10
0.6969084999999941
 20
25.8424
 30
0.0
 11
2.14027449999999
 21
25.3171
 31
0.0
  0
LINE
  5
51
330
1E
100
AcDbEntity
  8
0
100
AcDbLine
 10
0.5556394999999941
 20
28.2459
 30
0.0
 11
2.40697449999999
 21
32.0
 31
0.0
  0
LINE
  5
52
330
1E
100
AcDbEntity
  8
0
100
AcDbLine
 10
17.87388449999999
 20
45.5641
 30
0.0
 11
21.8375845
 21
46.90959999999999
 31
0.0
  0
LINE
  5
53
330
1E
100
AcDbEntity
  8
0
100
AcDbLine
 10
14.1197845
 20
43.7128
 30
0.0
 11
17.87388449999999
 21
45.5641
 31
0.0
  0
LINE
  5
54
330
1E
100
AcDbEntity
  8
0
100
AcDbLine
 10
10.63938449999999
 20
41.3873
 30
0.0
 11
14.1197845
 21
43.7128
 31
0.0
  0
LINE
  5
55
330
1E
100
AcDbEntity
  8
0
100
AcDbLine
 10
7.49236449999999
 20
38.6274
 30
0.0
 11
10.63938449999999
 21
41.3873
 31
0.0
  0
LINE
  5
56
330
1E
100
AcDbEntity
  8
0
100
AcDbLine
 10
21.8375845
 20
46.90959999999999
 30
0.0
 11
25.9429845
 21
47.72619999999999
 31
0.0
  0
LINE
  5
57
330
1E
100
AcDbEntity
  8
0
100
AcDbLine
 10
4.7324745
 20
35.4804
 30
0.0
 11
7.49236449999999
 21
38.6274
 31
0.0
  0
LINE
  5
58
330
1E
100
AcDbEntity
  8
0
100
AcDbLine
 10
2.40697449999999
 20
32.0
 30
0.0
 11
4.7324745
 21
35.4804
 31
0.0
  0
LINE
  5
59
330
1E
100
AcDbEntity
  8
0
100
AcDbLine
 10
0.5556394999999941
 20
28.2459
 30
0.0
 11
2.40697449999999
 21
32.0
 31
0.0
  0
LINE
  5
5A
330
1E
100
AcDbEntity
  8
0
100
AcDbLine
 10
0.155645499999994
 20
26.0394
 30
0.0
 11
0.6969084999999941
 21
25.8424
 31
0.0
  0
LINE
  5
5B
330
1E
100
AcDbEntity
  8
0
100
AcDbLine
 10
0.0000154999999939
 20
26.7346
 30
0.0
 11
0.5556394999999941
 21
28.2459
 31
0.0
  0
LINE
  5
5C
330
1E
100
AcDbEntity
  8
0
100
AcDbLine
 10
0.0000154999999939
 20
26.7346
 30
0.0
 11
0.155645499999994
 21
26.0394
 31
0.0
  0
LINE
  5
5D
330
1E
100
AcDbEntity
  8
0
100
AcDbLine
 10
22.1068845
 20
18.0499
 30
0.0
 11
23.2148284816553
 21
17.64661720481239
 31
0.0
  0
LINE
  5
5E
330
1E
100
AcDbEntity
  8
0
100
AcDbLine
 10
22.1068845
 20
18.0499
 30
0.0
 11
23.2148284816553
 21
17.64661720481239
 31
0.0
  0
LINE
  5
5F
330
1E
100
AcDbEntity
  8
0
100
AcDbLine
 10
22.1068845
 20
18.0499
 30
0.0
 11
25.17398449999999
 21
16.93349999999999
 31
0.0
  0
LINE
  5
60
330
1E
100
AcDbEntity
  8
0
100
AcDbLine
 10
27.51948449999999
 20
16.07979999999999
 30
0.0
 11
28.9628845
 21
15.5545
 31
0.0
  0
LINE
  5
61
330
1E
100
AcDbEntity
  8
0
100
AcDbLine
 10
29.57268449999999
 20
16.1284
 30
0.0
 11
30.11978449999999
 21
16.0
 31
0.0
  0
LINE
  5
62
330
1E
100
AcDbEntity
  8
0
100
AcDbLine
 10
30.11978449999999
 20
16.0
 30
0.0
 11
147.9999845
 21
16.0
 31
0.0
  0
LINE
  5
63
330
1E
100
AcDbEntity
  8
0
100
AcDbLine
 10
30.11978449999999
 20
16.0
 30
0.0
 11
147.9999845
 21
16.0
 31
0.0
  0
LINE
  5
64
330
1E
100
AcDbEntity
  8
0
100
AcDbLine
 10
25.6799845
 20
17.38789999999999
 30
0.0
 11
28.11928449999999
 21
16.6259
 31
0.0
  0
LINE
  5
65
330
1E
100
AcDbEntity
  8
0
100
AcDbLine
 10
28.11928449999999
 20
16.6259
 30
0.0
 11
29.57268449999999
 21
16.1284
 31
0.0
  0
LINE
  5
66
330
1E
100
AcDbEntity
  8
0
100
AcDbLine
 10
25.9429845
 20
47.72619999999999
 30
0.0
 11
30.11978449999999
 21
48.0
 31
0.0
  0
LINE
  5
67
330
1E
100
AcDbEntity
  8
0
100
AcDbLine
 10
30.11978449999999
 20
48.0
 30
0.0
 11
147.9999845
 21
52.0
 31
0.0
  0
LINE
  5
68
330
1E
100
AcDbEntity
  8
0
100
AcDbLine
 10
30.11978449999999
 20
48.0
 30
0.0
 11
147.9999845
 21
52.0
 31
0.0
  0
LINE
  5
69
330
1E
100
AcDbEntity
  8
0
100
AcDbLine
 10
26.24898449999999
 20
16.5422
 30
0.0
 11
26.6129228917524
 21
16.40976446171859
 31
0.0
  0
LINE
  5
6A
330
1E
100
AcDbEntity
  8
0
100
AcDbLine
 10
25.4187093919973
 20
16.84442660827199
 30
0.0
 11
26.6129228917524
 21
16.40976446171859
 31
0.0
  0
LINE
  5
6B
330
1E
100
AcDbEntity
  8
0
100
AcDbLine
 10
25.4187093919973
 20
16.84442660827199
 30
0.0
 11
26.24898449999999
 21
16.5422
 31
0.0
  0
LINE
  5
6C
330
1E
100
AcDbEntity
  8
0
100
AcDbLine
 10
147.9999845
 20
16.0
 30
0.0
 11
149.4999845
 21
15.5
 31
0.0
  0
LINE
  5
6D
330
1E
100
AcDbEntity
  8
0
100
AcDbLine
 10
149.4999845
 20
15.5
 30
0.0
 11
150.4999845
 21
14.5
 31
0.0
  0
LINE
  5
6E
330
1E
100
AcDbEntity
  8
0
100
AcDbLine
 10
150.4999845
 20
14.5
 30
0.0
 11
150.9999845
 21
13.0
 31
0.0
  0
LINE
  5
6F
330
1E
100
AcDbEntity
  8
0
100
AcDbLine
 10
147.9999845
 20
52.0
 30
0.0
 11
149.4999845
 21
52.5
 31
0.0
  0
LINE
  5
70
330
1E
100
AcDbEntity
  8
0
100
AcDbLine
 10
149.4999845
 20
52.5
 30
0.0
 11
150.4999845
 21
53.5
 31
0.0
  0
LINE
  5
71
330
1E
100
AcDbEntity
  8
0
100
AcDbLine
 10
158.9999845
 20
0.0000000000000049
 30
0.0
 11
158.9999845
 21
1.199999999999999
 31
0.0
  0
LINE
  5
72
330
1E
100
AcDbEntity
  8
0
100
AcDbLine
 10
150.9999845
 20
13.8
 30
0.0
 11
150.9999845
 21
15.8
 31
0.0
  0
LINE
  5
73
330
1E
100
AcDbEntity
  8
0
100
AcDbLine
 10
150.9999845
 20
15.8
 30
0.0
 11
150.9999845
 21
13.8
 31
0.0
  0
LINE
  5
74
330
1E
100
AcDbEntity
  8
0
100
AcDbLine
 10
150.9999845
 20
15.8
 30
0.0
 11
150.9999845
 21
19.19999999999999
 31
0.0
  0
LINE
  5
75
330
1E
100
AcDbEntity
  8
0
100
AcDbLine
 10
150.9999845
 20
19.19999999999999
 30
0.0
 11
150.9999845
 21
23.6
 31
0.0
  0
LINE
  5
76
330
1E
100
AcDbEntity
  8
0
100
AcDbLine
 10
150.9999845
 20
19.19999999999999
 30
0.0
 11
150.9999845
 21
15.8
 31
0.0
  0
LINE
  5
77
330
1E
100
AcDbEntity
  8
0
100
AcDbLine
 10
150.9999845
 20
23.6
 30
0.0
 11
150.9999845
 21
19.19999999999999
 31
0.0
  0
LINE
  5
78
330
1E
100
AcDbEntity
  8
0
100
AcDbLine
 10
150.9999845
 20
23.6
 30
0.0
 11
150.9999845
 21
28.6
 31
0.0
  0
LINE
  5
79
330
1E
100
AcDbEntity
  8
0
100
AcDbLine
 10
150.9999845
 20
28.6
 30
0.0
 11
150.9999845
 21
23.6
 31
0.0
  0
LINE
  5
7A
330
1E
100
AcDbEntity
  8
0
100
AcDbLine
 10
150.9999845
 20
28.6
 30
0.0
 11
150.9999845
 21
34.0
 31
0.0
  0
LINE
  5
7B
330
1E
100
AcDbEntity
  8
0
100
AcDbLine
 10
150.9999845
 20
17.3
 30
0.0
 11
150.9999845
 21
10.3
 31
0.0
  0
LINE
  5
7C
330
1E
100
AcDbEntity
  8
0
100
AcDbLine
 10
150.9999845
 20
17.3
 30
0.0
 11
150.9999845
 21
25.4
 31
0.0
  0
LINE
  5
7D
330
1E
100
AcDbEntity
  8
0
100
AcDbLine
 10
150.9999845
 20
25.4
 30
0.0
 11
150.9999845
 21
17.3
 31
0.0
  0
LINE
  5
7E
330
1E
100
AcDbEntity
  8
0
100
AcDbLine
 10
150.9999845
 20
25.4
 30
0.0
 11
150.9999845
 21
34.0
 31
0.0
  0
LINE
  5
7F
330
1E
100
AcDbEntity
  8
0
100
AcDbLine
 10
150.9999845
 20
39.39999999999999
 30
0.0
 11
150.9999845
 21
34.0
 31
0.0
  0
LINE
  5
80
330
1E
100
AcDbEntity
  8
0
100
AcDbLine
 10
150.9999845
 20
39.39999999999999
 30
0.0
 11
150.9999845
 21
44.4
 31
0.0
  0
LINE
  5
81
330
1E
100
AcDbEntity
  8
0
100
AcDbLine
 10
150.9999845
 20
44.4
 30
0.0
 11
150.9999845
 21
39.39999999999999
 31
0.0
  0
LINE
  5
82
330
1E
100
AcDbEntity
  8
0
100
AcDbLine
 10
150.9999845
 20
44.4
 30
0.0
 11
150.9999845
 21
48.79999999999999
 31
0.0
  0
LINE
  5
83
330
1E
100
AcDbEntity
  8
0
100
AcDbLine
 10
150.9999845
 20
50.7
 30
0.0
 11
150.9999845
 21
42.6
 31
0.0
  0
LINE
  5
84
330
1E
100
AcDbEntity
  8
0
100
AcDbLine
 10
150.9999845
 20
50.7
 30
0.0
 11
150.9999845
 21
57.7
 31
0.0
  0
LINE
  5
85
330
1E
100
AcDbEntity
  8
0
100
AcDbLine
 10
150.9999845
 20
42.6
 30
0.0
 11
150.9999845
 21
34.0
 31
0.0
  0
LINE
  5
86
330
1E
100
AcDbEntity
  8
0
100
AcDbLine
 10
150.9999845
 20
42.6
 30
0.0
 11
150.9999845
 21
50.7
 31
0.0
  0
LINE
  5
87
330
1E
100
AcDbEntity
  8
0
100
AcDbLine
 10
150.9999845
 20
48.79999999999999
 30
0.0
 11
150.9999845
 21
52.2
 31
0.0
  0
LINE
  5
88
330
1E
100
AcDbEntity
  8
0
100
AcDbLine
 10
150.9999845
 20
48.79999999999999
 30
0.0
 11
150.9999845
 21
44.4
 31
0.0
  0
LINE
  5
89
330
1E
100
AcDbEntity
  8
0
100
AcDbLine
 10
150.9999845
 20
52.2
 30
0.0
 11
150.9999845
 21
48.79999999999999
 31
0.0
  0
LINE
  5
8A
330
1E
100
AcDbEntity
  8
0
100
AcDbLine
 10
150.9999845
 20
52.2
 30
0.0
 11
150.9999845
 21
54.2
 31
0.0
  0
LINE
  5
8B
330
1E
100
AcDbEntity
  8
0
100
AcDbLine
 10
150.9999845
 20
54.2
 30
0.0
 11
150.9999845
 21
52.2
 31
0.0
  0
LINE
  5
8C
330
1E
100
AcDbEntity
  8
0
100
AcDbLine
 10
150.9999845
 20
34.0
 30
0.0
 11
150.9999845
 21
25.4
 31
0.0
  0
LINE
  5
8D
330
1E
100
AcDbEntity
  8
0
100
AcDbLine
 10
150.9999845
 20
34.0
 30
0.0
 11
150.9999845
 21
28.6
 31
0.0
  0
LINE
  5
8E
330
1E
100
AcDbEntity
  8
0
100
AcDbLine
 10
150.9999845
 20
34.0
 30
0.0
 11
150.9999845
 21
42.6
 31
0.0
  0
LINE
  5
8F
330
1E
100
AcDbEntity
  8
0
100
AcDbLine
 10
150.9999845
 20
34.0
 30
0.0
 11
150.9999845
 21
39.39999999999999
 31
0.0
  0
LINE
  5
90
330
1E
100
AcDbEntity
  8
0
100
AcDbLine
 10
150.9999845
 20
13.0
 30
0.0
 11
150.9999845
 21
10.3
 31
0.0
  0
LINE
  5
91
330
1E
100
AcDbEntity
  8
0
100
AcDbLine
 10
150.9999845
 20
10.3
 30
0.0
 11
150.9999845
 21
5.000000000000009
 31
0.0
  0
LINE
  5
92
330
1E
100
AcDbEntity
  8
0
100
AcDbLine
 10
150.9999845
 20
10.3
 30
0.0
 11
150.9999845
 21
13.0
 31
0.0
  0
LINE
  5
93
330
1E
100
AcDbEntity
  8
0
100
AcDbLine
 10
150.9999845
 20
10.3
 30
0.0
 11
150.9999845
 21
17.3
 31
0.0
  0
LINE
  5
94
330
1E
100
AcDbEntity
  8
0
100
AcDbLine
 10
150.9999845
 20
5.000000000000009
 30
0.0
 11
150.9999845
 21
10.3
 31
0.0
  0
LINE
  5
95
330
1E
100
AcDbEntity
  8
0
100
AcDbLine
 10
150.9999845
 20
5.000000000000009
 30
0.0
 11
150.9999845
 21
1.70000000000001
 31
0.0
  0
LINE
  5
96
330
1E
100
AcDbEntity
  8
0
100
AcDbLine
 10
150.9999845
 20
1.70000000000001
 30
0.0
 11
150.9999845
 21
5.000000000000009
 31
0.0
  0
LINE
  5
97
330
1E
100
AcDbEntity
  8
0
100
AcDbLine
 10
150.9999845
 20
1.70000000000001
 30
0.0
 11
150.9999845
 21
0.500000000000005
 31
0.0
  0
LINE
  5
98
330
1E
100
AcDbEntity
  8
0
100
AcDbLine
 10
151.4999845
 20
4.600000000000009
 30
0.0
 11
151.4999845
 21
1.200000000000009
 31
0.0
  0
LINE
  5
99
330
1E
100
AcDbEntity
  8
0
100
AcDbLine
 10
151.4999845
 20
4.600000000000009
 30
0.0
 11
151.4999845
 21
10.0
 31
0.0
  0
LINE
  5
9A
330
1E
100
AcDbEntity
  8
0
100
AcDbLine
 10
151.4999845
 20
1.200000000000009
 30
0.0
 11
151.4999845
 21
0.0000000000000054
 31
0.0
  0
LINE
  5
9B
330
1E
100
AcDbEntity
  8
0
100
AcDbLine
 10
151.4999845
 20
1.200000000000009
 30
0.0
 11
151.4999845
 21
4.600000000000009
 31
0.0
  0
LINE
  5
9C
330
1E
100
AcDbEntity
  8
0
100
AcDbLine
 10
151.4999845
 20
10.0
 30
0.0
 11
151.4999845
 21
17.1
 31
0.0
  0
LINE
  5
9D
330
1E
100
AcDbEntity
  8
0
100
AcDbLine
 10
151.4999845
 20
10.0
 30
0.0
 11
151.4999845
 21
4.600000000000009
 31
0.0
  0
LINE
  5
9E
330
1E
100
AcDbEntity
  8
0
100
AcDbLine
 10
158.9999845
 20
4.599999999999999
 30
0.0
 11
158.9999845
 21
1.200000000000009
 31
0.0
  0
LINE
  5
9F
330
1E
100
AcDbEntity
  8
0
100
AcDbLine
 10
158.9999845
 20
4.599999999999999
 30
0.0
 11
158.9999845
 21
10.0
 31
0.0
  0
LINE
  5
A0
330
1E
100
AcDbEntity
  8
0
100
AcDbLine
 10
158.9999845
 20
1.199999999999999
 30
0.0
 11
158.9999845
 21
0.000000000000005
 31
0.0
  0
LINE
  5
A1
330
1E
100
AcDbEntity
  8
0
100
AcDbLine
 10
158.9999845
 20
1.199999999999999
 30
0.0
 11
158.9999845
 21
4.599999999999999
 31
0.0
  0
LINE
  5
A2
330
1E
100
AcDbEntity
  8
0
100
AcDbLine
 10
158.9999845
 20
10.0
 30
0.0
 11
158.9999845
 21
17.1
 31
0.0
  0
LINE
  5
A3
330
1E
100
AcDbEntity
  8
0
100
AcDbLine
 10
158.9999845
 20
10.0
 30
0.0
 11
158.9999845
 21
4.599999999999999
 31
0.0
  0
LINE
  5
A4
330
1E
100
AcDbEntity
  8
0
100
AcDbLine
 10
151.4999845
 20
17.1
 30
0.0
 11
151.4999845
 21
10.0
 31
0.0
  0
LINE
  5
A5
330
1E
100
AcDbEntity
  8
0
100
AcDbLine
 10
151.4999845
 20
17.1
 30
0.0
 11
151.4999845
 21
25.3
 31
0.0
  0
LINE
  5
A6
330
1E
100
AcDbEntity
  8
0
100
AcDbLine
 10
151.4999845
 20
25.3
 30
0.0
 11
151.4999845
 21
17.1
 31
0.0
  0
LINE
  5
A7
330
1E
100
AcDbEntity
  8
0
100
AcDbLine
 10
151.4999845
 20
25.3
 30
0.0
 11
151.4999845
 21
34.0
 31
0.0
  0
LINE
  5
A8
330
1E
100
AcDbEntity
  8
0
100
AcDbLine
 10
151.4999845
 20
34.0
 30
0.0
 11
151.4999845
 21
25.3
 31
0.0
  0
LINE
  5
A9
330
1E
100
AcDbEntity
  8
0
100
AcDbLine
 10
151.4999845
 20
34.0
 30
0.0
 11
151.4999845
 21
42.7
 31
0.0
  0
LINE
  5
AA
330
1E
100
AcDbEntity
  8
0
100
AcDbLine
 10
158.9999845
 20
17.1
 30
0.0
 11
158.9999845
 21
10.0
 31
0.0
  0
LINE
  5
AB
330
1E
100
AcDbEntity
  8
0
100
AcDbLine
 10
158.9999845
 20
17.1
 30
0.0
 11
158.9999845
 21
25.3
 31
0.0
  0
LINE
  5
AC
330
1E
100
AcDbEntity
  8
0
100
AcDbLine
 10
158.9999845
 20
25.3
 30
0.0
 11
158.9999845
 21
17.1
 31
0.0
  0
LINE
  5
AD
330
1E
100
AcDbEntity
  8
0
100
AcDbLine
 10
158.9999845
 20
25.3
 30
0.0
 11
158.9999845
 21
34.0
 31
0.0
  0
LINE
  5
AE
330
1E
100
AcDbEntity
  8
0
100
AcDbLine
 10
151.4999845
 20
50.89999999999999
 30
0.0
 11
151.4999845
 21
42.7
 31
0.0
  0
LINE
  5
AF
330
1E
100
AcDbEntity
  8
0
100
AcDbLine
 10
151.4999845
 20
50.89999999999999
 30
0.0
 11
151.4999845
 21
58.0
 31
0.0
  0
LINE
  5
B0
330
1E
100
AcDbEntity
  8
0
100
AcDbLine
 10
151.4999845
 20
42.7
 30
0.0
 11
151.4999845
 21
34.0
 31
0.0
  0
LINE
  5
B1
330
1E
100
AcDbEntity
  8
0
100
AcDbLine
 10
151.4999845
 20
42.7
 30
0.0
 11
151.4999845
 21
50.89999999999999
 31
0.0
  0
LINE
  5
B2
330
1E
100
AcDbEntity
  8
0
100
AcDbLine
 10
158.9999845
 20
34.0
 30
0.0
 11
158.9999845
 21
25.3
 31
0.0
  0
LINE
  5
B3
330
1E
100
AcDbEntity
  8
0
100
AcDbLine
 10
158.9999845
 20
34.0
 30
0.0
 11
158.9999845
 21
42.7
 31
0.0
  0
LINE
  5
B4
330
1E
100
AcDbEntity
  8
0
100
AcDbLine
 10
150.9999845
 20
0.500000000000005
 30
0.0
 11
151.4999845
 21
0.0000000000000054
 31
0.0
  0
LINE
  5
B5
330
1E
100
AcDbEntity
  8
0
100
AcDbLine
 10
150.9999845
 20
0.500000000000005
 30
0.0
 11
150.9999845
 21
1.70000000000001
 31
0.0
  0
LINE
  5
B6
330
1E
100
AcDbEntity
  8
0
100
AcDbLine
 10
150.9999845
 20
0.500000000000005
 30
0.0
 11
151.4999845
 21
0.0000000000000054
 31
0.0
  0
LINE
  5
B7
330
1E
100
AcDbEntity
  8
0
100
AcDbLine
 10
151.4999845
 20
0.0000000000000054
 30
0.0
 11
158.9999845
 21
0.0000000000000049
 31
0.0
  0
LINE
  5
B8
330
1E
100
AcDbEntity
  8
0
100
AcDbLine
 10
151.4999845
 20
0.0000000000000054
 30
0.0
 11
151.4999845
 21
1.200000000000009
 31
0.0
  0
LINE
  5
B9
330
1E
100
AcDbEntity
  8
0
100
AcDbLine
 10
150.4999845
 20
53.5
 30
0.0
 11
150.9999845
 21
55.0
 31
0.0
  0
LINE
  5
BA
330
1E
100
AcDbEntity
  8
0
100
AcDbLine
 10
150.9999845
 20
63.0
 30
0.0
 11
150.9999845
 21
66.29999999999999
 31
0.0
  0
LINE
  5
BB
330
1E
100
AcDbEntity
  8
0
100
AcDbLine
 10
150.9999845
 20
63.0
 30
0.0
 11
150.9999845
 21
57.7
 31
0.0
  0
LINE
  5
BC
330
1E
100
AcDbEntity
  8
0
100
AcDbLine
 10
150.9999845
 20
67.5
 30
0.0
 11
151.4999845
 21
68.0
 31
0.0
  0
LINE
  5
BD
330
1E
100
AcDbEntity
  8
0
100
AcDbLine
 10
150.9999845
 20
67.5
 30
0.0
 11
150.9999845
 21
66.29999999999999
 31
0.0
  0
LINE
  5
BE
330
1E
100
AcDbEntity
  8
0
100
AcDbLine
 10
150.9999845
 20
66.29999999999999
 30
0.0
 11
150.9999845
 21
67.5
 31
0.0
  0
LINE
  5
BF
330
1E
100
AcDbEntity
  8
0
100
AcDbLine
 10
150.9999845
 20
66.29999999999999
 30
0.0
 11
150.9999845
 21
63.0
 31
0.0
  0
LINE
  5
C0
330
1E
100
AcDbEntity
  8
0
100
AcDbLine
 10
151.4999845
 20
58.0
 30
0.0
 11
151.4999845
 21
63.39999999999999
 31
0.0
  0
LINE
  5
C1
330
1E
100
AcDbEntity
  8
0
100
AcDbLine
 10
151.4999845
 20
58.0
 30
0.0
 11
151.4999845
 21
50.89999999999999
 31
0.0
  0
LINE
  5
C2
330
1E
100
AcDbEntity
  8
0
100
AcDbLine
 10
151.4999845
 20
63.39999999999999
 30
0.0
 11
151.4999845
 21
58.0
 31
0.0
  0
LINE
  5
C3
330
1E
100
AcDbEntity
  8
0
100
AcDbLine
 10
151.4999845
 20
63.39999999999999
 30
0.0
 11
151.4999845
 21
66.79999999999999
 31
0.0
  0
LINE
  5
C4
330
1E
100
AcDbEntity
  8
0
100
AcDbLine
 10
151.4999845
 20
66.79999999999999
 30
0.0
 11
151.4999845
 21
63.39999999999999
 31
0.0
  0
LINE
  5
C5
330
1E
100
AcDbEntity
  8
0
100
AcDbLine
 10
151.4999845
 20
66.79999999999999
 30
0.0
 11
151.4999845
 21
68.0
 31
0.0
  0
LINE
  5
C6
330
1E
100
AcDbEntity
  8
0
100
AcDbLine
 10
151.4999845
 20
68.0
 30
0.0
 11
158.9999845
 21
68.0
 31
0.0
  0
LINE
  5
C7
330
1E
100
AcDbEntity
  8
0
100
AcDbLine
 10
151.4999845
 20
68.0
 30
0.0
 11
151.4999845
 21
66.79999999999999
 31
0.0
  0
LINE
  5
C8
330
1E
100
AcDbEntity
  8
0
100
AcDbLine
 10
150.9999845
 20
57.7
 30
0.0
 11
150.9999845
 21
55.0
 31
0.0
  0
LINE
  5
C9
330
1E
100
AcDbEntity
  8
0
100
AcDbLine
 10
150.9999845
 20
57.7
 30
0.0
 11
150.9999845
 21
63.0
 31
0.0
  0
LINE
  5
CA
330
1E
100
AcDbEntity
  8
0
100
AcDbLine
 10
150.9999845
 20
57.7
 30
0.0
 11
150.9999845
 21
50.7
 31
0.0
  0
LINE
  5
CB
330
1E
100
AcDbEntity
  8
0
100
AcDbLine
 10
150.9999845
 20
55.0
 30
0.0
 11
150.9999845
 21
57.7
 31
0.0
  0
LINE
  5
CC
330
1E
100
AcDbEntity
  8
0
100
AcDbLine
 10
158.9999845
 20
50.89999999999999
 30
0.0
 11
158.9999845
 21
58.0
 31
0.0
  0
LINE
  5
CD
330
1E
100
AcDbEntity
  8
0
100
AcDbLine
 10
158.9999845
 20
58.0
 30
0.0
 11
158.9999845
 21
63.39999999999999
 31
0.0
  0
LINE
  5
CE
330
1E
100
AcDbEntity
  8
0
100
AcDbLine
 10
158.9999845
 20
58.0
 30
0.0
 11
158.9999845
 21
50.89999999999999
 31
0.0
  0
LINE
  5
CF
330
1E
100
AcDbEntity
  8
0
100
AcDbLine
 10
158.9999845
 20
63.39999999999999
 30
0.0
 11
158.9999845
 21
58.0
 31
0.0
  0
LINE
  5
D0
330
1E
100
AcDbEntity
  8
0
100
AcDbLine
 10
158.9999845
 20
63.39999999999999
 30
0.0
 11
158.9999845
 21
66.79999999999999
 31
0.0
  0
LINE
  5
D1
330
1E
100
AcDbEntity
  8
0
100
AcDbLine
 10
158.9999845
 20
66.79999999999999
 30
0.0
 11
158.9999845
 21
63.39999999999999
 31
0.0
  0
LINE
  5
D2
330
1E
100
AcDbEntity
  8
0
100
AcDbLine
 10
158.9999845
 20
66.79999999999999
 30
0.0
 11
158.9999845
 21
68.0
 31
0.0
  0
LINE
  5
D3
330
1E
100
AcDbEntity
  8
0
100
AcDbLine
 10
158.9999845
 20
68.0
 30
0.0
 11
158.9999845
 21
66.79999999999999
 31
0.0
  0
LINE
  5
D4
330
1E
100
AcDbEntity
  8
0
100
AcDbLine
 10
158.9999845
 20
42.7
 30
0.0
 11
158.9999845
 21
50.89999999999999
 31
0.0
  0
LINE
  5
D5
330
1E
100
AcDbEntity
  8
0
100
AcDbLine
 10
158.9999845
 20
42.7
 30
0.0
 11
158.9999845
 21
34.0
 31
0.0
  0
ENDSEC
  0
SECTION
  2
OBJECTS
  0
DICTIONARY
  5
C
330
0
100
AcDbDictionary
  3
ACAD_GROUP
350
D
  3
ACAD_LAYOUT
350
19
  3
ACAD_MLINESTYLE
350
16
  3
ACAD_PLOTSETTINGS
350
18
  3
ACAD_PLOTSTYLENAME
350
E
  3
ACDBHEADERROUNDTRIPXREC
350
DD
  3
ACDBVARIABLEDICTIONARY
350
DA
  0
DICTIONARY
  5
FF
330
1E
100
AcDbDictionary
280
     1
  3
ACAD_LAYOUTSELFREF
360
100
  0
DICTIONARY
  5
FD
330
1A
100
AcDbDictionary
280
     1
  3
ACAD_LAYOUTSELFREF
360
FE
  0
DICTIONARY
  5
D
102
{ACAD_REACTORS
330
C
102
}
330
C
100
AcDbDictionary
  0
DICTIONARY
  5
19
102
{ACAD_REACTORS
330
C
102
}
330
C
100
AcDbDictionary
  0
DICTIONARY
  5
16
102
{ACAD_REACTORS
330
C
102
}
330
C
100
AcDbDictionary
  3
STANDARD
350
17
  0
DICTIONARY
  5
18
102
{ACAD_REACTORS
330
C
102
}
330
C
100
AcDbDictionary
  0
ACDBDICTIONARYWDFLT
  5
E
102
{ACAD_REACTORS
330
C
102
}
330
C
100
AcDbDictionary
281
     1
  3
Normal
350
F
100
AcDbDictionaryWithDefault
340
F
  0
DICTIONARY
  5
DD
102
{ACAD_REACTORS
330
C
102
}
330
C
100
AcDbDictionary
  3
CEPSNTYPE
350
E7
  3
FINGERPRINTGUID
350
E8
  3
HYPERLINKBASE
350
E0
  3
INSUNITS
350
E6
  3
LAYOUTDICT
350
E2
  3
LWETCUNION
350
E5
  3
PLOTSETDICT
350
E3
  3
PLOTSTYLNAMDICT
350
E4
  3
PSVPSCALE
350
EA
  3
PUCSBASE
350
ED
  3
PUCSORGBACK
350
F3
  3
PUCSORGBOTTOM
350
EF
  3
PUCSORGFRONT
350
F2
  3
PUCSORGLEFT
350
F0
  3
PUCSORGRIGHT
350
F1
  3
PUCSORGTOP
350
EE
  3
PUCSORTHOREF
350
EB
  3
PUCSORTHOVIEW
350
EC
  3
STYLESHEET
350
E1
  3
TSTACKALIGN
350
DE
  3
TSTACKSIZE
350
DF
  3
UCSBASE
350
F6
  3
UCSORGBACK
350
FC
  3
UCSORGBOTTOM
350
F8
  3
UCSORGFRONT
350
FB
  3
UCSORGLEFT
350
F9
  3
UCSORGRIGHT
350
FA
  3
UCSORGTOP
350
F7
  3
UCSORTHOREF
350
F4
  3
UCSORTHOVIEW
350
F5
  3
VERSIONGUID
350
E9
  0
DICTIONARY
  5
DA
102
{ACAD_REACTORS
330
C
102
}
330
C
100
AcDbDictionary
  3
DIMASSOC
350
DB
  0
XRECORD
  5
100
102
{ACAD_REACTORS
330
FF
102
}
330
FF
100
AcDbXrecord
340
1E
  0
XRECORD
  5
FE
102
{ACAD_REACTORS
330
FD
102
}
330
FD
100
AcDbXrecord
340
1A
  0
MLINESTYLE
  5
17
102
{ACAD_REACTORS
330
16
102
}
330
16
100
AcDbMlineStyle
  2
STANDARD
 70
     0
  3

 62
   256
 51
90.0
 52
90.0
 71
     2
 49
0.5
 62
   256
  6
BYLAYER
 49
-0.5
 62
   256
  6
BYLAYER
  0
ACDBPLACEHOLDER
  5
F
102
{ACAD_REACTORS
330
E
102
}
330
E
100
AcDbPlaceHolder
280
     0
  0
XRECORD
  5
E7
102
{ACAD_REACTORS
330
DD
102
}
330
DD
100
AcDbXrecord
 90
        0
  0
XRECORD
  5
E8
102
{ACAD_REACTORS
330
DD
102
}
330
DD
100
AcDbXrecord
  1
{20A04566-B1EB-4DB9-A478-A26E060EB2BC}
  0
XRECORD
  5
E0
102
{ACAD_REACTORS
330
DD
102
}
330
DD
100
AcDbXrecord
  1

  0
XRECORD
  5
E6
102
{ACAD_REACTORS
330
DD
102
}
330
DD
100
AcDbXrecord
 90
        0
  0
XRECORD
  5
E2
102
{ACAD_REACTORS
330
DD
102
}
330
DD
100
AcDbXrecord
340
19
  0
XRECORD
  5
E5
102
{ACAD_REACTORS
330
DD
102
}
330
DD
100
AcDbXrecord
 90
    10781
  0
XRECORD
  5
E3
102
{ACAD_REACTORS
330
DD
102
}
330
DD
100
AcDbXrecord
340
18
  0
XRECORD
  5
E4
102
{ACAD_REACTORS
330
DD
102
}
330
DD
100
AcDbXrecord
340
E
  0
XRECORD
  5
EA
102
{ACAD_REACTORS
330
DD
102
}
330
DD
100
AcDbXrecord
 40
0.0
  0
XRECORD
  5
ED
102
{ACAD_REACTORS
330
DD
102
}
330
DD
100
AcDbXrecord
340
0
  0
XRECORD
  5
F3
102
{ACAD_REACTORS
330
DD
102
}
330
DD
100
AcDbXrecord
 10
0.0
 20
0.0
 30
0.0
  0
XRECORD
  5
EF
102
{ACAD_REACTORS
330
DD
102
}
330
DD
100
AcDbXrecord
 10
0.0
 20
0.0
 30
0.0
  0
XRECORD
  5
F2
102
{ACAD_REACTORS
330
DD
102
}
330
DD
100
AcDbXrecord
 10
0.0
 20
0.0
 30
0.0
  0
XRECORD
  5
F0
102
{ACAD_REACTORS
330
DD
102
}
330
DD
100
AcDbXrecord
 10
0.0
 20
0.0
 30
0.0
  0
XRECORD
  5
F1
102
{ACAD_REACTORS
330
DD
102
}
330
DD
100
AcDbXrecord
 10
0.0
 20
0.0
 30
0.0
  0
XRECORD
  5
EE
102
{ACAD_REACTORS
330
DD
102
}
330
DD
100
AcDbXrecord
 10
0.0
 20
0.0
 30
0.0
  0
XRECORD
  5
EB
102
{ACAD_REACTORS
330
DD
102
}
330
DD
100
AcDbXrecord
340
0
  0
XRECORD
  5
EC
102
{ACAD_REACTORS
330
DD
102
}
330
DD
100
AcDbXrecord
 70
     0
  0
XRECORD
  5
E1
102
{ACAD_REACTORS
330
DD
102
}
330
DD
100
AcDbXrecord
  1

  0
XRECORD
  5
DE
102
{ACAD_REACTORS
330
DD
102
}
330
DD
100
AcDbXrecord
 90
        1
  0
XRECORD
  5
DF
102
{ACAD_REACTORS
330
DD
102
}
330
DD
100
AcDbXrecord
 90
       70
  0
XRECORD
  5
F6
102
{ACAD_REACTORS
330
DD
102
}
330
DD
100
AcDbXrecord
340
0
  0
XRECORD
  5
FC
102
{ACAD_REACTORS
330
DD
102
}
330
DD
100
AcDbXrecord
 10
0.0
 20
0.0
 30
0.0
  0
XRECORD
  5
F8
102
{ACAD_REACTORS
330
DD
102
}
330
DD
100
AcDbXrecord
 10
0.0
 20
0.0
 30
0.0
  0
XRECORD
  5
FB
102
{ACAD_REACTORS
330
DD
102
}
330
DD
100
AcDbXrecord
 10
0.0
 20
0.0
 30
0.0
  0
XRECORD
  5
F9
102
{ACAD_REACTORS
330
DD
102
}
330
DD
100
AcDbXrecord
 10
0.0
 20
0.0
 30
0.0
  0
XRECORD
  5
FA
102
{ACAD_REACTORS
330
DD
102
}
330
DD
100
AcDbXrecord
 10
0.0
 20
0.0
 30
0.0
  0
XRECORD
  5
F7
102
{ACAD_REACTORS
330
DD
102
}
330
DD
100
AcDbXrecord
 10
0.0
 20
0.0
 30
0.0
  0
XRECORD
  5
F4
102
{ACAD_REACTORS
330
DD
102
}
330
DD
100
AcDbXrecord
340
0
  0
XRECORD
  5
F5
102
{ACAD_REACTORS
330
DD
102
}
330
DD
100
AcDbXrecord
 70
     1
  0
XRECORD
  5
E9
102
{ACAD_REACTORS
330
DD
102
}
330
DD
100
AcDbXrecord
  1
{4297C18A-F9DE-44A2-B2D4-706B460D9C9F}
  0
DICTIONARYVAR
  5
DB
102
{ACAD_REACTORS
330
DA
102
}
330
DA
100
DictionaryVariables
280
     0
  1
1
  0
ENDSEC
  0
EOF
