  0
SECTION
  2
HEADER
  9
$ACADVER
  1
AC1014
  9
$ACADMAINTVER
 70
     9
  9
$DWGCODEPAGE
  3
ANSI_1252
  9
$INSBASE
 10
0.0
 20
0.0
 30
0.0
  9
$EXTMIN
 10
-0.000000000000001
 20
0.147857999999989
 30
0.0
  9
$EXTMAX
 10
100.0
 20
198.8521419999999
 30
0.0
  9
$LIMMIN
 10
0.0
 20
0.0
  9
$LIMMAX
 10
12.0
 20
9.0
  9
$ORTHOMODE
 70
     0
  9
$REGENMODE
 70
     1
  9
$FILLMODE
 70
     1
  9
$QTEXTMODE
 70
     0
  9
$MIRRTEXT
 70
     1
  9
$DRAGMODE
 70
     2
  9
$LTSCALE
 40
1.0
  9
$OSMODE
 70
    37
  9
$ATTMODE
 70
     1
  9
$TEXTSIZE
 40
0.2
  9
$TRACEWID
 40
0.05
  9
$TEXTSTYLE
  7
STANDARD
  9
$CLAYER
  8
0
  9
$CELTYPE
  6
CONTINUOUS
  9
$CECOLOR
 62
   256
  9
$CELTSCALE
 40
1.0
  9
$DELOBJ
 70
     1
  9
$DISPSILH
 70
     0
  9
$DIMSCALE
 40
1.0
  9
$DIMASZ
 40
0.18
  9
$DIMEXO
 40
0.0625
  9
$DIMDLI
 40
0.38
  9
$DIMRND
 40
0.0
  9
$DIMDLE
 40
0.0
  9
$DIMEXE
 40
0.18
  9
$DIMTP
 40
0.0
  9
$DIMTM
 40
0.0
  9
$DIMTXT
 40
0.18
  9
$DIMCEN
 40
0.09
  9
$DIMTSZ
 40
0.0
  9
$DIMTOL
 70
     0
  9
$DIMLIM
 70
     0
  9
$DIMTIH
 70
     1
  9
$DIMTOH
 70
     1
  9
$DIMSE1
 70
     0
  9
$DIMSE2
 70
     0
  9
$DIMTAD
 70
     0
  9
$DIMZIN
 70
     0
  9
$DIMBLK
  1

  9
$DIMASO
 70
     1
  9
$DIMSHO
 70
     1
  9
$DIMPOST
  1

  9
$DIMAPOST
  1

  9
$DIMALT
 70
     0
  9
$DIMALTD
 70
     2
  9
$DIMALTF
 40
25.4
  9
$DIMLFAC
 40
1.0
  9
$DIMTOFL
 70
     0
  9
$DIMTVP
 40
0.0
  9
$DIMTIX
 70
     0
  9
$DIMSOXD
 70
     0
  9
$DIMSAH
 70
     0
  9
$DIMBLK1
  1

  9
$DIMBLK2
  1

  9
$DIMSTYLE
  2
STANDARD
  9
$DIMCLRD
 70
     0
  9
$DIMCLRE
 70
     0
  9
$DIMCLRT
 70
     0
  9
$DIMTFAC
 40
1.0
  9
$DIMGAP
 40
0.09
  9
$DIMJUST
 70
     0
  9
$DIMSD1
 70
     0
  9
$DIMSD2
 70
     0
  9
$DIMTOLJ
 70
     1
  9
$DIMTZIN
 70
     0
  9
$DIMALTZ
 70
     0
  9
$DIMALTTZ
 70
     0
  9
$DIMFIT
 70
     3
  9
$DIMUPT
 70
     0
  9
$DIMUNIT
 70
     2
  9
$DIMDEC
 70
     4
  9
$DIMTDEC
 70
     4
  9
$DIMALTU
 70
     2
  9
$DIMALTTD
 70
     2
  9
$DIMTXSTY
  7
STANDARD
  9
$DIMAUNIT
 70
     0
  9
$LUNITS
 70
     2
  9
$LUPREC
 70
     4
  9
$SKETCHINC
 40
0.1
  9
$FILLETRAD
 40
0.0
  9
$AUNITS
 70
     0
  9
$AUPREC
 70
     0
  9
$MENU
  1
.
  9
$ELEVATION
 40
0.0
  9
$PELEVATION
 40
0.0
  9
$THICKNESS
 40
0.0
  9
$LIMCHECK
 70
     0
  9
$BLIPMODE
 70
     0
  9
$CHAMFERA
 40
0.0
  9
$CHAMFERB
 40
0.0
  9
$CHAMFERC
 40
0.0
  9
$CHAMFERD
 40
0.0
  9
$SKPOLY
 70
     0
  9
$TDCREATE
 40
2454697.459992037
  9
$TDUPDATE
 40
2454697.461162650
  9
$TDINDWG
 40
0.0011707870
  9
$TDUSRTIMER
 40
0.0011707870
  9
$USRTIMER
 70
     1
  9
$ANGBASE
 50
0.0
  9
$ANGDIR
 70
     0
  9
$PDMODE
 70
     0
  9
$PDSIZE
 40
0.0
  9
$PLINEWID
 40
0.0
  9
$COORDS
 70
     1
  9
$SPLFRAME
 70
     0
  9
$SPLINETYPE
 70
     6
  9
$SPLINESEGS
 70
     8
  9
$ATTDIA
 70
     0
  9
$ATTREQ
 70
     1
  9
$HANDLING
 70
 22529
  9
$HANDSEED
  5
153
  9
$SURFTAB1
 70
     6
  9
$SURFTAB2
 70
     6
  9
$SURFTYPE
 70
     6
  9
$SURFU
 70
     6
  9
$SURFV
 70
     6
  9
$UCSNAME
  2

  9
$UCSORG
 10
0.0
 20
0.0
 30
0.0
  9
$UCSXDIR
 10
1.0
 20
0.0
 30
0.0
  9
$UCSYDIR
 10
0.0
 20
1.0
 30
0.0
  9
$PUCSNAME
  2

  9
$PUCSORG
 10
0.0
 20
0.0
 30
0.0
  9
$PUCSXDIR
 10
1.0
 20
0.0
 30
0.0
  9
$PUCSYDIR
 10
0.0
 20
1.0
 30
0.0
  9
$USERI1
 70
     0
  9
$USERI2
 70
     0
  9
$USERI3
 70
     0
  9
$USERI4
 70
     0
  9
$USERI5
 70
     0
  9
$USERR1
 40
0.0
  9
$USERR2
 40
0.0
  9
$USERR3
 40
0.0
  9
$USERR4
 40
0.0
  9
$USERR5
 40
0.0
  9
$WORLDVIEW
 70
     1
  9
$SHADEDGE
 70
     3
  9
$SHADEDIF
 70
    70
  9
$TILEMODE
 70
     1
  9
$MAXACTVP
 70
    64
  9
$PINSBASE
 10
0.0
 20
0.0
 30
0.0
  9
$PLIMCHECK
 70
     0
  9
$PEXTMIN
 10
1.000000000000000E+20
 20
1.000000000000000E+20
 30
1.000000000000000E+20
  9
$PEXTMAX
 10
-1.000000000000000E+20
 20
-1.000000000000000E+20
 30
-1.000000000000000E+20
  9
$PLIMMIN
 10
0.0
 20
0.0
  9
$PLIMMAX
 10
12.0
 20
9.0
  9
$UNITMODE
 70
     0
  9
$VISRETAIN
 70
     1
  9
$PLINEGEN
 70
     0
  9
$PSLTSCALE
 70
     1
  9
$TREEDEPTH
 70
  3020
  9
$PICKSTYLE
 70
     1
  9
$CMLSTYLE
  2
STANDARD
  9
$CMLJUST
 70
     0
  9
$CMLSCALE
 40
1.0
  9
$PROXYGRAPHICS
 70
     1
  9
$MEASUREMENT
 70
     0
  0
ENDSEC
  0
SECTION
  2
CLASSES
  0
CLASS
  1
ACDBDICTIONARYWDFLT
  2
AcDbDictionaryWithDefault
  3
AutoCAD 2000
 90
        0
280
     0
281
     0
  0
CLASS
  1
ACDBPLACEHOLDER
  2
AcDbPlaceHolder
  3
AutoCAD 2000
 90
        0
280
     0
281
     0
  0
CLASS
  1
LAYOUT
  2
AcDbLayout
  3
AutoCAD 2000
 90
        0
280
     0
281
     0
  0
CLASS
  1
DICTIONARYVAR
  2
AcDbDictionaryVar
  3
AutoCAD 2000
 90
        0
280
     0
281
     0
  0
CLASS
  1
LONG_TRANSACTION
  2
AcDbLongTransaction
  3
AutoCAD 2000
 90
        0
280
     0
281
     0
  0
CLASS
  1
LWPOLYLINE
  2
AcDbPolyline
  3
AutoCAD 2000
 90
        0
280
     0
281
     1
  0
CLASS
  1
HATCH
  2
AcDbHatch
  3
AutoCAD 2000
 90
        0
280
     0
281
     1
  0
CLASS
  1
XRECORD
  2
AcDbXrecord
  3
AutoCAD 2000
 90
        0
280
     0
281
     0
  0
ENDSEC
  0
SECTION
  2
TABLES
  0
TABLE
  2
VPORT
  5
8
330
0
100
AcDbSymbolTable
 70
     5
  0
VPORT
  5
12E
330
8
100
AcDbSymbolTableRecord
100
AcDbViewportTableRecord
  2
*ACTIVE
 70
     0
 10
0.0
 20
0.0
 11
1.0
 21
1.0
 12
50.0
 22
99.49999999999999
 13
0.0
 23
0.0
 14
1.0
 24
1.0
 15
0.0
 25
0.0
 16
0.0
 26
0.0
 36
1.0
 17
0.0
 27
0.0
 37
0.0
 40
200.2288692992327
 41
2.078104993597951
 42
50.0
 43
0.0
 44
0.0
 50
0.0
 51
0.0
 71
     0
 72
   100
 73
     1
 74
     3
 75
     0
 76
     0
 77
     0
 78
     0
  0
ENDTAB
  0
TABLE
  2
LTYPE
  5
5
330
0
100
AcDbSymbolTable
 70
     1
  0
LTYPE
  5
13
330
5
100
AcDbSymbolTableRecord
100
AcDbLinetypeTableRecord
  2
BYBLOCK
 70
     0
  3

 72
    65
 73
     0
 40
0.0
  0
LTYPE
  5
14
330
5
100
AcDbSymbolTableRecord
100
AcDbLinetypeTableRecord
  2
BYLAYER
 70
     0
  3

 72
    65
 73
     0
 40
0.0
  0
LTYPE
  5
15
330
5
100
AcDbSymbolTableRecord
100
AcDbLinetypeTableRecord
  2
CONTINUOUS
 70
     0
  3
Solid line
 72
    65
 73
     0
 40
0.0
  0
ENDTAB
  0
TABLE
  2
LAYER
  5
2
330
0
100
AcDbSymbolTable
 70
     1
  0
LAYER
  5
10
330
2
100
AcDbSymbolTableRecord
100
AcDbLayerTableRecord
  2
0
 70
     0
 62
     7
  6
CONTINUOUS
  0
ENDTAB
  0
TABLE
  2
STYLE
  5
3
330
0
100
AcDbSymbolTable
 70
     1
  0
STYLE
  5
11
330
3
100
AcDbSymbolTableRecord
100
AcDbTextStyleTableRecord
  2
STANDARD
 70
     0
 40
0.0
 41
1.0
 50
0.0
 71
     0
 42
0.2
  3
txt
  4

  0
ENDTAB
  0
TABLE
  2
VIEW
  5
6
330
0
100
AcDbSymbolTable
 70
     0
  0
ENDTAB
  0
TABLE
  2
UCS
  5
7
330
0
100
AcDbSymbolTable
 70
     0
  0
ENDTAB
  0
TABLE
  2
APPID
  5
9
330
0
100
AcDbSymbolTable
 70
     1
  0
APPID
  5
12
330
9
100
AcDbSymbolTableRecord
100
AcDbRegAppTableRecord
  2
ACAD
 70
     0
  0
ENDTAB
  0
TABLE
  2
DIMSTYLE
  5
A
330
0
100
AcDbSymbolTable
 70
     1
  0
DIMSTYLE
105
B7
330
A
100
AcDbSymbolTableRecord
100
AcDbDimStyleTableRecord
  2
STANDARD
 70
     0
  3

  4

  5

  6

  7

 40
1.0
 41
0.18
 42
0.0625
 43
0.38
 44
0.18
 45
0.0
 46
0.0
 47
0.0
 48
0.0
140
0.18
141
0.09
142
0.0
143
25.4
144
1.0
145
0.0
146
1.0
147
0.09
 71
     0
 72
     0
 73
     1
 74
     1
 75
     0
 76
     0
 77
     0
 78
     0
170
     0
171
     2
172
     0
173
     0
174
     0
175
     0
176
     0
177
     0
178
     0
270
     2
271
     4
272
     4
273
     2
274
     2
340
11
275
     0
280
     0
281
     0
282
     0
283
     1
284
     0
285
     0
286
     0
287
     3
288
     0
  0
ENDTAB
  0
TABLE
  2
BLOCK_RECORD
  5
1
330
0
100
AcDbSymbolTable
 70
     0
  0
BLOCK_RECORD
  5
1E
102
{ACAD_XDICTIONARY
360
151
102
}
330
1
100
AcDbSymbolTableRecord
100
AcDbBlockTableRecord
  2
*MODEL_SPACE
  0
BLOCK_RECORD
  5
1A
102
{ACAD_XDICTIONARY
360
14F
102
}
330
1
100
AcDbSymbolTableRecord
100
AcDbBlockTableRecord
  2
*PAPER_SPACE
  0
ENDTAB
  0
ENDSEC
  0
SECTION
  2
BLOCKS
  0
BLOCK
  5
1F
330
1E
100
AcDbEntity
  8
0
100
AcDbBlockBegin
  2
*MODEL_SPACE
 70
     0
 10
0.0
 20
0.0
 30
0.0
  3
*MODEL_SPACE
  1

  0
ENDBLK
  5
20
330
1E
100
AcDbEntity
  8
0
100
AcDbBlockEnd
  0
BLOCK
  5
1B
330
1A
100
AcDbEntity
 67
     1
  8
0
100
AcDbBlockBegin
  2
*PAPER_SPACE
 70
     0
 10
0.0
 20
0.0
 30
0.0
  3
*PAPER_SPACE
  1

  0
ENDBLK
  5
1C
330
1A
100
AcDbEntity
 67
     1
  8
0
100
AcDbBlockEnd
  0
ENDSEC
  0
SECTION
  2
ENTITIES
  0
LINE
  5
22
330
1E
100
AcDbEntity
  8
0
100
AcDbLine
 10
1.8
 20
33.283842
 30
0.0
 11
6.7
 21
23.372142
 31
0.0
  0
LINE
  5
23
330
1E
100
AcDbEntity
  8
0
100
AcDbLine
 10
1.8
 20
33.283842
 30
0.0
 11
6.7
 21
23.372142
 31
0.0
  0
LINE
  5
24
330
1E
100
AcDbEntity
  8
0
100
AcDbLine
 10
1.8
 20
31.849942
 30
0.0
 11
2.299999999999999
 21
30.49784199999999
 31
0.0
  0
LINE
  5
25
330
1E
100
AcDbEntity
  8
0
100
AcDbLine
 10
-0.000000000000001
 20
43.76894199999999
 30
0.0
 11
0.0492353471338031
 21
44.05574336764849
 31
0.0
  0
LINE
  5
26
330
1E
100
AcDbEntity
  8
0
100
AcDbLine
 10
-0.000000000000001
 20
43.76894199999999
 30
0.0
 11
0.0492353471338031
 21
44.05574336764849
 31
0.0
  0
LINE
  5
27
330
1E
100
AcDbEntity
  8
0
100
AcDbLine
 10
-0.000000000000001
 20
43.76894199999999
 30
0.0
 11
-0.000000000000001
 21
42.335042
 31
0.0
  0
LINE
  5
28
330
1E
100
AcDbEntity
  8
0
100
AcDbLine
 10
-0.000000000000001
 20
43.76894199999999
 30
0.0
 11
1.8
 21
33.283842
 31
0.0
  0
LINE
  5
29
330
1E
100
AcDbEntity
  8
0
100
AcDbLine
 10
-0.000000000000001
 20
42.335042
 30
0.0
 11
-0.000000000000001
 21
43.76894199999999
 31
0.0
  0
LINE
  5
2A
330
1E
100
AcDbEntity
  8
0
100
AcDbLine
 10
-0.000000000000001
 20
42.335042
 30
0.0
 11
1.8
 21
31.849942
 31
0.0
  0
LINE
  5
2B
330
1E
100
AcDbEntity
  8
0
100
AcDbLine
 10
1.8
 20
33.85744199999999
 30
0.0
 11
6.7
 21
23.945642
 31
0.0
  0
LINE
  5
2C
330
1E
100
AcDbEntity
  8
0
100
AcDbLine
 10
14.69999999999999
 20
14.852942
 30
0.0
 11
25.1
 21
8.299691999999989
 31
0.0
  0
LINE
  5
2D
330
1E
100
AcDbEntity
  8
0
100
AcDbLine
 10
6.7
 20
23.372142
 30
0.0
 11
14.69999999999999
 21
14.852942
 31
0.0
  0
LINE
  5
2E
330
1E
100
AcDbEntity
  8
0
100
AcDbLine
 10
7.099999999999999
 20
20.749942
 30
0.0
 11
15.0
 21
12.230742
 31
0.0
  0
LINE
  5
2F
330
1E
100
AcDbEntity
  8
0
100
AcDbLine
 10
14.69999999999999
 20
15.426442
 30
0.0
 11
25.1
 21
8.873271999999991
 31
0.0
  0
LINE
  5
30
330
1E
100
AcDbEntity
  8
0
100
AcDbLine
 10
2.299999999999999
 20
30.49784199999999
 30
0.0
 11
7.099999999999999
 21
20.749942
 31
0.0
  0
LINE
  5
31
330
1E
100
AcDbEntity
  8
0
100
AcDbLine
 10
2.299999999999999
 20
30.49784199999999
 30
0.0
 11
7.099999999999999
 21
20.749942
 31
0.0
  0
LINE
  5
32
330
1E
100
AcDbEntity
  8
0
100
AcDbLine
 10
6.7
 20
23.945642
 30
0.0
 11
14.69999999999999
 21
15.426442
 31
0.0
  0
LINE
  5
33
330
1E
100
AcDbEntity
  8
0
100
AcDbLine
 10
1.8
 20
33.85744199999999
 30
0.0
 11
6.7
 21
23.945642
 31
0.0
  0
LINE
  5
34
330
1E
100
AcDbEntity
  8
0
100
AcDbLine
 10
1.8
 20
60.850242
 30
0.0
 11
6.7
 21
71.041842
 31
0.0
  0
LINE
  5
35
330
1E
100
AcDbEntity
  8
0
100
AcDbLine
 10
6.7
 20
71.041842
 30
0.0
 11
14.69999999999999
 21
80.117542
 31
0.0
  0
LINE
  5
36
330
1E
100
AcDbEntity
  8
0
100
AcDbLine
 10
1.8
 20
60.850242
 30
0.0
 11
6.7
 21
71.041842
 31
0.0
  0
LINE
  5
37
330
1E
100
AcDbEntity
  8
0
100
AcDbLine
 10
-0.000000000000001
 20
50.365142
 30
0.0
 11
1.8
 21
60.850242
 31
0.0
  0
LINE
  5
38
330
1E
100
AcDbEntity
  8
0
100
AcDbLine
 10
-0.000000000000001
 20
50.365142
 30
0.0
 11
-0.000000000000001
 21
44.342542
 31
0.0
  0
LINE
  5
39
330
1E
100
AcDbEntity
  8
0
100
AcDbLine
 10
-0.000000000000001
 20
44.342542
 30
0.0
 11
-0.000000000000001
 21
50.365142
 31
0.0
  0
LINE
  5
3A
330
1E
100
AcDbEntity
  8
0
100
AcDbLine
 10
-0.000000000000001
 20
44.342542
 30
0.0
 11
1.8
 21
33.85744199999999
 31
0.0
  0
LINE
  5
3B
330
1E
100
AcDbEntity
  8
0
100
AcDbLine
 10
25.1
 20
8.299691999999989
 30
0.0
 11
37.2
 21
4.28585199999999
 31
0.0
  0
LINE
  5
3C
330
1E
100
AcDbEntity
  8
0
100
AcDbLine
 10
25.4
 20
5.75947199999999
 30
0.0
 11
26.1
 21
5.39043199999999
 31
0.0
  0
LINE
  5
3D
330
1E
100
AcDbEntity
  8
0
100
AcDbLine
 10
15.0
 20
12.230742
 30
0.0
 11
25.4
 21
5.75947199999999
 31
0.0
  0
LINE
  5
3E
330
1E
100
AcDbEntity
  8
0
100
AcDbLine
 10
25.1
 20
8.873271999999991
 30
0.0
 11
37.2
 21
4.85943199999999
 31
0.0
  0
LINE
  5
3F
330
1E
100
AcDbEntity
  8
0
100
AcDbLine
 10
14.69999999999999
 20
80.117542
 30
0.0
 11
15.0
 21
80.410642
 31
0.0
  0
LINE
  5
40
330
1E
100
AcDbEntity
  8
0
100
AcDbLine
 10
15.0
 20
80.410642
 30
0.0
 11
25.4
 21
87.28654199999999
 31
0.0
  0
LINE
  5
41
330
1E
100
AcDbEntity
  8
0
100
AcDbLine
 10
50.0
 20
0.147857999999989
 30
0.0
 11
62.3
 21
1.540411999999989
 31
0.0
  0
LINE
  5
42
330
1E
100
AcDbEntity
  8
0
100
AcDbLine
 10
50.0
 20
0.147857999999989
 30
0.0
 11
62.3
 21
1.540411999999989
 31
0.0
  0
LINE
  5
43
330
1E
100
AcDbEntity
  8
0
100
AcDbLine
 10
50.0
 20
2.81138199999999
 30
0.0
 11
62.8
 21
4.28585199999999
 31
0.0
  0
LINE
  5
44
330
1E
100
AcDbEntity
  8
0
100
AcDbLine
 10
37.2
 20
4.28585199999999
 30
0.0
 11
50.0
 21
2.81138199999999
 31
0.0
  0
LINE
  5
45
330
1E
100
AcDbEntity
  8
0
100
AcDbLine
 10
37.7
 20
1.540411999999989
 30
0.0
 11
50.0
 21
0.147857999999989
 31
0.0
  0
LINE
  5
46
330
1E
100
AcDbEntity
  8
0
100
AcDbLine
 10
37.7
 20
1.540411999999989
 30
0.0
 11
50.0
 21
0.147857999999989
 31
0.0
  0
LINE
  5
47
330
1E
100
AcDbEntity
  8
0
100
AcDbLine
 10
62.8
 20
4.28585199999999
 30
0.0
 11
74.90000000000001
 21
8.299691999999989
 31
0.0
  0
LINE
  5
48
330
1E
100
AcDbEntity
  8
0
100
AcDbLine
 10
62.3
 20
1.540411999999989
 30
0.0
 11
73.9
 21
5.39043199999999
 31
0.0
  0
LINE
  5
49
330
1E
100
AcDbEntity
  8
0
100
AcDbLine
 10
62.8
 20
4.85943199999999
 30
0.0
 11
74.90000000000001
 21
8.873271999999991
 31
0.0
  0
LINE
  5
4A
330
1E
100
AcDbEntity
  8
0
100
AcDbLine
 10
50.0
 20
3.38495199999999
 30
0.0
 11
62.8
 21
4.85943199999999
 31
0.0
  0
LINE
  5
4B
330
1E
100
AcDbEntity
  8
0
100
AcDbLine
 10
26.1
 20
5.39043199999999
 30
0.0
 11
37.7
 21
1.540411999999989
 31
0.0
  0
LINE
  5
4D
330
1E
100
AcDbEntity
  8
0
100
AcDbLine
 10
29.3960465784178
 20
88.6584284446612
 30
0.0
 11
33.6282
 21
92.79414200000001
 31
0.0
  0
LINE
  5
4E
330
1E
100
AcDbEntity
  8
0
100
AcDbLine
 10
36.35108613306019
 20
97.23773786732781
 30
0.0
 11
38.0
 21
103.682142
 31
0.0
  0
LINE
  5
4F
330
1E
100
AcDbEntity
  8
0
100
AcDbLine
 10
38.0
 20
103.682142
 30
0.0
 11
38.0
 21
112.7221419999999
 31
0.0
  0
LINE
  5
50
330
1E
100
AcDbEntity
  8
0
100
AcDbLine
 10
38.0
 20
112.7221419999999
 30
0.0
 11
38.0
 21
122.072142
 31
0.0
  0
LINE
  5
51
330
1E
100
AcDbEntity
  8
0
100
AcDbLine
 10
38.0
 20
112.7221419999999
 30
0.0
 11
38.0
 21
103.682142
 31
0.0
  0
LINE
  5
52
330
1E
100
AcDbEntity
  8
0
100
AcDbLine
 10
38.0
 20
122.072142
 30
0.0
 11
38.0
 21
133.9761419999999
 31
0.0
  0
LINE
  5
53
330
1E
100
AcDbEntity
  8
0
100
AcDbLine
 10
38.0
 20
122.072142
 30
0.0
 11
38.0
 21
112.7221419999999
 31
0.0
  0
LINE
  5
54
330
1E
100
AcDbEntity
  8
0
100
AcDbLine
 10
38.0
 20
133.9761419999999
 30
0.0
 11
38.0
 21
145.7851419999999
 31
0.0
  0
LINE
  5
55
330
1E
100
AcDbEntity
  8
0
100
AcDbLine
 10
38.0
 20
133.9761419999999
 30
0.0
 11
38.0
 21
122.072142
 31
0.0
  0
LINE
  5
56
330
1E
100
AcDbEntity
  8
0
100
AcDbLine
 10
38.0
 20
145.7851419999999
 30
0.0
 11
38.0
 21
133.9761419999999
 31
0.0
  0
LINE
  5
57
330
1E
100
AcDbEntity
  8
0
100
AcDbLine
 10
38.0
 20
152.6561419999999
 30
0.0
 11
38.0
 21
141.9121419999999
 31
0.0
  0
LINE
  5
58
330
1E
100
AcDbEntity
  8
0
100
AcDbLine
 10
38.0
 20
141.9121419999999
 30
0.0
 11
38.0
 21
152.6561419999999
 31
0.0
  0
LINE
  5
59
330
1E
100
AcDbEntity
  8
0
100
AcDbLine
 10
38.0
 20
152.6561419999999
 30
0.0
 11
38.0
 21
170.4271419999999
 31
0.0
  0
LINE
  5
5A
330
1E
100
AcDbEntity
  8
0
100
AcDbLine
 10
38.0
 20
170.4271419999999
 30
0.0
 11
38.0
 21
179.484142
 31
0.0
  0
LINE
  5
5B
330
1E
100
AcDbEntity
  8
0
100
AcDbLine
 10
38.0
 20
170.4271419999999
 30
0.0
 11
38.0
 21
152.6561419999999
 31
0.0
  0
LINE
  5
5C
330
1E
100
AcDbEntity
  8
0
100
AcDbLine
 10
38.0
 20
179.484142
 30
0.0
 11
38.0
 21
170.4271419999999
 31
0.0
  0
LINE
  5
5D
330
1E
100
AcDbEntity
  8
0
100
AcDbLine
 10
38.0
 20
189.1151419999999
 30
0.0
 11
38.0
 21
172.850142
 31
0.0
  0
LINE
  5
5E
330
1E
100
AcDbEntity
  8
0
100
AcDbLine
 10
38.0
 20
189.1151419999999
 30
0.0
 11
38.0
 21
191.3151419999999
 31
0.0
  0
LINE
  5
5F
330
1E
100
AcDbEntity
  8
0
100
AcDbLine
 10
38.0
 20
191.3151419999999
 30
0.0
 11
38.0
 21
189.1151419999999
 31
0.0
  0
LINE
  5
60
330
1E
100
AcDbEntity
  8
0
100
AcDbLine
 10
38.0
 20
191.3151419999999
 30
0.0
 11
38.43199999999999
 21
192.645142
 31
0.0
  0
LINE
  5
61
330
1E
100
AcDbEntity
  8
0
100
AcDbLine
 10
62.0
 20
133.9761419999999
 30
0.0
 11
62.0
 21
145.7851419999999
 31
0.0
  0
LINE
  5
62
330
1E
100
AcDbEntity
  8
0
100
AcDbLine
 10
62.0
 20
133.9761419999999
 30
0.0
 11
62.0
 21
122.072142
 31
0.0
  0
LINE
  5
63
330
1E
100
AcDbEntity
  8
0
100
AcDbLine
 10
62.0
 20
158.0001419999999
 30
0.0
 11
62.0
 21
170.4271419999999
 31
0.0
  0
LINE
  5
64
330
1E
100
AcDbEntity
  8
0
100
AcDbLine
 10
62.0
 20
158.0001419999999
 30
0.0
 11
62.0
 21
145.7851419999999
 31
0.0
  0
LINE
  5
65
330
1E
100
AcDbEntity
  8
0
100
AcDbLine
 10
62.0
 20
145.7851419999999
 30
0.0
 11
62.0
 21
158.0001419999999
 31
0.0
  0
LINE
  5
66
330
1E
100
AcDbEntity
  8
0
100
AcDbLine
 10
62.0
 20
145.7851419999999
 30
0.0
 11
62.0
 21
133.9761419999999
 31
0.0
  0
LINE
  5
67
330
1E
100
AcDbEntity
  8
0
100
AcDbLine
 10
62.0
 20
191.3151419999999
 30
0.0
 11
62.0
 21
189.1151419999999
 31
0.0
  0
LINE
  5
68
330
1E
100
AcDbEntity
  8
0
100
AcDbLine
 10
61.568
 20
192.645142
 30
0.0
 11
62.0
 21
191.3151419999999
 31
0.0
  0
LINE
  5
69
330
1E
100
AcDbEntity
  8
0
100
AcDbLine
 10
62.0
 20
189.1151419999999
 30
0.0
 11
62.0
 21
191.3151419999999
 31
0.0
  0
LINE
  5
6A
330
1E
100
AcDbEntity
  8
0
100
AcDbLine
 10
62.0
 20
189.1151419999999
 30
0.0
 11
62.0
 21
179.484142
 31
0.0
  0
LINE
  5
6B
330
1E
100
AcDbEntity
  8
0
100
AcDbLine
 10
62.0
 20
179.484142
 30
0.0
 11
62.0
 21
170.4271419999999
 31
0.0
  0
LINE
  5
6C
330
1E
100
AcDbEntity
  8
0
100
AcDbLine
 10
62.0
 20
179.484142
 30
0.0
 11
62.0
 21
189.1151419999999
 31
0.0
  0
LINE
  5
6D
330
1E
100
AcDbEntity
  8
0
100
AcDbLine
 10
62.0
 20
170.4271419999999
 30
0.0
 11
62.0
 21
179.484142
 31
0.0
  0
LINE
  5
6E
330
1E
100
AcDbEntity
  8
0
100
AcDbLine
 10
62.0
 20
170.4271419999999
 30
0.0
 11
62.0
 21
158.0001419999999
 31
0.0
  0
LINE
  5
6F
330
1E
100
AcDbEntity
  8
0
100
AcDbLine
 10
62.0
 20
122.072142
 30
0.0
 11
62.0
 21
133.9761419999999
 31
0.0
  0
LINE
  5
70
330
1E
100
AcDbEntity
  8
0
100
AcDbLine
 10
62.0
 20
122.072142
 30
0.0
 11
62.0
 21
112.7221419999999
 31
0.0
  0
LINE
  5
71
330
1E
100
AcDbEntity
  8
0
100
AcDbLine
 10
62.0
 20
103.682142
 30
0.0
 11
62.0
 21
112.7221419999999
 31
0.0
  0
LINE
  5
72
330
1E
100
AcDbEntity
  8
0
100
AcDbLine
 10
62.0
 20
103.682142
 30
0.0
 11
63.6489138669398
 21
97.23773786732781
 31
0.0
  0
LINE
  5
73
330
1E
100
AcDbEntity
  8
0
100
AcDbLine
 10
74.90000000000001
 20
8.299691999999989
 30
0.0
 11
85.29999999999999
 21
14.852942
 31
0.0
  0
LINE
  5
74
330
1E
100
AcDbEntity
  8
0
100
AcDbLine
 10
74.59999999999999
 20
5.75947199999999
 30
0.0
 11
85.0
 21
12.230742
 31
0.0
  0
LINE
  5
75
330
1E
100
AcDbEntity
  8
0
100
AcDbLine
 10
73.9
 20
5.39043199999999
 30
0.0
 11
74.59999999999999
 21
5.75947199999999
 31
0.0
  0
LINE
  5
76
330
1E
100
AcDbEntity
  8
0
100
AcDbLine
 10
74.59999999999999
 20
87.28654199999999
 30
0.0
 11
85.0
 21
80.410642
 31
0.0
  0
LINE
  5
77
330
1E
100
AcDbEntity
  8
0
100
AcDbLine
 10
85.29999999999999
 20
14.852942
 30
0.0
 11
93.3
 21
23.372142
 31
0.0
  0
LINE
  5
78
330
1E
100
AcDbEntity
  8
0
100
AcDbLine
 10
85.0
 20
12.230742
 30
0.0
 11
92.9
 21
20.749942
 31
0.0
  0
LINE
  5
79
330
1E
100
AcDbEntity
  8
0
100
AcDbLine
 10
93.3
 20
23.372142
 30
0.0
 11
98.2
 21
33.283842
 31
0.0
  0
LINE
  5
7A
330
1E
100
AcDbEntity
  8
0
100
AcDbLine
 10
92.9
 20
20.749942
 30
0.0
 11
97.70000000000001
 21
30.49784199999999
 31
0.0
  0
LINE
  5
7B
330
1E
100
AcDbEntity
  8
0
100
AcDbLine
 10
85.29999999999999
 20
15.426442
 30
0.0
 11
93.3
 21
23.945642
 31
0.0
  0
LINE
  5
7C
330
1E
100
AcDbEntity
  8
0
100
AcDbLine
 10
98.2
 20
33.283842
 30
0.0
 11
100.0
 21
43.76894199999999
 31
0.0
  0
LINE
  5
7D
330
1E
100
AcDbEntity
  8
0
100
AcDbLine
 10
98.2
 20
31.849942
 30
0.0
 11
100.0
 21
42.335042
 31
0.0
  0
LINE
  5
7E
330
1E
100
AcDbEntity
  8
0
100
AcDbLine
 10
97.70000000000001
 20
30.49784199999999
 30
0.0
 11
98.2
 21
31.849942
 31
0.0
  0
LINE
  5
7F
330
1E
100
AcDbEntity
  8
0
100
AcDbLine
 10
93.3
 20
23.945642
 30
0.0
 11
98.2
 21
33.85744199999999
 31
0.0
  0
LINE
  5
80
330
1E
100
AcDbEntity
  8
0
100
AcDbLine
 10
100.0
 20
42.335042
 30
0.0
 11
100.0
 21
43.76894199999999
 31
0.0
  0
LINE
  5
81
330
1E
100
AcDbEntity
  8
0
100
AcDbLine
 10
99.95076465286622
 20
44.05574336764849
 30
0.0
 11
100.0
 21
43.76894199999999
 31
0.0
  0
LINE
  5
82
330
1E
100
AcDbEntity
  8
0
100
AcDbLine
 10
100.0
 20
43.76894199999999
 30
0.0
 11
100.0
 21
42.335042
 31
0.0
  0
LINE
  5
83
330
1E
100
AcDbEntity
  8
0
100
AcDbLine
 10
100.0
 20
50.365142
 30
0.0
 11
100.0
 21
44.342542
 31
0.0
  0
LINE
  5
84
330
1E
100
AcDbEntity
  8
0
100
AcDbLine
 10
100.0
 20
44.342542
 30
0.0
 11
100.0
 21
50.365142
 31
0.0
  0
LINE
  5
85
330
1E
100
AcDbEntity
  8
0
100
AcDbLine
 10
98.2
 20
33.85744199999999
 30
0.0
 11
100.0
 21
44.342542
 31
0.0
  0
LINE
  5
86
330
1E
100
AcDbEntity
  8
0
100
AcDbLine
 10
85.29999999999999
 20
80.117542
 30
0.0
 11
93.3
 21
71.041842
 31
0.0
  0
LINE
  5
87
330
1E
100
AcDbEntity
  8
0
100
AcDbLine
 10
85.0
 20
80.410642
 30
0.0
 11
85.29999999999999
 21
80.117542
 31
0.0
  0
LINE
  5
88
330
1E
100
AcDbEntity
  8
0
100
AcDbLine
 10
93.3
 20
71.041842
 30
0.0
 11
98.2
 21
60.850242
 31
0.0
  0
LINE
  5
89
330
1E
100
AcDbEntity
  8
0
100
AcDbLine
 10
98.2
 20
60.850242
 30
0.0
 11
100.0
 21
50.365142
 31
0.0
  0
LINE
  5
8A
330
1E
100
AcDbEntity
  8
0
100
AcDbLine
 10
74.90000000000001
 20
8.873271999999991
 30
0.0
 11
85.29999999999999
 21
15.426442
 31
0.0
  0
LINE
  5
8B
330
1E
100
AcDbEntity
  8
0
100
AcDbLine
 10
70.6039534215822
 20
88.6584284446612
 30
0.0
 11
74.59999999999999
 21
87.28654199999999
 31
0.0
  0
LINE
  5
8C
330
1E
100
AcDbEntity
  8
0
100
AcDbLine
 10
66.37179999999999
 20
92.79414200000001
 30
0.0
 11
70.60395342158219
 21
88.6584284446612
 31
0.0
  0
LINE
  5
8F
330
1E
100
AcDbEntity
  8
0
100
AcDbLine
 10
62.0
 20
112.7221419999999
 30
0.0
 11
62.0
 21
103.682142
 31
0.0
  0
LINE
  5
90
330
1E
100
AcDbEntity
  8
0
100
AcDbLine
 10
62.0
 20
112.7221419999999
 30
0.0
 11
62.0
 21
122.072142
 31
0.0
  0
LINE
  5
91
330
1E
100
AcDbEntity
  8
0
100
AcDbLine
 10
60.128
 20
194.1291419999999
 30
0.0
 11
60.416
 21
193.8921419999999
 31
0.0
  0
LINE
  5
92
330
1E
100
AcDbEntity
  8
0
100
AcDbLine
 10
60.416
 20
193.8921419999999
 30
0.0
 11
61.568
 21
192.645142
 31
0.0
  0
LINE
  5
93
330
1E
100
AcDbEntity
  8
0
100
AcDbLine
 10
41.29316212907189
 20
194.9338598722309
 30
0.0
 11
42.2154
 21
196.028142
 31
0.0
  0
LINE
  5
94
330
1E
100
AcDbEntity
  8
0
100
AcDbLine
 10
42.2470934875586
 20
195.355812268958
 30
0.0
 11
44.5
 21
196.8251419999999
 31
0.0
  0
LINE
  5
95
330
1E
100
AcDbEntity
  8
0
100
AcDbLine
 10
57.78459999999999
 20
195.414142
 30
0.0
 11
57.8684978693156
 21
195.317517910125
 31
0.0
  0
LINE
  5
96
330
1E
100
AcDbEntity
  8
0
100
AcDbLine
 10
55.80799999999999
 20
196.0001419999999
 30
0.0
 11
58.256
 21
195.189142
 31
0.0
  0
LINE
  5
97
330
1E
100
AcDbEntity
  8
0
100
AcDbLine
 10
58.256
 20
195.189142
 30
0.0
 11
60.128
 21
194.1291419999999
 31
0.0
  0
LINE
  5
98
330
1E
100
AcDbEntity
  8
0
100
AcDbLine
 10
44.3376280376947
 20
196.0262441518709
 30
0.0
 11
44.5
 21
196.1321419999999
 31
0.0
  0
LINE
  5
99
330
1E
100
AcDbEntity
  8
0
100
AcDbLine
 10
44.5
 20
196.1321419999999
 30
0.0
 11
47.1231
 21
197.0951419999999
 31
0.0
  0
LINE
  5
9A
330
1E
100
AcDbEntity
  8
0
100
AcDbLine
 10
44.5
 20
196.8251419999999
 30
0.0
 11
47.1231
 21
197.7881419999999
 31
0.0
  0
LINE
  5
9B
330
1E
100
AcDbEntity
  8
0
100
AcDbLine
 10
44.5
 20
197.518142
 30
0.0
 11
47.1231
 21
198.4811419999999
 31
0.0
  0
LINE
  5
9C
330
1E
100
AcDbEntity
  8
0
100
AcDbLine
 10
42.2154
 20
196.028142
 30
0.0
 11
44.5
 21
197.518142
 31
0.0
  0
LINE
  5
9D
330
1E
100
AcDbEntity
  8
0
100
AcDbLine
 10
55.5
 20
196.1621419999999
 30
0.0
 11
55.7365293620018
 21
196.0129522903599
 31
0.0
  0
LINE
  5
9E
330
1E
100
AcDbEntity
  8
0
100
AcDbLine
 10
48.70380690627929
 20
196.6059872022069
 30
0.0
 11
50.0
 21
196.7731419999999
 31
0.0
  0
LINE
  5
9F
330
1E
100
AcDbEntity
  8
0
100
AcDbLine
 10
50.0
 20
196.7731419999999
 30
0.0
 11
51.3669860015742
 21
196.6016094661729
 31
0.0
  0
LINE
  5
A0
330
1E
100
AcDbEntity
  8
0
100
AcDbLine
 10
47.1231
 20
197.0951419999999
 30
0.0
 11
50.0
 21
197.4661419999999
 31
0.0
  0
LINE
  5
A1
330
1E
100
AcDbEntity
  8
0
100
AcDbLine
 10
50.0
 20
197.4661419999999
 30
0.0
 11
52.8769
 21
197.105142
 31
0.0
  0
LINE
  5
A2
330
1E
100
AcDbEntity
  8
0
100
AcDbLine
 10
50.0
 20
198.2681419999999
 30
0.0
 11
52.6231
 21
197.967142
 31
0.0
  0
LINE
  5
A3
330
1E
100
AcDbEntity
  8
0
100
AcDbLine
 10
47.1231
 20
197.7881419999999
 30
0.0
 11
50.0
 21
198.1591419999999
 31
0.0
  0
LINE
  5
A4
330
1E
100
AcDbEntity
  8
0
100
AcDbLine
 10
50.0
 20
198.1591419999999
 30
0.0
 11
50.0
 21
198.8521419999999
 31
0.0
  0
LINE
  5
A5
330
1E
100
AcDbEntity
  8
0
100
AcDbLine
 10
50.0
 20
198.1591419999999
 30
0.0
 11
52.8769
 21
197.7981419999999
 31
0.0
  0
LINE
  5
A6
330
1E
100
AcDbEntity
  8
0
100
AcDbLine
 10
47.1231
 20
198.4811419999999
 30
0.0
 11
50.0
 21
198.8521419999999
 31
0.0
  0
LINE
  5
A7
330
1E
100
AcDbEntity
  8
0
100
AcDbLine
 10
52.6231
 20
197.967142
 30
0.0
 11
55.0769
 21
197.068142
 31
0.0
  0
LINE
  5
A8
330
1E
100
AcDbEntity
  8
0
100
AcDbLine
 10
52.8769
 20
197.105142
 30
0.0
 11
55.5
 21
196.1621419999999
 31
0.0
  0
LINE
  5
A9
330
1E
100
AcDbEntity
  8
0
100
AcDbLine
 10
55.0769
 20
197.068142
 30
0.0
 11
55.27432000262789
 21
196.936273576197
 31
0.0
  0
LINE
  5
AA
330
1E
100
AcDbEntity
  8
0
100
AcDbLine
 10
52.8769
 20
197.7981419999999
 30
0.0
 11
55.5
 21
196.855142
 31
0.0
  0
LINE
  5
AB
330
1E
100
AcDbEntity
  8
0
100
AcDbLine
 10
55.5
 20
196.855142
 30
0.0
 11
57.78459999999999
 21
195.414142
 31
0.0
  0
LINE
  5
AC
330
1E
100
AcDbEntity
  8
0
100
AcDbLine
 10
50.0
 20
196.6861419999999
 30
0.0
 11
53.02399999999999
 21
196.499142
 31
0.0
  0
LINE
  5
AD
330
1E
100
AcDbEntity
  8
0
100
AcDbLine
 10
53.02399999999999
 20
196.499142
 30
0.0
 11
55.80799999999999
 21
196.0001419999999
 31
0.0
  0
LINE
  5
AE
330
1E
100
AcDbEntity
  8
0
100
AcDbLine
 10
46.976
 20
196.499142
 30
0.0
 11
50.0
 21
196.6861419999999
 31
0.0
  0
LINE
  5
AF
330
1E
100
AcDbEntity
  8
0
100
AcDbLine
 10
44.192
 20
196.0001419999999
 30
0.0
 11
46.976
 21
196.499142
 31
0.0
  0
LINE
  5
B0
330
1E
100
AcDbEntity
  8
0
100
AcDbLine
 10
41.744
 20
195.189142
 30
0.0
 11
44.192
 21
196.0001419999999
 31
0.0
  0
LINE
  5
B1
330
1E
100
AcDbEntity
  8
0
100
AcDbLine
 10
39.87199999999999
 20
194.1291419999999
 30
0.0
 11
41.744
 21
195.189142
 31
0.0
  0
LINE
  5
B2
330
1E
100
AcDbEntity
  8
0
100
AcDbLine
 10
39.584
 20
193.8921419999999
 30
0.0
 11
39.87199999999999
 21
194.1291419999999
 31
0.0
  0
LINE
  5
B3
330
1E
100
AcDbEntity
  8
0
100
AcDbLine
 10
38.43199999999999
 20
192.645142
 30
0.0
 11
39.584
 21
193.8921419999999
 31
0.0
  0
LINE
  5
B4
330
1E
100
AcDbEntity
  8
0
100
AcDbLine
 10
38.0
 20
172.850142
 30
0.0
 11
38.0
 21
189.1151419999999
 31
0.0
  0
LINE
  5
B5
330
1E
100
AcDbEntity
  8
0
100
AcDbLine
 10
37.2
 20
4.85943199999999
 30
0.0
 11
50.0
 21
3.38495199999999
 31
0.0
  0
LINE
  5
B6
330
1E
100
AcDbEntity
  8
0
100
AcDbLine
 10
25.4
 20
87.28654199999999
 30
0.0
 11
29.3960465784178
 21
88.6584284446612
 31
0.0
  0
LINE
  5
BB
330
1E
100
AcDbEntity
  8
0
100
AcDbLine
 10
63.6489138669398
 20
97.23773786732781
 30
0.0
 11
66.37179999999999
 21
92.79414200000001
 31
0.0
  0
LINE
  5
BC
330
1E
100
AcDbEntity
  8
0
100
AcDbLine
 10
36.35108613306019
 20
97.23773786732781
 30
0.0
 11
33.6282
 21
92.79414200000001
 31
0.0
  0
ENDSEC
  0
SECTION
  2
OBJECTS
  0
DICTIONARY
  5
C
330
0
100
AcDbDictionary
  3
ACAD_GROUP
350
D
  3
ACAD_LAYOUT
350
19
  3
ACAD_MLINESTYLE
350
16
  3
ACAD_PLOTSETTINGS
350
18
  3
ACAD_PLOTSTYLENAME
350
E
  3
ACDBHEADERROUNDTRIPXREC
350
12F
  3
ACDBVARIABLEDICTIONARY
350
BD
  0
DICTIONARY
  5
151
330
1E
100
AcDbDictionary
280
     1
  3
ACAD_LAYOUTSELFREF
360
152
  0
DICTIONARY
  5
14F
330
1A
100
AcDbDictionary
280
     1
  3
ACAD_LAYOUTSELFREF
360
150
  0
DICTIONARY
  5
D
102
{ACAD_REACTORS
330
C
102
}
330
C
100
AcDbDictionary
  0
DICTIONARY
  5
19
102
{ACAD_REACTORS
330
C
102
}
330
C
100
AcDbDictionary
  0
DICTIONARY
  5
16
102
{ACAD_REACTORS
330
C
102
}
330
C
100
AcDbDictionary
  3
STANDARD
350
17
  0
DICTIONARY
  5
18
102
{ACAD_REACTORS
330
C
102
}
330
C
100
AcDbDictionary
  0
ACDBDICTIONARYWDFLT
  5
E
102
{ACAD_REACTORS
330
C
102
}
330
C
100
AcDbDictionary
281
     1
  3
Normal
350
F
100
AcDbDictionaryWithDefault
340
F
  0
DICTIONARY
  5
12F
102
{ACAD_REACTORS
330
C
102
}
330
C
100
AcDbDictionary
  3
CEPSNTYPE
350
139
  3
FINGERPRINTGUID
350
13A
  3
HYPERLINKBASE
350
132
  3
INSUNITS
350
138
  3
LAYOUTDICT
350
134
  3
LWETCUNION
350
137
  3
PLOTSETDICT
350
135
  3
PLOTSTYLNAMDICT
350
136
  3
PSVPSCALE
350
13C
  3
PUCSBASE
350
13F
  3
PUCSORGBACK
350
145
  3
PUCSORGBOTTOM
350
141
  3
PUCSORGFRONT
350
144
  3
PUCSORGLEFT
350
142
  3
PUCSORGRIGHT
350
143
  3
PUCSORGTOP
350
140
  3
PUCSORTHOREF
350
13D
  3
PUCSORTHOVIEW
350
13E
  3
STYLESHEET
350
133
  3
TSTACKALIGN
350
130
  3
TSTACKSIZE
350
131
  3
UCSBASE
350
148
  3
UCSORGBACK
350
14E
  3
UCSORGBOTTOM
350
14A
  3
UCSORGFRONT
350
14D
  3
UCSORGLEFT
350
14B
  3
UCSORGRIGHT
350
14C
  3
UCSORGTOP
350
149
  3
UCSORTHOREF
350
146
  3
UCSORTHOVIEW
350
147
  3
VERSIONGUID
350
13B
  0
DICTIONARY
  5
BD
102
{ACAD_REACTORS
330
C
102
}
330
C
100
AcDbDictionary
  3
DIMASSOC
350
BE
  0
XRECORD
  5
152
102
{ACAD_REACTORS
330
151
102
}
330
151
100
AcDbXrecord
340
1E
  0
XRECORD
  5
150
102
{ACAD_REACTORS
330
14F
102
}
330
14F
100
AcDbXrecord
340
1A
  0
MLINESTYLE
  5
17
102
{ACAD_REACTORS
330
16
102
}
330
16
100
AcDbMlineStyle
  2
STANDARD
 70
     0
  3

 62
   256
 51
90.0
 52
90.0
 71
     2
 49
0.5
 62
   256
  6
BYLAYER
 49
-0.5
 62
   256
  6
BYLAYER
  0
ACDBPLACEHOLDER
  5
F
102
{ACAD_REACTORS
330
E
102
}
330
E
100
AcDbPlaceHolder
280
     0
  0
XRECORD
  5
139
102
{ACAD_REACTORS
330
12F
102
}
330
12F
100
AcDbXrecord
 90
        0
  0
XRECORD
  5
13A
102
{ACAD_REACTORS
330
12F
102
}
330
12F
100
AcDbXrecord
  1
{10359412-9BED-470B-AD3A-9C51B1905638}
  0
XRECORD
  5
132
102
{ACAD_REACTORS
330
12F
102
}
330
12F
100
AcDbXrecord
  1

  0
XRECORD
  5
138
102
{ACAD_REACTORS
330
12F
102
}
330
12F
100
AcDbXrecord
 90
        0
  0
XRECORD
  5
134
102
{ACAD_REACTORS
330
12F
102
}
330
12F
100
AcDbXrecord
340
19
  0
XRECORD
  5
137
102
{ACAD_REACTORS
330
12F
102
}
330
12F
100
AcDbXrecord
 90
    10781
  0
XRECORD
  5
135
102
{ACAD_REACTORS
330
12F
102
}
330
12F
100
AcDbXrecord
340
18
  0
XRECORD
  5
136
102
{ACAD_REACTORS
330
12F
102
}
330
12F
100
AcDbXrecord
340
E
  0
XRECORD
  5
13C
102
{ACAD_REACTORS
330
12F
102
}
330
12F
100
AcDbXrecord
 40
0.0
  0
XRECORD
  5
13F
102
{ACAD_REACTORS
330
12F
102
}
330
12F
100
AcDbXrecord
340
0
  0
XRECORD
  5
145
102
{ACAD_REACTORS
330
12F
102
}
330
12F
100
AcDbXrecord
 10
0.0
 20
0.0
 30
0.0
  0
XRECORD
  5
141
102
{ACAD_REACTORS
330
12F
102
}
330
12F
100
AcDbXrecord
 10
0.0
 20
0.0
 30
0.0
  0
XRECORD
  5
144
102
{ACAD_REACTORS
330
12F
102
}
330
12F
100
AcDbXrecord
 10
0.0
 20
0.0
 30
0.0
  0
XRECORD
  5
142
102
{ACAD_REACTORS
330
12F
102
}
330
12F
100
AcDbXrecord
 10
0.0
 20
0.0
 30
0.0
  0
XRECORD
  5
143
102
{ACAD_REACTORS
330
12F
102
}
330
12F
100
AcDbXrecord
 10
0.0
 20
0.0
 30
0.0
  0
XRECORD
  5
140
102
{ACAD_REACTORS
330
12F
102
}
330
12F
100
AcDbXrecord
 10
0.0
 20
0.0
 30
0.0
  0
XRECORD
  5
13D
102
{ACAD_REACTORS
330
12F
102
}
330
12F
100
AcDbXrecord
340
0
  0
XRECORD
  5
13E
102
{ACAD_REACTORS
330
12F
102
}
330
12F
100
AcDbXrecord
 70
     0
  0
XRECORD
  5
133
102
{ACAD_REACTORS
330
12F
102
}
330
12F
100
AcDbXrecord
  1

  0
XRECORD
  5
130
102
{ACAD_REACTORS
330
12F
102
}
330
12F
100
AcDbXrecord
 90
        1
  0
XRECORD
  5
131
102
{ACAD_REACTORS
330
12F
102
}
330
12F
100
AcDbXrecord
 90
       70
  0
XRECORD
  5
148
102
{ACAD_REACTORS
330
12F
102
}
330
12F
100
AcDbXrecord
340
0
  0
XRECORD
  5
14E
102
{ACAD_REACTORS
330
12F
102
}
330
12F
100
AcDbXrecord
 10
0.0
 20
0.0
 30
0.0
  0
XRECORD
  5
14A
102
{ACAD_REACTORS
330
12F
102
}
330
12F
100
AcDbXrecord
 10
0.0
 20
0.0
 30
0.0
  0
XRECORD
  5
14D
102
{ACAD_REACTORS
330
12F
102
}
330
12F
100
AcDbXrecord
 10
0.0
 20
0.0
 30
0.0
  0
XRECORD
  5
14B
102
{ACAD_REACTORS
330
12F
102
}
330
12F
100
AcDbXrecord
 10
0.0
 20
0.0
 30
0.0
  0
XRECORD
  5
14C
102
{ACAD_REACTORS
330
12F
102
}
330
12F
100
AcDbXrecord
 10
0.0
 20
0.0
 30
0.0
  0
XRECORD
  5
149
102
{ACAD_REACTORS
330
12F
102
}
330
12F
100
AcDbXrecord
 10
0.0
 20
0.0
 30
0.0
  0
XRECORD
  5
146
102
{ACAD_REACTORS
330
12F
102
}
330
12F
100
AcDbXrecord
340
0
  0
XRECORD
  5
147
102
{ACAD_REACTORS
330
12F
102
}
330
12F
100
AcDbXrecord
 70
     1
  0
XRECORD
  5
13B
102
{ACAD_REACTORS
330
12F
102
}
330
12F
100
AcDbXrecord
  1
{0068C43A-F9AA-4EB0-B34B-659029EF00AA}
  0
DICTIONARYVAR
  5
BE
102
{ACAD_REACTORS
330
BD
102
}
330
BD
100
DictionaryVariables
280
     0
  1
1
  0
ENDSEC
  0
EOF
