  0
SECTION
  2
HEADER
  9
$ACADVER
  1
AC1015
  9
$ACADMAINTVER
 70
    13
  9
$DWGCODEPAGE
  3
ANSI_1252
  9
$INSBASE
 10
0.0
 20
0.0
 30
0.0
  9
$EXTMIN
 10
-0.000000000000001
 20
-0.000000000000013
 30
0.0
  9
$EXTMAX
 10
100.0
 20
1265.0
 30
0.0
  9
$LIMMIN
 10
0.0
 20
0.0
  9
$LIMMAX
 10
12.0
 20
9.0
  9
$ORTHOMODE
 70
     0
  9
$REGENMODE
 70
     1
  9
$FILLMODE
 70
     1
  9
$QTEXTMODE
 70
     0
  9
$MIRRTEXT
 70
     1
  9
$LTSCALE
 40
1.0
  9
$ATTMODE
 70
     1
  9
$TEXTSIZE
 40
0.2
  9
$TRACEWID
 40
0.05
  9
$TEXTSTYLE
  7
Standard
  9
$CLAYER
  8
0
  9
$CELTYPE
  6
Continuous
  9
$CECOLOR
 62
   256
  9
$CELTSCALE
 40
1.0
  9
$DISPSILH
 70
     0
  9
$DIMSCALE
 40
1.0
  9
$DIMASZ
 40
0.18
  9
$DIMEXO
 40
0.0625
  9
$DIMDLI
 40
0.38
  9
$DIMRND
 40
0.0
  9
$DIMDLE
 40
0.0
  9
$DIMEXE
 40
0.18
  9
$DIMTP
 40
0.0
  9
$DIMTM
 40
0.0
  9
$DIMTXT
 40
0.18
  9
$DIMCEN
 40
0.09
  9
$DIMTSZ
 40
0.0
  9
$DIMTOL
 70
     0
  9
$DIMLIM
 70
     0
  9
$DIMTIH
 70
     1
  9
$DIMTOH
 70
     1
  9
$DIMSE1
 70
     0
  9
$DIMSE2
 70
     0
  9
$DIMTAD
 70
     0
  9
$DIMZIN
 70
     0
  9
$DIMBLK
  1

  9
$DIMASO
 70
     1
  9
$DIMSHO
 70
     1
  9
$DIMPOST
  1

  9
$DIMAPOST
  1

  9
$DIMALT
 70
     0
  9
$DIMALTD
 70
     2
  9
$DIMALTF
 40
25.4
  9
$DIMLFAC
 40
1.0
  9
$DIMTOFL
 70
     0
  9
$DIMTVP
 40
0.0
  9
$DIMTIX
 70
     0
  9
$DIMSOXD
 70
     0
  9
$DIMSAH
 70
     0
  9
$DIMBLK1
  1

  9
$DIMBLK2
  1

  9
$DIMSTYLE
  2
Standard
  9
$DIMCLRD
 70
     0
  9
$DIMCLRE
 70
     0
  9
$DIMCLRT
 70
     0
  9
$DIMTFAC
 40
1.0
  9
$DIMGAP
 40
0.09
  9
$DIMJUST
 70
     0
  9
$DIMSD1
 70
     0
  9
$DIMSD2
 70
     0
  9
$DIMTOLJ
 70
     1
  9
$DIMTZIN
 70
     0
  9
$DIMALTZ
 70
     0
  9
$DIMALTTZ
 70
     0
  9
$DIMUPT
 70
     0
  9
$DIMDEC
 70
     4
  9
$DIMTDEC
 70
     4
  9
$DIMALTU
 70
     2
  9
$DIMALTTD
 70
     2
  9
$DIMTXSTY
  7
Standard
  9
$DIMAUNIT
 70
     0
  9
$DIMADEC
 70
     0
  9
$DIMALTRND
 40
0.0
  9
$DIMAZIN
 70
     0
  9
$DIMDSEP
 70
    46
  9
$DIMATFIT
 70
     3
  9
$DIMFRAC
 70
     0
  9
$DIMLDRBLK
  1

  9
$DIMLUNIT
 70
     2
  9
$DIMLWD
 70
    -2
  9
$DIMLWE
 70
    -2
  9
$DIMTMOVE
 70
     0
  9
$LUNITS
 70
     2
  9
$LUPREC
 70
     4
  9
$SKETCHINC
 40
0.1
  9
$FILLETRAD
 40
0.0
  9
$AUNITS
 70
     0
  9
$AUPREC
 70
     0
  9
$MENU
  1
.
  9
$ELEVATION
 40
0.0
  9
$PELEVATION
 40
0.0
  9
$THICKNESS
 40
0.0
  9
$LIMCHECK
 70
     0
  9
$CHAMFERA
 40
0.0
  9
$CHAMFERB
 40
0.0
  9
$CHAMFERC
 40
0.0
  9
$CHAMFERD
 40
0.0
  9
$SKPOLY
 70
     0
  9
$TDCREATE
 40
2454738.855362766
  9
$TDUCREATE
 40
2454738.772029433
  9
$TDUPDATE
 40
2454738.894693819
  9
$TDUUPDATE
 40
2454738.811360486
  9
$TDINDWG
 40
0.0110968287
  9
$TDUSRTIMER
 40
0.0110968287
  9
$USRTIMER
 70
     1
  9
$ANGBASE
 50
0.0
  9
$ANGDIR
 70
     0
  9
$PDMODE
 70
     0
  9
$PDSIZE
 40
0.0
  9
$PLINEWID
 40
0.0
  9
$SPLFRAME
 70
     0
  9
$SPLINETYPE
 70
     6
  9
$SPLINESEGS
 70
     8
  9
$HANDSEED
  5
D58
  9
$SURFTAB1
 70
     6
  9
$SURFTAB2
 70
     6
  9
$SURFTYPE
 70
     6
  9
$SURFU
 70
     6
  9
$SURFV
 70
     6
  9
$UCSBASE
  2

  9
$UCSNAME
  2

  9
$UCSORG
 10
0.0
 20
0.0
 30
0.0
  9
$UCSXDIR
 10
1.0
 20
0.0
 30
0.0
  9
$UCSYDIR
 10
0.0
 20
1.0
 30
0.0
  9
$UCSORTHOREF
  2

  9
$UCSORTHOVIEW
 70
     1
  9
$UCSORGTOP
 10
0.0
 20
0.0
 30
0.0
  9
$UCSORGBOTTOM
 10
0.0
 20
0.0
 30
0.0
  9
$UCSORGLEFT
 10
0.0
 20
0.0
 30
0.0
  9
$UCSORGRIGHT
 10
0.0
 20
0.0
 30
0.0
  9
$UCSORGFRONT
 10
0.0
 20
0.0
 30
0.0
  9
$UCSORGBACK
 10
0.0
 20
0.0
 30
0.0
  9
$PUCSBASE
  2

  9
$PUCSNAME
  2

  9
$PUCSORG
 10
0.0
 20
0.0
 30
0.0
  9
$PUCSXDIR
 10
1.0
 20
0.0
 30
0.0
  9
$PUCSYDIR
 10
0.0
 20
1.0
 30
0.0
  9
$PUCSORTHOREF
  2

  9
$PUCSORTHOVIEW
 70
     0
  9
$PUCSORGTOP
 10
0.0
 20
0.0
 30
0.0
  9
$PUCSORGBOTTOM
 10
0.0
 20
0.0
 30
0.0
  9
$PUCSORGLEFT
 10
0.0
 20
0.0
 30
0.0
  9
$PUCSORGRIGHT
 10
0.0
 20
0.0
 30
0.0
  9
$PUCSORGFRONT
 10
0.0
 20
0.0
 30
0.0
  9
$PUCSORGBACK
 10
0.0
 20
0.0
 30
0.0
  9
$USERI1
 70
     0
  9
$USERI2
 70
     0
  9
$USERI3
 70
     0
  9
$USERI4
 70
     0
  9
$USERI5
 70
     0
  9
$USERR1
 40
0.0
  9
$USERR2
 40
0.0
  9
$USERR3
 40
0.0
  9
$USERR4
 40
0.0
  9
$USERR5
 40
0.0
  9
$WORLDVIEW
 70
     1
  9
$SHADEDGE
 70
     3
  9
$SHADEDIF
 70
    70
  9
$TILEMODE
 70
     1
  9
$MAXACTVP
 70
    64
  9
$PINSBASE
 10
0.0
 20
0.0
 30
0.0
  9
$PLIMCHECK
 70
     0
  9
$PEXTMIN
 10
1.000000000000000E+20
 20
1.000000000000000E+20
 30
1.000000000000000E+20
  9
$PEXTMAX
 10
-1.000000000000000E+20
 20
-1.000000000000000E+20
 30
-1.000000000000000E+20
  9
$PLIMMIN
 10
0.0
 20
0.0
  9
$PLIMMAX
 10
12.0
 20
9.0
  9
$UNITMODE
 70
     0
  9
$VISRETAIN
 70
     1
  9
$PLINEGEN
 70
     0
  9
$PSLTSCALE
 70
     1
  9
$TREEDEPTH
 70
  3020
  9
$CMLSTYLE
  2
Standard
  9
$CMLJUST
 70
     0
  9
$CMLSCALE
 40
1.0
  9
$PROXYGRAPHICS
 70
     1
  9
$MEASUREMENT
 70
     0
  9
$CELWEIGHT
370
    -1
  9
$ENDCAPS
280
     0
  9
$JOINSTYLE
280
     0
  9
$LWDISPLAY
290
     0
  9
$INSUNITS
 70
     0
  9
$HYPERLINKBASE
  1

  9
$STYLESHEET
  1

  9
$XEDIT
290
     1
  9
$CEPSNTYPE
380
     0
  9
$PSTYLEMODE
290
     1
  9
$FINGERPRINTGUID
  2
{2C689D3E-442D-43E4-9B25-53EF04E0B29C}
  9
$VERSIONGUID
  2
{D46FEF8E-5599-4B63-8DE6-607BAE57B19C}
  9
$EXTNAMES
290
     1
  9
$PSVPSCALE
 40
0.0
  9
$OLESTARTUP
290
     0
  0
ENDSEC
  0
SECTION
  2
CLASSES
  0
CLASS
  1
ACDBDICTIONARYWDFLT
  2
AcDbDictionaryWithDefault
  3
AutoCAD 2000
 90
        0
280
     0
281
     0
  0
CLASS
  1
ACDBPLACEHOLDER
  2
AcDbPlaceHolder
  3
AutoCAD 2000
 90
        0
280
     0
281
     0
  0
CLASS
  1
LAYOUT
  2
AcDbLayout
  3
AutoCAD 2000
 90
        0
280
     0
281
     0
  0
CLASS
  1
DICTIONARYVAR
  2
AcDbDictionaryVar
  3
AutoCAD 2000
 90
        0
280
     0
281
     0
  0
ENDSEC
  0
SECTION
  2
TABLES
  0
TABLE
  2
VPORT
  5
8
330
0
100
AcDbSymbolTable
 70
     2
  0
VPORT
  5
D57
330
8
100
AcDbSymbolTableRecord
100
AcDbViewportTableRecord
  2
*Active
 70
     0
 10
0.0
 20
0.0
 11
1.0
 21
1.0
 12
50.0
 22
632.5
 13
0.0
 23
0.0
 14
1.0
 24
1.0
 15
0.0
 25
0.0
 16
0.0
 26
0.0
 36
1.0
 17
0.0
 27
0.0
 37
0.0
 40
1274.705882352941
 41
2.078104993597951
 42
50.0
 43
0.0
 44
0.0
 50
0.0
 51
0.0
 71
     0
 72
   100
 73
     1
 74
     3
 75
     0
 76
     0
 77
     0
 78
     0
281
     0
 65
     1
110
0.0
120
0.0
130
0.0
111
1.0
121
0.0
131
0.0
112
0.0
122
1.0
132
0.0
 79
     1
146
0.0
  0
ENDTAB
  0
TABLE
  2
LTYPE
  5
5
330
0
100
AcDbSymbolTable
 70
     1
  0
LTYPE
  5
13
330
5
100
AcDbSymbolTableRecord
100
AcDbLinetypeTableRecord
  2
ByBlock
 70
     0
  3

 72
    65
 73
     0
 40
0.0
  0
LTYPE
  5
14
330
5
100
AcDbSymbolTableRecord
100
AcDbLinetypeTableRecord
  2
ByLayer
 70
     0
  3

 72
    65
 73
     0
 40
0.0
  0
LTYPE
  5
15
330
5
100
AcDbSymbolTableRecord
100
AcDbLinetypeTableRecord
  2
Continuous
 70
     0
  3
Solid line
 72
    65
 73
     0
 40
0.0
  0
ENDTAB
  0
TABLE
  2
LAYER
  5
2
330
0
100
AcDbSymbolTable
 70
     1
  0
LAYER
  5
10
330
2
100
AcDbSymbolTableRecord
100
AcDbLayerTableRecord
  2
0
 70
     0
 62
     7
  6
Continuous
370
    -3
390
F
  0
ENDTAB
  0
TABLE
  2
STYLE
  5
3
330
0
100
AcDbSymbolTable
 70
     1
  0
STYLE
  5
11
330
3
100
AcDbSymbolTableRecord
100
AcDbTextStyleTableRecord
  2
Standard
 70
     0
 40
0.0
 41
1.0
 50
0.0
 71
     0
 42
0.2
  3
txt
  4

  0
ENDTAB
  0
TABLE
  2
VIEW
  5
6
330
0
100
AcDbSymbolTable
 70
     0
  0
ENDTAB
  0
TABLE
  2
UCS
  5
7
330
0
100
AcDbSymbolTable
 70
     0
  0
ENDTAB
  0
TABLE
  2
APPID
  5
9
330
0
100
AcDbSymbolTable
 70
     1
  0
APPID
  5
12
330
9
100
AcDbSymbolTableRecord
100
AcDbRegAppTableRecord
  2
ACAD
 70
     0
  0
ENDTAB
  0
TABLE
  2
DIMSTYLE
  5
A
330
0
100
AcDbSymbolTable
 70
     1
100
AcDbDimStyleTable
 71
     0
  0
DIMSTYLE
105
D49
330
A
100
AcDbSymbolTableRecord
100
AcDbDimStyleTableRecord
  2
Standard
 70
     0
340
11
  0
ENDTAB
  0
TABLE
  2
BLOCK_RECORD
  5
1
330
0
100
AcDbSymbolTable
 70
     0
  0
BLOCK_RECORD
  5
1E
330
1
100
AcDbSymbolTableRecord
100
AcDbBlockTableRecord
  2
*Model_Space
340
21
  0
BLOCK_RECORD
  5
1A
330
1
100
AcDbSymbolTableRecord
100
AcDbBlockTableRecord
  2
*Paper_Space
340
1D
  0
ENDTAB
  0
ENDSEC
  0
SECTION
  2
BLOCKS
  0
BLOCK
  5
1F
330
1E
100
AcDbEntity
  8
0
100
AcDbBlockBegin
  2
*Model_Space
 70
     0
 10
0.0
 20
0.0
 30
0.0
  3
*Model_Space
  1

  0
ENDBLK
  5
20
330
1E
100
AcDbEntity
  8
0
100
AcDbBlockEnd
  0
BLOCK
  5
1B
330
1A
100
AcDbEntity
 67
     1
  8
0
100
AcDbBlockBegin
  2
*Paper_Space
 70
     0
 10
0.0
 20
0.0
 30
0.0
  3
*Paper_Space
  1

  0
ENDBLK
  5
1C
330
1A
100
AcDbEntity
 67
     1
  8
0
100
AcDbBlockEnd
  0
ENDSEC
  0
SECTION
  2
ENTITIES
  0
LINE
  5
22
330
1E
100
AcDbEntity
  8
0
100
AcDbLine
 10
2.137529999999999
 20
646.9059999999998
 30
0.0
 11
7.0
 21
633.546738085893
 31
0.0
  0
LINE
  5
23
330
1E
100
AcDbEntity
  8
0
100
AcDbLine
 10
2.811869999999998
 20
647.7899999999998
 30
0.0
 11
3.386959999999998
 21
648.0
 31
0.0
  0
LINE
  5
24
330
1E
100
AcDbEntity
  8
0
100
AcDbLine
 10
2.3721
 20
647.63
 30
0.0
 11
2.811869999999998
 21
647.7899999999998
 31
0.0
  0
LINE
  5
25
330
1E
100
AcDbEntity
  8
0
100
AcDbLine
 10
2.101459999999998
 20
647.5319999999998
 30
0.0
 11
2.3721
 21
647.63
 31
0.0
  0
LINE
  5
26
330
1E
100
AcDbEntity
  8
0
100
AcDbLine
 10
4.040989999999998
 20
648.238
 30
0.0
 11
4.7514
 21
648.496
 31
0.0
  0
LINE
  5
27
330
1E
100
AcDbEntity
  8
0
100
AcDbLine
 10
3.386959999999998
 20
648.0
 30
0.0
 11
4.040989999999998
 21
648.238
 31
0.0
  0
LINE
  5
28
330
1E
100
AcDbEntity
  8
0
100
AcDbLine
 10
1.999979999999999
 20
647.4949999999998
 30
0.0
 11
2.137529999999999
 21
646.9059999999998
 31
0.0
  0
LINE
  5
29
330
1E
100
AcDbEntity
  8
0
100
AcDbLine
 10
1.999979999999999
 20
647.4949999999998
 30
0.0
 11
2.101459999999998
 21
647.5319999999998
 31
0.0
  0
LINE
  5
2A
330
1E
100
AcDbEntity
  8
0
100
AcDbLine
 10
2.137529999999999
 20
646.9059999999998
 30
0.0
 11
7.0
 21
633.546738085893
 31
0.0
  0
LINE
  5
2B
330
1E
100
AcDbEntity
  8
0
100
AcDbLine
 10
5.4618
 20
648.7549999999998
 30
0.0
 11
6.115829999999998
 21
648.9930000000001
 31
0.0
  0
LINE
  5
2C
330
1E
100
AcDbEntity
  8
0
100
AcDbLine
 10
4.7514
 20
648.496
 30
0.0
 11
5.4618
 21
648.7549999999998
 31
0.0
  0
LINE
  5
2D
330
1E
100
AcDbEntity
  8
0
100
AcDbLine
 10
6.115829999999998
 20
648.9930000000001
 30
0.0
 11
6.690919999999998
 21
649.202
 31
0.0
  0
LINE
  5
2E
330
1E
100
AcDbEntity
  8
0
100
AcDbLine
 10
7.0
 20
600.509
 30
0.0
 11
7.0
 21
601.134
 31
0.0
  0
LINE
  5
2F
330
1E
100
AcDbEntity
  8
0
100
AcDbLine
 10
7.0
 20
600.509
 30
0.0
 11
7.389419999999998
 21
600.0
 31
0.0
  0
LINE
  5
30
330
1E
100
AcDbEntity
  8
0
100
AcDbLine
 10
7.0
 20
600.509
 30
0.0
 11
7.0
 21
601.138
 31
0.0
  0
LINE
  5
31
330
1E
100
AcDbEntity
  8
0
100
AcDbLine
 10
7.0
 20
602.936
 30
0.0
 11
7.0
 21
601.134
 31
0.0
  0
LINE
  5
32
330
1E
100
AcDbEntity
  8
0
100
AcDbLine
 10
7.0
 20
602.936
 30
0.0
 11
7.0
 21
605.923
 31
0.0
  0
LINE
  5
33
330
1E
100
AcDbEntity
  8
0
100
AcDbLine
 10
7.0
 20
609.708
 30
0.0
 11
7.0
 21
614.214
 31
0.0
  0
LINE
  5
34
330
1E
100
AcDbEntity
  8
0
100
AcDbLine
 10
7.0
 20
609.708
 30
0.0
 11
7.0
 21
605.923
 31
0.0
  0
LINE
  5
35
330
1E
100
AcDbEntity
  8
0
100
AcDbLine
 10
7.0
 20
605.923
 30
0.0
 11
7.0
 21
609.708
 31
0.0
  0
LINE
  5
36
330
1E
100
AcDbEntity
  8
0
100
AcDbLine
 10
7.0
 20
605.923
 30
0.0
 11
7.0
 21
602.936
 31
0.0
  0
LINE
  5
37
330
1E
100
AcDbEntity
  8
0
100
AcDbLine
 10
7.0
 20
614.215
 30
0.0
 11
7.0
 21
609.725
 31
0.0
  0
LINE
  5
38
330
1E
100
AcDbEntity
  8
0
100
AcDbLine
 10
7.0
 20
614.215
 30
0.0
 11
7.0
 21
618.946
 31
0.0
  0
LINE
  5
39
330
1E
100
AcDbEntity
  8
0
100
AcDbLine
 10
7.0
 20
618.946
 30
0.0
 11
7.0
 21
614.215
 31
0.0
  0
LINE
  5
3A
330
1E
100
AcDbEntity
  8
0
100
AcDbLine
 10
7.0
 20
618.946
 30
0.0
 11
7.0
 21
623.7859999999998
 31
0.0
  0
LINE
  5
3B
330
1E
100
AcDbEntity
  8
0
100
AcDbLine
 10
7.0
 20
623.7859999999998
 30
0.0
 11
7.0
 21
618.946
 31
0.0
  0
LINE
  5
3C
330
1E
100
AcDbEntity
  8
0
100
AcDbLine
 10
7.0
 20
623.7859999999998
 30
0.0
 11
7.0
 21
628.2919999999998
 31
0.0
  0
LINE
  5
3D
330
1E
100
AcDbEntity
  8
0
100
AcDbLine
 10
7.0
 20
628.2919999999998
 30
0.0
 11
7.0
 21
623.7859999999998
 31
0.0
  0
LINE
  5
3E
330
1E
100
AcDbEntity
  8
0
100
AcDbLine
 10
7.0
 20
628.2919999999998
 30
0.0
 11
7.0
 21
632.077
 31
0.0
  0
LINE
  5
3F
330
1E
100
AcDbEntity
  8
0
100
AcDbLine
 10
7.0
 20
633.546738085893
 30
0.0
 11
7.0
 21
632.08
 31
0.0
  0
LINE
  5
40
330
1E
100
AcDbEntity
  8
0
100
AcDbLine
 10
7.0
 20
632.08
 30
0.0
 11
7.0
 21
633.546738085893
 31
0.0
  0
LINE
  5
41
330
1E
100
AcDbEntity
  8
0
100
AcDbLine
 10
7.0
 20
632.08
 30
0.0
 11
7.0
 21
628.275
 31
0.0
  0
LINE
  5
42
330
1E
100
AcDbEntity
  8
0
100
AcDbLine
 10
7.0
 20
637.4909999999998
 30
0.0
 11
7.0
 21
636.866
 31
0.0
  0
LINE
  5
43
330
1E
100
AcDbEntity
  8
0
100
AcDbLine
 10
7.0
 20
636.866
 30
0.0
 11
7.0
 21
635.0639999999998
 31
0.0
  0
LINE
  5
44
330
1E
100
AcDbEntity
  8
0
100
AcDbLine
 10
7.0
 20
636.866
 30
0.0
 11
7.0
 21
637.4909999999998
 31
0.0
  0
LINE
  5
45
330
1E
100
AcDbEntity
  8
0
100
AcDbLine
 10
7.0
 20
632.077
 30
0.0
 11
7.0
 21
628.2919999999998
 31
0.0
  0
LINE
  5
46
330
1E
100
AcDbEntity
  8
0
100
AcDbLine
 10
7.0
 20
632.077
 30
0.0
 11
7.0
 21
635.0639999999998
 31
0.0
  0
LINE
  5
47
330
1E
100
AcDbEntity
  8
0
100
AcDbLine
 10
7.0
 20
635.0639999999998
 30
0.0
 11
7.0
 21
632.077
 31
0.0
  0
LINE
  5
48
330
1E
100
AcDbEntity
  8
0
100
AcDbLine
 10
7.0
 20
635.0639999999998
 30
0.0
 11
7.0
 21
636.866
 31
0.0
  0
LINE
  5
49
330
1E
100
AcDbEntity
  8
0
100
AcDbLine
 10
7.0
 20
628.275
 30
0.0
 11
7.0
 21
623.7849999999999
 31
0.0
  0
LINE
  5
4A
330
1E
100
AcDbEntity
  8
0
100
AcDbLine
 10
7.0
 20
628.275
 30
0.0
 11
7.0
 21
632.08
 31
0.0
  0
LINE
  5
4B
330
1E
100
AcDbEntity
  8
0
100
AcDbLine
 10
7.0
 20
623.7849999999999
 30
0.0
 11
7.0
 21
628.275
 31
0.0
  0
LINE
  5
4C
330
1E
100
AcDbEntity
  8
0
100
AcDbLine
 10
7.0
 20
623.7849999999999
 30
0.0
 11
7.0
 21
619.0539999999998
 31
0.0
  0
LINE
  5
4D
330
1E
100
AcDbEntity
  8
0
100
AcDbLine
 10
7.0
 20
619.0539999999998
 30
0.0
 11
7.0
 21
623.7849999999999
 31
0.0
  0
LINE
  5
4E
330
1E
100
AcDbEntity
  8
0
100
AcDbLine
 10
7.0
 20
619.0539999999998
 30
0.0
 11
7.0
 21
614.214
 31
0.0
  0
LINE
  5
4F
330
1E
100
AcDbEntity
  8
0
100
AcDbLine
 10
7.0
 20
614.214
 30
0.0
 11
7.0
 21
619.0539999999998
 31
0.0
  0
LINE
  5
50
330
1E
100
AcDbEntity
  8
0
100
AcDbLine
 10
7.0
 20
614.214
 30
0.0
 11
7.0
 21
609.708
 31
0.0
  0
LINE
  5
51
330
1E
100
AcDbEntity
  8
0
100
AcDbLine
 10
7.0
 20
609.725
 30
0.0
 11
7.0
 21
605.9199999999998
 31
0.0
  0
LINE
  5
52
330
1E
100
AcDbEntity
  8
0
100
AcDbLine
 10
7.0
 20
609.725
 30
0.0
 11
7.0
 21
614.215
 31
0.0
  0
LINE
  5
53
330
1E
100
AcDbEntity
  8
0
100
AcDbLine
 10
7.0
 20
605.9199999999998
 30
0.0
 11
7.0
 21
603.013
 31
0.0
  0
LINE
  5
54
330
1E
100
AcDbEntity
  8
0
100
AcDbLine
 10
7.0
 20
605.9199999999998
 30
0.0
 11
7.0
 21
609.725
 31
0.0
  0
LINE
  5
55
330
1E
100
AcDbEntity
  8
0
100
AcDbLine
 10
7.0
 20
603.013
 30
0.0
 11
7.0
 21
601.138
 31
0.0
  0
LINE
  5
56
330
1E
100
AcDbEntity
  8
0
100
AcDbLine
 10
7.0
 20
603.013
 30
0.0
 11
7.0
 21
605.9199999999998
 31
0.0
  0
LINE
  5
57
330
1E
100
AcDbEntity
  8
0
100
AcDbLine
 10
7.0
 20
601.138
 30
0.0
 11
7.0
 21
600.509
 31
0.0
  0
LINE
  5
58
330
1E
100
AcDbEntity
  8
0
100
AcDbLine
 10
7.0
 20
601.138
 30
0.0
 11
7.0
 21
603.013
 31
0.0
  0
LINE
  5
59
330
1E
100
AcDbEntity
  8
0
100
AcDbLine
 10
7.0
 20
601.134
 30
0.0
 11
7.0
 21
602.936
 31
0.0
  0
LINE
  5
5A
330
1E
100
AcDbEntity
  8
0
100
AcDbLine
 10
7.0
 20
601.134
 30
0.0
 11
7.0
 21
600.509
 31
0.0
  0
LINE
  5
5B
330
1E
100
AcDbEntity
  8
0
100
AcDbLine
 10
7.389419999999998
 20
600.0
 30
0.0
 11
33.6106
 21
600.0
 31
0.0
  0
LINE
  5
5C
330
1E
100
AcDbEntity
  8
0
100
AcDbLine
 10
7.389419999999998
 20
600.0
 30
0.0
 11
7.389419999999998
 21
600.619
 31
0.0
  0
LINE
  5
5D
330
1E
100
AcDbEntity
  8
0
100
AcDbLine
 10
7.389419999999998
 20
614.053
 30
0.0
 11
7.389419999999998
 21
609.4969999999998
 31
0.0
  0
LINE
  5
5E
330
1E
100
AcDbEntity
  8
0
100
AcDbLine
 10
7.389419999999998
 20
614.053
 30
0.0
 11
7.389419999999998
 21
618.9149999999998
 31
0.0
  0
LINE
  5
5F
330
1E
100
AcDbEntity
  8
0
100
AcDbLine
 10
7.389419999999998
 20
618.9149999999998
 30
0.0
 11
7.389419999999998
 21
614.053
 31
0.0
  0
LINE
  5
60
330
1E
100
AcDbEntity
  8
0
100
AcDbLine
 10
7.389419999999998
 20
618.9149999999998
 30
0.0
 11
7.389419999999998
 21
623.9249999999998
 31
0.0
  0
LINE
  5
61
330
1E
100
AcDbEntity
  8
0
100
AcDbLine
 10
7.389419999999998
 20
623.9249999999998
 30
0.0
 11
7.389419999999998
 21
618.9149999999998
 31
0.0
  0
LINE
  5
62
330
1E
100
AcDbEntity
  8
0
100
AcDbLine
 10
7.389419999999998
 20
623.9249999999998
 30
0.0
 11
7.389419999999998
 21
628.573
 31
0.0
  0
LINE
  5
63
330
1E
100
AcDbEntity
  8
0
100
AcDbLine
 10
7.389419999999998
 20
628.573
 30
0.0
 11
7.389419999999998
 21
623.9249999999998
 31
0.0
  0
LINE
  5
64
330
1E
100
AcDbEntity
  8
0
100
AcDbLine
 10
7.389419999999998
 20
628.573
 30
0.0
 11
7.389419999999998
 21
632.4339999999998
 31
0.0
  0
LINE
  5
65
330
1E
100
AcDbEntity
  8
0
100
AcDbLine
 10
7.389419999999998
 20
637.820506803072
 30
0.0
 11
7.389419999999998
 21
637.2989999999998
 31
0.0
  0
LINE
  5
66
330
1E
100
AcDbEntity
  8
0
100
AcDbLine
 10
7.389419999999998
 20
637.2989999999998
 30
0.0
 11
7.389419999999998
 21
635.459
 31
0.0
  0
LINE
  5
67
330
1E
100
AcDbEntity
  8
0
100
AcDbLine
 10
7.389419999999998
 20
637.2989999999998
 30
0.0
 11
7.389419999999998
 21
637.820506803072
 31
0.0
  0
LINE
  5
68
330
1E
100
AcDbEntity
  8
0
100
AcDbLine
 10
7.389419999999998
 20
632.4339999999998
 30
0.0
 11
7.389419999999998
 21
628.573
 31
0.0
  0
LINE
  5
69
330
1E
100
AcDbEntity
  8
0
100
AcDbLine
 10
7.389419999999998
 20
632.4339999999998
 30
0.0
 11
7.389419999999998
 21
635.459
 31
0.0
  0
LINE
  5
6A
330
1E
100
AcDbEntity
  8
0
100
AcDbLine
 10
7.389419999999998
 20
635.459
 30
0.0
 11
7.389419999999998
 21
632.4339999999998
 31
0.0
  0
LINE
  5
6B
330
1E
100
AcDbEntity
  8
0
100
AcDbLine
 10
7.389419999999998
 20
635.459
 30
0.0
 11
7.389419999999998
 21
637.2989999999998
 31
0.0
  0
LINE
  5
6C
330
1E
100
AcDbEntity
  8
0
100
AcDbLine
 10
7.389419999999998
 20
609.4969999999998
 30
0.0
 11
7.389419999999998
 21
605.6259999999999
 31
0.0
  0
LINE
  5
6D
330
1E
100
AcDbEntity
  8
0
100
AcDbLine
 10
7.389419999999998
 20
609.4969999999998
 30
0.0
 11
7.389419999999998
 21
614.053
 31
0.0
  0
LINE
  5
6E
330
1E
100
AcDbEntity
  8
0
100
AcDbLine
 10
7.389419999999998
 20
605.6259999999999
 30
0.0
 11
7.389419999999998
 21
602.588
 31
0.0
  0
LINE
  5
6F
330
1E
100
AcDbEntity
  8
0
100
AcDbLine
 10
7.389419999999998
 20
605.6259999999999
 30
0.0
 11
7.389419999999998
 21
609.4969999999998
 31
0.0
  0
LINE
  5
70
330
1E
100
AcDbEntity
  8
0
100
AcDbLine
 10
7.389419999999998
 20
602.588
 30
0.0
 11
7.389419999999998
 21
600.619
 31
0.0
  0
LINE
  5
71
330
1E
100
AcDbEntity
  8
0
100
AcDbLine
 10
7.389419999999998
 20
602.588
 30
0.0
 11
7.389419999999998
 21
605.6259999999999
 31
0.0
  0
LINE
  5
72
330
1E
100
AcDbEntity
  8
0
100
AcDbLine
 10
7.389419999999998
 20
600.619
 30
0.0
 11
7.389419999999998
 21
600.0
 31
0.0
  0
LINE
  5
73
330
1E
100
AcDbEntity
  8
0
100
AcDbLine
 10
7.389419999999998
 20
600.619
 30
0.0
 11
7.389419999999998
 21
602.588
 31
0.0
  0
LINE
  5
74
330
1E
100
AcDbEntity
  8
0
100
AcDbLine
 10
7.389419999999998
 20
600.0
 30
0.0
 11
33.6106
 21
600.0
 31
0.0
  0
LINE
  5
75
330
1E
100
AcDbEntity
  8
0
100
AcDbLine
 10
7.1307
 20
649.3619999999999
 30
0.0
 11
7.40133
 21
649.461
 31
0.0
  0
LINE
  5
76
330
1E
100
AcDbEntity
  8
0
100
AcDbLine
 10
7.40133
 20
649.461
 30
0.0
 11
7.502819999999998
 21
649.498
 31
0.0
  0
LINE
  5
77
330
1E
100
AcDbEntity
  8
0
100
AcDbLine
 10
6.690919999999998
 20
649.202
 30
0.0
 11
7.1307
 21
649.3619999999999
 31
0.0
  0
LINE
  5
78
330
1E
100
AcDbEntity
  8
0
100
AcDbLine
 10
-0.000000000000001
 20
1236.02
 30
0.0
 11
-0.000000000000001
 21
1233.6
 31
0.0
  0
LINE
  5
79
330
1E
100
AcDbEntity
  8
0
100
AcDbLine
 10
-0.000000000000001
 20
1236.02
 30
0.0
 11
1.8
 21
1239.33
 31
0.0
  0
LINE
  5
7A
330
1E
100
AcDbEntity
  8
0
100
AcDbLine
 10
-0.000000000000001
 20
1233.6
 30
0.0
 11
0.499999999999999
 21
1231.19
 31
0.0
  0
LINE
  5
7B
330
1E
100
AcDbEntity
  8
0
100
AcDbLine
 10
-0.000000000000001
 20
1233.6
 30
0.0
 11
-0.000000000000001
 21
1236.02
 31
0.0
  0
LINE
  5
7C
330
1E
100
AcDbEntity
  8
0
100
AcDbLine
 10
-0.000000000000001
 20
1247.13
 30
0.0
 11
0.499999999999999
 21
1248.09
 31
0.0
  0
LINE
  5
7D
330
1E
100
AcDbEntity
  8
0
100
AcDbLine
 10
-0.000000000000001
 20
1247.13
 30
0.0
 11
-0.000000000000001
 21
1236.99
 31
0.0
  0
LINE
  5
7E
330
1E
100
AcDbEntity
  8
0
100
AcDbLine
 10
0.499999999999999
 20
1231.19
 30
0.0
 11
2.299999999999998
 21
1227.9
 31
0.0
  0
LINE
  5
7F
330
1E
100
AcDbEntity
  8
0
100
AcDbLine
 10
1.8
 20
1239.33
 30
0.0
 11
6.7
 21
1242.46
 31
0.0
  0
LINE
  5
80
330
1E
100
AcDbEntity
  8
0
100
AcDbLine
 10
0.499999999999999
 20
1231.19
 30
0.0
 11
2.299999999999998
 21
1227.9
 31
0.0
  0
LINE
  5
81
330
1E
100
AcDbEntity
  8
0
100
AcDbLine
 10
2.299999999999998
 20
1227.9
 30
0.0
 11
3.7
 21
1225.589999999999
 31
0.0
  0
LINE
  5
82
330
1E
100
AcDbEntity
  8
0
100
AcDbLine
 10
3.7
 20
1225.589999999999
 30
0.0
 11
8.4
 21
1222.59
 31
0.0
  0
LINE
  5
83
330
1E
100
AcDbEntity
  8
0
100
AcDbLine
 10
6.7
 20
1242.46
 30
0.0
 11
14.69999999999999
 21
1245.16
 31
0.0
  0
LINE
  5
84
330
1E
100
AcDbEntity
  8
0
100
AcDbLine
 10
6.7
 20
1242.46
 30
0.0
 11
7.599999999999998
 21
1242.82
 31
0.0
  0
LINE
  5
85
330
1E
100
AcDbEntity
  8
0
100
AcDbLine
 10
7.4125000000002
 20
1242.70046875
 30
0.0
 11
7.599999999999998
 21
1242.82
 31
0.0
  0
LINE
  5
86
330
1E
100
AcDbEntity
  8
0
100
AcDbLine
 10
7.599999999999998
 20
1242.82
 30
0.0
 11
15.4
 21
1245.46
 31
0.0
  0
LINE
  5
87
330
1E
100
AcDbEntity
  8
0
100
AcDbLine
 10
7.4125000000002
 20
1242.70046875
 30
0.0
 11
7.599999999999998
 21
1242.82
 31
0.0
  0
LINE
  5
88
330
1E
100
AcDbEntity
  8
0
100
AcDbLine
 10
6.7
 20
1243.43
 30
0.0
 11
14.69999999999999
 21
1246.12
 31
0.0
  0
LINE
  5
89
330
1E
100
AcDbEntity
  8
0
100
AcDbLine
 10
1.8
 20
1240.3
 30
0.0
 11
6.7
 21
1243.43
 31
0.0
  0
LINE
  5
8A
330
1E
100
AcDbEntity
  8
0
100
AcDbLine
 10
0.499999999999999
 20
1248.09
 30
0.0
 11
2.299999999999998
 21
1251.38
 31
0.0
  0
LINE
  5
8B
330
1E
100
AcDbEntity
  8
0
100
AcDbLine
 10
5.7
 20
1254.05
 30
0.0
 11
10.2
 21
1256.92
 31
0.0
  0
LINE
  5
8C
330
1E
100
AcDbEntity
  8
0
100
AcDbLine
 10
2.299999999999998
 20
1251.38
 30
0.0
 11
5.7
 21
1254.05
 31
0.0
  0
LINE
  5
8D
330
1E
100
AcDbEntity
  8
0
100
AcDbLine
 10
2.299999999999998
 20
1251.38
 30
0.0
 11
5.7
 21
1254.05
 31
0.0
  0
LINE
  5
8E
330
1E
100
AcDbEntity
  8
0
100
AcDbLine
 10
0.499999999999999
 20
1248.09
 30
0.0
 11
2.299999999999998
 21
1251.38
 31
0.0
  0
LINE
  5
8F
330
1E
100
AcDbEntity
  8
0
100
AcDbLine
 10
-0.000000000000001
 20
1236.99
 30
0.0
 11
0.2633484162895839
 21
1236.50426847662
 31
0.0
  0
LINE
  5
90
330
1E
100
AcDbEntity
  8
0
100
AcDbLine
 10
-0.000000000000001
 20
1236.99
 30
0.0
 11
-0.000000000000001
 21
1247.13
 31
0.0
  0
LINE
  5
91
330
1E
100
AcDbEntity
  8
0
100
AcDbLine
 10
-0.000000000000001
 20
1236.99
 30
0.0
 11
0.2633484162895839
 21
1236.50426847662
 31
0.0
  0
LINE
  5
92
330
1E
100
AcDbEntity
  8
0
100
AcDbLine
 10
-0.000000000000001
 20
1236.99
 30
0.0
 11
1.8
 21
1240.3
 31
0.0
  0
LINE
  5
93
330
1E
100
AcDbEntity
  8
0
100
AcDbLine
 10
7.502819999999998
 20
649.498
 30
0.0
 11
7.775689999999999
 21
648.9580000000001
 31
0.0
  0
LINE
  5
94
330
1E
100
AcDbEntity
  8
0
100
AcDbLine
 10
37.0
 20
0.192307999999988
 30
0.0
 11
37.0
 21
4.80768999999999
 31
0.0
  0
LINE
  5
95
330
1E
100
AcDbEntity
  8
0
100
AcDbLine
 10
37.0
 20
0.192307999999988
 30
0.0
 11
37.31199999999999
 21
-0.0000000000000122
 31
0.0
  0
LINE
  5
96
330
1E
100
AcDbEntity
  8
0
100
AcDbLine
 10
37.0
 20
0.192307999999988
 30
0.0
 11
37.468
 21
0.192307999999988
 31
0.0
  0
LINE
  5
97
330
1E
100
AcDbEntity
  8
0
100
AcDbLine
 10
37.0
 20
0.192307999999988
 30
0.0
 11
37.31199999999999
 21
-0.0000000000000122
 31
0.0
  0
LINE
  5
98
330
1E
100
AcDbEntity
  8
0
100
AcDbLine
 10
37.468
 20
0.192307999999988
 30
0.0
 11
38.716
 21
0.192307999999988
 31
0.0
  0
LINE
  5
99
330
1E
100
AcDbEntity
  8
0
100
AcDbLine
 10
37.31199999999999
 20
-0.0000000000000122
 30
0.0
 11
37.78
 21
-0.0000000000000124
 31
0.0
  0
LINE
  5
9A
330
1E
100
AcDbEntity
  8
0
100
AcDbLine
 10
38.716
 20
0.192307999999988
 30
0.0
 11
40.796
 21
0.192307999999988
 31
0.0
  0
LINE
  5
9B
330
1E
100
AcDbEntity
  8
0
100
AcDbLine
 10
37.78
 20
-0.0000000000000124
 30
0.0
 11
39.028
 21
-0.0000000000000126
 31
0.0
  0
LINE
  5
9C
330
1E
100
AcDbEntity
  8
0
100
AcDbLine
 10
37.31199999999999
 20
4.99999999999999
 30
0.0
 11
37.78
 21
4.99999999999999
 31
0.0
  0
LINE
  5
9D
330
1E
100
AcDbEntity
  8
0
100
AcDbLine
 10
37.78
 20
4.99999999999999
 30
0.0
 11
39.028
 21
4.99999999999999
 31
0.0
  0
LINE
  5
9E
330
1E
100
AcDbEntity
  8
0
100
AcDbLine
 10
37.468
 20
4.80768999999999
 30
0.0
 11
38.716
 21
4.80768999999999
 31
0.0
  0
LINE
  5
9F
330
1E
100
AcDbEntity
  8
0
100
AcDbLine
 10
38.716
 20
4.80768999999999
 30
0.0
 11
40.796
 21
4.80768999999999
 31
0.0
  0
LINE
  5
A0
330
1E
100
AcDbEntity
  8
0
100
AcDbLine
 10
37.0
 20
4.80768999999999
 30
0.0
 11
37.31199999999999
 21
4.99999999999999
 31
0.0
  0
LINE
  5
A1
330
1E
100
AcDbEntity
  8
0
100
AcDbLine
 10
37.0
 20
4.80768999999999
 30
0.0
 11
37.0
 21
0.192307999999988
 31
0.0
  0
LINE
  5
A2
330
1E
100
AcDbEntity
  8
0
100
AcDbLine
 10
37.0
 20
4.80768999999999
 30
0.0
 11
37.468
 21
4.80768999999999
 31
0.0
  0
LINE
  5
A3
330
1E
100
AcDbEntity
  8
0
100
AcDbLine
 10
28.528
 20
200.0
 30
0.0
 11
29.32
 21
194.4559999999999
 31
0.0
  0
LINE
  5
A4
330
1E
100
AcDbEntity
  8
0
100
AcDbLine
 10
28.528
 20
200.0
 30
0.0
 11
29.32
 21
205.5439999999999
 31
0.0
  0
LINE
  5
A5
330
1E
100
AcDbEntity
  8
0
100
AcDbLine
 10
28.0
 20
200.0
 30
0.0
 11
28.79199999999999
 21
194.368
 31
0.0
  0
LINE
  5
A6
330
1E
100
AcDbEntity
  8
0
100
AcDbLine
 10
28.0
 20
200.0
 30
0.0
 11
28.79199999999999
 21
205.6319999999999
 31
0.0
  0
LINE
  5
A7
330
1E
100
AcDbEntity
  8
0
100
AcDbLine
 10
28.79199999999999
 20
194.368
 30
0.0
 11
30.904
 21
189.0879999999999
 31
0.0
  0
LINE
  5
A8
330
1E
100
AcDbEntity
  8
0
100
AcDbLine
 10
34.424
 20
184.424
 30
0.0
 11
39.088
 21
180.904
 31
0.0
  0
LINE
  5
A9
330
1E
100
AcDbEntity
  8
0
100
AcDbLine
 10
29.32
 20
205.5439999999999
 30
0.0
 11
31.432
 21
210.6479999999999
 31
0.0
  0
LINE
  5
AA
330
1E
100
AcDbEntity
  8
0
100
AcDbLine
 10
31.432
 20
210.6479999999999
 30
0.0
 11
34.864
 21
215.1359999999999
 31
0.0
  0
LINE
  5
AB
330
1E
100
AcDbEntity
  8
0
100
AcDbLine
 10
29.32
 20
194.4559999999999
 30
0.0
 11
31.432
 21
189.352
 31
0.0
  0
LINE
  5
AC
330
1E
100
AcDbEntity
  8
0
100
AcDbLine
 10
31.432
 20
189.352
 30
0.0
 11
34.864
 21
184.8639999999999
 31
0.0
  0
LINE
  5
AD
330
1E
100
AcDbEntity
  8
0
100
AcDbLine
 10
30.904
 20
189.0879999999999
 30
0.0
 11
34.424
 21
184.424
 31
0.0
  0
LINE
  5
AE
330
1E
100
AcDbEntity
  8
0
100
AcDbLine
 10
28.79199999999999
 20
205.6319999999999
 30
0.0
 11
30.904
 21
210.9119999999999
 31
0.0
  0
LINE
  5
AF
330
1E
100
AcDbEntity
  8
0
100
AcDbLine
 10
30.904
 20
210.9119999999999
 30
0.0
 11
34.424
 21
215.5759999999999
 31
0.0
  0
LINE
  5
B0
330
1E
100
AcDbEntity
  8
0
100
AcDbLine
 10
34.864
 20
215.1359999999999
 30
0.0
 11
39.352
 21
218.568
 31
0.0
  0
LINE
  5
B1
330
1E
100
AcDbEntity
  8
0
100
AcDbLine
 10
34.864
 20
184.8639999999999
 30
0.0
 11
39.352
 21
181.432
 31
0.0
  0
LINE
  5
B2
330
1E
100
AcDbEntity
  8
0
100
AcDbLine
 10
34.424
 20
215.5759999999999
 30
0.0
 11
39.0
 21
219.02958490566
 31
0.0
  0
LINE
  5
B3
330
1E
100
AcDbEntity
  8
0
100
AcDbLine
 10
34.424
 20
215.5759999999999
 30
0.0
 11
39.088
 21
219.096
 31
0.0
  0
LINE
  5
B4
330
1E
100
AcDbEntity
  8
0
100
AcDbLine
 10
33.6106
 20
614.053
 30
0.0
 11
33.6106
 21
618.9149999999998
 31
0.0
  0
LINE
  5
B5
330
1E
100
AcDbEntity
  8
0
100
AcDbLine
 10
33.6106
 20
614.053
 30
0.0
 11
33.6106
 21
609.4969999999998
 31
0.0
  0
LINE
  5
B6
330
1E
100
AcDbEntity
  8
0
100
AcDbLine
 10
33.6106
 20
618.9149999999998
 30
0.0
 11
33.6106
 21
623.9249999999998
 31
0.0
  0
LINE
  5
B7
330
1E
100
AcDbEntity
  8
0
100
AcDbLine
 10
33.6106
 20
618.9149999999998
 30
0.0
 11
33.6106
 21
614.053
 31
0.0
  0
LINE
  5
B8
330
1E
100
AcDbEntity
  8
0
100
AcDbLine
 10
33.6106
 20
623.9249999999998
 30
0.0
 11
33.6106
 21
628.573
 31
0.0
  0
LINE
  5
B9
330
1E
100
AcDbEntity
  8
0
100
AcDbLine
 10
33.6106
 20
623.9249999999998
 30
0.0
 11
33.6106
 21
618.9149999999998
 31
0.0
  0
LINE
  5
BA
330
1E
100
AcDbEntity
  8
0
100
AcDbLine
 10
33.6106
 20
628.573
 30
0.0
 11
33.6106
 21
632.4339999999998
 31
0.0
  0
LINE
  5
BB
330
1E
100
AcDbEntity
  8
0
100
AcDbLine
 10
33.6106
 20
628.573
 30
0.0
 11
33.6106
 21
623.9249999999998
 31
0.0
  0
LINE
  5
BC
330
1E
100
AcDbEntity
  8
0
100
AcDbLine
 10
33.6106
 20
638.0
 30
0.0
 11
33.6106
 21
637.2989999999998
 31
0.0
  0
LINE
  5
BD
330
1E
100
AcDbEntity
  8
0
100
AcDbLine
 10
33.6106
 20
638.0
 30
0.0
 11
34.0
 21
637.4909999999998
 31
0.0
  0
LINE
  5
BE
330
1E
100
AcDbEntity
  8
0
100
AcDbLine
 10
11.7219898742248
 20
638.0
 30
0.0
 11
33.6106
 21
638.0
 31
0.0
  0
LINE
  5
BF
330
1E
100
AcDbEntity
  8
0
100
AcDbLine
 10
33.6106
 20
637.2989999999998
 30
0.0
 11
33.6106
 21
638.0
 31
0.0
  0
LINE
  5
C0
330
1E
100
AcDbEntity
  8
0
100
AcDbLine
 10
33.6106
 20
637.2989999999998
 30
0.0
 11
33.6106
 21
635.459
 31
0.0
  0
LINE
  5
C1
330
1E
100
AcDbEntity
  8
0
100
AcDbLine
 10
33.6106
 20
635.459
 30
0.0
 11
33.6106
 21
637.2989999999998
 31
0.0
  0
LINE
  5
C2
330
1E
100
AcDbEntity
  8
0
100
AcDbLine
 10
33.6106
 20
635.459
 30
0.0
 11
33.6106
 21
632.4339999999998
 31
0.0
  0
LINE
  5
C3
330
1E
100
AcDbEntity
  8
0
100
AcDbLine
 10
33.6106
 20
632.4339999999998
 30
0.0
 11
33.6106
 21
635.459
 31
0.0
  0
LINE
  5
C4
330
1E
100
AcDbEntity
  8
0
100
AcDbLine
 10
33.6106
 20
632.4339999999998
 30
0.0
 11
33.6106
 21
628.573
 31
0.0
  0
LINE
  5
C5
330
1E
100
AcDbEntity
  8
0
100
AcDbLine
 10
33.6106
 20
609.4969999999998
 30
0.0
 11
33.6106
 21
605.6259999999999
 31
0.0
  0
LINE
  5
C6
330
1E
100
AcDbEntity
  8
0
100
AcDbLine
 10
33.6106
 20
609.4969999999998
 30
0.0
 11
33.6106
 21
614.053
 31
0.0
  0
LINE
  5
C7
330
1E
100
AcDbEntity
  8
0
100
AcDbLine
 10
33.6106
 20
605.6259999999999
 30
0.0
 11
33.6106
 21
602.588
 31
0.0
  0
LINE
  5
C8
330
1E
100
AcDbEntity
  8
0
100
AcDbLine
 10
33.6106
 20
605.6259999999999
 30
0.0
 11
33.6106
 21
609.4969999999998
 31
0.0
  0
LINE
  5
C9
330
1E
100
AcDbEntity
  8
0
100
AcDbLine
 10
33.6106
 20
602.588
 30
0.0
 11
33.6106
 21
600.619
 31
0.0
  0
LINE
  5
CA
330
1E
100
AcDbEntity
  8
0
100
AcDbLine
 10
33.6106
 20
602.588
 30
0.0
 11
33.6106
 21
605.6259999999999
 31
0.0
  0
LINE
  5
CB
330
1E
100
AcDbEntity
  8
0
100
AcDbLine
 10
33.6106
 20
600.619
 30
0.0
 11
33.6106
 21
600.0
 31
0.0
  0
LINE
  5
CC
330
1E
100
AcDbEntity
  8
0
100
AcDbLine
 10
33.6106
 20
600.619
 30
0.0
 11
33.6106
 21
602.588
 31
0.0
  0
LINE
  5
CD
330
1E
100
AcDbEntity
  8
0
100
AcDbLine
 10
34.46909999999999
 20
600.0
 30
0.0
 11
39.0
 21
600.0149826715419
 31
0.0
  0
LINE
  5
CE
330
1E
100
AcDbEntity
  8
0
100
AcDbLine
 10
34.46909999999999
 20
600.0
 30
0.0
 11
34.46909999999999
 21
600.3959999999998
 31
0.0
  0
LINE
  5
CF
330
1E
100
AcDbEntity
  8
0
100
AcDbLine
 10
34.46909999999999
 20
600.3959999999998
 30
0.0
 11
34.46909999999999
 21
600.619
 31
0.0
  0
LINE
  5
D0
330
1E
100
AcDbEntity
  8
0
100
AcDbLine
 10
34.46909999999999
 20
600.3959999999998
 30
0.0
 11
34.46909999999999
 21
600.0
 31
0.0
  0
LINE
  5
D1
330
1E
100
AcDbEntity
  8
0
100
AcDbLine
 10
34.0
 20
600.964
 30
0.0
 11
34.0
 21
600.509
 31
0.0
  0
LINE
  5
D2
330
1E
100
AcDbEntity
  8
0
100
AcDbLine
 10
34.0
 20
614.215
 30
0.0
 11
34.0
 21
618.946
 31
0.0
  0
LINE
  5
D3
330
1E
100
AcDbEntity
  8
0
100
AcDbLine
 10
34.0
 20
614.215
 30
0.0
 11
34.0
 21
609.725
 31
0.0
  0
LINE
  5
D4
330
1E
100
AcDbEntity
  8
0
100
AcDbLine
 10
34.0
 20
625.0319999999998
 30
0.0
 11
34.0
 21
628.2919999999998
 31
0.0
  0
LINE
  5
D5
330
1E
100
AcDbEntity
  8
0
100
AcDbLine
 10
34.0
 20
625.0319999999998
 30
0.0
 11
34.0
 21
623.7859999999998
 31
0.0
  0
LINE
  5
D6
330
1E
100
AcDbEntity
  8
0
100
AcDbLine
 10
34.0
 20
618.946
 30
0.0
 11
34.0
 21
623.7859999999998
 31
0.0
  0
LINE
  5
D7
330
1E
100
AcDbEntity
  8
0
100
AcDbLine
 10
34.0
 20
618.946
 30
0.0
 11
34.0
 21
614.215
 31
0.0
  0
LINE
  5
D8
330
1E
100
AcDbEntity
  8
0
100
AcDbLine
 10
34.0
 20
623.7859999999998
 30
0.0
 11
34.0
 21
628.2919999999998
 31
0.0
  0
LINE
  5
D9
330
1E
100
AcDbEntity
  8
0
100
AcDbLine
 10
34.0
 20
623.7859999999998
 30
0.0
 11
34.0
 21
618.946
 31
0.0
  0
LINE
  5
DA
330
1E
100
AcDbEntity
  8
0
100
AcDbLine
 10
34.0
 20
623.7859999999998
 30
0.0
 11
34.0
 21
625.0319999999998
 31
0.0
  0
LINE
  5
DB
330
1E
100
AcDbEntity
  8
0
100
AcDbLine
 10
34.0
 20
637.4909999999998
 30
0.0
 11
34.0
 21
636.866
 31
0.0
  0
LINE
  5
DC
330
1E
100
AcDbEntity
  8
0
100
AcDbLine
 10
34.0
 20
637.4909999999998
 30
0.0
 11
34.46909999999999
 21
638.0
 31
0.0
  0
LINE
  5
DD
330
1E
100
AcDbEntity
  8
0
100
AcDbLine
 10
34.0
 20
636.866
 30
0.0
 11
34.0
 21
637.4909999999998
 31
0.0
  0
LINE
  5
DE
330
1E
100
AcDbEntity
  8
0
100
AcDbLine
 10
34.0
 20
636.866
 30
0.0
 11
34.0
 21
635.0639999999998
 31
0.0
  0
LINE
  5
DF
330
1E
100
AcDbEntity
  8
0
100
AcDbLine
 10
34.0
 20
635.0639999999998
 30
0.0
 11
34.0
 21
636.866
 31
0.0
  0
LINE
  5
E0
330
1E
100
AcDbEntity
  8
0
100
AcDbLine
 10
34.0
 20
635.0639999999998
 30
0.0
 11
34.0
 21
632.077
 31
0.0
  0
LINE
  5
E1
330
1E
100
AcDbEntity
  8
0
100
AcDbLine
 10
34.0
 20
628.2919999999998
 30
0.0
 11
34.0
 21
632.077
 31
0.0
  0
LINE
  5
E2
330
1E
100
AcDbEntity
  8
0
100
AcDbLine
 10
34.0
 20
628.2919999999998
 30
0.0
 11
34.0
 21
625.0319999999998
 31
0.0
  0
LINE
  5
E3
330
1E
100
AcDbEntity
  8
0
100
AcDbLine
 10
34.0
 20
632.077
 30
0.0
 11
34.0
 21
635.0639999999998
 31
0.0
  0
LINE
  5
E4
330
1E
100
AcDbEntity
  8
0
100
AcDbLine
 10
34.0
 20
632.077
 30
0.0
 11
34.0
 21
628.2919999999998
 31
0.0
  0
LINE
  5
E5
330
1E
100
AcDbEntity
  8
0
100
AcDbLine
 10
34.0
 20
609.725
 30
0.0
 11
34.0
 21
605.9199999999998
 31
0.0
  0
LINE
  5
E6
330
1E
100
AcDbEntity
  8
0
100
AcDbLine
 10
34.0
 20
609.725
 30
0.0
 11
34.0
 21
614.215
 31
0.0
  0
LINE
  5
E7
330
1E
100
AcDbEntity
  8
0
100
AcDbLine
 10
34.0
 20
605.9199999999998
 30
0.0
 11
34.0
 21
609.725
 31
0.0
  0
LINE
  5
E8
330
1E
100
AcDbEntity
  8
0
100
AcDbLine
 10
34.0
 20
605.9199999999998
 30
0.0
 11
34.0
 21
603.013
 31
0.0
  0
LINE
  5
E9
330
1E
100
AcDbEntity
  8
0
100
AcDbLine
 10
34.0
 20
603.013
 30
0.0
 11
34.0
 21
605.9199999999998
 31
0.0
  0
LINE
  5
EA
330
1E
100
AcDbEntity
  8
0
100
AcDbLine
 10
34.0
 20
603.013
 30
0.0
 11
34.0
 21
601.138
 31
0.0
  0
LINE
  5
EB
330
1E
100
AcDbEntity
  8
0
100
AcDbLine
 10
34.46909999999999
 20
605.6259999999999
 30
0.0
 11
34.46909999999999
 21
602.588
 31
0.0
  0
LINE
  5
EC
330
1E
100
AcDbEntity
  8
0
100
AcDbLine
 10
34.46909999999999
 20
605.6259999999999
 30
0.0
 11
34.46909999999999
 21
609.4969999999998
 31
0.0
  0
LINE
  5
ED
330
1E
100
AcDbEntity
  8
0
100
AcDbLine
 10
34.46909999999999
 20
602.588
 30
0.0
 11
34.46909999999999
 21
600.619
 31
0.0
  0
LINE
  5
EE
330
1E
100
AcDbEntity
  8
0
100
AcDbLine
 10
34.46909999999999
 20
602.588
 30
0.0
 11
34.46909999999999
 21
605.6259999999999
 31
0.0
  0
LINE
  5
EF
330
1E
100
AcDbEntity
  8
0
100
AcDbLine
 10
34.46909999999999
 20
600.619
 30
0.0
 11
34.46909999999999
 21
600.3959999999998
 31
0.0
  0
LINE
  5
F0
330
1E
100
AcDbEntity
  8
0
100
AcDbLine
 10
34.46909999999999
 20
600.619
 30
0.0
 11
34.46909999999999
 21
602.588
 31
0.0
  0
LINE
  5
F1
330
1E
100
AcDbEntity
  8
0
100
AcDbLine
 10
34.46909999999999
 20
609.4969999999998
 30
0.0
 11
34.46909999999999
 21
614.053
 31
0.0
  0
LINE
  5
F2
330
1E
100
AcDbEntity
  8
0
100
AcDbLine
 10
34.46909999999999
 20
609.4969999999998
 30
0.0
 11
34.46909999999999
 21
605.6259999999999
 31
0.0
  0
LINE
  5
F3
330
1E
100
AcDbEntity
  8
0
100
AcDbLine
 10
34.46909999999999
 20
614.053
 30
0.0
 11
34.46909999999999
 21
609.4969999999998
 31
0.0
  0
LINE
  5
F4
330
1E
100
AcDbEntity
  8
0
100
AcDbLine
 10
34.46909999999999
 20
614.053
 30
0.0
 11
34.46909999999999
 21
618.9149999999998
 31
0.0
  0
LINE
  5
F5
330
1E
100
AcDbEntity
  8
0
100
AcDbLine
 10
34.46909999999999
 20
618.9149999999998
 30
0.0
 11
34.46909999999999
 21
614.053
 31
0.0
  0
LINE
  5
F6
330
1E
100
AcDbEntity
  8
0
100
AcDbLine
 10
34.46909999999999
 20
618.9149999999998
 30
0.0
 11
34.46909999999999
 21
623.9249999999998
 31
0.0
  0
LINE
  5
F7
330
1E
100
AcDbEntity
  8
0
100
AcDbLine
 10
34.46909999999999
 20
623.9249999999998
 30
0.0
 11
34.46909999999999
 21
618.9149999999998
 31
0.0
  0
LINE
  5
F8
330
1E
100
AcDbEntity
  8
0
100
AcDbLine
 10
34.46909999999999
 20
623.9249999999998
 30
0.0
 11
34.46909999999999
 21
625.6009999999998
 31
0.0
  0
LINE
  5
F9
330
1E
100
AcDbEntity
  8
0
100
AcDbLine
 10
34.46909999999999
 20
625.6009999999998
 30
0.0
 11
34.46909999999999
 21
628.573
 31
0.0
  0
LINE
  5
FA
330
1E
100
AcDbEntity
  8
0
100
AcDbLine
 10
34.46909999999999
 20
625.6009999999998
 30
0.0
 11
34.46909999999999
 21
623.9249999999998
 31
0.0
  0
LINE
  5
FB
330
1E
100
AcDbEntity
  8
0
100
AcDbLine
 10
34.46909999999999
 20
628.573
 30
0.0
 11
34.46909999999999
 21
632.4339999999998
 31
0.0
  0
LINE
  5
FC
330
1E
100
AcDbEntity
  8
0
100
AcDbLine
 10
34.46909999999999
 20
628.573
 30
0.0
 11
34.46909999999999
 21
625.6009999999998
 31
0.0
  0
LINE
  5
FD
330
1E
100
AcDbEntity
  8
0
100
AcDbLine
 10
34.46909999999999
 20
638.0
 30
0.0
 11
34.46909999999999
 21
637.2989999999998
 31
0.0
  0
LINE
  5
FE
330
1E
100
AcDbEntity
  8
0
100
AcDbLine
 10
34.46909999999999
 20
638.0
 30
0.0
 11
39.0
 21
637.985017328458
 31
0.0
  0
LINE
  5
FF
330
1E
100
AcDbEntity
  8
0
100
AcDbLine
 10
34.46909999999999
 20
637.2989999999998
 30
0.0
 11
34.46909999999999
 21
635.459
 31
0.0
  0
LINE
  5
100
330
1E
100
AcDbEntity
  8
0
100
AcDbLine
 10
34.46909999999999
 20
637.2989999999998
 30
0.0
 11
34.46909999999999
 21
638.0
 31
0.0
  0
LINE
  5
101
330
1E
100
AcDbEntity
  8
0
100
AcDbLine
 10
34.46909999999999
 20
635.459
 30
0.0
 11
34.46909999999999
 21
632.4339999999998
 31
0.0
  0
LINE
  5
102
330
1E
100
AcDbEntity
  8
0
100
AcDbLine
 10
34.46909999999999
 20
635.459
 30
0.0
 11
34.46909999999999
 21
637.2989999999998
 31
0.0
  0
LINE
  5
103
330
1E
100
AcDbEntity
  8
0
100
AcDbLine
 10
34.46909999999999
 20
632.4339999999998
 30
0.0
 11
34.46909999999999
 21
635.459
 31
0.0
  0
LINE
  5
104
330
1E
100
AcDbEntity
  8
0
100
AcDbLine
 10
34.46909999999999
 20
632.4339999999998
 30
0.0
 11
34.46909999999999
 21
628.573
 31
0.0
  0
LINE
  5
105
330
1E
100
AcDbEntity
  8
0
100
AcDbLine
 10
34.0
 20
601.138
 30
0.0
 11
34.0
 21
603.013
 31
0.0
  0
LINE
  5
106
330
1E
100
AcDbEntity
  8
0
100
AcDbLine
 10
34.0
 20
601.138
 30
0.0
 11
34.0
 21
600.509
 31
0.0
  0
LINE
  5
107
330
1E
100
AcDbEntity
  8
0
100
AcDbLine
 10
34.0
 20
601.138
 30
0.0
 11
34.0
 21
600.964
 31
0.0
  0
LINE
  5
108
330
1E
100
AcDbEntity
  8
0
100
AcDbLine
 10
34.0
 20
600.509
 30
0.0
 11
34.0
 21
601.138
 31
0.0
  0
LINE
  5
109
330
1E
100
AcDbEntity
  8
0
100
AcDbLine
 10
34.0
 20
600.509
 30
0.0
 11
34.46909999999999
 21
600.0
 31
0.0
  0
LINE
  5
10A
330
1E
100
AcDbEntity
  8
0
100
AcDbLine
 10
33.6106
 20
600.0
 30
0.0
 11
34.0
 21
600.509
 31
0.0
  0
LINE
  5
10B
330
1E
100
AcDbEntity
  8
0
100
AcDbLine
 10
33.6106
 20
600.0
 30
0.0
 11
33.6106
 21
600.619
 31
0.0
  0
LINE
  5
10C
330
1E
100
AcDbEntity
  8
0
100
AcDbLine
 10
39.0
 20
219.02958490566
 30
0.0
 11
39.0
 21
600.0316960317238
 31
0.0
  0
LINE
  5
10D
330
1E
100
AcDbEntity
  8
0
100
AcDbLine
 10
39.0
 20
637.939798685775
 30
0.0
 11
39.0
 21
880.9704150943401
 31
0.0
  0
LINE
  5
10E
330
1E
100
AcDbEntity
  8
0
100
AcDbLine
 10
39.0
 20
4.99999999999999
 30
0.0
 11
39.0
 21
180.9704150943399
 31
0.0
  0
LINE
  5
10F
330
1E
100
AcDbEntity
  8
0
100
AcDbLine
 10
39.0
 20
180.9704150943399
 30
0.0
 11
39.0
 21
4.999999999999968
 31
0.0
  0
LINE
  5
110
330
1E
100
AcDbEntity
  8
0
100
AcDbLine
 10
28.79199999999999
 20
894.368
 30
0.0
 11
30.904
 21
889.0880000000002
 31
0.0
  0
LINE
  5
111
330
1E
100
AcDbEntity
  8
0
100
AcDbLine
 10
28.528
 20
900.0
 30
0.0
 11
29.32
 21
905.544
 31
0.0
  0
LINE
  5
112
330
1E
100
AcDbEntity
  8
0
100
AcDbLine
 10
28.528
 20
900.0
 30
0.0
 11
29.32
 21
894.456
 31
0.0
  0
LINE
  5
113
330
1E
100
AcDbEntity
  8
0
100
AcDbLine
 10
28.0
 20
900.0
 30
0.0
 11
28.79199999999999
 21
905.6319999999999
 31
0.0
  0
LINE
  5
114
330
1E
100
AcDbEntity
  8
0
100
AcDbLine
 10
28.0
 20
900.0
 30
0.0
 11
28.79199999999999
 21
894.368
 31
0.0
  0
LINE
  5
115
330
1E
100
AcDbEntity
  8
0
100
AcDbLine
 10
29.32
 20
894.456
 30
0.0
 11
31.432
 21
889.352
 31
0.0
  0
LINE
  5
116
330
1E
100
AcDbEntity
  8
0
100
AcDbLine
 10
31.432
 20
889.352
 30
0.0
 11
34.864
 21
884.8639999999997
 31
0.0
  0
LINE
  5
117
330
1E
100
AcDbEntity
  8
0
100
AcDbLine
 10
30.904
 20
889.0880000000002
 30
0.0
 11
34.424
 21
884.4239999999999
 31
0.0
  0
LINE
  5
118
330
1E
100
AcDbEntity
  8
0
100
AcDbLine
 10
34.424
 20
884.4239999999999
 30
0.0
 11
39.0
 21
880.9704150943401
 31
0.0
  0
LINE
  5
119
330
1E
100
AcDbEntity
  8
0
100
AcDbLine
 10
34.424
 20
884.4239999999999
 30
0.0
 11
39.088
 21
880.9039999999999
 31
0.0
  0
LINE
  5
11A
330
1E
100
AcDbEntity
  8
0
100
AcDbLine
 10
29.32
 20
905.544
 30
0.0
 11
31.432
 21
910.6480000000001
 31
0.0
  0
LINE
  5
11B
330
1E
100
AcDbEntity
  8
0
100
AcDbLine
 10
31.432
 20
910.6480000000001
 30
0.0
 11
34.864
 21
915.136
 31
0.0
  0
LINE
  5
11C
330
1E
100
AcDbEntity
  8
0
100
AcDbLine
 10
28.79199999999999
 20
905.6319999999999
 30
0.0
 11
30.904
 21
910.9119999999997
 31
0.0
  0
LINE
  5
11D
330
1E
100
AcDbEntity
  8
0
100
AcDbLine
 10
30.904
 20
910.9119999999997
 30
0.0
 11
34.424
 21
915.576
 31
0.0
  0
LINE
  5
11E
330
1E
100
AcDbEntity
  8
0
100
AcDbLine
 10
34.864
 20
884.8639999999997
 30
0.0
 11
39.352
 21
881.432
 31
0.0
  0
LINE
  5
11F
330
1E
100
AcDbEntity
  8
0
100
AcDbLine
 10
34.864
 20
915.136
 30
0.0
 11
39.352
 21
918.5679999999999
 31
0.0
  0
LINE
  5
120
330
1E
100
AcDbEntity
  8
0
100
AcDbLine
 10
34.424
 20
915.576
 30
0.0
 11
39.0
 21
919.02958490566
 31
0.0
  0
LINE
  5
121
330
1E
100
AcDbEntity
  8
0
100
AcDbLine
 10
34.424
 20
915.576
 30
0.0
 11
39.088
 21
919.096
 31
0.0
  0
LINE
  5
122
330
1E
100
AcDbEntity
  8
0
100
AcDbLine
 10
39.0
 20
1059.0
 30
0.0
 11
39.0
 21
1083.64
 31
0.0
  0
LINE
  5
123
330
1E
100
AcDbEntity
  8
0
100
AcDbLine
 10
39.0
 20
919.02958490566
 30
0.0
 11
39.0
 21
1070.0
 31
0.0
  0
LINE
  5
124
330
1E
100
AcDbEntity
  8
0
100
AcDbLine
 10
39.0
 20
880.9704150943401
 30
0.0
 11
39.0
 21
637.939798685775
 31
0.0
  0
LINE
  5
125
330
1E
100
AcDbEntity
  8
0
100
AcDbLine
 10
40.796
 20
0.192307999999988
 30
0.0
 11
43.55199999999999
 21
0.192307999999988
 31
0.0
  0
LINE
  5
126
330
1E
100
AcDbEntity
  8
0
100
AcDbLine
 10
43.55199999999999
 20
0.192307999999988
 30
0.0
 11
46.672
 21
0.192307999999989
 31
0.0
  0
LINE
  5
127
330
1E
100
AcDbEntity
  8
0
100
AcDbLine
 10
39.028
 20
-0.0000000000000126
 30
0.0
 11
41.056
 21
-0.0000000000000128
 31
0.0
  0
LINE
  5
128
330
1E
100
AcDbEntity
  8
0
100
AcDbLine
 10
41.056
 20
-0.0000000000000128
 30
0.0
 11
43.708
 21
-0.0000000000000129
 31
0.0
  0
LINE
  5
129
330
1E
100
AcDbEntity
  8
0
100
AcDbLine
 10
46.672
 20
0.192307999999989
 30
0.0
 11
50.0
 21
0.192307999999989
 31
0.0
  0
LINE
  5
12A
330
1E
100
AcDbEntity
  8
0
100
AcDbLine
 10
50.0
 20
0.192307999999989
 30
0.0
 11
53.328
 21
0.192307999999989
 31
0.0
  0
LINE
  5
12B
330
1E
100
AcDbEntity
  8
0
100
AcDbLine
 10
43.708
 20
-0.0000000000000129
 30
0.0
 11
46.72399999999998
 21
-0.000000000000013
 31
0.0
  0
LINE
  5
12C
330
1E
100
AcDbEntity
  8
0
100
AcDbLine
 10
46.72399999999998
 20
-0.000000000000013
 30
0.0
 11
50.0
 21
-0.000000000000013
 31
0.0
  0
LINE
  5
12D
330
1E
100
AcDbEntity
  8
0
100
AcDbLine
 10
53.328
 20
0.192307999999989
 30
0.0
 11
56.448
 21
0.192307999999988
 31
0.0
  0
LINE
  5
12E
330
1E
100
AcDbEntity
  8
0
100
AcDbLine
 10
53.276
 20
-0.000000000000013
 30
0.0
 11
56.292
 21
-0.0000000000000129
 31
0.0
  0
LINE
  5
12F
330
1E
100
AcDbEntity
  8
0
100
AcDbLine
 10
50.0
 20
-0.000000000000013
 30
0.0
 11
53.276
 21
-0.000000000000013
 31
0.0
  0
LINE
  5
130
330
1E
100
AcDbEntity
  8
0
100
AcDbLine
 10
56.448
 20
0.192307999999988
 30
0.0
 11
59.20399999999999
 21
0.192307999999988
 31
0.0
  0
LINE
  5
131
330
1E
100
AcDbEntity
  8
0
100
AcDbLine
 10
58.944
 20
-0.0000000000000128
 30
0.0
 11
60.972
 21
-0.0000000000000126
 31
0.0
  0
LINE
  5
132
330
1E
100
AcDbEntity
  8
0
100
AcDbLine
 10
56.292
 20
-0.0000000000000129
 30
0.0
 11
58.944
 21
-0.0000000000000128
 31
0.0
  0
LINE
  5
133
330
1E
100
AcDbEntity
  8
0
100
AcDbLine
 10
40.796
 20
4.80768999999999
 30
0.0
 11
43.55199999999999
 21
4.80768999999999
 31
0.0
  0
LINE
  5
134
330
1E
100
AcDbEntity
  8
0
100
AcDbLine
 10
43.55199999999999
 20
4.80768999999999
 30
0.0
 11
46.672
 21
4.80768999999999
 31
0.0
  0
LINE
  5
135
330
1E
100
AcDbEntity
  8
0
100
AcDbLine
 10
39.028
 20
4.99999999999999
 30
0.0
 11
41.056
 21
4.99999999999999
 31
0.0
  0
LINE
  5
136
330
1E
100
AcDbEntity
  8
0
100
AcDbLine
 10
46.672
 20
4.80768999999999
 30
0.0
 11
50.0
 21
4.80768999999999
 31
0.0
  0
LINE
  5
137
330
1E
100
AcDbEntity
  8
0
100
AcDbLine
 10
56.448
 20
4.80768999999999
 30
0.0
 11
59.20399999999999
 21
4.80768999999999
 31
0.0
  0
LINE
  5
138
330
1E
100
AcDbEntity
  8
0
100
AcDbLine
 10
53.328
 20
4.80768999999999
 30
0.0
 11
56.448
 21
4.80768999999999
 31
0.0
  0
LINE
  5
139
330
1E
100
AcDbEntity
  8
0
100
AcDbLine
 10
50.0
 20
4.80768999999999
 30
0.0
 11
53.328
 21
4.80768999999999
 31
0.0
  0
LINE
  5
13A
330
1E
100
AcDbEntity
  8
0
100
AcDbLine
 10
59.20399999999999
 20
4.80768999999999
 30
0.0
 11
61.284
 21
4.80768999999999
 31
0.0
  0
LINE
  5
13B
330
1E
100
AcDbEntity
  8
0
100
AcDbLine
 10
59.20399999999999
 20
0.192307999999988
 30
0.0
 11
61.284
 21
0.192307999999988
 31
0.0
  0
LINE
  5
13C
330
1E
100
AcDbEntity
  8
0
100
AcDbLine
 10
62.688
 20
-0.0000000000000122
 30
0.0
 11
63.0
 21
0.192307999999988
 31
0.0
  0
LINE
  5
13D
330
1E
100
AcDbEntity
  8
0
100
AcDbLine
 10
62.688
 20
-0.0000000000000122
 30
0.0
 11
63.0
 21
0.192307999999988
 31
0.0
  0
LINE
  5
13E
330
1E
100
AcDbEntity
  8
0
100
AcDbLine
 10
62.22
 20
-0.0000000000000124
 30
0.0
 11
62.688
 21
-0.0000000000000122
 31
0.0
  0
LINE
  5
13F
330
1E
100
AcDbEntity
  8
0
100
AcDbLine
 10
60.972
 20
-0.0000000000000126
 30
0.0
 11
62.22
 21
-0.0000000000000124
 31
0.0
  0
LINE
  5
140
330
1E
100
AcDbEntity
  8
0
100
AcDbLine
 10
60.972
 20
4.99999999999999
 30
0.0
 11
62.22
 21
4.99999999999999
 31
0.0
  0
LINE
  5
141
330
1E
100
AcDbEntity
  8
0
100
AcDbLine
 10
61.284
 20
4.80768999999999
 30
0.0
 11
62.53199999999999
 21
4.80768999999999
 31
0.0
  0
LINE
  5
142
330
1E
100
AcDbEntity
  8
0
100
AcDbLine
 10
61.284
 20
0.192307999999988
 30
0.0
 11
62.53199999999999
 21
0.192307999999988
 31
0.0
  0
LINE
  5
143
330
1E
100
AcDbEntity
  8
0
100
AcDbLine
 10
62.22
 20
4.99999999999999
 30
0.0
 11
62.688
 21
4.99999999999999
 31
0.0
  0
LINE
  5
144
330
1E
100
AcDbEntity
  8
0
100
AcDbLine
 10
62.53199999999999
 20
4.80768999999999
 30
0.0
 11
63.0
 21
4.80768999999999
 31
0.0
  0
LINE
  5
145
330
1E
100
AcDbEntity
  8
0
100
AcDbLine
 10
62.53199999999999
 20
0.192307999999988
 30
0.0
 11
63.0
 21
0.192307999999988
 31
0.0
  0
LINE
  5
146
330
1E
100
AcDbEntity
  8
0
100
AcDbLine
 10
63.0
 20
0.192307999999988
 30
0.0
 11
63.0
 21
4.80768999999999
 31
0.0
  0
LINE
  5
147
330
1E
100
AcDbEntity
  8
0
100
AcDbLine
 10
63.0
 20
4.80768999999999
 30
0.0
 11
63.0
 21
0.192307999999988
 31
0.0
  0
LINE
  5
148
330
1E
100
AcDbEntity
  8
0
100
AcDbLine
 10
62.688
 20
4.99999999999999
 30
0.0
 11
63.0
 21
4.80768999999999
 31
0.0
  0
LINE
  5
149
330
1E
100
AcDbEntity
  8
0
100
AcDbLine
 10
41.056
 20
4.99999999999999
 30
0.0
 11
43.708
 21
4.99999999999999
 31
0.0
  0
LINE
  5
14A
330
1E
100
AcDbEntity
  8
0
100
AcDbLine
 10
43.708
 20
4.99999999999999
 30
0.0
 11
46.72399999999998
 21
4.99999999999999
 31
0.0
  0
LINE
  5
14B
330
1E
100
AcDbEntity
  8
0
100
AcDbLine
 10
46.72399999999998
 20
4.99999999999999
 30
0.0
 11
50.0
 21
4.99999999999999
 31
0.0
  0
LINE
  5
14C
330
1E
100
AcDbEntity
  8
0
100
AcDbLine
 10
58.944
 20
4.99999999999999
 30
0.0
 11
60.972
 21
4.99999999999999
 31
0.0
  0
LINE
  5
14D
330
1E
100
AcDbEntity
  8
0
100
AcDbLine
 10
56.292
 20
4.99999999999999
 30
0.0
 11
58.944
 21
4.99999999999999
 31
0.0
  0
LINE
  5
14E
330
1E
100
AcDbEntity
  8
0
100
AcDbLine
 10
53.276
 20
4.99999999999999
 30
0.0
 11
56.292
 21
4.99999999999999
 31
0.0
  0
LINE
  5
14F
330
1E
100
AcDbEntity
  8
0
100
AcDbLine
 10
50.0
 20
4.99999999999999
 30
0.0
 11
53.276
 21
4.99999999999999
 31
0.0
  0
LINE
  5
150
330
1E
100
AcDbEntity
  8
0
100
AcDbLine
 10
44.456
 20
179.3199999999999
 30
0.0
 11
50.0
 21
178.528
 31
0.0
  0
LINE
  5
151
330
1E
100
AcDbEntity
  8
0
100
AcDbLine
 10
44.368
 20
178.7919999999999
 30
0.0
 11
50.0
 21
178.0
 31
0.0
  0
LINE
  5
152
330
1E
100
AcDbEntity
  8
0
100
AcDbLine
 10
55.544
 20
179.3199999999999
 30
0.0
 11
60.648
 21
181.432
 31
0.0
  0
LINE
  5
153
330
1E
100
AcDbEntity
  8
0
100
AcDbLine
 10
50.0
 20
178.528
 30
0.0
 11
55.544
 21
179.3199999999999
 31
0.0
  0
LINE
  5
154
330
1E
100
AcDbEntity
  8
0
100
AcDbLine
 10
55.632
 20
178.7919999999999
 30
0.0
 11
60.912
 21
180.904
 31
0.0
  0
LINE
  5
155
330
1E
100
AcDbEntity
  8
0
100
AcDbLine
 10
50.0
 20
178.0
 30
0.0
 11
55.632
 21
178.7919999999999
 31
0.0
  0
LINE
  5
156
330
1E
100
AcDbEntity
  8
0
100
AcDbLine
 10
59.548
 20
180.3583999999999
 30
0.0
 11
60.912
 21
180.904
 31
0.0
  0
LINE
  5
157
330
1E
100
AcDbEntity
  8
0
100
AcDbLine
 10
39.352
 20
218.568
 30
0.0
 11
44.456
 21
220.68
 31
0.0
  0
LINE
  5
158
330
1E
100
AcDbEntity
  8
0
100
AcDbLine
 10
39.088
 20
219.096
 30
0.0
 11
44.368
 21
221.2079999999999
 31
0.0
  0
LINE
  5
159
330
1E
100
AcDbEntity
  8
0
100
AcDbLine
 10
44.456
 20
220.68
 30
0.0
 11
50.0
 21
221.472
 31
0.0
  0
LINE
  5
15A
330
1E
100
AcDbEntity
  8
0
100
AcDbLine
 10
44.368
 20
221.2079999999999
 30
0.0
 11
50.0
 21
222.0
 31
0.0
  0
LINE
  5
15B
330
1E
100
AcDbEntity
  8
0
100
AcDbLine
 10
55.544
 20
220.68
 30
0.0
 11
60.648
 21
218.568
 31
0.0
  0
LINE
  5
15C
330
1E
100
AcDbEntity
  8
0
100
AcDbLine
 10
50.0
 20
221.472
 30
0.0
 11
55.544
 21
220.68
 31
0.0
  0
LINE
  5
15D
330
1E
100
AcDbEntity
  8
0
100
AcDbLine
 10
55.632
 20
221.2079999999999
 30
0.0
 11
60.912
 21
219.096
 31
0.0
  0
LINE
  5
15E
330
1E
100
AcDbEntity
  8
0
100
AcDbLine
 10
50.0
 20
222.0
 30
0.0
 11
55.632
 21
221.2079999999999
 31
0.0
  0
LINE
  5
15F
330
1E
100
AcDbEntity
  8
0
100
AcDbLine
 10
39.352
 20
181.432
 30
0.0
 11
44.456
 21
179.3199999999999
 31
0.0
  0
LINE
  5
160
330
1E
100
AcDbEntity
  8
0
100
AcDbLine
 10
39.088
 20
180.904
 30
0.0
 11
39.396
 21
180.7807999999999
 31
0.0
  0
LINE
  5
161
330
1E
100
AcDbEntity
  8
0
100
AcDbLine
 10
39.088
 20
180.904
 30
0.0
 11
40.27870401909999
 21
180.4277183923599
 31
0.0
  0
LINE
  5
162
330
1E
100
AcDbEntity
  8
0
100
AcDbLine
 10
39.088
 20
180.904
 30
0.0
 11
44.368
 21
178.7919999999999
 31
0.0
  0
LINE
  5
163
330
1E
100
AcDbEntity
  8
0
100
AcDbLine
 10
60.648
 20
218.568
 30
0.0
 11
65.13600000000001
 21
215.1359999999999
 31
0.0
  0
LINE
  5
164
330
1E
100
AcDbEntity
  8
0
100
AcDbLine
 10
60.648
 20
181.432
 30
0.0
 11
65.13600000000001
 21
184.8639999999999
 31
0.0
  0
LINE
  5
165
330
1E
100
AcDbEntity
  8
0
100
AcDbLine
 10
60.912
 20
180.904
 30
0.0
 11
65.576
 21
184.424
 31
0.0
  0
LINE
  5
166
330
1E
100
AcDbEntity
  8
0
100
AcDbLine
 10
60.912
 20
219.096
 30
0.0
 11
65.576
 21
215.5759999999999
 31
0.0
  0
LINE
  5
167
330
1E
100
AcDbEntity
  8
0
100
AcDbLine
 10
60.4309077682034
 20
180.7115631072809
 30
0.0
 11
60.912
 21
180.904
 31
0.0
  0
LINE
  5
168
330
1E
100
AcDbEntity
  8
0
100
AcDbLine
 10
39.0
 20
600.0149826715419
 30
0.0
 11
76.50399999999997
 21
600.139
 31
0.0
  0
LINE
  5
169
330
1E
100
AcDbEntity
  8
0
100
AcDbLine
 10
61.0
 20
180.9704150943399
 30
0.0
 11
61.0
 21
4.999999999999968
 31
0.0
  0
LINE
  5
16A
330
1E
100
AcDbEntity
  8
0
100
AcDbLine
 10
39.352
 20
881.432
 30
0.0
 11
44.456
 21
879.32
 31
0.0
  0
LINE
  5
16B
330
1E
100
AcDbEntity
  8
0
100
AcDbLine
 10
39.088
 20
880.9039999999999
 30
0.0
 11
44.368
 21
878.7919999999997
 31
0.0
  0
LINE
  5
16C
330
1E
100
AcDbEntity
  8
0
100
AcDbLine
 10
44.456
 20
879.32
 30
0.0
 11
50.0
 21
878.528
 31
0.0
  0
LINE
  5
16D
330
1E
100
AcDbEntity
  8
0
100
AcDbLine
 10
44.368
 20
878.7919999999997
 30
0.0
 11
50.0
 21
878.0
 31
0.0
  0
LINE
  5
16E
330
1E
100
AcDbEntity
  8
0
100
AcDbLine
 10
39.352
 20
918.5679999999999
 30
0.0
 11
44.456
 21
920.6799999999999
 31
0.0
  0
LINE
  5
16F
330
1E
100
AcDbEntity
  8
0
100
AcDbLine
 10
50.0
 20
878.528
 30
0.0
 11
55.544
 21
879.32
 31
0.0
  0
LINE
  5
170
330
1E
100
AcDbEntity
  8
0
100
AcDbLine
 10
60.648
 20
918.5679999999999
 30
0.0
 11
65.13600000000001
 21
915.136
 31
0.0
  0
LINE
  5
171
330
1E
100
AcDbEntity
  8
0
100
AcDbLine
 10
60.648
 20
881.432
 30
0.0
 11
65.13600000000001
 21
884.8639999999997
 31
0.0
  0
LINE
  5
172
330
1E
100
AcDbEntity
  8
0
100
AcDbLine
 10
55.544
 20
879.32
 30
0.0
 11
60.648
 21
881.432
 31
0.0
  0
LINE
  5
173
330
1E
100
AcDbEntity
  8
0
100
AcDbLine
 10
60.912
 20
880.9039999999999
 30
0.0
 11
65.576
 21
884.4239999999999
 31
0.0
  0
LINE
  5
174
330
1E
100
AcDbEntity
  8
0
100
AcDbLine
 10
55.632
 20
878.7919999999997
 30
0.0
 11
60.912
 21
880.9039999999999
 31
0.0
  0
LINE
  5
175
330
1E
100
AcDbEntity
  8
0
100
AcDbLine
 10
50.0
 20
878.0
 30
0.0
 11
55.632
 21
878.7919999999997
 31
0.0
  0
LINE
  5
176
330
1E
100
AcDbEntity
  8
0
100
AcDbLine
 10
39.0
 20
637.985017328458
 30
0.0
 11
76.50399999999997
 21
637.861
 31
0.0
  0
LINE
  5
177
330
1E
100
AcDbEntity
  8
0
100
AcDbLine
 10
61.0
 20
880.9704150943401
 30
0.0
 11
61.0
 21
637.912268255664
 31
0.0
  0
LINE
  5
178
330
1E
100
AcDbEntity
  8
0
100
AcDbLine
 10
61.0
 20
600.091057152599
 30
0.0
 11
61.0
 21
219.02958490566
 31
0.0
  0
LINE
  5
179
330
1E
100
AcDbEntity
  8
0
100
AcDbLine
 10
61.0
 20
219.02958490566
 30
0.0
 11
61.0
 21
600.091057152599
 31
0.0
  0
LINE
  5
17A
330
1E
100
AcDbEntity
  8
0
100
AcDbLine
 10
61.0
 20
219.02958490566
 30
0.0
 11
65.576
 21
215.5759999999999
 31
0.0
  0
LINE
  5
17B
330
1E
100
AcDbEntity
  8
0
100
AcDbLine
 10
39.088
 20
919.096
 30
0.0
 11
44.368
 21
921.208
 31
0.0
  0
LINE
  5
17C
330
1E
100
AcDbEntity
  8
0
100
AcDbLine
 10
44.456
 20
920.6799999999999
 30
0.0
 11
50.0
 21
921.4719999999999
 31
0.0
  0
LINE
  5
17D
330
1E
100
AcDbEntity
  8
0
100
AcDbLine
 10
44.368
 20
921.208
 30
0.0
 11
50.0
 21
922.0
 31
0.0
  0
LINE
  5
17E
330
1E
100
AcDbEntity
  8
0
100
AcDbLine
 10
50.0
 20
921.4719999999999
 30
0.0
 11
55.544
 21
920.6799999999999
 31
0.0
  0
LINE
  5
17F
330
1E
100
AcDbEntity
  8
0
100
AcDbLine
 10
55.544
 20
920.6799999999999
 30
0.0
 11
60.648
 21
918.5679999999999
 31
0.0
  0
LINE
  5
180
330
1E
100
AcDbEntity
  8
0
100
AcDbLine
 10
60.912
 20
919.096
 30
0.0
 11
65.576
 21
915.576
 31
0.0
  0
LINE
  5
181
330
1E
100
AcDbEntity
  8
0
100
AcDbLine
 10
61.0
 20
1049.65608815596
 30
0.0
 11
61.3431
 21
1047.66
 31
0.0
  0
LINE
  5
182
330
1E
100
AcDbEntity
  8
0
100
AcDbLine
 10
61.0
 20
1049.65608815596
 30
0.0
 11
61.3431
 21
1047.66
 31
0.0
  0
LINE
  5
183
330
1E
100
AcDbEntity
  8
0
100
AcDbLine
 10
61.0
 20
964.701701106328
 30
0.0
 11
63.7358
 21
950.3989999999999
 31
0.0
  0
LINE
  5
184
330
1E
100
AcDbEntity
  8
0
100
AcDbLine
 10
55.632
 20
921.208
 30
0.0
 11
60.912
 21
919.096
 31
0.0
  0
LINE
  5
185
330
1E
100
AcDbEntity
  8
0
100
AcDbLine
 10
50.0
 20
922.0
 30
0.0
 11
55.632
 21
921.208
 31
0.0
  0
LINE
  5
186
330
1E
100
AcDbEntity
  8
0
100
AcDbLine
 10
61.0
 20
1059.0
 30
0.0
 11
61.0
 21
919.02958490566
 31
0.0
  0
LINE
  5
187
330
1E
100
AcDbEntity
  8
0
100
AcDbLine
 10
61.0
 20
1059.0
 30
0.0
 11
61.0
 21
1083.64
 31
0.0
  0
LINE
  5
188
330
1E
100
AcDbEntity
  8
0
100
AcDbLine
 10
61.0
 20
919.02958490566
 30
0.0
 11
61.0
 21
1059.0
 31
0.0
  0
LINE
  5
189
330
1E
100
AcDbEntity
  8
0
100
AcDbLine
 10
68.56799999999998
 20
189.352
 30
0.0
 11
70.68000000000002
 21
194.4559999999999
 31
0.0
  0
LINE
  5
18A
330
1E
100
AcDbEntity
  8
0
100
AcDbLine
 10
65.13600000000001
 20
184.8639999999999
 30
0.0
 11
68.56799999999998
 21
189.352
 31
0.0
  0
LINE
  5
18B
330
1E
100
AcDbEntity
  8
0
100
AcDbLine
 10
70.68000000000002
 20
205.5439999999999
 30
0.0
 11
71.47199999999997
 21
200.0
 31
0.0
  0
LINE
  5
18C
330
1E
100
AcDbEntity
  8
0
100
AcDbLine
 10
70.68000000000002
 20
194.4559999999999
 30
0.0
 11
71.47199999999997
 21
200.0
 31
0.0
  0
LINE
  5
18D
330
1E
100
AcDbEntity
  8
0
100
AcDbLine
 10
69.09600000000001
 20
189.0879999999999
 30
0.0
 11
71.208
 21
194.368
 31
0.0
  0
LINE
  5
18E
330
1E
100
AcDbEntity
  8
0
100
AcDbLine
 10
65.13600000000001
 20
215.1359999999999
 30
0.0
 11
68.56799999999998
 21
210.6479999999999
 31
0.0
  0
LINE
  5
18F
330
1E
100
AcDbEntity
  8
0
100
AcDbLine
 10
68.56799999999998
 20
210.6479999999999
 30
0.0
 11
70.68000000000002
 21
205.5439999999999
 31
0.0
  0
LINE
  5
190
330
1E
100
AcDbEntity
  8
0
100
AcDbLine
 10
69.09600000000001
 20
210.9119999999999
 30
0.0
 11
71.208
 21
205.6319999999999
 31
0.0
  0
LINE
  5
191
330
1E
100
AcDbEntity
  8
0
100
AcDbLine
 10
65.576
 20
215.5759999999999
 30
0.0
 11
69.09600000000001
 21
210.9119999999999
 31
0.0
  0
LINE
  5
192
330
1E
100
AcDbEntity
  8
0
100
AcDbLine
 10
71.208
 20
205.6319999999999
 30
0.0
 11
72.0
 21
200.0
 31
0.0
  0
LINE
  5
193
330
1E
100
AcDbEntity
  8
0
100
AcDbLine
 10
71.208
 20
194.368
 30
0.0
 11
72.0
 21
200.0
 31
0.0
  0
LINE
  5
194
330
1E
100
AcDbEntity
  8
0
100
AcDbLine
 10
65.576
 20
184.424
 30
0.0
 11
69.09600000000001
 21
189.0879999999999
 31
0.0
  0
LINE
  5
195
330
1E
100
AcDbEntity
  8
0
100
AcDbLine
 10
76.50399999999997
 20
600.139
 30
0.0
 11
79.048
 21
600.153
 31
0.0
  0
LINE
  5
196
330
1E
100
AcDbEntity
  8
0
100
AcDbLine
 10
76.8527
 20
294.223
 30
0.0
 11
77.1157
 21
294.352
 31
0.0
  0
LINE
  5
197
330
1E
100
AcDbEntity
  8
0
100
AcDbLine
 10
76.8527
 20
294.223
 30
0.0
 11
77.1410586092438
 21
600.14250582568
 31
0.0
  0
LINE
  5
198
330
1E
100
AcDbEntity
  8
0
100
AcDbLine
 10
77.1157
 20
294.352
 30
0.0
 11
78.5462
 21
295.055
 31
0.0
  0
LINE
  5
199
330
1E
100
AcDbEntity
  8
0
100
AcDbLine
 10
78.5462
 20
295.055
 30
0.0
 11
80.94269999999999
 21
296.233
 31
0.0
  0
LINE
  5
19A
330
1E
100
AcDbEntity
  8
0
100
AcDbLine
 10
80.94269999999999
 20
296.233
 30
0.0
 11
83.85420000000001
 21
297.665
 31
0.0
  0
LINE
  5
19B
330
1E
100
AcDbEntity
  8
0
100
AcDbLine
 10
81.928
 20
600.332
 30
0.0
 11
85.0
 21
600.394
 31
0.0
  0
LINE
  5
19C
330
1E
100
AcDbEntity
  8
0
100
AcDbLine
 10
79.048
 20
600.153
 30
0.0
 11
81.928
 21
600.332
 31
0.0
  0
LINE
  5
19D
330
1E
100
AcDbEntity
  8
0
100
AcDbLine
 10
83.85420000000001
 20
297.665
 30
0.0
 11
87.00279999999997
 21
299.2129999999999
 31
0.0
  0
LINE
  5
19E
330
1E
100
AcDbEntity
  8
0
100
AcDbLine
 10
84.59754537871047
 20
298.0304635857978
 30
0.0
 11
85.76489999999997
 21
298.604
 31
0.0
  0
LINE
  5
19F
330
1E
100
AcDbEntity
  8
0
100
AcDbLine
 10
85.0
 20
600.394
 30
0.0
 11
88.07199999999998
 21
600.3309999999999
 31
0.0
  0
LINE
  5
1A0
330
1E
100
AcDbEntity
  8
0
100
AcDbLine
 10
85.76489999999997
 20
298.604
 30
0.0
 11
88.2057829853309
 21
299.804172839467
 31
0.0
  0
LINE
  5
1A1
330
1E
100
AcDbEntity
  8
0
100
AcDbLine
 10
87.00279999999997
 20
299.2129999999999
 30
0.0
 11
89.80079999999999
 21
300.5879999999998
 31
0.0
  0
LINE
  5
1A2
330
1E
100
AcDbEntity
  8
0
100
AcDbLine
 10
89.80079999999999
 20
300.5879999999998
 30
0.0
 11
91.7393
 21
301.542
 31
0.0
  0
LINE
  5
1A3
330
1E
100
AcDbEntity
  8
0
100
AcDbLine
 10
91.0
 20
600.1459999999998
 30
0.0
 11
91.0
 21
600.619
 31
0.0
  0
LINE
  5
1A4
330
1E
100
AcDbEntity
  8
0
100
AcDbLine
 10
88.07199999999998
 20
600.3309999999999
 30
0.0
 11
91.0
 21
600.1459999999998
 31
0.0
  0
LINE
  5
1A5
330
1E
100
AcDbEntity
  8
0
100
AcDbLine
 10
91.0
 20
605.6259999999999
 30
0.0
 11
91.0
 21
609.4969999999998
 31
0.0
  0
LINE
  5
1A6
330
1E
100
AcDbEntity
  8
0
100
AcDbLine
 10
91.0
 20
605.6259999999999
 30
0.0
 11
91.0
 21
602.588
 31
0.0
  0
LINE
  5
1A7
330
1E
100
AcDbEntity
  8
0
100
AcDbLine
 10
91.0
 20
602.588
 30
0.0
 11
91.0
 21
605.6259999999999
 31
0.0
  0
LINE
  5
1A8
330
1E
100
AcDbEntity
  8
0
100
AcDbLine
 10
91.0
 20
602.588
 30
0.0
 11
91.0
 21
600.619
 31
0.0
  0
LINE
  5
1A9
330
1E
100
AcDbEntity
  8
0
100
AcDbLine
 10
91.0
 20
600.619
 30
0.0
 11
91.0
 21
602.588
 31
0.0
  0
LINE
  5
1AA
330
1E
100
AcDbEntity
  8
0
100
AcDbLine
 10
91.0
 20
600.619
 30
0.0
 11
91.0
 21
600.1459999999998
 31
0.0
  0
LINE
  5
1AB
330
1E
100
AcDbEntity
  8
0
100
AcDbLine
 10
91.0
 20
609.4969999999998
 30
0.0
 11
91.0
 21
614.053
 31
0.0
  0
LINE
  5
1AC
330
1E
100
AcDbEntity
  8
0
100
AcDbLine
 10
91.0
 20
609.4969999999998
 30
0.0
 11
91.0
 21
605.6259999999999
 31
0.0
  0
LINE
  5
1AD
330
1E
100
AcDbEntity
  8
0
100
AcDbLine
 10
91.4566556144155
 20
301.402901344417
 30
0.0
 11
92.50249999999999
 21
301.917
 31
0.0
  0
LINE
  5
1AE
330
1E
100
AcDbEntity
  8
0
100
AcDbLine
 10
92.76909999999999
 20
302.048
 30
0.0
 11
93.312
 21
787.2349999999999
 31
0.0
  0
LINE
  5
1AF
330
1E
100
AcDbEntity
  8
0
100
AcDbLine
 10
92.50249999999999
 20
301.917
 30
0.0
 11
92.76909999999999
 21
302.048
 31
0.0
  0
LINE
  5
1B0
330
1E
100
AcDbEntity
  8
0
100
AcDbLine
 10
92.76909999999999
 20
302.048
 30
0.0
 11
93.312
 21
787.2349999999999
 31
0.0
  0
LINE
  5
1B1
330
1E
100
AcDbEntity
  8
0
100
AcDbLine
 10
91.7393
 20
301.542
 30
0.0
 11
92.76909999999999
 21
302.048
 31
0.0
  0
LINE
  5
1B2
330
1E
100
AcDbEntity
  8
0
100
AcDbLine
 10
91.0
 20
614.053
 30
0.0
 11
91.0
 21
618.9149999999998
 31
0.0
  0
LINE
  5
1B3
330
1E
100
AcDbEntity
  8
0
100
AcDbLine
 10
91.0
 20
614.053
 30
0.0
 11
91.0
 21
609.4969999999998
 31
0.0
  0
LINE
  5
1B4
330
1E
100
AcDbEntity
  8
0
100
AcDbLine
 10
91.0
 20
623.9249999999998
 30
0.0
 11
91.0
 21
627.468
 31
0.0
  0
LINE
  5
1B5
330
1E
100
AcDbEntity
  8
0
100
AcDbLine
 10
91.0
 20
623.9249999999998
 30
0.0
 11
91.0
 21
618.9149999999998
 31
0.0
  0
LINE
  5
1B6
330
1E
100
AcDbEntity
  8
0
100
AcDbLine
 10
91.0
 20
618.9149999999998
 30
0.0
 11
91.0
 21
623.9249999999998
 31
0.0
  0
LINE
  5
1B7
330
1E
100
AcDbEntity
  8
0
100
AcDbLine
 10
91.0
 20
618.9149999999998
 30
0.0
 11
91.0
 21
614.053
 31
0.0
  0
LINE
  5
1B8
330
1E
100
AcDbEntity
  8
0
100
AcDbLine
 10
85.0
 20
625.603
 30
0.0
 11
88.07199999999998
 21
626.0919999999998
 31
0.0
  0
LINE
  5
1B9
330
1E
100
AcDbEntity
  8
0
100
AcDbLine
 10
88.07199999999998
 20
626.0919999999998
 30
0.0
 11
91.0
 21
627.468
 31
0.0
  0
LINE
  5
1BA
330
1E
100
AcDbEntity
  8
0
100
AcDbLine
 10
81.928
 20
626.0869999999998
 30
0.0
 11
85.0
 21
625.603
 31
0.0
  0
LINE
  5
1BB
330
1E
100
AcDbEntity
  8
0
100
AcDbLine
 10
91.0
 20
627.468
 30
0.0
 11
91.0
 21
637.854
 31
0.0
  0
LINE
  5
1BC
330
1E
100
AcDbEntity
  8
0
100
AcDbLine
 10
91.0
 20
627.468
 30
0.0
 11
91.0
 21
623.9249999999998
 31
0.0
  0
LINE
  5
1BD
330
1E
100
AcDbEntity
  8
0
100
AcDbLine
 10
79.048
 20
627.4239999999998
 30
0.0
 11
81.928
 21
626.0869999999998
 31
0.0
  0
LINE
  5
1BE
330
1E
100
AcDbEntity
  8
0
100
AcDbLine
 10
76.50399999999997
 20
629.3619999999998
 30
0.0
 11
79.048
 21
627.4239999999998
 31
0.0
  0
LINE
  5
1BF
330
1E
100
AcDbEntity
  8
0
100
AcDbLine
 10
74.58400000000001
 20
631.5119999999998
 30
0.0
 11
76.50399999999997
 21
629.3619999999998
 31
0.0
  0
LINE
  5
1C0
330
1E
100
AcDbEntity
  8
0
100
AcDbLine
 10
73.432
 20
633.548
 30
0.0
 11
74.58400000000001
 21
631.5119999999998
 31
0.0
  0
LINE
  5
1C1
330
1E
100
AcDbEntity
  8
0
100
AcDbLine
 10
68.56799999999998
 20
910.6480000000001
 30
0.0
 11
70.68000000000002
 21
905.544
 31
0.0
  0
LINE
  5
1C2
330
1E
100
AcDbEntity
  8
0
100
AcDbLine
 10
65.13600000000001
 20
915.136
 30
0.0
 11
68.56799999999998
 21
910.6480000000001
 31
0.0
  0
LINE
  5
1C3
330
1E
100
AcDbEntity
  8
0
100
AcDbLine
 10
61.3431
 20
1047.66
 30
0.0
 11
65.72320000000001
 21
1024.98
 31
0.0
  0
LINE
  5
1C4
330
1E
100
AcDbEntity
  8
0
100
AcDbLine
 10
65.72320000000001
 20
1024.98
 30
0.0
 11
70.46210000000002
 21
1000.34
 31
0.0
  0
LINE
  5
1C5
330
1E
100
AcDbEntity
  8
0
100
AcDbLine
 10
63.7358
 20
950.3989999999999
 30
0.0
 11
69.9119
 21
917.9809999999999
 31
0.0
  0
LINE
  5
1C6
330
1E
100
AcDbEntity
  8
0
100
AcDbLine
 10
65.576
 20
915.576
 30
0.0
 11
69.09600000000001
 21
910.9119999999997
 31
0.0
  0
LINE
  5
1C7
330
1E
100
AcDbEntity
  8
0
100
AcDbLine
 10
69.09600000000001
 20
910.9119999999997
 30
0.0
 11
71.208
 21
905.6319999999999
 31
0.0
  0
LINE
  5
1C8
330
1E
100
AcDbEntity
  8
0
100
AcDbLine
 10
68.56799999999998
 20
889.352
 30
0.0
 11
70.68000000000002
 21
894.456
 31
0.0
  0
LINE
  5
1C9
330
1E
100
AcDbEntity
  8
0
100
AcDbLine
 10
65.13600000000001
 20
884.8639999999997
 30
0.0
 11
68.56799999999998
 21
889.352
 31
0.0
  0
LINE
  5
1CA
330
1E
100
AcDbEntity
  8
0
100
AcDbLine
 10
70.46210000000002
 20
1000.34
 30
0.0
 11
75.1313
 21
975.9819999999999
 31
0.0
  0
LINE
  5
1CB
330
1E
100
AcDbEntity
  8
0
100
AcDbLine
 10
69.9119
 20
917.9809999999999
 30
0.0
 11
73.51899999999997
 21
888.095
 31
0.0
  0
LINE
  5
1CC
330
1E
100
AcDbEntity
  8
0
100
AcDbLine
 10
70.68000000000002
 20
905.544
 30
0.0
 11
71.47199999999997
 21
900.0
 31
0.0
  0
LINE
  5
1CD
330
1E
100
AcDbEntity
  8
0
100
AcDbLine
 10
71.208
 20
905.6319999999999
 30
0.0
 11
72.0
 21
900.0
 31
0.0
  0
LINE
  5
1CE
330
1E
100
AcDbEntity
  8
0
100
AcDbLine
 10
70.68000000000002
 20
894.456
 30
0.0
 11
71.47199999999997
 21
900.0
 31
0.0
  0
LINE
  5
1CF
330
1E
100
AcDbEntity
  8
0
100
AcDbLine
 10
71.208
 20
894.368
 30
0.0
 11
72.0
 21
900.0
 31
0.0
  0
LINE
  5
1D0
330
1E
100
AcDbEntity
  8
0
100
AcDbLine
 10
69.09600000000001
 20
889.0880000000002
 30
0.0
 11
71.208
 21
894.368
 31
0.0
  0
LINE
  5
1D1
330
1E
100
AcDbEntity
  8
0
100
AcDbLine
 10
65.576
 20
884.4239999999999
 30
0.0
 11
69.09600000000001
 21
889.0880000000002
 31
0.0
  0
LINE
  5
1D2
330
1E
100
AcDbEntity
  8
0
100
AcDbLine
 10
73.51899999999997
 20
888.095
 30
0.0
 11
74.63079999999997
 21
856.9860000000003
 31
0.0
  0
LINE
  5
1D3
330
1E
100
AcDbEntity
  8
0
100
AcDbLine
 10
74.63079999999997
 20
856.9860000000003
 30
0.0
 11
77.31740000000002
 21
787.223
 31
0.0
  0
LINE
  5
1D4
330
1E
100
AcDbEntity
  8
0
100
AcDbLine
 10
75.1313
 20
975.9819999999999
 30
0.0
 11
79.4546
 21
953.3849999999999
 31
0.0
  0
LINE
  5
1D5
330
1E
100
AcDbEntity
  8
0
100
AcDbLine
 10
85.0
 20
637.6059999999998
 30
0.0
 11
88.07199999999998
 21
637.6689999999999
 31
0.0
  0
LINE
  5
1D6
330
1E
100
AcDbEntity
  8
0
100
AcDbLine
 10
88.07199999999998
 20
637.6689999999999
 30
0.0
 11
91.0
 21
637.854
 31
0.0
  0
LINE
  5
1D7
330
1E
100
AcDbEntity
  8
0
100
AcDbLine
 10
81.928
 20
637.668
 30
0.0
 11
85.0
 21
637.6059999999998
 31
0.0
  0
LINE
  5
1D8
330
1E
100
AcDbEntity
  8
0
100
AcDbLine
 10
77.17660843515379
 20
637.857298538486
 30
0.0
 11
77.31740000000002
 21
787.223
 31
0.0
  0
LINE
  5
1D9
330
1E
100
AcDbEntity
  8
0
100
AcDbLine
 10
89.51359999999999
 20
888.095
 30
0.0
 11
90.6253
 21
856.9860000000003
 31
0.0
  0
LINE
  5
1DA
330
1E
100
AcDbEntity
  8
0
100
AcDbLine
 10
90.6253
 20
856.9860000000003
 30
0.0
 11
93.312
 21
787.2349999999999
 31
0.0
  0
LINE
  5
1DB
330
1E
100
AcDbEntity
  8
0
100
AcDbLine
 10
85.631
 20
920.967
 30
0.0
 11
89.51359999999999
 21
888.095
 31
0.0
  0
LINE
  5
1DC
330
1E
100
AcDbEntity
  8
0
100
AcDbLine
 10
79.4546
 20
953.3849999999999
 30
0.0
 11
85.631
 21
920.967
 31
0.0
  0
LINE
  5
1DD
330
1E
100
AcDbEntity
  8
0
100
AcDbLine
 10
91.0
 20
637.854
 30
0.0
 11
91.0
 21
627.468
 31
0.0
  0
LINE
  5
1DE
330
1E
100
AcDbEntity
  8
0
100
AcDbLine
 10
79.048
 20
637.847
 30
0.0
 11
81.928
 21
637.668
 31
0.0
  0
LINE
  5
1DF
330
1E
100
AcDbEntity
  8
0
100
AcDbLine
 10
76.50399999999997
 20
637.861
 30
0.0
 11
79.048
 21
637.847
 31
0.0
  0
LINE
  5
1E0
330
1E
100
AcDbEntity
  8
0
100
AcDbLine
 10
74.58400000000001
 20
637.467
 30
0.0
 11
76.50399999999997
 21
637.861
 31
0.0
  0
LINE
  5
1E1
330
1E
100
AcDbEntity
  8
0
100
AcDbLine
 10
73.432
 20
636.6219999999998
 30
0.0
 11
74.58400000000001
 21
637.467
 31
0.0
  0
LINE
  5
1E2
330
1E
100
AcDbEntity
  8
0
100
AcDbLine
 10
73.0
 20
635.459
 30
0.0
 11
73.432
 21
633.548
 31
0.0
  0
LINE
  5
1E3
330
1E
100
AcDbEntity
  8
0
100
AcDbLine
 10
73.0
 20
635.459
 30
0.0
 11
73.432
 21
636.6219999999998
 31
0.0
  0
LINE
  5
1E4
330
1E
100
AcDbEntity
  8
0
100
AcDbLine
 10
61.0
 20
637.912268255664
 30
0.0
 11
61.0
 21
880.9704150943401
 31
0.0
  0
LINE
  5
1E5
330
1E
100
AcDbEntity
  8
0
100
AcDbLine
 10
61.0
 20
4.99999999999999
 30
0.0
 11
61.0
 21
180.9704150943399
 31
0.0
  0
LINE
  5
1E6
330
1E
100
AcDbEntity
  8
0
100
AcDbLine
 10
39.0
 20
600.0316960317238
 30
0.0
 11
39.0
 21
219.02958490566
 31
0.0
  0
LINE
  5
1E7
330
1E
100
AcDbEntity
  8
0
100
AcDbLine
 10
38.0
 20
1101.26
 30
0.0
 11
38.0
 21
1123.94
 31
0.0
  0
LINE
  5
1E8
330
1E
100
AcDbEntity
  8
0
100
AcDbLine
 10
38.0
 20
1101.26
 30
0.0
 11
39.0
 21
1083.64
 31
0.0
  0
LINE
  5
1E9
330
1E
100
AcDbEntity
  8
0
100
AcDbLine
 10
38.0
 20
1123.94
 30
0.0
 11
38.0
 21
1146.05
 31
0.0
  0
LINE
  5
1EA
330
1E
100
AcDbEntity
  8
0
100
AcDbLine
 10
38.0
 20
1123.94
 30
0.0
 11
38.0
 21
1101.26
 31
0.0
  0
LINE
  5
1EC
330
1E
100
AcDbEntity
  8
0
100
AcDbLine
 10
10.0
 20
1225.27
 30
0.0
 11
10.3
 21
1225.09
 31
0.0
  0
LINE
  5
1ED
330
1E
100
AcDbEntity
  8
0
100
AcDbLine
 10
10.0
 20
1225.27
 30
0.0
 11
10.3
 21
1225.45
 31
0.0
  0
LINE
  5
1EF
330
1E
100
AcDbEntity
  8
0
100
AcDbLine
 10
8.4
 20
1222.59
 30
0.0
 11
10.6
 21
1221.48
 31
0.0
  0
LINE
  5
1F2
330
1E
100
AcDbEntity
  8
0
100
AcDbLine
 10
10.60769999999999
 20
1223.47
 30
0.0
 11
10.7816
 21
1223.67
 31
0.0
  0
LINE
  5
1F3
330
1E
100
AcDbEntity
  8
0
100
AcDbLine
 10
10.60769999999999
 20
1223.47
 30
0.0
 11
11.0247
 21
1223.31
 31
0.0
  0
LINE
  5
1F5
330
1E
100
AcDbEntity
  8
0
100
AcDbLine
 10
10.7816
 20
1223.67
 30
0.0
 11
11.4188
 21
1223.77
 31
0.0
  0
LINE
  5
1F9
330
1E
100
AcDbEntity
  8
0
100
AcDbLine
 10
10.3
 20
1225.45
 30
0.0
 11
11.0
 21
1225.53
 31
0.0
  0
LINE
  5
1FB
330
1E
100
AcDbEntity
  8
0
100
AcDbLine
 10
10.3
 20
1225.09
 30
0.0
 11
11.0
 21
1225.01
 31
0.0
  0
LINE
  5
1FE
330
1E
100
AcDbEntity
  8
0
100
AcDbLine
 10
10.60769999999999
 20
1227.07
 30
0.0
 11
10.7816
 21
1226.88
 31
0.0
  0
LINE
  5
1FF
330
1E
100
AcDbEntity
  8
0
100
AcDbLine
 10
10.60769999999999
 20
1227.07
 30
0.0
 11
11.0247
 21
1227.23
 31
0.0
  0
LINE
  5
203
330
1E
100
AcDbEntity
  8
0
100
AcDbLine
 10
11.4188
 20
1223.77
 30
0.0
 11
12.16029999999999
 21
1223.73
 31
0.0
  0
LINE
  5
205
330
1E
100
AcDbEntity
  8
0
100
AcDbLine
 10
11.0247
 20
1223.31
 30
0.0
 11
11.76609999999999
 21
1223.26
 31
0.0
  0
LINE
  5
207
330
1E
100
AcDbEntity
  8
0
100
AcDbLine
 10
11.0
 20
1225.01
 30
0.0
 11
11.69999999999999
 21
1225.09
 31
0.0
  0
LINE
  5
209
330
1E
100
AcDbEntity
  8
0
100
AcDbLine
 10
11.0
 20
1225.53
 30
0.0
 11
11.69999999999999
 21
1225.45
 31
0.0
  0
LINE
  5
20E
330
1E
100
AcDbEntity
  8
0
100
AcDbLine
 10
12.16029999999999
 20
1223.73
 30
0.0
 11
12.5773
 21
1223.559999999999
 31
0.0
  0
LINE
  5
210
330
1E
100
AcDbEntity
  8
0
100
AcDbLine
 10
12.40339999999999
 20
1223.37
 30
0.0
 11
12.5773
 21
1223.559999999999
 31
0.0
  0
LINE
  5
212
330
1E
100
AcDbEntity
  8
0
100
AcDbLine
 10
11.76609999999999
 20
1223.26
 30
0.0
 11
12.40339999999999
 21
1223.37
 31
0.0
  0
LINE
  5
215
330
1E
100
AcDbEntity
  8
0
100
AcDbLine
 10
11.69999999999999
 20
1225.09
 30
0.0
 11
12.0
 21
1225.27
 31
0.0
  0
LINE
  5
21A
330
1E
100
AcDbEntity
  8
0
100
AcDbLine
 10
11.69999999999999
 20
1225.45
 30
0.0
 11
12.0
 21
1225.27
 31
0.0
  0
LINE
  5
21C
330
1E
100
AcDbEntity
  8
0
100
AcDbLine
 10
11.4188
 20
1226.77
 30
0.0
 11
12.16029999999999
 21
1226.82
 31
0.0
  0
LINE
  5
220
330
1E
100
AcDbEntity
  8
0
100
AcDbLine
 10
12.16029999999999
 20
1226.82
 30
0.0
 11
12.5773
 21
1226.98
 31
0.0
  0
LINE
  5
224
330
1E
100
AcDbEntity
  8
0
100
AcDbLine
 10
12.4123
 20
1221.729999999999
 30
0.0
 11
12.4548
 21
1221.93
 31
0.0
  0
LINE
  5
225
330
1E
100
AcDbEntity
  8
0
100
AcDbLine
 10
12.4123
 20
1221.729999999999
 30
0.0
 11
12.9336
 21
1221.589999999999
 31
0.0
  0
LINE
  5
227
330
1E
100
AcDbEntity
  8
0
100
AcDbLine
 10
12.4548
 20
1221.93
 30
0.0
 11
13.01
 21
1222.059999999999
 31
0.0
  0
LINE
  5
22A
330
1E
100
AcDbEntity
  8
0
100
AcDbLine
 10
13.694
 20
1221.58
 30
0.0
 11
14.2492
 21
1221.71
 31
0.0
  0
LINE
  5
230
330
1E
100
AcDbEntity
  8
0
100
AcDbLine
 10
13.01
 20
1222.059999999999
 30
0.0
 11
13.7704
 21
1222.05
 31
0.0
  0
LINE
  5
232
330
1E
100
AcDbEntity
  8
0
100
AcDbLine
 10
13.7704
 20
1222.05
 30
0.0
 11
14.2917
 21
1221.91
 31
0.0
  0
LINE
  5
234
330
1E
100
AcDbEntity
  8
0
100
AcDbLine
 10
12.9336
 20
1221.589999999999
 30
0.0
 11
13.694
 21
1221.58
 31
0.0
  0
LINE
  5
238
330
1E
100
AcDbEntity
  8
0
100
AcDbLine
 10
12.40339999999999
 20
1227.17
 30
0.0
 11
12.5773
 21
1226.98
 31
0.0
  0
LINE
  5
23A
330
1E
100
AcDbEntity
  8
0
100
AcDbLine
 10
11.76609999999999
 20
1227.28
 30
0.0
 11
12.40339999999999
 21
1227.17
 31
0.0
  0
LINE
  5
23C
330
1E
100
AcDbEntity
  8
0
100
AcDbLine
 10
11.0247
 20
1227.23
 30
0.0
 11
11.76609999999999
 21
1227.28
 31
0.0
  0
LINE
  5
23E
330
1E
100
AcDbEntity
  8
0
100
AcDbLine
 10
10.7816
 20
1226.88
 30
0.0
 11
11.4188
 21
1226.77
 31
0.0
  0
LINE
  5
241
330
1E
100
AcDbEntity
  8
0
100
AcDbLine
 10
13.01
 20
1228.48
 30
0.0
 11
13.7704
 21
1228.49
 31
0.0
  0
LINE
  5
246
330
1E
100
AcDbEntity
  8
0
100
AcDbLine
 10
14.2492
 20
1221.71
 30
0.0
 11
14.2917
 21
1221.91
 31
0.0
  0
LINE
  5
248
330
1E
100
AcDbEntity
  8
0
100
AcDbLine
 10
13.7704
 20
1228.49
 30
0.0
 11
14.2917
 21
1228.64
 31
0.0
  0
LINE
  5
253
330
1E
100
AcDbEntity
  8
0
100
AcDbLine
 10
14.2492
 20
1228.83
 30
0.0
 11
14.2917
 21
1228.64
 31
0.0
  0
LINE
  5
259
330
1E
100
AcDbEntity
  8
0
100
AcDbLine
 10
13.694
 20
1228.97
 30
0.0
 11
14.2492
 21
1228.83
 31
0.0
  0
LINE
  5
25B
330
1E
100
AcDbEntity
  8
0
100
AcDbLine
 10
12.9336
 20
1228.96
 30
0.0
 11
13.694
 21
1228.97
 31
0.0
  0
LINE
  5
25D
330
1E
100
AcDbEntity
  8
0
100
AcDbLine
 10
12.4123
 20
1228.81
 30
0.0
 11
12.4548
 21
1228.62
 31
0.0
  0
LINE
  5
25E
330
1E
100
AcDbEntity
  8
0
100
AcDbLine
 10
12.4123
 20
1228.81
 30
0.0
 11
12.9336
 21
1228.96
 31
0.0
  0
LINE
  5
260
330
1E
100
AcDbEntity
  8
0
100
AcDbLine
 10
12.4548
 20
1228.62
 30
0.0
 11
13.01
 21
1228.48
 31
0.0
  0
LINE
  5
262
330
1E
100
AcDbEntity
  8
0
100
AcDbLine
 10
14.69999999999999
 20
1245.16
 30
0.0
 11
25.1
 21
1247.23
 31
0.0
  0
LINE
  5
263
330
1E
100
AcDbEntity
  8
0
100
AcDbLine
 10
10.6
 20
1221.48
 30
0.0
 11
17.9
 21
1219.02
 31
0.0
  0
LINE
  5
266
330
1E
100
AcDbEntity
  8
0
100
AcDbLine
 10
15.359
 20
1220.099999999999
 30
0.0
 11
15.9688
 21
1219.98
 31
0.0
  0
LINE
  5
268
330
1E
100
AcDbEntity
  8
0
100
AcDbLine
 10
15.2688
 20
1220.29
 30
0.0
 11
15.72499999999999
 21
1220.45
 31
0.0
  0
LINE
  5
269
330
1E
100
AcDbEntity
  8
0
100
AcDbLine
 10
15.2688
 20
1220.29
 30
0.0
 11
15.359
 21
1220.099999999999
 31
0.0
  0
LINE
  5
26D
330
1E
100
AcDbEntity
  8
0
100
AcDbLine
 10
15.359
 20
1230.45
 30
0.0
 11
15.9688
 21
1230.57
 31
0.0
  0
LINE
  5
26F
330
1E
100
AcDbEntity
  8
0
100
AcDbLine
 10
15.2688
 20
1230.25
 30
0.0
 11
15.72499999999999
 21
1230.1
 31
0.0
  0
LINE
  5
270
330
1E
100
AcDbEntity
  8
0
100
AcDbLine
 10
15.2688
 20
1230.25
 30
0.0
 11
15.359
 21
1230.45
 31
0.0
  0
LINE
  5
272
330
1E
100
AcDbEntity
  8
0
100
AcDbLine
 10
30.7562
 20
1216.28
 30
0.0
 11
31.366
 21
1216.4
 31
0.0
  0
LINE
  5
277
330
1E
100
AcDbEntity
  8
0
100
AcDbLine
 10
29.634
 20
1216.66
 30
0.0
 11
30.2438
 21
1216.779999999999
 31
0.0
  0
LINE
  5
27A
330
1E
100
AcDbEntity
  8
0
100
AcDbLine
 10
31.366
 20
1216.4
 30
0.0
 11
31.4562
 21
1216.599999999999
 31
0.0
  0
LINE
  5
27C
330
1E
100
AcDbEntity
  8
0
100
AcDbLine
 10
30.0
 20
1216.31
 30
0.0
 11
30.7562
 21
1216.28
 31
0.0
  0
LINE
  5
27E
330
1E
100
AcDbEntity
  8
0
100
AcDbLine
 10
29.5438
 20
1216.46
 30
0.0
 11
29.634
 21
1216.66
 31
0.0
  0
LINE
  5
27F
330
1E
100
AcDbEntity
  8
0
100
AcDbLine
 10
29.5438
 20
1216.46
 30
0.0
 11
30.0
 21
1216.31
 31
0.0
  0
LINE
  5
281
330
1E
100
AcDbEntity
  8
0
100
AcDbLine
 10
30.2438
 20
1216.779999999999
 30
0.0
 11
31.0
 21
1216.75
 31
0.0
  0
LINE
  5
283
330
1E
100
AcDbEntity
  8
0
100
AcDbLine
 10
31.0
 20
1216.75
 30
0.0
 11
31.4562
 21
1216.599999999999
 31
0.0
  0
LINE
  5
285
330
1E
100
AcDbEntity
  8
0
100
AcDbLine
 10
31.4562
 20
1216.694609724769
 30
0.0
 11
35.7215
 21
1216.23677477064
 31
0.0
  0
LINE
  5
289
330
1E
100
AcDbEntity
  8
0
100
AcDbLine
 10
37.07959999999999
 20
1215.55
 30
0.0
 11
37.6009
 21
1215.7
 31
0.0
  0
LINE
  5
28B
330
1E
100
AcDbEntity
  8
0
100
AcDbLine
 10
36.3192
 20
1215.54
 30
0.0
 11
37.07959999999999
 21
1215.55
 31
0.0
  0
LINE
  5
28D
330
1E
100
AcDbEntity
  8
0
100
AcDbLine
 10
35.764
 20
1215.68
 30
0.0
 11
36.3192
 21
1215.54
 31
0.0
  0
LINE
  5
291
330
1E
100
AcDbEntity
  8
0
100
AcDbLine
 10
35.7215
 20
1216.23677477064
 30
0.0
 11
35.7215
 21
1215.88
 31
0.0
  0
LINE
  5
292
330
1E
100
AcDbEntity
  8
0
100
AcDbLine
 10
36.2428
 20
1216.02
 30
0.0
 11
37.0032
 21
1216.029999999999
 31
0.0
  0
LINE
  5
294
330
1E
100
AcDbEntity
  8
0
100
AcDbLine
 10
37.0032
 20
1216.029999999999
 30
0.0
 11
37.5584
 21
1215.9
 31
0.0
  0
LINE
  5
296
330
1E
100
AcDbEntity
  8
0
100
AcDbLine
 10
35.7215
 20
1215.88
 30
0.0
 11
35.764
 21
1215.68
 31
0.0
  0
LINE
  5
297
330
1E
100
AcDbEntity
  8
0
100
AcDbLine
 10
35.7215
 20
1215.88
 30
0.0
 11
36.2428
 21
1216.02
 31
0.0
  0
LINE
  5
298
330
1E
100
AcDbEntity
  8
0
100
AcDbLine
 10
35.7215
 20
1215.88
 30
0.0
 11
35.7215
 21
1216.23677477064
 31
0.0
  0
LINE
  5
29C
330
1E
100
AcDbEntity
  8
0
100
AcDbLine
 10
15.72499999999999
 20
1220.45
 30
0.0
 11
16.4812
 21
1220.47
 31
0.0
  0
LINE
  5
2A0
330
1E
100
AcDbEntity
  8
0
100
AcDbLine
 10
16.4812
 20
1220.47
 30
0.0
 11
17.09099999999999
 21
1220.35
 31
0.0
  0
LINE
  5
2A2
330
1E
100
AcDbEntity
  8
0
100
AcDbLine
 10
16.725
 20
1220.0
 30
0.0
 11
17.1812
 21
1220.16
 31
0.0
  0
LINE
  5
2A4
330
1E
100
AcDbEntity
  8
0
100
AcDbLine
 10
15.9688
 20
1219.98
 30
0.0
 11
16.725
 21
1220.0
 31
0.0
  0
LINE
  5
2A8
330
1E
100
AcDbEntity
  8
0
100
AcDbLine
 10
15.72499999999999
 20
1230.1
 30
0.0
 11
16.4812
 21
1230.069999999999
 31
0.0
  0
LINE
  5
2AA
330
1E
100
AcDbEntity
  8
0
100
AcDbLine
 10
16.4812
 20
1230.069999999999
 30
0.0
 11
17.09099999999999
 21
1230.19
 31
0.0
  0
LINE
  5
2AF
330
1E
100
AcDbEntity
  8
0
100
AcDbLine
 10
17.09099999999999
 20
1220.35
 30
0.0
 11
17.1812
 21
1220.16
 31
0.0
  0
LINE
  5
2B3
330
1E
100
AcDbEntity
  8
0
100
AcDbLine
 10
17.09099999999999
 20
1230.19
 30
0.0
 11
17.1812
 21
1230.39
 31
0.0
  0
LINE
  5
2B5
330
1E
100
AcDbEntity
  8
0
100
AcDbLine
 10
16.725
 20
1230.54
 30
0.0
 11
17.1812
 21
1230.39
 31
0.0
  0
LINE
  5
2BA
330
1E
100
AcDbEntity
  8
0
100
AcDbLine
 10
15.9688
 20
1230.57
 30
0.0
 11
16.725
 21
1230.54
 31
0.0
  0
LINE
  5
2BC
330
1E
100
AcDbEntity
  8
0
100
AcDbLine
 10
25.69729999999999
 20
1217.369999999998
 30
0.0
 11
25.9175
 21
1217.559999999999
 31
0.0
  0
LINE
  5
2BE
330
1E
100
AcDbEntity
  8
0
100
AcDbLine
 10
25.0176
 20
1217.28
 30
0.0
 11
25.69729999999999
 21
1217.369999999998
 31
0.0
  0
LINE
  5
2BF
330
1E
100
AcDbEntity
  8
0
100
AcDbLine
 10
24.2885
 20
1217.34
 30
0.0
 11
25.0176
 21
1217.28
 31
0.0
  0
LINE
  5
2C2
330
1E
100
AcDbEntity
  8
0
100
AcDbLine
 10
18.1569
 20
1224.21
 30
0.0
 11
18.3947
 21
1224.4
 31
0.0
  0
LINE
  5
2C3
330
1E
100
AcDbEntity
  8
0
100
AcDbLine
 10
18.1569
 20
1224.21
 30
0.0
 11
18.5167
 21
1224.04
 31
0.0
  0
LINE
  5
2C6
330
1E
100
AcDbEntity
  8
0
100
AcDbLine
 10
19.1381
 20
1218.81
 30
0.0
 11
19.4815
 21
1218.98
 31
0.0
  0
LINE
  5
2C7
330
1E
100
AcDbEntity
  8
0
100
AcDbLine
 10
19.1381
 20
1218.81
 30
0.0
 11
19.3582
 21
1218.62
 31
0.0
  0
LINE
  5
2C9
330
1E
100
AcDbEntity
  8
0
100
AcDbLine
 10
19.1244
 20
1222.79
 30
0.0
 11
19.233
 21
1222.99
 31
0.0
  0
LINE
  5
2CA
330
1E
100
AcDbEntity
  8
0
100
AcDbLine
 10
19.1244
 20
1222.79
 30
0.0
 11
19.5953
 21
1222.64
 31
0.0
  0
LINE
  5
2CE
330
1E
100
AcDbEntity
  8
0
100
AcDbLine
 10
19.233
 20
1222.99
 30
0.0
 11
19.8315
 21
1223.11
 31
0.0
  0
LINE
  5
2D2
330
1E
100
AcDbEntity
  8
0
100
AcDbLine
 10
19.4815
 20
1218.98
 30
0.0
 11
20.2105
 21
1219.04
 31
0.0
  0
LINE
  5
2D4
330
1E
100
AcDbEntity
  8
0
100
AcDbLine
 10
19.3582
 20
1218.62
 30
0.0
 11
20.038
 21
1218.53
 31
0.0
  0
LINE
  5
2D7
330
1E
100
AcDbEntity
  8
0
100
AcDbLine
 10
19.5953
 20
1222.64
 30
0.0
 11
20.34909999999999
 21
1222.609999999999
 31
0.0
  0
LINE
  5
2D9
330
1E
100
AcDbEntity
  8
0
100
AcDbLine
 10
19.2402
 20
1223.98
 30
0.0
 11
19.9114
 21
1224.07
 31
0.0
  0
LINE
  5
2DD
330
1E
100
AcDbEntity
  8
0
100
AcDbLine
 10
19.06589999999998
 20
1224.49
 30
0.0
 11
19.7894
 21
1224.43
 31
0.0
  0
LINE
  5
2DF
330
1E
100
AcDbEntity
  8
0
100
AcDbLine
 10
19.7894
 20
1224.43
 30
0.0
 11
20.1492
 21
1224.26
 31
0.0
  0
LINE
  5
2E1
330
1E
100
AcDbEntity
  8
0
100
AcDbLine
 10
18.5167
 20
1224.04
 30
0.0
 11
19.2402
 21
1223.98
 31
0.0
  0
LINE
  5
2E3
330
1E
100
AcDbEntity
  8
0
100
AcDbLine
 10
18.3947
 20
1224.4
 30
0.0
 11
19.06589999999998
 21
1224.49
 31
0.0
  0
LINE
  5
2E5
330
1E
100
AcDbEntity
  8
0
100
AcDbLine
 10
19.06589999999998
 20
1225.369999999998
 30
0.0
 11
19.7894
 21
1225.43
 31
0.0
  0
LINE
  5
2E8
330
1E
100
AcDbEntity
  8
0
100
AcDbLine
 10
19.8315
 20
1223.11
 30
0.0
 11
20.5853
 21
1223.08
 31
0.0
  0
LINE
  5
2EA
330
1E
100
AcDbEntity
  8
0
100
AcDbLine
 10
19.7894
 20
1225.43
 30
0.0
 11
20.1492
 21
1225.61
 31
0.0
  0
LINE
  5
2F2
330
1E
100
AcDbEntity
  8
0
100
AcDbLine
 10
19.2402
 20
1225.89
 30
0.0
 11
19.9114
 21
1225.8
 31
0.0
  0
LINE
  5
2F4
330
1E
100
AcDbEntity
  8
0
100
AcDbLine
 10
18.5167
 20
1225.83
 30
0.0
 11
19.2402
 21
1225.89
 31
0.0
  0
LINE
  5
2F6
330
1E
100
AcDbEntity
  8
0
100
AcDbLine
 10
18.1569
 20
1225.65
 30
0.0
 11
18.3947
 21
1225.47
 31
0.0
  0
LINE
  5
2F7
330
1E
100
AcDbEntity
  8
0
100
AcDbLine
 10
18.1569
 20
1225.65
 30
0.0
 11
18.5167
 21
1225.83
 31
0.0
  0
LINE
  5
2F9
330
1E
100
AcDbEntity
  8
0
100
AcDbLine
 10
18.3947
 20
1225.47
 30
0.0
 11
19.06589999999998
 21
1225.369999999998
 31
0.0
  0
LINE
  5
2FD
330
1E
100
AcDbEntity
  8
0
100
AcDbLine
 10
20.038
 20
1218.53
 30
0.0
 11
20.76709999999998
 21
1218.59
 31
0.0
  0
LINE
  5
301
330
1E
100
AcDbEntity
  8
0
100
AcDbLine
 10
19.9114
 20
1224.07
 30
0.0
 11
20.1492
 21
1224.26
 31
0.0
  0
LINE
  5
304
330
1E
100
AcDbEntity
  8
0
100
AcDbLine
 10
20.2105
 20
1219.04
 30
0.0
 11
20.8903
 21
1218.95
 31
0.0
  0
LINE
  5
30A
330
1E
100
AcDbEntity
  8
0
100
AcDbLine
 10
19.9114
 20
1225.8
 30
0.0
 11
20.1492
 21
1225.61
 31
0.0
  0
LINE
  5
30C
330
1E
100
AcDbEntity
  8
0
100
AcDbLine
 10
19.8315
 20
1226.76
 30
0.0
 11
20.5853
 21
1226.779999999998
 31
0.0
  0
LINE
  5
311
330
1E
100
AcDbEntity
  8
0
100
AcDbLine
 10
19.4815
 20
1231.559999999999
 30
0.0
 11
20.2105
 21
1231.51
 31
0.0
  0
LINE
  5
316
330
1E
100
AcDbEntity
  8
0
100
AcDbLine
 10
19.3582
 20
1231.93
 30
0.0
 11
20.038
 21
1232.02
 31
0.0
  0
LINE
  5
318
330
1E
100
AcDbEntity
  8
0
100
AcDbLine
 10
19.1381
 20
1231.74
 30
0.0
 11
19.4815
 21
1231.559999999999
 31
0.0
  0
LINE
  5
319
330
1E
100
AcDbEntity
  8
0
100
AcDbLine
 10
19.1381
 20
1231.74
 30
0.0
 11
19.3582
 21
1231.93
 31
0.0
  0
LINE
  5
31C
330
1E
100
AcDbEntity
  8
0
100
AcDbLine
 10
20.2105
 20
1231.51
 30
0.0
 11
20.8903
 21
1231.589999999999
 31
0.0
  0
LINE
  5
31F
330
1E
100
AcDbEntity
  8
0
100
AcDbLine
 10
20.038
 20
1232.02
 30
0.0
 11
20.76709999999998
 21
1231.96
 31
0.0
  0
LINE
  5
322
330
1E
100
AcDbEntity
  8
0
100
AcDbLine
 10
19.5953
 20
1227.23
 30
0.0
 11
20.34909999999999
 21
1227.26
 31
0.0
  0
LINE
  5
324
330
1E
100
AcDbEntity
  8
0
100
AcDbLine
 10
19.1244
 20
1227.07
 30
0.0
 11
19.233
 21
1226.88
 31
0.0
  0
LINE
  5
325
330
1E
100
AcDbEntity
  8
0
100
AcDbLine
 10
19.1244
 20
1227.07
 30
0.0
 11
19.5953
 21
1227.23
 31
0.0
  0
LINE
  5
327
330
1E
100
AcDbEntity
  8
0
100
AcDbLine
 10
19.233
 20
1226.88
 30
0.0
 11
19.8315
 21
1226.76
 31
0.0
  0
LINE
  5
32A
330
1E
100
AcDbEntity
  8
0
100
AcDbLine
 10
20.34909999999999
 20
1222.609999999999
 30
0.0
 11
20.9476
 21
1222.73
 31
0.0
  0
LINE
  5
32E
330
1E
100
AcDbEntity
  8
0
100
AcDbLine
 10
20.5853
 20
1223.08
 30
0.0
 11
21.0562
 21
1222.93
 31
0.0
  0
LINE
  5
332
330
1E
100
AcDbEntity
  8
0
100
AcDbLine
 10
24.1652
 20
1217.71
 30
0.0
 11
24.845
 21
1217.789999999999
 31
0.0
  0
LINE
  5
336
330
1E
100
AcDbEntity
  8
0
100
AcDbLine
 10
20.8903
 20
1218.95
 30
0.0
 11
21.1104
 21
1218.76
 31
0.0
  0
LINE
  5
338
330
1E
100
AcDbEntity
  8
0
100
AcDbLine
 10
20.76709999999998
 20
1218.59
 30
0.0
 11
21.1104
 21
1218.76
 31
0.0
  0
LINE
  5
33C
330
1E
100
AcDbEntity
  8
0
100
AcDbLine
 10
22.359
 20
1221.309999999999
 30
0.0
 11
22.86659999999999
 21
1221.46
 31
0.0
  0
LINE
  5
33E
330
1E
100
AcDbEntity
  8
0
100
AcDbLine
 10
21.5978
 20
1221.3
 30
0.0
 11
22.359
 21
1221.309999999999
 31
0.0
  0
LINE
  5
343
330
1E
100
AcDbEntity
  8
0
100
AcDbLine
 10
21.5138
 20
1221.78
 30
0.0
 11
22.275
 21
1221.79
 31
0.0
  0
LINE
  5
345
330
1E
100
AcDbEntity
  8
0
100
AcDbLine
 10
22.275
 20
1221.79
 30
0.0
 11
22.8427
 21
1221.65
 31
0.0
  0
LINE
  5
348
330
1E
100
AcDbEntity
  8
0
100
AcDbLine
 10
22.8427
 20
1221.65
 30
0.0
 11
22.86659999999999
 21
1221.46
 31
0.0
  0
LINE
  5
34A
330
1E
100
AcDbEntity
  8
0
100
AcDbLine
 10
21.0301
 20
1221.44
 30
0.0
 11
21.5978
 21
1221.3
 31
0.0
  0
LINE
  5
34C
330
1E
100
AcDbEntity
  8
0
100
AcDbLine
 10
21.0061
 20
1221.63
 30
0.0
 11
21.5138
 21
1221.78
 31
0.0
  0
LINE
  5
34D
330
1E
100
AcDbEntity
  8
0
100
AcDbLine
 10
21.0061
 20
1221.63
 30
0.0
 11
21.0301
 21
1221.44
 31
0.0
  0
LINE
  5
34F
330
1E
100
AcDbEntity
  8
0
100
AcDbLine
 10
20.9476
 20
1222.73
 30
0.0
 11
21.0562
 21
1222.93
 31
0.0
  0
LINE
  5
35C
330
1E
100
AcDbEntity
  8
0
100
AcDbLine
 10
24.06159999999999
 20
1220.55
 30
0.0
 11
24.807
 21
1220.59
 31
0.0
  0
LINE
  5
35E
330
1E
100
AcDbEntity
  8
0
100
AcDbLine
 10
23.816
 20
1220.19
 30
0.0
 11
24.4632
 21
1220.08
 31
0.0
  0
LINE
  5
360
330
1E
100
AcDbEntity
  8
0
100
AcDbLine
 10
23.6602
 20
1220.38
 30
0.0
 11
24.06159999999999
 21
1220.55
 31
0.0
  0
LINE
  5
361
330
1E
100
AcDbEntity
  8
0
100
AcDbLine
 10
23.6602
 20
1220.38
 30
0.0
 11
23.816
 21
1220.19
 31
0.0
  0
LINE
  5
369
330
1E
100
AcDbEntity
  8
0
100
AcDbLine
 10
24.807
 20
1220.59
 30
0.0
 11
25.4543
 21
1220.48
 31
0.0
  0
LINE
  5
36B
330
1E
100
AcDbEntity
  8
0
100
AcDbLine
 10
25.4543
 20
1220.48
 30
0.0
 11
25.60999999999999
 21
1220.29
 31
0.0
  0
LINE
  5
36D
330
1E
100
AcDbEntity
  8
0
100
AcDbLine
 10
25.2087
 20
1220.12
 30
0.0
 11
25.60999999999999
 21
1220.29
 31
0.0
  0
LINE
  5
36F
330
1E
100
AcDbEntity
  8
0
100
AcDbLine
 10
24.4632
 20
1220.08
 30
0.0
 11
25.2087
 21
1220.12
 31
0.0
  0
LINE
  5
373
330
1E
100
AcDbEntity
  8
0
100
AcDbLine
 10
24.845
 20
1217.789999999999
 30
0.0
 11
25.5741
 21
1217.74
 31
0.0
  0
LINE
  5
37A
330
1E
100
AcDbEntity
  8
0
100
AcDbLine
 10
25.5741
 20
1217.74
 30
0.0
 11
25.9175
 21
1217.559999999999
 31
0.0
  0
LINE
  5
37C
330
1E
100
AcDbEntity
  8
0
100
AcDbLine
 10
23.94509999999999
 20
1217.52
 30
0.0
 11
24.1652
 21
1217.71
 31
0.0
  0
LINE
  5
37D
330
1E
100
AcDbEntity
  8
0
100
AcDbLine
 10
23.94509999999999
 20
1217.52
 30
0.0
 11
24.2885
 21
1217.34
 31
0.0
  0
LINE
  5
380
330
1E
100
AcDbEntity
  8
0
100
AcDbLine
 10
27.3975
 20
1219.079999999999
 30
0.0
 11
28.1046
 21
1219.01
 31
0.0
  0
LINE
  5
384
330
1E
100
AcDbEntity
  8
0
100
AcDbLine
 10
27.3975
 20
1219.45
 30
0.0
 11
28.1046
 21
1219.52
 31
0.0
  0
LINE
  5
386
330
1E
100
AcDbEntity
  8
0
100
AcDbLine
 10
27.1146
 20
1219.26
 30
0.0
 11
27.3975
 21
1219.45
 31
0.0
  0
LINE
  5
387
330
1E
100
AcDbEntity
  8
0
100
AcDbLine
 10
27.1146
 20
1219.26
 30
0.0
 11
27.3975
 21
1219.079999999999
 31
0.0
  0
LINE
  5
389
330
1E
100
AcDbEntity
  8
0
100
AcDbLine
 10
27.4805
 20
1222.47
 30
0.0
 11
27.523
 21
1222.67
 31
0.0
  0
LINE
  5
38A
330
1E
100
AcDbEntity
  8
0
100
AcDbLine
 10
27.4805
 20
1222.47
 30
0.0
 11
28.0018
 21
1222.33
 31
0.0
  0
LINE
  5
38E
330
1E
100
AcDbEntity
  8
0
100
AcDbLine
 10
27.523
 20
1222.67
 30
0.0
 11
28.07809999999999
 21
1222.8
 31
0.0
  0
LINE
  5
390
330
1E
100
AcDbEntity
  8
0
100
AcDbLine
 10
27.0352
 20
1224.33
 30
0.0
 11
27.73519999999999
 21
1224.41
 31
0.0
  0
LINE
  5
395
330
1E
100
AcDbEntity
  8
0
100
AcDbLine
 10
27.0352
 20
1224.849999999999
 30
0.0
 11
27.73519999999999
 21
1224.77
 31
0.0
  0
LINE
  5
397
330
1E
100
AcDbEntity
  8
0
100
AcDbLine
 10
26.3352
 20
1224.77
 30
0.0
 11
27.0352
 21
1224.849999999999
 31
0.0
  0
LINE
  5
399
330
1E
100
AcDbEntity
  8
0
100
AcDbLine
 10
26.0352
 20
1224.59
 30
0.0
 11
26.3352
 21
1224.41
 31
0.0
  0
LINE
  5
39A
330
1E
100
AcDbEntity
  8
0
100
AcDbLine
 10
26.0352
 20
1224.59
 30
0.0
 11
26.3352
 21
1224.77
 31
0.0
  0
LINE
  5
39C
330
1E
100
AcDbEntity
  8
0
100
AcDbLine
 10
26.3352
 20
1224.41
 30
0.0
 11
27.0352
 21
1224.33
 31
0.0
  0
LINE
  5
39F
330
1E
100
AcDbEntity
  8
0
100
AcDbLine
 10
27.4805
 20
1226.71
 30
0.0
 11
27.523
 21
1226.52
 31
0.0
  0
LINE
  5
3A0
330
1E
100
AcDbEntity
  8
0
100
AcDbLine
 10
27.4805
 20
1226.71
 30
0.0
 11
28.0018
 21
1226.86
 31
0.0
  0
LINE
  5
3A4
330
1E
100
AcDbEntity
  8
0
100
AcDbLine
 10
27.73519999999999
 20
1224.41
 30
0.0
 11
28.0352
 21
1224.59
 31
0.0
  0
LINE
  5
3A8
330
1E
100
AcDbEntity
  8
0
100
AcDbLine
 10
28.07809999999999
 20
1222.8
 30
0.0
 11
28.8385
 21
1222.79
 31
0.0
  0
LINE
  5
3AA
330
1E
100
AcDbEntity
  8
0
100
AcDbLine
 10
28.0018
 20
1222.33
 30
0.0
 11
28.76219999999999
 21
1222.32
 31
0.0
  0
LINE
  5
3AE
330
1E
100
AcDbEntity
  8
0
100
AcDbLine
 10
27.73519999999999
 20
1224.77
 30
0.0
 11
28.0352
 21
1224.59
 31
0.0
  0
LINE
  5
3B2
330
1E
100
AcDbEntity
  8
0
100
AcDbLine
 10
28.1046
 20
1219.52
 30
0.0
 11
28.8117
 21
1219.45
 31
0.0
  0
LINE
  5
3B4
330
1E
100
AcDbEntity
  8
0
100
AcDbLine
 10
28.1046
 20
1219.01
 30
0.0
 11
28.8117
 21
1219.079999999999
 31
0.0
  0
LINE
  5
3B5
330
1E
100
AcDbEntity
  8
0
100
AcDbLine
 10
28.07809999999999
 20
1226.38
 30
0.0
 11
28.8385
 21
1226.39
 31
0.0
  0
LINE
  5
3B7
330
1E
100
AcDbEntity
  8
0
100
AcDbLine
 10
28.0018
 20
1226.86
 30
0.0
 11
28.76219999999999
 21
1226.869999999999
 31
0.0
  0
LINE
  5
3B9
330
1E
100
AcDbEntity
  8
0
100
AcDbLine
 10
27.523
 20
1226.52
 30
0.0
 11
28.07809999999999
 21
1226.38
 31
0.0
  0
LINE
  5
3BC
330
1E
100
AcDbEntity
  8
0
100
AcDbLine
 10
20.5853
 20
1226.779999999998
 30
0.0
 11
21.0562
 21
1226.94
 31
0.0
  0
LINE
  5
3BF
330
1E
100
AcDbEntity
  8
0
100
AcDbLine
 10
20.8903
 20
1231.589999999999
 30
0.0
 11
21.1104
 21
1231.78
 31
0.0
  0
LINE
  5
3C2
330
1E
100
AcDbEntity
  8
0
100
AcDbLine
 10
20.76709999999998
 20
1231.96
 30
0.0
 11
21.1104
 21
1231.78
 31
0.0
  0
LINE
  5
3C5
330
1E
100
AcDbEntity
  8
0
100
AcDbLine
 10
21.5138
 20
1228.08
 30
0.0
 11
22.275
 21
1228.08
 31
0.0
  0
LINE
  5
3CA
330
1E
100
AcDbEntity
  8
0
100
AcDbLine
 10
22.275
 20
1228.08
 30
0.0
 11
22.8427
 21
1228.21
 31
0.0
  0
LINE
  5
3CD
330
1E
100
AcDbEntity
  8
0
100
AcDbLine
 10
22.8427
 20
1228.21
 30
0.0
 11
22.86659999999999
 21
1228.41
 31
0.0
  0
LINE
  5
3D0
330
1E
100
AcDbEntity
  8
0
100
AcDbLine
 10
22.359
 20
1228.55
 30
0.0
 11
22.86659999999999
 21
1228.41
 31
0.0
  0
LINE
  5
3D2
330
1E
100
AcDbEntity
  8
0
100
AcDbLine
 10
21.5978
 20
1228.56
 30
0.0
 11
22.359
 21
1228.55
 31
0.0
  0
LINE
  5
3D4
330
1E
100
AcDbEntity
  8
0
100
AcDbLine
 10
21.0301
 20
1228.43
 30
0.0
 11
21.5978
 21
1228.56
 31
0.0
  0
LINE
  5
3D6
330
1E
100
AcDbEntity
  8
0
100
AcDbLine
 10
21.0061
 20
1228.23
 30
0.0
 11
21.5138
 21
1228.08
 31
0.0
  0
LINE
  5
3D7
330
1E
100
AcDbEntity
  8
0
100
AcDbLine
 10
21.0061
 20
1228.23
 30
0.0
 11
21.0301
 21
1228.43
 31
0.0
  0
LINE
  5
3D9
330
1E
100
AcDbEntity
  8
0
100
AcDbLine
 10
24.06159999999999
 20
1229.319999999999
 30
0.0
 11
24.807
 21
1229.28
 31
0.0
  0
LINE
  5
3DB
330
1E
100
AcDbEntity
  8
0
100
AcDbLine
 10
24.807
 20
1229.28
 30
0.0
 11
25.4543
 21
1229.38
 31
0.0
  0
LINE
  5
3DD
330
1E
100
AcDbEntity
  8
0
100
AcDbLine
 10
25.4543
 20
1229.38
 30
0.0
 11
25.60999999999999
 21
1229.57
 31
0.0
  0
LINE
  5
3EA
330
1E
100
AcDbEntity
  8
0
100
AcDbLine
 10
25.2087
 20
1229.74
 30
0.0
 11
25.60999999999999
 21
1229.57
 31
0.0
  0
LINE
  5
3ED
330
1E
100
AcDbEntity
  8
0
100
AcDbLine
 10
24.1652
 20
1232.84
 30
0.0
 11
24.845
 21
1232.75
 31
0.0
  0
LINE
  5
3F1
330
1E
100
AcDbEntity
  8
0
100
AcDbLine
 10
24.2885
 20
1233.2
 30
0.0
 11
25.0176
 21
1233.26
 31
0.0
  0
LINE
  5
3F3
330
1E
100
AcDbEntity
  8
0
100
AcDbLine
 10
23.94509999999999
 20
1233.03
 30
0.0
 11
24.1652
 21
1232.84
 31
0.0
  0
LINE
  5
3F4
330
1E
100
AcDbEntity
  8
0
100
AcDbLine
 10
23.94509999999999
 20
1233.03
 30
0.0
 11
24.2885
 21
1233.2
 31
0.0
  0
LINE
  5
3F7
330
1E
100
AcDbEntity
  8
0
100
AcDbLine
 10
27.3975
 20
1230.42
 30
0.0
 11
28.1046
 21
1230.339999999999
 31
0.0
  0
LINE
  5
3F9
330
1E
100
AcDbEntity
  8
0
100
AcDbLine
 10
27.1146
 20
1230.599999999999
 30
0.0
 11
27.3975
 21
1230.42
 31
0.0
  0
LINE
  5
3FA
330
1E
100
AcDbEntity
  8
0
100
AcDbLine
 10
27.1146
 20
1230.599999999999
 30
0.0
 11
27.3975
 21
1230.78
 31
0.0
  0
LINE
  5
3FF
330
1E
100
AcDbEntity
  8
0
100
AcDbLine
 10
24.845
 20
1232.75
 30
0.0
 11
25.5741
 21
1232.809999999999
 31
0.0
  0
LINE
  5
402
330
1E
100
AcDbEntity
  8
0
100
AcDbLine
 10
25.5741
 20
1232.809999999999
 30
0.0
 11
25.9175
 21
1232.98
 31
0.0
  0
LINE
  5
406
330
1E
100
AcDbEntity
  8
0
100
AcDbLine
 10
25.69729999999999
 20
1233.17
 30
0.0
 11
25.9175
 21
1232.98
 31
0.0
  0
LINE
  5
408
330
1E
100
AcDbEntity
  8
0
100
AcDbLine
 10
25.0176
 20
1233.26
 30
0.0
 11
25.69729999999999
 21
1233.17
 31
0.0
  0
LINE
  5
40B
330
1E
100
AcDbEntity
  8
0
100
AcDbLine
 10
27.3975
 20
1230.78
 30
0.0
 11
28.1046
 21
1230.859999999998
 31
0.0
  0
LINE
  5
40F
330
1E
100
AcDbEntity
  8
0
100
AcDbLine
 10
24.4632
 20
1229.78
 30
0.0
 11
25.2087
 21
1229.74
 31
0.0
  0
LINE
  5
411
330
1E
100
AcDbEntity
  8
0
100
AcDbLine
 10
23.816
 20
1229.68
 30
0.0
 11
24.4632
 21
1229.78
 31
0.0
  0
LINE
  5
413
330
1E
100
AcDbEntity
  8
0
100
AcDbLine
 10
23.6602
 20
1229.48
 30
0.0
 11
24.06159999999999
 21
1229.319999999999
 31
0.0
  0
LINE
  5
414
330
1E
100
AcDbEntity
  8
0
100
AcDbLine
 10
23.6602
 20
1229.48
 30
0.0
 11
23.816
 21
1229.68
 31
0.0
  0
LINE
  5
417
330
1E
100
AcDbEntity
  8
0
100
AcDbLine
 10
28.1046
 20
1230.339999999999
 30
0.0
 11
28.8117
 21
1230.42
 31
0.0
  0
LINE
  5
418
330
1E
100
AcDbEntity
  8
0
100
AcDbLine
 10
28.1046
 20
1230.859999999998
 30
0.0
 11
28.8117
 21
1230.78
 31
0.0
  0
LINE
  5
41E
330
1E
100
AcDbEntity
  8
0
100
AcDbLine
 10
20.9476
 20
1227.13
 30
0.0
 11
21.0562
 21
1226.94
 31
0.0
  0
LINE
  5
420
330
1E
100
AcDbEntity
  8
0
100
AcDbLine
 10
20.34909999999999
 20
1227.26
 30
0.0
 11
20.9476
 21
1227.13
 31
0.0
  0
LINE
  5
422
330
1E
100
AcDbEntity
  8
0
100
AcDbLine
 10
25.1
 20
1247.23
 30
0.0
 11
37.2
 21
1248.499999999999
 31
0.0
  0
LINE
  5
423
330
1E
100
AcDbEntity
  8
0
100
AcDbLine
 10
20.26787621554219
 20
1218.54891725817
 30
0.0
 11
23.94509999999999
 21
1217.81734326316
 31
0.0
  0
LINE
  5
424
330
1E
100
AcDbEntity
  8
0
100
AcDbLine
 10
25.7903003271237
 20
1217.45024551387
 30
0.0
 11
27.4
 21
1217.13
 31
0.0
  0
LINE
  5
425
330
1E
100
AcDbEntity
  8
0
100
AcDbLine
 10
17.9
 20
1219.02
 30
0.0
 11
19.192769459709
 21
1218.762806918018
 31
0.0
  0
LINE
  5
426
330
1E
100
AcDbEntity
  8
0
100
AcDbLine
 10
27.4
 20
1217.13
 30
0.0
 11
29.5438
 21
1216.899885688069
 31
0.0
  0
LINE
  5
428
330
1E
100
AcDbEntity
  8
0
100
AcDbLine
 10
28.76219999999999
 20
1222.32
 30
0.0
 11
29.31739999999999
 21
1222.45
 31
0.0
  0
LINE
  5
42D
330
1E
100
AcDbEntity
  8
0
100
AcDbLine
 10
28.8117
 20
1219.45
 30
0.0
 11
29.0945
 21
1219.26
 31
0.0
  0
LINE
  5
42F
330
1E
100
AcDbEntity
  8
0
100
AcDbLine
 10
28.8117
 20
1219.079999999999
 30
0.0
 11
29.0945
 21
1219.26
 31
0.0
  0
LINE
  5
432
330
1E
100
AcDbEntity
  8
0
100
AcDbLine
 10
28.8385
 20
1222.79
 30
0.0
 11
29.3599
 21
1222.65
 31
0.0
  0
LINE
  5
43E
330
1E
100
AcDbEntity
  8
0
100
AcDbLine
 10
31.4202
 20
1218.52
 30
0.0
 11
32.06739999999999
 21
1218.62
 31
0.0
  0
LINE
  5
440
330
1E
100
AcDbEntity
  8
0
100
AcDbLine
 10
31.2644
 20
1218.32
 30
0.0
 11
31.4202
 21
1218.52
 31
0.0
  0
LINE
  5
441
330
1E
100
AcDbEntity
  8
0
100
AcDbLine
 10
31.2644
 20
1218.32
 30
0.0
 11
31.6658
 21
1218.16
 31
0.0
  0
LINE
  5
447
330
1E
100
AcDbEntity
  8
0
100
AcDbLine
 10
32.06739999999999
 20
1218.62
 30
0.0
 11
32.8129
 21
1218.58
 31
0.0
  0
LINE
  5
449
330
1E
100
AcDbEntity
  8
0
100
AcDbLine
 10
31.6658
 20
1218.16
 30
0.0
 11
32.4112
 21
1218.11
 31
0.0
  0
LINE
  5
450
330
1E
100
AcDbEntity
  8
0
100
AcDbLine
 10
32.8129
 20
1218.58
 30
0.0
 11
33.21419999999999
 21
1218.41
 31
0.0
  0
LINE
  5
452
330
1E
100
AcDbEntity
  8
0
100
AcDbLine
 10
33.0585
 20
1218.22
 30
0.0
 11
33.21419999999999
 21
1218.41
 31
0.0
  0
LINE
  5
454
330
1E
100
AcDbEntity
  8
0
100
AcDbLine
 10
32.4112
 20
1218.11
 30
0.0
 11
33.0585
 21
1218.22
 31
0.0
  0
LINE
  5
456
330
1E
100
AcDbEntity
  8
0
100
AcDbLine
 10
33.0507
 20
1220.57
 30
0.0
 11
33.3941
 21
1220.75
 31
0.0
  0
LINE
  5
458
330
1E
100
AcDbEntity
  8
0
100
AcDbLine
 10
32.32169999999999
 20
1220.52
 30
0.0
 11
33.0507
 21
1220.57
 31
0.0
  0
LINE
  5
45D
330
1E
100
AcDbEntity
  8
0
100
AcDbLine
 10
31.7652
 20
1220.97
 30
0.0
 11
32.4942
 21
1221.03
 31
0.0
  0
LINE
  5
462
330
1E
100
AcDbEntity
  8
0
100
AcDbLine
 10
32.4942
 20
1221.03
 30
0.0
 11
33.174
 21
1220.94
 31
0.0
  0
LINE
  5
466
330
1E
100
AcDbEntity
  8
0
100
AcDbLine
 10
33.174
 20
1220.94
 30
0.0
 11
33.3941
 21
1220.75
 31
0.0
  0
LINE
  5
468
330
1E
100
AcDbEntity
  8
0
100
AcDbLine
 10
31.6419
 20
1220.6
 30
0.0
 11
32.32169999999999
 21
1220.52
 31
0.0
  0
LINE
  5
46A
330
1E
100
AcDbEntity
  8
0
100
AcDbLine
 10
31.4218
 20
1220.79
 30
0.0
 11
31.7652
 21
1220.97
 31
0.0
  0
LINE
  5
46B
330
1E
100
AcDbEntity
  8
0
100
AcDbLine
 10
31.4218
 20
1220.79
 30
0.0
 11
31.6419
 21
1220.6
 31
0.0
  0
LINE
  5
46E
330
1E
100
AcDbEntity
  8
0
100
AcDbLine
 10
29.31739999999999
 20
1222.45
 30
0.0
 11
29.3599
 21
1222.65
 31
0.0
  0
LINE
  5
471
330
1E
100
AcDbEntity
  8
0
100
AcDbLine
 10
35.19769999999999
 20
1224.08
 30
0.0
 11
35.86889999999999
 21
1224.17
 31
0.0
  0
LINE
  5
475
330
1E
100
AcDbEntity
  8
0
100
AcDbLine
 10
34.4742
 20
1224.14
 30
0.0
 11
35.19769999999999
 21
1224.08
 31
0.0
  0
LINE
  5
477
330
1E
100
AcDbEntity
  8
0
100
AcDbLine
 10
34.1143
 20
1224.31
 30
0.0
 11
34.3522
 21
1224.5
 31
0.0
  0
LINE
  5
478
330
1E
100
AcDbEntity
  8
0
100
AcDbLine
 10
34.1143
 20
1224.31
 30
0.0
 11
34.4742
 21
1224.14
 31
0.0
  0
LINE
  5
47E
330
1E
100
AcDbEntity
  8
0
100
AcDbLine
 10
35.0234
 20
1224.59
 30
0.0
 11
35.74689999999999
 21
1224.53
 31
0.0
  0
LINE
  5
480
330
1E
100
AcDbEntity
  8
0
100
AcDbLine
 10
35.74689999999999
 20
1224.53
 30
0.0
 11
36.10669999999998
 21
1224.359999999999
 31
0.0
  0
LINE
  5
482
330
1E
100
AcDbEntity
  8
0
100
AcDbLine
 10
34.3522
 20
1224.5
 30
0.0
 11
35.0234
 21
1224.59
 31
0.0
  0
LINE
  5
485
330
1E
100
AcDbEntity
  8
0
100
AcDbLine
 10
35.85119999999999
 20
1222.68
 30
0.0
 11
36.3588
 21
1222.83
 31
0.0
  0
LINE
  5
486
330
1E
100
AcDbEntity
  8
0
100
AcDbLine
 10
35.85119999999999
 20
1222.68
 30
0.0
 11
35.8751
 21
1222.48
 31
0.0
  0
LINE
  5
489
330
1E
100
AcDbEntity
  8
0
100
AcDbLine
 10
35.86889999999999
 20
1224.17
 30
0.0
 11
36.10669999999998
 21
1224.359999999999
 31
0.0
  0
LINE
  5
48E
330
1E
100
AcDbEntity
  8
0
100
AcDbLine
 10
36.0074
 20
1217.78
 30
0.0
 11
36.5751
 21
1217.91
 31
0.0
  0
LINE
  5
490
330
1E
100
AcDbEntity
  8
0
100
AcDbLine
 10
35.98349999999999
 20
1217.579999999998
 30
0.0
 11
36.0074
 21
1217.78
 31
0.0
  0
LINE
  5
491
330
1E
100
AcDbEntity
  8
0
100
AcDbLine
 10
35.98349999999999
 20
1217.579999999998
 30
0.0
 11
36.4911
 21
1217.43
 31
0.0
  0
LINE
  5
496
330
1E
100
AcDbEntity
  8
0
100
AcDbLine
 10
36.3588
 20
1222.83
 30
0.0
 11
37.11999999999999
 21
1222.83
 31
0.0
  0
LINE
  5
498
330
1E
100
AcDbEntity
  8
0
100
AcDbLine
 10
35.8751
 20
1222.48
 30
0.0
 11
36.4428
 21
1222.35
 31
0.0
  0
LINE
  5
49D
330
1E
100
AcDbEntity
  8
0
100
AcDbLine
 10
36.5751
 20
1217.91
 30
0.0
 11
37.3363
 21
1217.9
 31
0.0
  0
LINE
  5
49F
330
1E
100
AcDbEntity
  8
0
100
AcDbLine
 10
36.4911
 20
1217.43
 30
0.0
 11
37.25229999999999
 21
1217.43
 31
0.0
  0
LINE
  5
4A2
330
1E
100
AcDbEntity
  8
0
100
AcDbLine
 10
36.4428
 20
1222.35
 30
0.0
 11
37.204
 21
1222.36
 31
0.0
  0
LINE
  5
4A4
330
1E
100
AcDbEntity
  8
0
100
AcDbLine
 10
36.3588
 20
1225.88
 30
0.0
 11
37.11999999999999
 21
1225.88
 31
0.0
  0
LINE
  5
4A6
330
1E
100
AcDbEntity
  8
0
100
AcDbLine
 10
36.4428
 20
1226.359999999999
 30
0.0
 11
37.204
 21
1226.35
 31
0.0
  0
LINE
  5
4A8
330
1E
100
AcDbEntity
  8
0
100
AcDbLine
 10
35.8751
 20
1226.23
 30
0.0
 11
36.4428
 21
1226.359999999999
 31
0.0
  0
LINE
  5
4AA
330
1E
100
AcDbEntity
  8
0
100
AcDbLine
 10
35.85119999999999
 20
1226.03
 30
0.0
 11
36.3588
 21
1225.88
 31
0.0
  0
LINE
  5
4AB
330
1E
100
AcDbEntity
  8
0
100
AcDbLine
 10
35.85119999999999
 20
1226.03
 30
0.0
 11
35.8751
 21
1226.23
 31
0.0
  0
LINE
  5
4AE
330
1E
100
AcDbEntity
  8
0
100
AcDbLine
 10
28.8385
 20
1226.39
 30
0.0
 11
29.3599
 21
1226.539999999999
 31
0.0
  0
LINE
  5
4B2
330
1E
100
AcDbEntity
  8
0
100
AcDbLine
 10
28.8117
 20
1230.42
 30
0.0
 11
29.0945
 21
1230.599999999999
 31
0.0
  0
LINE
  5
4B6
330
1E
100
AcDbEntity
  8
0
100
AcDbLine
 10
28.8117
 20
1230.78
 30
0.0
 11
29.0945
 21
1230.599999999999
 31
0.0
  0
LINE
  5
4BB
330
1E
100
AcDbEntity
  8
0
100
AcDbLine
 10
29.634
 20
1233.88
 30
0.0
 11
30.2438
 21
1233.77
 31
0.0
  0
LINE
  5
4BD
330
1E
100
AcDbEntity
  8
0
100
AcDbLine
 10
30.2438
 20
1233.77
 30
0.0
 11
31.0
 21
1233.789999999999
 31
0.0
  0
LINE
  5
4C1
330
1E
100
AcDbEntity
  8
0
100
AcDbLine
 10
31.4202
 20
1231.349999999999
 30
0.0
 11
32.06739999999999
 21
1231.24
 31
0.0
  0
LINE
  5
4C3
330
1E
100
AcDbEntity
  8
0
100
AcDbLine
 10
31.2644
 20
1231.54
 30
0.0
 11
31.4202
 21
1231.349999999999
 31
0.0
  0
LINE
  5
4C4
330
1E
100
AcDbEntity
  8
0
100
AcDbLine
 10
31.2644
 20
1231.54
 30
0.0
 11
31.6658
 21
1231.71
 31
0.0
  0
LINE
  5
4C9
330
1E
100
AcDbEntity
  8
0
100
AcDbLine
 10
31.7652
 20
1228.21
 30
0.0
 11
32.4942
 21
1228.16
 31
0.0
  0
LINE
  5
4CB
330
1E
100
AcDbEntity
  8
0
100
AcDbLine
 10
32.4942
 20
1228.16
 30
0.0
 11
33.174
 21
1228.25
 31
0.0
  0
LINE
  5
4CD
330
1E
100
AcDbEntity
  8
0
100
AcDbLine
 10
33.174
 20
1228.25
 30
0.0
 11
33.3941
 21
1228.43
 31
0.0
  0
LINE
  5
4D0
330
1E
100
AcDbEntity
  8
0
100
AcDbLine
 10
32.06739999999999
 20
1231.24
 30
0.0
 11
32.8129
 21
1231.279999999999
 31
0.0
  0
LINE
  5
4D3
330
1E
100
AcDbEntity
  8
0
100
AcDbLine
 10
31.6658
 20
1231.71
 30
0.0
 11
32.4112
 21
1231.75
 31
0.0
  0
LINE
  5
4D8
330
1E
100
AcDbEntity
  8
0
100
AcDbLine
 10
32.8129
 20
1231.279999999999
 30
0.0
 11
33.21419999999999
 21
1231.45
 31
0.0
  0
LINE
  5
4DB
330
1E
100
AcDbEntity
  8
0
100
AcDbLine
 10
32.4112
 20
1231.75
 30
0.0
 11
33.0585
 21
1231.65
 31
0.0
  0
LINE
  5
4E0
330
1E
100
AcDbEntity
  8
0
100
AcDbLine
 10
33.0585
 20
1231.65
 30
0.0
 11
33.21419999999999
 21
1231.45
 31
0.0
  0
LINE
  5
4E4
330
1E
100
AcDbEntity
  8
0
100
AcDbLine
 10
33.0507
 20
1228.609999999999
 30
0.0
 11
33.3941
 21
1228.43
 31
0.0
  0
LINE
  5
4E6
330
1E
100
AcDbEntity
  8
0
100
AcDbLine
 10
32.32169999999999
 20
1228.67
 30
0.0
 11
33.0507
 21
1228.609999999999
 31
0.0
  0
LINE
  5
4E8
330
1E
100
AcDbEntity
  8
0
100
AcDbLine
 10
31.6419
 20
1228.58
 30
0.0
 11
32.32169999999999
 21
1228.67
 31
0.0
  0
LINE
  5
4EA
330
1E
100
AcDbEntity
  8
0
100
AcDbLine
 10
31.4218
 20
1228.39
 30
0.0
 11
31.7652
 21
1228.21
 31
0.0
  0
LINE
  5
4EB
330
1E
100
AcDbEntity
  8
0
100
AcDbLine
 10
31.4218
 20
1228.39
 30
0.0
 11
31.6419
 21
1228.58
 31
0.0
  0
LINE
  5
4EE
330
1E
100
AcDbEntity
  8
0
100
AcDbLine
 10
31.0
 20
1233.789999999999
 30
0.0
 11
31.4562
 21
1233.95
 31
0.0
  0
LINE
  5
4F0
330
1E
100
AcDbEntity
  8
0
100
AcDbLine
 10
31.366
 20
1234.14
 30
0.0
 11
31.4562
 21
1233.95
 31
0.0
  0
LINE
  5
4F2
330
1E
100
AcDbEntity
  8
0
100
AcDbLine
 10
30.7562
 20
1234.26
 30
0.0
 11
31.366
 21
1234.14
 31
0.0
  0
LINE
  5
4F4
330
1E
100
AcDbEntity
  8
0
100
AcDbLine
 10
30.0
 20
1234.24
 30
0.0
 11
30.7562
 21
1234.26
 31
0.0
  0
LINE
  5
4F6
330
1E
100
AcDbEntity
  8
0
100
AcDbLine
 10
29.5438
 20
1234.08
 30
0.0
 11
29.634
 21
1233.88
 31
0.0
  0
LINE
  5
4F7
330
1E
100
AcDbEntity
  8
0
100
AcDbLine
 10
29.5438
 20
1234.08
 30
0.0
 11
30.0
 21
1234.24
 31
0.0
  0
LINE
  5
4FD
330
1E
100
AcDbEntity
  8
0
100
AcDbLine
 10
36.0074
 20
1232.09
 30
0.0
 11
36.5751
 21
1231.95
 31
0.0
  0
LINE
  5
4FF
330
1E
100
AcDbEntity
  8
0
100
AcDbLine
 10
36.5751
 20
1231.95
 30
0.0
 11
37.3363
 21
1231.96
 31
0.0
  0
LINE
  5
502
330
1E
100
AcDbEntity
  8
0
100
AcDbLine
 10
36.4911
 20
1232.43
 30
0.0
 11
37.25229999999999
 21
1232.44
 31
0.0
  0
LINE
  5
504
330
1E
100
AcDbEntity
  8
0
100
AcDbLine
 10
35.98349999999999
 20
1232.28
 30
0.0
 11
36.0074
 21
1232.09
 31
0.0
  0
LINE
  5
505
330
1E
100
AcDbEntity
  8
0
100
AcDbLine
 10
35.98349999999999
 20
1232.28
 30
0.0
 11
36.4911
 21
1232.43
 31
0.0
  0
LINE
  5
50B
330
1E
100
AcDbEntity
  8
0
100
AcDbLine
 10
29.31739999999999
 20
1226.73
 30
0.0
 11
29.3599
 21
1226.539999999999
 31
0.0
  0
LINE
  5
50D
330
1E
100
AcDbEntity
  8
0
100
AcDbLine
 10
28.76219999999999
 20
1226.869999999999
 30
0.0
 11
29.31739999999999
 21
1226.73
 31
0.0
  0
LINE
  5
50F
330
1E
100
AcDbEntity
  8
0
100
AcDbLine
 10
36.2428
 20
1234.52
 30
0.0
 11
37.0032
 21
1234.51
 31
0.0
  0
LINE
  5
512
330
1E
100
AcDbEntity
  8
0
100
AcDbLine
 10
37.11999999999999
 20
1222.83
 30
0.0
 11
37.68769999999999
 21
1222.7
 31
0.0
  0
LINE
  5
515
330
1E
100
AcDbEntity
  8
0
100
AcDbLine
 10
37.11999999999999
 20
1225.88
 30
0.0
 11
37.68769999999999
 21
1226.01
 31
0.0
  0
LINE
  5
517
330
1E
100
AcDbEntity
  8
0
100
AcDbLine
 10
37.0032
 20
1234.51
 30
0.0
 11
37.5584
 21
1234.65
 31
0.0
  0
LINE
  5
522
330
1E
100
AcDbEntity
  8
0
100
AcDbLine
 10
37.07959999999999
 20
1234.99
 30
0.0
 11
37.6009
 21
1234.85
 31
0.0
  0
LINE
  5
526
330
1E
100
AcDbEntity
  8
0
100
AcDbLine
 10
36.3192
 20
1235.0
 30
0.0
 11
37.07959999999999
 21
1234.99
 31
0.0
  0
LINE
  5
528
330
1E
100
AcDbEntity
  8
0
100
AcDbLine
 10
35.764
 20
1234.869999999999
 30
0.0
 11
36.3192
 21
1235.0
 31
0.0
  0
LINE
  5
52A
330
1E
100
AcDbEntity
  8
0
100
AcDbLine
 10
35.7215
 20
1234.67
 30
0.0
 11
35.764
 21
1234.869999999999
 31
0.0
  0
LINE
  5
52B
330
1E
100
AcDbEntity
  8
0
100
AcDbLine
 10
35.7215
 20
1234.67
 30
0.0
 11
36.2428
 21
1234.52
 31
0.0
  0
LINE
  5
530
330
1E
100
AcDbEntity
  8
0
100
AcDbLine
 10
15.4
 20
1245.46
 30
0.0
 11
25.6
 21
1247.48
 31
0.0
  0
LINE
  5
531
330
1E
100
AcDbEntity
  8
0
100
AcDbLine
 10
25.6
 20
1247.48
 30
0.0
 11
37.4
 21
1248.72
 31
0.0
  0
LINE
  5
532
330
1E
100
AcDbEntity
  8
0
100
AcDbLine
 10
14.69999999999999
 20
1246.12
 30
0.0
 11
25.1
 21
1248.19
 31
0.0
  0
LINE
  5
533
330
1E
100
AcDbEntity
  8
0
100
AcDbLine
 10
37.2
 20
1248.499999999999
 30
0.0
 11
50.0
 21
1248.96
 31
0.0
  0
LINE
  5
534
330
1E
100
AcDbEntity
  8
0
100
AcDbLine
 10
25.1
 20
1248.19
 30
0.0
 11
37.2
 21
1249.46
 31
0.0
  0
LINE
  5
535
330
1E
100
AcDbEntity
  8
0
100
AcDbLine
 10
38.0
 20
1164.849999999999
 30
0.0
 11
38.0
 21
1158.7
 31
0.0
  0
LINE
  5
536
330
1E
100
AcDbEntity
  8
0
100
AcDbLine
 10
37.6009
 20
1215.7
 30
0.0
 11
37.6009
 21
1216.03504100917
 31
0.0
  0
LINE
  5
537
330
1E
100
AcDbEntity
  8
0
100
AcDbLine
 10
37.5584
 20
1215.9
 30
0.0
 11
37.6009
 21
1215.7
 31
0.0
  0
LINE
  5
53A
330
1E
100
AcDbEntity
  8
0
100
AcDbLine
 10
37.204
 20
1222.36
 30
0.0
 11
37.7117
 21
1222.5
 31
0.0
  0
LINE
  5
53F
330
1E
100
AcDbEntity
  8
0
100
AcDbLine
 10
37.3363
 20
1217.9
 30
0.0
 11
37.844
 21
1217.76
 31
0.0
  0
LINE
  5
541
330
1E
100
AcDbEntity
  8
0
100
AcDbLine
 10
37.25229999999999
 20
1217.43
 30
0.0
 11
37.82
 21
1217.559999999999
 31
0.0
  0
LINE
  5
545
330
1E
100
AcDbEntity
  8
0
100
AcDbLine
 10
37.3363
 20
1231.96
 30
0.0
 11
37.844
 21
1232.11
 31
0.0
  0
LINE
  5
548
330
1E
100
AcDbEntity
  8
0
100
AcDbLine
 10
37.25229999999999
 20
1232.44
 30
0.0
 11
37.82
 21
1232.3
 31
0.0
  0
LINE
  5
54A
330
1E
100
AcDbEntity
  8
0
100
AcDbLine
 10
37.204
 20
1226.35
 30
0.0
 11
37.7117
 21
1226.2
 31
0.0
  0
LINE
  5
54E
330
1E
100
AcDbEntity
  8
0
100
AcDbLine
 10
37.5614
 20
1219.38
 30
0.0
 11
37.6516
 21
1219.57
 31
0.0
  0
LINE
  5
54F
330
1E
100
AcDbEntity
  8
0
100
AcDbLine
 10
37.5614
 20
1219.38
 30
0.0
 11
38.0176
 21
1219.219999999999
 31
0.0
  0
LINE
  5
552
330
1E
100
AcDbEntity
  8
0
100
AcDbLine
 10
37.5614
 20
1229.81
 30
0.0
 11
37.6516
 21
1229.61
 31
0.0
  0
LINE
  5
553
330
1E
100
AcDbEntity
  8
0
100
AcDbLine
 10
37.5614
 20
1229.81
 30
0.0
 11
38.0176
 21
1229.96
 31
0.0
  0
LINE
  5
557
330
1E
100
AcDbEntity
  8
0
100
AcDbLine
 10
37.5584
 20
1234.65
 30
0.0
 11
37.6009
 21
1234.85
 31
0.0
  0
LINE
  5
559
330
1E
100
AcDbEntity
  8
0
100
AcDbLine
 10
37.6009
 20
1216.03504100917
 30
0.0
 11
38.3
 21
1215.96
 31
0.0
  0
LINE
  5
55B
330
1E
100
AcDbEntity
  8
0
100
AcDbLine
 10
37.6516
 20
1219.57
 30
0.0
 11
38.2614
 21
1219.69
 31
0.0
  0
LINE
  5
561
330
1E
100
AcDbEntity
  8
0
100
AcDbLine
 10
37.82
 20
1217.559999999999
 30
0.0
 11
37.844
 21
1217.76
 31
0.0
  0
LINE
  5
565
330
1E
100
AcDbEntity
  8
0
100
AcDbLine
 10
37.68769999999999
 20
1222.7
 30
0.0
 11
37.7117
 21
1222.5
 31
0.0
  0
LINE
  5
569
330
1E
100
AcDbEntity
  8
0
100
AcDbLine
 10
37.6516
 20
1229.61
 30
0.0
 11
38.2614
 21
1229.49
 31
0.0
  0
LINE
  5
56F
330
1E
100
AcDbEntity
  8
0
100
AcDbLine
 10
37.82
 20
1232.3
 30
0.0
 11
37.844
 21
1232.11
 31
0.0
  0
LINE
  5
572
330
1E
100
AcDbEntity
  8
0
100
AcDbLine
 10
37.68769999999999
 20
1226.01
 30
0.0
 11
37.7117
 21
1226.2
 31
0.0
  0
LINE
  5
575
330
1E
100
AcDbEntity
  8
0
100
AcDbLine
 10
37.6009
 20
1216.03504100917
 30
0.0
 11
37.6009
 21
1215.7
 31
0.0
  0
LINE
  5
576
330
1E
100
AcDbEntity
  8
0
100
AcDbLine
 10
38.0
 20
1215.99220183486
 30
0.0
 11
38.0
 21
1213.17
 31
0.0
  0
LINE
  5
577
330
1E
100
AcDbEntity
  8
0
100
AcDbLine
 10
38.0
 20
1213.17
 30
0.0
 11
38.0
 21
1204.35
 31
0.0
  0
LINE
  5
578
330
1E
100
AcDbEntity
  8
0
100
AcDbLine
 10
38.0
 20
1213.17
 30
0.0
 11
38.0
 21
1215.99220183486
 31
0.0
  0
LINE
  5
579
330
1E
100
AcDbEntity
  8
0
100
AcDbLine
 10
38.0
 20
1204.35
 30
0.0
 11
38.0
 21
1194.13
 31
0.0
  0
LINE
  5
57A
330
1E
100
AcDbEntity
  8
0
100
AcDbLine
 10
38.0
 20
1204.35
 30
0.0
 11
38.0
 21
1213.17
 31
0.0
  0
LINE
  5
57B
330
1E
100
AcDbEntity
  8
0
100
AcDbLine
 10
38.0
 20
1194.13
 30
0.0
 11
38.0
 21
1181.93
 31
0.0
  0
LINE
  5
57C
330
1E
100
AcDbEntity
  8
0
100
AcDbLine
 10
38.0
 20
1194.13
 30
0.0
 11
38.0
 21
1204.35
 31
0.0
  0
LINE
  5
57D
330
1E
100
AcDbEntity
  8
0
100
AcDbLine
 10
38.0
 20
1181.93
 30
0.0
 11
38.0
 21
1172.08
 31
0.0
  0
LINE
  5
57E
330
1E
100
AcDbEntity
  8
0
100
AcDbLine
 10
38.0
 20
1181.93
 30
0.0
 11
38.0
 21
1194.13
 31
0.0
  0
LINE
  5
57F
330
1E
100
AcDbEntity
  8
0
100
AcDbLine
 10
38.0
 20
1172.08
 30
0.0
 11
38.0
 21
1161.869999999999
 31
0.0
  0
LINE
  5
580
330
1E
100
AcDbEntity
  8
0
100
AcDbLine
 10
38.0
 20
1172.08
 30
0.0
 11
38.0
 21
1181.93
 31
0.0
  0
LINE
  5
581
330
1E
100
AcDbEntity
  8
0
100
AcDbLine
 10
38.0
 20
1161.869999999999
 30
0.0
 11
38.0
 21
1159.04
 31
0.0
  0
LINE
  5
582
330
1E
100
AcDbEntity
  8
0
100
AcDbLine
 10
38.0
 20
1161.869999999999
 30
0.0
 11
38.0
 21
1172.08
 31
0.0
  0
LINE
  5
583
330
1E
100
AcDbEntity
  8
0
100
AcDbLine
 10
38.0
 20
1159.04
 30
0.0
 11
38.43199999999999
 21
1156.689999999999
 31
0.0
  0
LINE
  5
584
330
1E
100
AcDbEntity
  8
0
100
AcDbLine
 10
38.0
 20
1159.04
 30
0.0
 11
38.0
 21
1161.869999999999
 31
0.0
  0
LINE
  5
585
330
1E
100
AcDbEntity
  8
0
100
AcDbLine
 10
37.4
 20
1248.72
 30
0.0
 11
50.0
 21
1249.19
 31
0.0
  0
LINE
  5
586
330
1E
100
AcDbEntity
  8
0
100
AcDbLine
 10
37.2
 20
1249.46
 30
0.0
 11
50.0
 21
1249.93
 31
0.0
  0
LINE
  5
587
330
1E
100
AcDbEntity
  8
0
100
AcDbLine
 10
36.1
 20
1264.04
 30
0.0
 11
42.8
 21
1264.74
 31
0.0
  0
LINE
  5
588
330
1E
100
AcDbEntity
  8
0
100
AcDbLine
 10
32.6
 20
1263.66
 30
0.0
 11
36.1
 21
1264.04
 31
0.0
  0
LINE
  5
589
330
1E
100
AcDbEntity
  8
0
100
AcDbLine
 10
25.3
 20
1262.21
 30
0.0
 11
32.6
 21
1263.66
 31
0.0
  0
LINE
  5
58A
330
1E
100
AcDbEntity
  8
0
100
AcDbLine
 10
20.69999999999998
 20
1260.99
 30
0.0
 11
25.3
 21
1262.21
 31
0.0
  0
LINE
  5
58B
330
1E
100
AcDbEntity
  8
0
100
AcDbLine
 10
14.1
 20
1258.74
 30
0.0
 11
20.69999999999998
 21
1260.99
 31
0.0
  0
LINE
  5
58C
330
1E
100
AcDbEntity
  8
0
100
AcDbLine
 10
10.2
 20
1256.92
 30
0.0
 11
14.1
 21
1258.74
 31
0.0
  0
LINE
  5
58D
330
1E
100
AcDbEntity
  8
0
100
AcDbLine
 10
38.0
 20
1146.05
 30
0.0
 11
38.0
 21
1158.7
 31
0.0
  0
LINE
  5
58E
330
1E
100
AcDbEntity
  8
0
100
AcDbLine
 10
38.0
 20
1146.05
 30
0.0
 11
38.0
 21
1123.94
 31
0.0
  0
LINE
  5
58F
330
1E
100
AcDbEntity
  8
0
100
AcDbLine
 10
39.584
 20
1154.49
 30
0.0
 11
41.504
 21
1152.539999999999
 31
0.0
  0
LINE
  5
590
330
1E
100
AcDbEntity
  8
0
100
AcDbLine
 10
39.0
 20
1083.64
 30
0.0
 11
39.0
 21
1059.0
 31
0.0
  0
LINE
  5
591
330
1E
100
AcDbEntity
  8
0
100
AcDbLine
 10
50.0
 20
1149.469999999998
 30
0.0
 11
53.07199999999999
 21
1149.799999999999
 31
0.0
  0
LINE
  5
592
330
1E
100
AcDbEntity
  8
0
100
AcDbLine
 10
61.0
 20
1083.64
 30
0.0
 11
62.0
 21
1101.26
 31
0.0
  0
LINE
  5
593
330
1E
100
AcDbEntity
  8
0
100
AcDbLine
 10
61.0
 20
1083.64
 30
0.0
 11
61.0
 21
1059.0
 31
0.0
  0
LINE
  5
594
330
1E
100
AcDbEntity
  8
0
100
AcDbLine
 10
62.0
 20
1146.05
 30
0.0
 11
62.0
 21
1123.94
 31
0.0
  0
LINE
  5
595
330
1E
100
AcDbEntity
  8
0
100
AcDbLine
 10
62.0
 20
1146.05
 30
0.0
 11
62.0
 21
1158.7
 31
0.0
  0
LINE
  5
596
330
1E
100
AcDbEntity
  8
0
100
AcDbLine
 10
62.0
 20
1123.94
 30
0.0
 11
62.0
 21
1101.26
 31
0.0
  0
LINE
  5
597
330
1E
100
AcDbEntity
  8
0
100
AcDbLine
 10
62.0
 20
1123.94
 30
0.0
 11
62.0
 21
1146.05
 31
0.0
  0
LINE
  5
598
330
1E
100
AcDbEntity
  8
0
100
AcDbLine
 10
62.0
 20
1101.26
 30
0.0
 11
62.0
 21
1123.94
 31
0.0
  0
LINE
  5
599
330
1E
100
AcDbEntity
  8
0
100
AcDbLine
 10
53.07199999999999
 20
1149.799999999999
 30
0.0
 11
55.952
 21
1150.689999999998
 31
0.0
  0
LINE
  5
59A
330
1E
100
AcDbEntity
  8
0
100
AcDbLine
 10
50.0
 20
1149.69
 30
0.0
 11
53.02399999999999
 21
1150.02
 31
0.0
  0
LINE
  5
59B
330
1E
100
AcDbEntity
  8
0
100
AcDbLine
 10
53.02399999999999
 20
1150.02
 30
0.0
 11
55.80799999999999
 21
1150.9
 31
0.0
  0
LINE
  5
59C
330
1E
100
AcDbEntity
  8
0
100
AcDbLine
 10
58.496
 20
1152.17
 30
0.0
 11
60.416
 21
1154.12
 31
0.0
  0
LINE
  5
59D
330
1E
100
AcDbEntity
  8
0
100
AcDbLine
 10
55.952
 20
1150.689999999998
 30
0.0
 11
58.496
 21
1152.17
 31
0.0
  0
LINE
  5
59E
330
1E
100
AcDbEntity
  8
0
100
AcDbLine
 10
55.80799999999999
 20
1150.9
 30
0.0
 11
58.256
 21
1152.329999999998
 31
0.0
  0
LINE
  5
59F
330
1E
100
AcDbEntity
  8
0
100
AcDbLine
 10
46.976
 20
1150.02
 30
0.0
 11
50.0
 21
1149.69
 31
0.0
  0
LINE
  5
5A0
330
1E
100
AcDbEntity
  8
0
100
AcDbLine
 10
44.192
 20
1150.9
 30
0.0
 11
46.976
 21
1150.02
 31
0.0
  0
LINE
  5
5A1
330
1E
100
AcDbEntity
  8
0
100
AcDbLine
 10
46.928
 20
1149.799999999999
 30
0.0
 11
50.0
 21
1149.469999999998
 31
0.0
  0
LINE
  5
5A2
330
1E
100
AcDbEntity
  8
0
100
AcDbLine
 10
44.048
 20
1150.689999999998
 30
0.0
 11
46.928
 21
1149.799999999999
 31
0.0
  0
LINE
  5
5A3
330
1E
100
AcDbEntity
  8
0
100
AcDbLine
 10
58.256
 20
1152.329999999998
 30
0.0
 11
58.496
 21
1152.539999999999
 31
0.0
  0
LINE
  5
5A4
330
1E
100
AcDbEntity
  8
0
100
AcDbLine
 10
58.256
 20
1152.329999999998
 30
0.0
 11
58.42324556842378
 21
1152.49796029308
 31
0.0
  0
LINE
  5
5A5
330
1E
100
AcDbEntity
  8
0
100
AcDbLine
 10
41.744
 20
1152.329999999998
 30
0.0
 11
44.192
 21
1150.9
 31
0.0
  0
LINE
  5
5A6
330
1E
100
AcDbEntity
  8
0
100
AcDbLine
 10
60.416
 20
1154.12
 30
0.0
 11
61.568
 21
1156.339999999999
 31
0.0
  0
LINE
  5
5A7
330
1E
100
AcDbEntity
  8
0
100
AcDbLine
 10
58.496
 20
1152.539999999999
 30
0.0
 11
60.416
 21
1154.49
 31
0.0
  0
LINE
  5
5A8
330
1E
100
AcDbEntity
  8
0
100
AcDbLine
 10
61.568
 20
1156.339999999999
 30
0.0
 11
62.0
 21
1158.7
 31
0.0
  0
LINE
  5
5A9
330
1E
100
AcDbEntity
  8
0
100
AcDbLine
 10
60.416
 20
1154.49
 30
0.0
 11
61.568
 21
1156.689999999999
 31
0.0
  0
LINE
  5
5AA
330
1E
100
AcDbEntity
  8
0
100
AcDbLine
 10
41.57675443157621
 20
1152.49796029308
 30
0.0
 11
41.744
 21
1152.329999999998
 31
0.0
  0
LINE
  5
5AB
330
1E
100
AcDbEntity
  8
0
100
AcDbLine
 10
41.504
 20
1152.539999999999
 30
0.0
 11
41.744
 21
1152.329999999998
 31
0.0
  0
LINE
  5
5AC
330
1E
100
AcDbEntity
  8
0
100
AcDbLine
 10
41.504
 20
1152.17
 30
0.0
 11
44.048
 21
1150.689999999998
 31
0.0
  0
LINE
  5
5AD
330
1E
100
AcDbEntity
  8
0
100
AcDbLine
 10
39.584
 20
1154.12
 30
0.0
 11
41.504
 21
1152.17
 31
0.0
  0
LINE
  5
5B2
330
1E
100
AcDbEntity
  8
0
100
AcDbLine
 10
38.2614
 20
1219.69
 30
0.0
 11
39.0176
 21
1219.67
 31
0.0
  0
LINE
  5
5B4
330
1E
100
AcDbEntity
  8
0
100
AcDbLine
 10
39.0176
 20
1219.67
 30
0.0
 11
39.47379999999999
 21
1219.51
 31
0.0
  0
LINE
  5
5B6
330
1E
100
AcDbEntity
  8
0
100
AcDbLine
 10
38.7738
 20
1219.2
 30
0.0
 11
39.3836
 21
1219.319999999999
 31
0.0
  0
LINE
  5
5B8
330
1E
100
AcDbEntity
  8
0
100
AcDbLine
 10
38.0176
 20
1219.219999999999
 30
0.0
 11
38.7738
 21
1219.2
 31
0.0
  0
LINE
  5
5BB
330
1E
100
AcDbEntity
  8
0
100
AcDbLine
 10
39.2334
 20
1221.45
 30
0.0
 11
39.5163
 21
1221.63
 31
0.0
  0
LINE
  5
5BC
330
1E
100
AcDbEntity
  8
0
100
AcDbLine
 10
39.2334
 20
1221.45
 30
0.0
 11
39.5163
 21
1221.27
 31
0.0
  0
LINE
  5
5C1
330
1E
100
AcDbEntity
  8
0
100
AcDbLine
 10
38.2614
 20
1229.49
 30
0.0
 11
39.0176
 21
1229.51
 31
0.0
  0
LINE
  5
5C3
330
1E
100
AcDbEntity
  8
0
100
AcDbLine
 10
39.0176
 20
1229.51
 30
0.0
 11
39.47379999999999
 21
1229.67
 31
0.0
  0
LINE
  5
5C6
330
1E
100
AcDbEntity
  8
0
100
AcDbLine
 10
38.7738
 20
1229.99
 30
0.0
 11
39.3836
 21
1229.87
 31
0.0
  0
LINE
  5
5C8
330
1E
100
AcDbEntity
  8
0
100
AcDbLine
 10
38.0176
 20
1229.96
 30
0.0
 11
38.7738
 21
1229.99
 31
0.0
  0
LINE
  5
5CB
330
1E
100
AcDbEntity
  8
0
100
AcDbLine
 10
39.2334
 20
1227.26
 30
0.0
 11
39.5163
 21
1227.079999999999
 31
0.0
  0
LINE
  5
5CC
330
1E
100
AcDbEntity
  8
0
100
AcDbLine
 10
39.2334
 20
1227.26
 30
0.0
 11
39.5163
 21
1227.44
 31
0.0
  0
LINE
  5
5CE
330
1E
100
AcDbEntity
  8
0
100
AcDbLine
 10
38.3
 20
1215.96
 30
0.0
 11
42.24289999999998
 21
1215.82183
 31
0.0
  0
LINE
  5
5D2
330
1E
100
AcDbEntity
  8
0
100
AcDbLine
 10
39.3836
 20
1219.319999999999
 30
0.0
 11
39.47379999999999
 21
1219.51
 31
0.0
  0
LINE
  5
5D6
330
1E
100
AcDbEntity
  8
0
100
AcDbLine
 10
39.5163
 20
1221.63
 30
0.0
 11
40.22339999999998
 21
1221.71
 31
0.0
  0
LINE
  5
5D8
330
1E
100
AcDbEntity
  8
0
100
AcDbLine
 10
39.5163
 20
1221.27
 30
0.0
 11
40.22339999999998
 21
1221.189999999999
 31
0.0
  0
LINE
  5
5DD
330
1E
100
AcDbEntity
  8
0
100
AcDbLine
 10
39.3836
 20
1229.87
 30
0.0
 11
39.47379999999999
 21
1229.67
 31
0.0
  0
LINE
  5
5E1
330
1E
100
AcDbEntity
  8
0
100
AcDbLine
 10
39.5163
 20
1227.079999999999
 30
0.0
 11
40.22339999999998
 21
1227.0
 31
0.0
  0
LINE
  5
5E4
330
1E
100
AcDbEntity
  8
0
100
AcDbLine
 10
40.22339999999998
 20
1221.71
 30
0.0
 11
40.9305
 21
1221.63
 31
0.0
  0
LINE
  5
5E6
330
1E
100
AcDbEntity
  8
0
100
AcDbLine
 10
40.22339999999998
 20
1221.189999999999
 30
0.0
 11
40.9305
 21
1221.27
 31
0.0
  0
LINE
  5
5E9
330
1E
100
AcDbEntity
  8
0
100
AcDbLine
 10
40.9305
 20
1221.63
 30
0.0
 11
41.21329999999999
 21
1221.45
 31
0.0
  0
LINE
  5
5EB
330
1E
100
AcDbEntity
  8
0
100
AcDbLine
 10
40.9305
 20
1221.27
 30
0.0
 11
41.21329999999999
 21
1221.45
 31
0.0
  0
LINE
  5
5ED
330
1E
100
AcDbEntity
  8
0
100
AcDbLine
 10
40.22339999999998
 20
1227.0
 30
0.0
 11
40.9305
 21
1227.079999999999
 31
0.0
  0
LINE
  5
5EF
330
1E
100
AcDbEntity
  8
0
100
AcDbLine
 10
40.9305
 20
1227.079999999999
 30
0.0
 11
41.21329999999999
 21
1227.26
 31
0.0
  0
LINE
  5
5F2
330
1E
100
AcDbEntity
  8
0
100
AcDbLine
 10
41.7269
 20
1216.94
 30
0.0
 11
42.4807
 21
1216.97
 31
0.0
  0
LINE
  5
5F9
330
1E
100
AcDbEntity
  8
0
100
AcDbLine
 10
41.4907
 20
1217.41
 30
0.0
 11
42.2445
 21
1217.44
 31
0.0
  0
LINE
  5
5FB
330
1E
100
AcDbEntity
  8
0
100
AcDbLine
 10
41.1284
 20
1217.06
 30
0.0
 11
41.7269
 21
1216.94
 31
0.0
  0
LINE
  5
5FD
330
1E
100
AcDbEntity
  8
0
100
AcDbLine
 10
41.0198
 20
1217.26
 30
0.0
 11
41.1284
 21
1217.06
 31
0.0
  0
LINE
  5
5FE
330
1E
100
AcDbEntity
  8
0
100
AcDbLine
 10
41.0198
 20
1217.26
 30
0.0
 11
41.4907
 21
1217.41
 31
0.0
  0
LINE
  5
601
330
1E
100
AcDbEntity
  8
0
100
AcDbLine
 10
42.24289999999998
 20
1215.82183
 30
0.0
 11
42.24289999999998
 21
1215.38
 31
0.0
  0
LINE
  5
602
330
1E
100
AcDbEntity
  8
0
100
AcDbLine
 10
42.24289999999998
 20
1215.38
 30
0.0
 11
42.4168
 21
1215.18
 31
0.0
  0
LINE
  5
603
330
1E
100
AcDbEntity
  8
0
100
AcDbLine
 10
42.24289999999998
 20
1215.38
 30
0.0
 11
42.6599
 21
1215.54
 31
0.0
  0
LINE
  5
604
330
1E
100
AcDbEntity
  8
0
100
AcDbLine
 10
42.24289999999998
 20
1215.38
 30
0.0
 11
42.24289999999998
 21
1215.82183
 31
0.0
  0
LINE
  5
606
330
1E
100
AcDbEntity
  8
0
100
AcDbLine
 10
42.2445
 20
1217.44
 30
0.0
 11
42.843
 21
1217.319999999999
 31
0.0
  0
LINE
  5
608
330
1E
100
AcDbEntity
  8
0
100
AcDbLine
 10
42.0
 20
1224.14
 30
0.0
 11
42.29999999999999
 21
1223.96
 31
0.0
  0
LINE
  5
609
330
1E
100
AcDbEntity
  8
0
100
AcDbLine
 10
42.0
 20
1224.14
 30
0.0
 11
42.29999999999999
 21
1224.32
 31
0.0
  0
LINE
  5
60C
330
1E
100
AcDbEntity
  8
0
100
AcDbLine
 10
40.9305
 20
1227.44
 30
0.0
 11
41.21329999999999
 21
1227.26
 31
0.0
  0
LINE
  5
611
330
1E
100
AcDbEntity
  8
0
100
AcDbLine
 10
40.22339999999998
 20
1227.52
 30
0.0
 11
40.9305
 21
1227.44
 31
0.0
  0
LINE
  5
613
330
1E
100
AcDbEntity
  8
0
100
AcDbLine
 10
39.5163
 20
1227.44
 30
0.0
 11
40.22339999999998
 21
1227.52
 31
0.0
  0
LINE
  5
615
330
1E
100
AcDbEntity
  8
0
100
AcDbLine
 10
41.4907
 20
1232.45
 30
0.0
 11
42.2445
 21
1232.42
 31
0.0
  0
LINE
  5
618
330
1E
100
AcDbEntity
  8
0
100
AcDbLine
 10
42.4168
 20
1215.18
 30
0.0
 11
43.0541
 21
1215.08
 31
0.0
  0
LINE
  5
61C
330
1E
100
AcDbEntity
  8
0
100
AcDbLine
 10
42.6599
 20
1215.54
 30
0.0
 11
43.4014
 21
1215.589999999999
 31
0.0
  0
LINE
  5
61E
330
1E
100
AcDbEntity
  8
0
100
AcDbLine
 10
42.4807
 20
1216.97
 30
0.0
 11
42.9517
 21
1217.119999999999
 31
0.0
  0
LINE
  5
622
330
1E
100
AcDbEntity
  8
0
100
AcDbLine
 10
42.29999999999999
 20
1224.32
 30
0.0
 11
43.0
 21
1224.4
 31
0.0
  0
LINE
  5
624
330
1E
100
AcDbEntity
  8
0
100
AcDbLine
 10
42.29999999999999
 20
1223.96
 30
0.0
 11
43.0
 21
1223.88
 31
0.0
  0
LINE
  5
626
330
1E
100
AcDbEntity
  8
0
100
AcDbLine
 10
42.2445
 20
1232.42
 30
0.0
 11
42.843
 21
1232.55
 31
0.0
  0
LINE
  5
62B
330
1E
100
AcDbEntity
  8
0
100
AcDbLine
 10
42.4807
 20
1232.89
 30
0.0
 11
42.9517
 21
1232.74
 31
0.0
  0
LINE
  5
62F
330
1E
100
AcDbEntity
  8
0
100
AcDbLine
 10
41.7269
 20
1232.92
 30
0.0
 11
42.4807
 21
1232.89
 31
0.0
  0
LINE
  5
631
330
1E
100
AcDbEntity
  8
0
100
AcDbLine
 10
41.1284
 20
1232.8
 30
0.0
 11
41.7269
 21
1232.92
 31
0.0
  0
LINE
  5
633
330
1E
100
AcDbEntity
  8
0
100
AcDbLine
 10
41.0198
 20
1232.609999999999
 30
0.0
 11
41.1284
 21
1232.8
 31
0.0
  0
LINE
  5
634
330
1E
100
AcDbEntity
  8
0
100
AcDbLine
 10
41.0198
 20
1232.609999999999
 30
0.0
 11
41.4907
 21
1232.45
 31
0.0
  0
LINE
  5
635
330
1E
100
AcDbEntity
  8
0
100
AcDbLine
 10
42.6599
 20
1235.0
 30
0.0
 11
43.4014
 21
1234.96
 31
0.0
  0
LINE
  5
63A
330
1E
100
AcDbEntity
  8
0
100
AcDbLine
 10
42.4168
 20
1235.36
 30
0.0
 11
43.0541
 21
1235.47
 31
0.0
  0
LINE
  5
63C
330
1E
100
AcDbEntity
  8
0
100
AcDbLine
 10
42.24289999999998
 20
1235.17
 30
0.0
 11
42.4168
 21
1235.36
 31
0.0
  0
LINE
  5
63D
330
1E
100
AcDbEntity
  8
0
100
AcDbLine
 10
42.24289999999998
 20
1235.17
 30
0.0
 11
42.6599
 21
1235.0
 31
0.0
  0
LINE
  5
640
330
1E
100
AcDbEntity
  8
0
100
AcDbLine
 10
38.43199999999999
 20
1156.689999999999
 30
0.0
 11
39.584
 21
1154.49
 31
0.0
  0
LINE
  5
641
330
1E
100
AcDbEntity
  8
0
100
AcDbLine
 10
62.0
 20
1158.7
 30
0.0
 11
62.0
 21
1159.04
 31
0.0
  0
LINE
  5
642
330
1E
100
AcDbEntity
  8
0
100
AcDbLine
 10
62.0
 20
1158.7
 30
0.0
 11
62.0
 21
1146.05
 31
0.0
  0
LINE
  5
643
330
1E
100
AcDbEntity
  8
0
100
AcDbLine
 10
61.568
 20
1156.689999999999
 30
0.0
 11
62.0
 21
1159.04
 31
0.0
  0
LINE
  5
644
330
1E
100
AcDbEntity
  8
0
100
AcDbLine
 10
62.0
 20
1159.04
 30
0.0
 11
62.0
 21
1161.869999999999
 31
0.0
  0
LINE
  5
645
330
1E
100
AcDbEntity
  8
0
100
AcDbLine
 10
62.0
 20
1159.04
 30
0.0
 11
62.0
 21
1158.7
 31
0.0
  0
LINE
  5
646
330
1E
100
AcDbEntity
  8
0
100
AcDbLine
 10
62.0
 20
1161.869999999999
 30
0.0
 11
62.0
 21
1159.04
 31
0.0
  0
LINE
  5
647
330
1E
100
AcDbEntity
  8
0
100
AcDbLine
 10
62.0
 20
1161.869999999999
 30
0.0
 11
62.0
 21
1172.08
 31
0.0
  0
LINE
  5
648
330
1E
100
AcDbEntity
  8
0
100
AcDbLine
 10
62.0
 20
1172.08
 30
0.0
 11
62.0
 21
1181.93
 31
0.0
  0
LINE
  5
649
330
1E
100
AcDbEntity
  8
0
100
AcDbLine
 10
62.0
 20
1172.08
 30
0.0
 11
62.0
 21
1161.869999999999
 31
0.0
  0
LINE
  5
64A
330
1E
100
AcDbEntity
  8
0
100
AcDbLine
 10
62.0
 20
1204.35
 30
0.0
 11
62.0
 21
1213.17
 31
0.0
  0
LINE
  5
64B
330
1E
100
AcDbEntity
  8
0
100
AcDbLine
 10
62.0
 20
1204.35
 30
0.0
 11
62.0
 21
1194.13
 31
0.0
  0
LINE
  5
64C
330
1E
100
AcDbEntity
  8
0
100
AcDbLine
 10
62.0
 20
1194.13
 30
0.0
 11
62.0
 21
1204.35
 31
0.0
  0
LINE
  5
64D
330
1E
100
AcDbEntity
  8
0
100
AcDbLine
 10
62.0
 20
1194.13
 30
0.0
 11
62.0
 21
1181.93
 31
0.0
  0
LINE
  5
64E
330
1E
100
AcDbEntity
  8
0
100
AcDbLine
 10
62.0
 20
1181.93
 30
0.0
 11
62.0
 21
1194.13
 31
0.0
  0
LINE
  5
64F
330
1E
100
AcDbEntity
  8
0
100
AcDbLine
 10
62.0
 20
1181.93
 30
0.0
 11
62.0
 21
1172.08
 31
0.0
  0
LINE
  5
652
330
1E
100
AcDbEntity
  8
0
100
AcDbLine
 10
43.4014
 20
1215.589999999999
 30
0.0
 11
44.0386
 21
1215.48
 31
0.0
  0
LINE
  5
654
330
1E
100
AcDbEntity
  8
0
100
AcDbLine
 10
44.21249999999999
 20
1215.29
 30
0.0
 11
44.21249999999999
 21
1215.752809829059
 31
0.0
  0
LINE
  5
655
330
1E
100
AcDbEntity
  8
0
100
AcDbLine
 10
44.0386
 20
1215.48
 30
0.0
 11
44.21249999999999
 21
1215.29
 31
0.0
  0
LINE
  5
657
330
1E
100
AcDbEntity
  8
0
100
AcDbLine
 10
43.7955
 20
1215.119999999999
 30
0.0
 11
44.21249999999999
 21
1215.29
 31
0.0
  0
LINE
  5
659
330
1E
100
AcDbEntity
  8
0
100
AcDbLine
 10
43.0541
 20
1215.08
 30
0.0
 11
43.7955
 21
1215.119999999999
 31
0.0
  0
LINE
  5
65B
330
1E
100
AcDbEntity
  8
0
100
AcDbLine
 10
48.5
 20
1213.729999999999
 30
0.0
 11
48.5
 21
1213.519999999999
 31
0.0
  0
LINE
  5
65C
330
1E
100
AcDbEntity
  8
0
100
AcDbLine
 10
48.5
 20
1213.729999999999
 30
0.0
 11
48.5
 21
1214.76
 31
0.0
  0
LINE
  5
65D
330
1E
100
AcDbEntity
  8
0
100
AcDbLine
 10
48.5
 20
1213.519999999999
 30
0.0
 11
48.5
 21
1213.799999999999
 31
0.0
  0
LINE
  5
65E
330
1E
100
AcDbEntity
  8
0
100
AcDbLine
 10
48.5
 20
1213.519999999999
 30
0.0
 11
51.5
 21
1213.519999999999
 31
0.0
  0
LINE
  5
65F
330
1E
100
AcDbEntity
  8
0
100
AcDbLine
 10
48.5
 20
1213.519999999999
 30
0.0
 11
48.5
 21
1213.729999999999
 31
0.0
  0
LINE
  5
660
330
1E
100
AcDbEntity
  8
0
100
AcDbLine
 10
48.5
 20
1213.799999999999
 30
0.0
 11
48.5
 21
1214.15
 31
0.0
  0
LINE
  5
661
330
1E
100
AcDbEntity
  8
0
100
AcDbLine
 10
48.5
 20
1213.799999999999
 30
0.0
 11
48.5
 21
1213.519999999999
 31
0.0
  0
LINE
  5
662
330
1E
100
AcDbEntity
  8
0
100
AcDbLine
 10
48.5
 20
1214.76
 30
0.0
 11
48.5
 21
1213.729999999999
 31
0.0
  0
LINE
  5
663
330
1E
100
AcDbEntity
  8
0
100
AcDbLine
 10
48.5
 20
1214.76
 30
0.0
 11
48.5
 21
1215.602564102558
 31
0.0
  0
LINE
  5
664
330
1E
100
AcDbEntity
  8
0
100
AcDbLine
 10
48.5
 20
1214.15
 30
0.0
 11
48.5
 21
1214.82
 31
0.0
  0
LINE
  5
665
330
1E
100
AcDbEntity
  8
0
100
AcDbLine
 10
48.5
 20
1214.15
 30
0.0
 11
48.5
 21
1213.799999999999
 31
0.0
  0
LINE
  5
666
330
1E
100
AcDbEntity
  8
0
100
AcDbLine
 10
48.5
 20
1214.82
 30
0.0
 11
48.5
 21
1215.6746728972
 31
0.0
  0
LINE
  5
667
330
1E
100
AcDbEntity
  8
0
100
AcDbLine
 10
48.5
 20
1214.82
 30
0.0
 11
48.5
 21
1214.15
 31
0.0
  0
LINE
  5
669
330
1E
100
AcDbEntity
  8
0
100
AcDbLine
 10
49.0
 20
1215.18
 30
0.0
 11
49.29999999999999
 21
1215.0
 31
0.0
  0
LINE
  5
66B
330
1E
100
AcDbEntity
  8
0
100
AcDbLine
 10
49.0
 20
1215.18
 30
0.0
 11
49.29999999999999
 21
1215.359999999999
 31
0.0
  0
LINE
  5
66D
330
1E
100
AcDbEntity
  8
0
100
AcDbLine
 10
49.29999999999999
 20
1215.0
 30
0.0
 11
50.0
 21
1214.92
 31
0.0
  0
LINE
  5
670
330
1E
100
AcDbEntity
  8
0
100
AcDbLine
 10
50.0
 20
1214.92
 30
0.0
 11
50.7
 21
1215.0
 31
0.0
  0
LINE
  5
672
330
1E
100
AcDbEntity
  8
0
100
AcDbLine
 10
48.5
 20
1215.602564102558
 30
0.0
 11
48.5
 21
1214.76
 31
0.0
  0
LINE
  5
674
330
1E
100
AcDbEntity
  8
0
100
AcDbLine
 10
48.5
 20
1215.6746728972
 30
0.0
 11
48.5
 21
1214.82
 31
0.0
  0
LINE
  5
678
330
1E
100
AcDbEntity
  8
0
100
AcDbLine
 10
50.0
 20
1215.44
 30
0.0
 11
50.7
 21
1215.359999999999
 31
0.0
  0
LINE
  5
67B
330
1E
100
AcDbEntity
  8
0
100
AcDbLine
 10
49.29999999999999
 20
1215.359999999999
 30
0.0
 11
50.0
 21
1215.44
 31
0.0
  0
LINE
  5
682
330
1E
100
AcDbEntity
  8
0
100
AcDbLine
 10
44.21249999999999
 20
1215.752809829059
 30
0.0
 11
48.5
 21
1215.602564102558
 31
0.0
  0
LINE
  5
686
330
1E
100
AcDbEntity
  8
0
100
AcDbLine
 10
42.843
 20
1217.319999999999
 30
0.0
 11
42.9517
 21
1217.119999999999
 31
0.0
  0
LINE
  5
688
330
1E
100
AcDbEntity
  8
0
100
AcDbLine
 10
43.0
 20
1223.88
 30
0.0
 11
43.7
 21
1223.96
 31
0.0
  0
LINE
  5
68C
330
1E
100
AcDbEntity
  8
0
100
AcDbLine
 10
43.62029999999999
 20
1223.0
 30
0.0
 11
44.29999999999998
 21
1222.91
 31
0.0
  0
LINE
  5
68E
330
1E
100
AcDbEntity
  8
0
100
AcDbLine
 10
43.4001
 20
1223.19
 30
0.0
 11
43.74349999999998
 21
1223.37
 31
0.0
  0
LINE
  5
68F
330
1E
100
AcDbEntity
  8
0
100
AcDbLine
 10
43.4001
 20
1223.19
 30
0.0
 11
43.62029999999999
 21
1223.0
 31
0.0
  0
LINE
  5
694
330
1E
100
AcDbEntity
  8
0
100
AcDbLine
 10
43.74349999999998
 20
1223.37
 30
0.0
 11
44.47259999999999
 21
1223.42
 31
0.0
  0
LINE
  5
697
330
1E
100
AcDbEntity
  8
0
100
AcDbLine
 10
45.0274
 20
1218.779999999998
 30
0.0
 11
45.2013
 21
1218.59
 31
0.0
  0
LINE
  5
698
330
1E
100
AcDbEntity
  8
0
100
AcDbLine
 10
45.0274
 20
1218.779999999998
 30
0.0
 11
45.4444
 21
1218.95
 31
0.0
  0
LINE
  5
69B
330
1E
100
AcDbEntity
  8
0
100
AcDbLine
 10
44.47259999999999
 20
1223.42
 30
0.0
 11
45.1524
 21
1223.34
 31
0.0
  0
LINE
  5
69D
330
1E
100
AcDbEntity
  8
0
100
AcDbLine
 10
45.1524
 20
1223.34
 30
0.0
 11
45.3725
 21
1223.15
 31
0.0
  0
LINE
  5
69F
330
1E
100
AcDbEntity
  8
0
100
AcDbLine
 10
45.02909999999999
 20
1222.97
 30
0.0
 11
45.3725
 21
1223.15
 31
0.0
  0
LINE
  5
6A1
330
1E
100
AcDbEntity
  8
0
100
AcDbLine
 10
44.29999999999998
 20
1222.91
 30
0.0
 11
45.02909999999999
 21
1222.97
 31
0.0
  0
LINE
  5
6A4
330
1E
100
AcDbEntity
  8
0
100
AcDbLine
 10
43.7
 20
1223.96
 30
0.0
 11
44.0
 21
1224.14
 31
0.0
  0
LINE
  5
6A7
330
1E
100
AcDbEntity
  8
0
100
AcDbLine
 10
43.7
 20
1224.32
 30
0.0
 11
44.0
 21
1224.14
 31
0.0
  0
LINE
  5
6A9
330
1E
100
AcDbEntity
  8
0
100
AcDbLine
 10
43.0
 20
1224.4
 30
0.0
 11
43.7
 21
1224.32
 31
0.0
  0
LINE
  5
6AD
330
1E
100
AcDbEntity
  8
0
100
AcDbLine
 10
43.74349999999998
 20
1224.91
 30
0.0
 11
44.47259999999999
 21
1224.849999999999
 31
0.0
  0
LINE
  5
6AF
330
1E
100
AcDbEntity
  8
0
100
AcDbLine
 10
44.47259999999999
 20
1224.849999999999
 30
0.0
 11
45.1524
 21
1224.94
 31
0.0
  0
LINE
  5
6B3
330
1E
100
AcDbEntity
  8
0
100
AcDbLine
 10
45.4444
 20
1218.95
 30
0.0
 11
46.1859
 21
1218.99
 31
0.0
  0
LINE
  5
6B5
330
1E
100
AcDbEntity
  8
0
100
AcDbLine
 10
45.8386
 20
1218.48
 30
0.0
 11
46.58
 21
1218.53
 31
0.0
  0
LINE
  5
6B7
330
1E
100
AcDbEntity
  8
0
100
AcDbLine
 10
45.2013
 20
1218.59
 30
0.0
 11
45.8386
 21
1218.48
 31
0.0
  0
LINE
  5
6BC
330
1E
100
AcDbEntity
  8
0
100
AcDbLine
 10
46.305
 20
1216.97
 30
0.0
 11
46.5429
 21
1216.779999999999
 31
0.0
  0
LINE
  5
6BE
330
1E
100
AcDbEntity
  8
0
100
AcDbLine
 10
46.305
 20
1216.97
 30
0.0
 11
46.6649
 21
1217.14
 31
0.0
  0
LINE
  5
6C0
330
1E
100
AcDbEntity
  8
0
100
AcDbLine
 10
46.5429
 20
1216.779999999999
 30
0.0
 11
47.2141
 21
1216.69
 31
0.0
  0
LINE
  5
6C4
330
1E
100
AcDbEntity
  8
0
100
AcDbLine
 10
46.1859
 20
1218.99
 30
0.0
 11
46.8231
 21
1218.89
 31
0.0
  0
LINE
  5
6C8
330
1E
100
AcDbEntity
  8
0
100
AcDbLine
 10
46.6649
 20
1217.14
 30
0.0
 11
47.38839999999998
 21
1217.21
 31
0.0
  0
LINE
  5
6CD
330
1E
100
AcDbEntity
  8
0
100
AcDbLine
 10
46.8231
 20
1218.89
 30
0.0
 11
46.99699999999999
 21
1218.69
 31
0.0
  0
LINE
  5
6CF
330
1E
100
AcDbEntity
  8
0
100
AcDbLine
 10
46.58
 20
1218.53
 30
0.0
 11
46.99699999999999
 21
1218.69
 31
0.0
  0
LINE
  5
6D5
330
1E
100
AcDbEntity
  8
0
100
AcDbLine
 10
45.9295
 20
1220.6
 30
0.0
 11
46.4973
 21
1220.73
 31
0.0
  0
LINE
  5
6D7
330
1E
100
AcDbEntity
  8
0
100
AcDbLine
 10
46.4973
 20
1220.73
 30
0.0
 11
47.2585
 21
1220.73
 31
0.0
  0
LINE
  5
6D9
330
1E
100
AcDbEntity
  8
0
100
AcDbLine
 10
46.4132
 20
1220.26
 30
0.0
 11
47.17439999999998
 21
1220.25
 31
0.0
  0
LINE
  5
6DB
330
1E
100
AcDbEntity
  8
0
100
AcDbLine
 10
45.90559999999999
 20
1220.41
 30
0.0
 11
45.9295
 21
1220.6
 31
0.0
  0
LINE
  5
6DC
330
1E
100
AcDbEntity
  8
0
100
AcDbLine
 10
45.90559999999999
 20
1220.41
 30
0.0
 11
46.4132
 21
1220.26
 31
0.0
  0
LINE
  5
6E1
330
1E
100
AcDbEntity
  8
0
100
AcDbLine
 10
47.2141
 20
1216.69
 30
0.0
 11
47.9376
 21
1216.75
 31
0.0
  0
LINE
  5
6E7
330
1E
100
AcDbEntity
  8
0
100
AcDbLine
 10
48.0596
 20
1217.109999999999
 30
0.0
 11
48.29740000000001
 21
1216.93
 31
0.0
  0
LINE
  5
6E9
330
1E
100
AcDbEntity
  8
0
100
AcDbLine
 10
47.38839999999998
 20
1217.21
 30
0.0
 11
48.0596
 21
1217.109999999999
 31
0.0
  0
LINE
  5
6EB
330
1E
100
AcDbEntity
  8
0
100
AcDbLine
 10
47.9376
 20
1216.75
 30
0.0
 11
48.29740000000001
 21
1216.93
 31
0.0
  0
LINE
  5
6F5
330
1E
100
AcDbEntity
  8
0
100
AcDbLine
 10
47.2585
 20
1220.73
 30
0.0
 11
47.7661
 21
1220.579999999999
 31
0.0
  0
LINE
  5
6F7
330
1E
100
AcDbEntity
  8
0
100
AcDbLine
 10
47.7421
 20
1220.38
 30
0.0
 11
47.7661
 21
1220.579999999999
 31
0.0
  0
LINE
  5
6F9
330
1E
100
AcDbEntity
  8
0
100
AcDbLine
 10
47.17439999999998
 20
1220.25
 30
0.0
 11
47.7421
 21
1220.38
 31
0.0
  0
LINE
  5
6FE
330
1E
100
AcDbEntity
  8
0
100
AcDbLine
 10
48.4097
 20
1222.18
 30
0.0
 11
48.8267
 21
1222.339999999999
 31
0.0
  0
LINE
  5
700
330
1E
100
AcDbEntity
  8
0
100
AcDbLine
 10
47.6682
 20
1222.13
 30
0.0
 11
48.4097
 21
1222.18
 31
0.0
  0
LINE
  5
702
330
1E
100
AcDbEntity
  8
0
100
AcDbLine
 10
47.0309
 20
1222.24
 30
0.0
 11
47.6682
 21
1222.13
 31
0.0
  0
LINE
  5
704
330
1E
100
AcDbEntity
  8
0
100
AcDbLine
 10
47.27399999999999
 20
1222.599999999999
 30
0.0
 11
48.0155
 21
1222.64
 31
0.0
  0
LINE
  5
70C
330
1E
100
AcDbEntity
  8
0
100
AcDbLine
 10
48.0155
 20
1222.64
 30
0.0
 11
48.6528
 21
1222.53
 31
0.0
  0
LINE
  5
70F
330
1E
100
AcDbEntity
  8
0
100
AcDbLine
 10
48.6528
 20
1222.53
 30
0.0
 11
48.8267
 21
1222.339999999999
 31
0.0
  0
LINE
  5
711
330
1E
100
AcDbEntity
  8
0
100
AcDbLine
 10
46.85699999999999
 20
1222.43
 30
0.0
 11
47.0309
 21
1222.24
 31
0.0
  0
LINE
  5
712
330
1E
100
AcDbEntity
  8
0
100
AcDbLine
 10
46.85699999999999
 20
1222.43
 30
0.0
 11
47.27399999999999
 21
1222.599999999999
 31
0.0
  0
LINE
  5
714
330
1E
100
AcDbEntity
  8
0
100
AcDbLine
 10
45.1524
 20
1224.94
 30
0.0
 11
45.3725
 21
1225.13
 31
0.0
  0
LINE
  5
71B
330
1E
100
AcDbEntity
  8
0
100
AcDbLine
 10
44.29999999999998
 20
1225.36
 30
0.0
 11
45.02909999999999
 21
1225.31
 31
0.0
  0
LINE
  5
71D
330
1E
100
AcDbEntity
  8
0
100
AcDbLine
 10
43.62029999999999
 20
1225.27
 30
0.0
 11
44.29999999999998
 21
1225.36
 31
0.0
  0
LINE
  5
71F
330
1E
100
AcDbEntity
  8
0
100
AcDbLine
 10
43.4001
 20
1225.09
 30
0.0
 11
43.74349999999998
 21
1224.91
 31
0.0
  0
LINE
  5
720
330
1E
100
AcDbEntity
  8
0
100
AcDbLine
 10
43.4001
 20
1225.09
 30
0.0
 11
43.62029999999999
 21
1225.27
 31
0.0
  0
LINE
  5
722
330
1E
100
AcDbEntity
  8
0
100
AcDbLine
 10
42.843
 20
1232.55
 30
0.0
 11
42.9517
 21
1232.74
 31
0.0
  0
LINE
  5
727
330
1E
100
AcDbEntity
  8
0
100
AcDbLine
 10
45.9295
 20
1228.11
 30
0.0
 11
46.4973
 21
1227.97
 31
0.0
  0
LINE
  5
72A
330
1E
100
AcDbEntity
  8
0
100
AcDbLine
 10
45.90559999999999
 20
1228.299999999999
 30
0.0
 11
45.9295
 21
1228.11
 31
0.0
  0
LINE
  5
72B
330
1E
100
AcDbEntity
  8
0
100
AcDbLine
 10
45.90559999999999
 20
1228.299999999999
 30
0.0
 11
46.4132
 21
1228.45
 31
0.0
  0
LINE
  5
72F
330
1E
100
AcDbEntity
  8
0
100
AcDbLine
 10
45.02909999999999
 20
1225.31
 30
0.0
 11
45.3725
 21
1225.13
 31
0.0
  0
LINE
  5
733
330
1E
100
AcDbEntity
  8
0
100
AcDbLine
 10
45.4444
 20
1230.24
 30
0.0
 11
46.1859
 21
1230.19
 31
0.0
  0
LINE
  5
735
330
1E
100
AcDbEntity
  8
0
100
AcDbLine
 10
46.1859
 20
1230.19
 30
0.0
 11
46.8231
 21
1230.299999999999
 31
0.0
  0
LINE
  5
739
330
1E
100
AcDbEntity
  8
0
100
AcDbLine
 10
45.8386
 20
1230.7
 30
0.0
 11
46.58
 21
1230.66
 31
0.0
  0
LINE
  5
73B
330
1E
100
AcDbEntity
  8
0
100
AcDbLine
 10
45.2013
 20
1230.59
 30
0.0
 11
45.8386
 21
1230.7
 31
0.0
  0
LINE
  5
73D
330
1E
100
AcDbEntity
  8
0
100
AcDbLine
 10
45.0274
 20
1230.4
 30
0.0
 11
45.2013
 21
1230.59
 31
0.0
  0
LINE
  5
73E
330
1E
100
AcDbEntity
  8
0
100
AcDbLine
 10
45.0274
 20
1230.4
 30
0.0
 11
45.4444
 21
1230.24
 31
0.0
  0
LINE
  5
743
330
1E
100
AcDbEntity
  8
0
100
AcDbLine
 10
43.4014
 20
1234.96
 30
0.0
 11
44.0386
 21
1235.07
 31
0.0
  0
LINE
  5
746
330
1E
100
AcDbEntity
  8
0
100
AcDbLine
 10
44.0386
 20
1235.07
 30
0.0
 11
44.21249999999999
 21
1235.26
 31
0.0
  0
LINE
  5
74A
330
1E
100
AcDbEntity
  8
0
100
AcDbLine
 10
43.7955
 20
1235.42
 30
0.0
 11
44.21249999999999
 21
1235.26
 31
0.0
  0
LINE
  5
74C
330
1E
100
AcDbEntity
  8
0
100
AcDbLine
 10
43.0541
 20
1235.47
 30
0.0
 11
43.7955
 21
1235.42
 31
0.0
  0
LINE
  5
751
330
1E
100
AcDbEntity
  8
0
100
AcDbLine
 10
46.4973
 20
1227.97
 30
0.0
 11
47.2585
 21
1227.98
 31
0.0
  0
LINE
  5
753
330
1E
100
AcDbEntity
  8
0
100
AcDbLine
 10
46.4132
 20
1228.45
 30
0.0
 11
47.17439999999998
 21
1228.46
 31
0.0
  0
LINE
  5
758
330
1E
100
AcDbEntity
  8
0
100
AcDbLine
 10
47.27399999999999
 20
1225.68
 30
0.0
 11
48.0155
 21
1225.64
 31
0.0
  0
LINE
  5
75B
330
1E
100
AcDbEntity
  8
0
100
AcDbLine
 10
47.2585
 20
1227.98
 30
0.0
 11
47.7661
 21
1228.13
 31
0.0
  0
LINE
  5
75E
330
1E
100
AcDbEntity
  8
0
100
AcDbLine
 10
47.17439999999998
 20
1228.46
 30
0.0
 11
47.7421
 21
1228.32
 31
0.0
  0
LINE
  5
761
330
1E
100
AcDbEntity
  8
0
100
AcDbLine
 10
47.0309
 20
1226.04
 30
0.0
 11
47.6682
 21
1226.15
 31
0.0
  0
LINE
  5
763
330
1E
100
AcDbEntity
  8
0
100
AcDbLine
 10
46.85699999999999
 20
1225.85
 30
0.0
 11
47.0309
 21
1226.04
 31
0.0
  0
LINE
  5
764
330
1E
100
AcDbEntity
  8
0
100
AcDbLine
 10
46.85699999999999
 20
1225.85
 30
0.0
 11
47.27399999999999
 21
1225.68
 31
0.0
  0
LINE
  5
769
330
1E
100
AcDbEntity
  8
0
100
AcDbLine
 10
46.8231
 20
1230.299999999999
 30
0.0
 11
46.99699999999999
 21
1230.49
 31
0.0
  0
LINE
  5
76B
330
1E
100
AcDbEntity
  8
0
100
AcDbLine
 10
46.58
 20
1230.66
 30
0.0
 11
46.99699999999999
 21
1230.49
 31
0.0
  0
LINE
  5
76E
330
1E
100
AcDbEntity
  8
0
100
AcDbLine
 10
46.6649
 20
1232.72
 30
0.0
 11
47.38839999999998
 21
1232.66
 31
0.0
  0
LINE
  5
772
330
1E
100
AcDbEntity
  8
0
100
AcDbLine
 10
48.0155
 20
1225.64
 30
0.0
 11
48.6528
 21
1225.74
 31
0.0
  0
LINE
  5
776
330
1E
100
AcDbEntity
  8
0
100
AcDbLine
 10
48.6528
 20
1225.74
 30
0.0
 11
48.8267
 21
1225.94
 31
0.0
  0
LINE
  5
778
330
1E
100
AcDbEntity
  8
0
100
AcDbLine
 10
48.4097
 20
1226.099999999999
 30
0.0
 11
48.8267
 21
1225.94
 31
0.0
  0
LINE
  5
77D
330
1E
100
AcDbEntity
  8
0
100
AcDbLine
 10
47.7421
 20
1228.32
 30
0.0
 11
47.7661
 21
1228.13
 31
0.0
  0
LINE
  5
782
330
1E
100
AcDbEntity
  8
0
100
AcDbLine
 10
47.6682
 20
1226.15
 30
0.0
 11
48.4097
 21
1226.099999999999
 31
0.0
  0
LINE
  5
784
330
1E
100
AcDbEntity
  8
0
100
AcDbLine
 10
47.38839999999998
 20
1232.66
 30
0.0
 11
48.0596
 21
1232.75
 31
0.0
  0
LINE
  5
785
330
1E
100
AcDbEntity
  8
0
100
AcDbLine
 10
48.0596
 20
1232.75
 30
0.0
 11
48.29740000000001
 21
1232.94
 31
0.0
  0
LINE
  5
78D
330
1E
100
AcDbEntity
  8
0
100
AcDbLine
 10
47.9376
 20
1233.109999999999
 30
0.0
 11
48.29740000000001
 21
1232.94
 31
0.0
  0
LINE
  5
790
330
1E
100
AcDbEntity
  8
0
100
AcDbLine
 10
47.2141
 20
1233.17
 30
0.0
 11
47.9376
 21
1233.109999999999
 31
0.0
  0
LINE
  5
793
330
1E
100
AcDbEntity
  8
0
100
AcDbLine
 10
46.5429
 20
1233.08
 30
0.0
 11
47.2141
 21
1233.17
 31
0.0
  0
LINE
  5
795
330
1E
100
AcDbEntity
  8
0
100
AcDbLine
 10
46.305
 20
1232.89
 30
0.0
 11
46.5429
 21
1233.08
 31
0.0
  0
LINE
  5
797
330
1E
100
AcDbEntity
  8
0
100
AcDbLine
 10
46.305
 20
1232.89
 30
0.0
 11
46.6649
 21
1232.72
 31
0.0
  0
LINE
  5
79A
330
1E
100
AcDbEntity
  8
0
100
AcDbLine
 10
49.0
 20
1223.95
 30
0.0
 11
49.29999999999999
 21
1223.76
 31
0.0
  0
LINE
  5
79B
330
1E
100
AcDbEntity
  8
0
100
AcDbLine
 10
49.0
 20
1223.95
 30
0.0
 11
49.29999999999999
 21
1224.13
 31
0.0
  0
LINE
  5
7A0
330
1E
100
AcDbEntity
  8
0
100
AcDbLine
 10
49.29999999999999
 20
1224.13
 30
0.0
 11
50.0
 21
1224.2
 31
0.0
  0
LINE
  5
7A2
330
1E
100
AcDbEntity
  8
0
100
AcDbLine
 10
50.0
 20
1223.69
 30
0.0
 11
50.7
 21
1223.76
 31
0.0
  0
LINE
  5
7A4
330
1E
100
AcDbEntity
  8
0
100
AcDbLine
 10
50.0
 20
1224.2
 30
0.0
 11
50.7
 21
1224.13
 31
0.0
  0
LINE
  5
7A6
330
1E
100
AcDbEntity
  8
0
100
AcDbLine
 10
49.29999999999999
 20
1223.76
 30
0.0
 11
50.0
 21
1223.69
 31
0.0
  0
LINE
  5
7A9
330
1E
100
AcDbEntity
  8
0
100
AcDbLine
 10
49.29999999999999
 20
1235.19
 30
0.0
 11
50.0
 21
1235.109999999999
 31
0.0
  0
LINE
  5
7AC
330
1E
100
AcDbEntity
  8
0
100
AcDbLine
 10
50.0
 20
1235.109999999999
 30
0.0
 11
50.7
 21
1235.19
 31
0.0
  0
LINE
  5
7B3
330
1E
100
AcDbEntity
  8
0
100
AcDbLine
 10
50.0
 20
1248.96
 30
0.0
 11
62.8
 21
1248.499999999999
 31
0.0
  0
LINE
  5
7B7
330
1E
100
AcDbEntity
  8
0
100
AcDbLine
 10
50.0
 20
1235.63
 30
0.0
 11
50.7
 21
1235.549999999999
 31
0.0
  0
LINE
  5
7BA
330
1E
100
AcDbEntity
  8
0
100
AcDbLine
 10
49.29999999999999
 20
1235.549999999999
 30
0.0
 11
50.0
 21
1235.63
 31
0.0
  0
LINE
  5
7BD
330
1E
100
AcDbEntity
  8
0
100
AcDbLine
 10
49.0
 20
1235.37
 30
0.0
 11
49.29999999999999
 21
1235.549999999999
 31
0.0
  0
LINE
  5
7BE
330
1E
100
AcDbEntity
  8
0
100
AcDbLine
 10
49.0
 20
1235.37
 30
0.0
 11
49.29999999999999
 21
1235.19
 31
0.0
  0
LINE
  5
7C1
330
1E
100
AcDbEntity
  8
0
100
AcDbLine
 10
44.21249999999999
 20
1215.752809829059
 30
0.0
 11
44.21249999999999
 21
1215.29
 31
0.0
  0
LINE
  5
7C4
330
1E
100
AcDbEntity
  8
0
100
AcDbLine
 10
50.7
 20
1215.359999999999
 30
0.0
 11
51.0
 21
1215.18
 31
0.0
  0
LINE
  5
7C6
330
1E
100
AcDbEntity
  8
0
100
AcDbLine
 10
50.7
 20
1215.0
 30
0.0
 11
51.0
 21
1215.18
 31
0.0
  0
LINE
  5
7CA
330
1E
100
AcDbEntity
  8
0
100
AcDbLine
 10
50.7
 20
1223.76
 30
0.0
 11
51.0
 21
1223.95
 31
0.0
  0
LINE
  5
7CC
330
1E
100
AcDbEntity
  8
0
100
AcDbLine
 10
50.7
 20
1224.13
 30
0.0
 11
51.0
 21
1223.95
 31
0.0
  0
LINE
  5
7D3
330
1E
100
AcDbEntity
  8
0
100
AcDbLine
 10
51.5
 20
1213.519999999999
 30
0.0
 11
51.5
 21
1213.799999999999
 31
0.0
  0
LINE
  5
7D4
330
1E
100
AcDbEntity
  8
0
100
AcDbLine
 10
51.5
 20
1213.799999999999
 30
0.0
 11
51.5
 21
1213.519999999999
 31
0.0
  0
LINE
  5
7D5
330
1E
100
AcDbEntity
  8
0
100
AcDbLine
 10
51.5
 20
1213.799999999999
 30
0.0
 11
51.5
 21
1214.15
 31
0.0
  0
LINE
  5
7D6
330
1E
100
AcDbEntity
  8
0
100
AcDbLine
 10
51.5
 20
1214.15
 30
0.0
 11
51.5
 21
1213.799999999999
 31
0.0
  0
LINE
  5
7D7
330
1E
100
AcDbEntity
  8
0
100
AcDbLine
 10
51.5
 20
1214.15
 30
0.0
 11
51.5
 21
1214.82
 31
0.0
  0
LINE
  5
7D8
330
1E
100
AcDbEntity
  8
0
100
AcDbLine
 10
51.5
 20
1214.82
 30
0.0
 11
51.5
 21
1214.15
 31
0.0
  0
LINE
  5
7D9
330
1E
100
AcDbEntity
  8
0
100
AcDbLine
 10
51.5
 20
1214.82
 30
0.0
 11
51.5
 21
1215.6746728972
 31
0.0
  0
LINE
  5
7DA
330
1E
100
AcDbEntity
  8
0
100
AcDbLine
 10
51.5
 20
1215.6746728972
 30
0.0
 11
51.5
 21
1214.82
 31
0.0
  0
LINE
  5
7DB
330
1E
100
AcDbEntity
  8
0
100
AcDbLine
 10
51.5
 20
1215.602564102558
 30
0.0
 11
55.7875
 21
1215.752809829059
 31
0.0
  0
LINE
  5
7DE
330
1E
100
AcDbEntity
  8
0
100
AcDbLine
 10
51.70259999999998
 20
1216.93
 30
0.0
 11
52.0624
 21
1216.75
 31
0.0
  0
LINE
  5
7E0
330
1E
100
AcDbEntity
  8
0
100
AcDbLine
 10
51.70259999999998
 20
1216.93
 30
0.0
 11
51.9404
 21
1217.109999999999
 31
0.0
  0
LINE
  5
7E3
330
1E
100
AcDbEntity
  8
0
100
AcDbLine
 10
51.7871
 20
1222.62
 30
0.0
 11
52.4244
 21
1222.72
 31
0.0
  0
LINE
  5
7E5
330
1E
100
AcDbEntity
  8
0
100
AcDbLine
 10
51.61319999999999
 20
1222.42
 30
0.0
 11
52.0302
 21
1222.26
 31
0.0
  0
LINE
  5
7E6
330
1E
100
AcDbEntity
  8
0
100
AcDbLine
 10
51.61319999999999
 20
1222.42
 30
0.0
 11
51.7871
 21
1222.62
 31
0.0
  0
LINE
  5
7EB
330
1E
100
AcDbEntity
  8
0
100
AcDbLine
 10
51.9404
 20
1217.109999999999
 30
0.0
 11
52.6116
 21
1217.21
 31
0.0
  0
LINE
  5
7EE
330
1E
100
AcDbEntity
  8
0
100
AcDbLine
 10
52.0302
 20
1222.26
 30
0.0
 11
52.7717
 21
1222.21
 31
0.0
  0
LINE
  5
7F0
330
1E
100
AcDbEntity
  8
0
100
AcDbLine
 10
51.7871
 20
1225.66
 30
0.0
 11
52.4244
 21
1225.55
 31
0.0
  0
LINE
  5
7F4
330
1E
100
AcDbEntity
  8
0
100
AcDbLine
 10
51.61319999999999
 20
1225.85
 30
0.0
 11
52.0302
 21
1226.02
 31
0.0
  0
LINE
  5
7F5
330
1E
100
AcDbEntity
  8
0
100
AcDbLine
 10
51.61319999999999
 20
1225.85
 30
0.0
 11
51.7871
 21
1225.66
 31
0.0
  0
LINE
  5
7F8
330
1E
100
AcDbEntity
  8
0
100
AcDbLine
 10
52.0624
 20
1216.75
 30
0.0
 11
52.7859
 21
1216.69
 31
0.0
  0
LINE
  5
7FE
330
1E
100
AcDbEntity
  8
0
100
AcDbLine
 10
52.6116
 20
1217.21
 30
0.0
 11
53.3351
 21
1217.14
 31
0.0
  0
LINE
  5
804
330
1E
100
AcDbEntity
  8
0
100
AcDbLine
 10
52.4244
 20
1222.72
 30
0.0
 11
53.1658
 21
1222.68
 31
0.0
  0
LINE
  5
807
330
1E
100
AcDbEntity
  8
0
100
AcDbLine
 10
52.4244
 20
1225.55
 30
0.0
 11
53.1658
 21
1225.6
 31
0.0
  0
LINE
  5
809
330
1E
100
AcDbEntity
  8
0
100
AcDbLine
 10
52.0302
 20
1226.02
 30
0.0
 11
52.7717
 21
1226.06
 31
0.0
  0
LINE
  5
80B
330
1E
100
AcDbEntity
  8
0
100
AcDbLine
 10
51.9404
 20
1232.75
 30
0.0
 11
52.6116
 21
1232.66
 31
0.0
  0
LINE
  5
80E
330
1E
100
AcDbEntity
  8
0
100
AcDbLine
 10
52.6116
 20
1232.66
 30
0.0
 11
53.3351
 21
1232.72
 31
0.0
  0
LINE
  5
810
330
1E
100
AcDbEntity
  8
0
100
AcDbLine
 10
52.7859
 20
1216.69
 30
0.0
 11
53.4571
 21
1216.779999999999
 31
0.0
  0
LINE
  5
812
330
1E
100
AcDbEntity
  8
0
100
AcDbLine
 10
53.003
 20
1218.69
 30
0.0
 11
53.42
 21
1218.53
 31
0.0
  0
LINE
  5
813
330
1E
100
AcDbEntity
  8
0
100
AcDbLine
 10
53.003
 20
1218.69
 30
0.0
 11
53.1769
 21
1218.89
 31
0.0
  0
LINE
  5
817
330
1E
100
AcDbEntity
  8
0
100
AcDbLine
 10
52.86229999999999
 20
1220.63
 30
0.0
 11
52.8863
 21
1220.43
 31
0.0
  0
LINE
  5
818
330
1E
100
AcDbEntity
  8
0
100
AcDbLine
 10
52.86229999999999
 20
1220.63
 30
0.0
 11
53.36999999999999
 21
1220.78
 31
0.0
  0
LINE
  5
81A
330
1E
100
AcDbEntity
  8
0
100
AcDbLine
 10
52.8863
 20
1220.43
 30
0.0
 11
53.45399999999999
 21
1220.299999999999
 31
0.0
  0
LINE
  5
81C
330
1E
100
AcDbEntity
  8
0
100
AcDbLine
 10
52.7717
 20
1222.21
 30
0.0
 11
53.409
 21
1222.32
 31
0.0
  0
LINE
  5
81E
330
1E
100
AcDbEntity
  8
0
100
AcDbLine
 10
52.86229999999999
 20
1228.08
 30
0.0
 11
52.8863
 21
1228.28
 31
0.0
  0
LINE
  5
81F
330
1E
100
AcDbEntity
  8
0
100
AcDbLine
 10
52.86229999999999
 20
1228.08
 30
0.0
 11
53.36999999999999
 21
1227.93
 31
0.0
  0
LINE
  5
823
330
1E
100
AcDbEntity
  8
0
100
AcDbLine
 10
52.8863
 20
1228.28
 30
0.0
 11
53.45399999999999
 21
1228.41
 31
0.0
  0
LINE
  5
826
330
1E
100
AcDbEntity
  8
0
100
AcDbLine
 10
52.7717
 20
1226.06
 30
0.0
 11
53.409
 21
1225.96
 31
0.0
  0
LINE
  5
829
330
1E
100
AcDbEntity
  8
0
100
AcDbLine
 10
53.1658
 20
1222.68
 30
0.0
 11
53.5828
 21
1222.509999999998
 31
0.0
  0
LINE
  5
82E
330
1E
100
AcDbEntity
  8
0
100
AcDbLine
 10
53.3351
 20
1217.14
 30
0.0
 11
53.695
 21
1216.97
 31
0.0
  0
LINE
  5
830
330
1E
100
AcDbEntity
  8
0
100
AcDbLine
 10
53.1769
 20
1218.89
 30
0.0
 11
53.8141
 21
1218.99
 31
0.0
  0
LINE
  5
833
330
1E
100
AcDbEntity
  8
0
100
AcDbLine
 10
53.36999999999999
 20
1220.78
 30
0.0
 11
54.1312
 21
1220.78
 31
0.0
  0
LINE
  5
838
330
1E
100
AcDbEntity
  8
0
100
AcDbLine
 10
53.4571
 20
1216.779999999999
 30
0.0
 11
53.695
 21
1216.97
 31
0.0
  0
LINE
  5
83A
330
1E
100
AcDbEntity
  8
0
100
AcDbLine
 10
53.42
 20
1218.53
 30
0.0
 11
54.1614
 21
1218.48
 31
0.0
  0
LINE
  5
83D
330
1E
100
AcDbEntity
  8
0
100
AcDbLine
 10
53.45399999999999
 20
1220.299999999999
 30
0.0
 11
54.21520000000001
 21
1220.31
 31
0.0
  0
LINE
  5
842
330
1E
100
AcDbEntity
  8
0
100
AcDbLine
 10
53.8141
 20
1218.99
 30
0.0
 11
54.5556
 21
1218.95
 31
0.0
  0
LINE
  5
846
330
1E
100
AcDbEntity
  8
0
100
AcDbLine
 10
53.409
 20
1222.32
 30
0.0
 11
53.5828
 21
1222.509999999998
 31
0.0
  0
LINE
  5
849
330
1E
100
AcDbEntity
  8
0
100
AcDbLine
 10
53.1658
 20
1225.6
 30
0.0
 11
53.5828
 21
1225.76
 31
0.0
  0
LINE
  5
84D
330
1E
100
AcDbEntity
  8
0
100
AcDbLine
 10
53.36999999999999
 20
1227.93
 30
0.0
 11
54.1312
 21
1227.93
 31
0.0
  0
LINE
  5
84F
330
1E
100
AcDbEntity
  8
0
100
AcDbLine
 10
53.45399999999999
 20
1228.41
 30
0.0
 11
54.21520000000001
 21
1228.4
 31
0.0
  0
LINE
  5
853
330
1E
100
AcDbEntity
  8
0
100
AcDbLine
 10
53.409
 20
1225.96
 30
0.0
 11
53.5828
 21
1225.76
 31
0.0
  0
LINE
  5
856
330
1E
100
AcDbEntity
  8
0
100
AcDbLine
 10
54.1614
 20
1218.48
 30
0.0
 11
54.7987
 21
1218.59
 31
0.0
  0
LINE
  5
85A
330
1E
100
AcDbEntity
  8
0
100
AcDbLine
 10
54.1312
 20
1220.78
 30
0.0
 11
54.6989
 21
1220.65
 31
0.0
  0
LINE
  5
85D
330
1E
100
AcDbEntity
  8
0
100
AcDbLine
 10
54.5556
 20
1218.95
 30
0.0
 11
54.9726
 21
1218.779999999998
 31
0.0
  0
LINE
  5
85F
330
1E
100
AcDbEntity
  8
0
100
AcDbLine
 10
54.21520000000001
 20
1220.31
 30
0.0
 11
54.7228
 21
1220.45
 31
0.0
  0
LINE
  5
864
330
1E
100
AcDbEntity
  8
0
100
AcDbLine
 10
54.7987
 20
1218.59
 30
0.0
 11
54.9726
 21
1218.779999999998
 31
0.0
  0
LINE
  5
868
330
1E
100
AcDbEntity
  8
0
100
AcDbLine
 10
54.6989
 20
1220.65
 30
0.0
 11
54.7228
 21
1220.45
 31
0.0
  0
LINE
  5
86B
330
1E
100
AcDbEntity
  8
0
100
AcDbLine
 10
54.8476
 20
1223.34
 30
0.0
 11
55.5274
 21
1223.42
 31
0.0
  0
LINE
  5
86D
330
1E
100
AcDbEntity
  8
0
100
AcDbLine
 10
54.62749999999999
 20
1223.15
 30
0.0
 11
54.9709
 21
1222.97
 31
0.0
  0
LINE
  5
86E
330
1E
100
AcDbEntity
  8
0
100
AcDbLine
 10
54.62749999999999
 20
1223.15
 30
0.0
 11
54.8476
 21
1223.34
 31
0.0
  0
LINE
  5
872
330
1E
100
AcDbEntity
  8
0
100
AcDbLine
 10
54.9709
 20
1222.97
 30
0.0
 11
55.7
 21
1222.91
 31
0.0
  0
LINE
  5
874
330
1E
100
AcDbEntity
  8
0
100
AcDbLine
 10
54.8476
 20
1224.94
 30
0.0
 11
55.5274
 21
1224.849999999999
 31
0.0
  0
LINE
  5
876
330
1E
100
AcDbEntity
  8
0
100
AcDbLine
 10
54.62749999999999
 20
1225.13
 30
0.0
 11
54.9709
 21
1225.31
 31
0.0
  0
LINE
  5
877
330
1E
100
AcDbEntity
  8
0
100
AcDbLine
 10
54.62749999999999
 20
1225.13
 30
0.0
 11
54.8476
 21
1224.94
 31
0.0
  0
LINE
  5
87B
330
1E
100
AcDbEntity
  8
0
100
AcDbLine
 10
55.7875
 20
1215.83094626168
 30
0.0
 11
55.7875
 21
1215.29
 31
0.0
  0
LINE
  5
87C
330
1E
100
AcDbEntity
  8
0
100
AcDbLine
 10
55.9614
 20
1215.48
 30
0.0
 11
56.5986
 21
1215.589999999999
 31
0.0
  0
LINE
  5
87E
330
1E
100
AcDbEntity
  8
0
100
AcDbLine
 10
55.7875
 20
1215.29
 30
0.0
 11
56.2045
 21
1215.119999999999
 31
0.0
  0
LINE
  5
87F
330
1E
100
AcDbEntity
  8
0
100
AcDbLine
 10
55.7875
 20
1215.29
 30
0.0
 11
55.9614
 21
1215.48
 31
0.0
  0
LINE
  5
880
330
1E
100
AcDbEntity
  8
0
100
AcDbLine
 10
55.7875
 20
1215.29
 30
0.0
 11
55.7875
 21
1215.83094626168
 31
0.0
  0
LINE
  5
883
330
1E
100
AcDbEntity
  8
0
100
AcDbLine
 10
55.5274
 20
1223.42
 30
0.0
 11
56.2565
 21
1223.37
 31
0.0
  0
LINE
  5
885
330
1E
100
AcDbEntity
  8
0
100
AcDbLine
 10
55.7
 20
1222.91
 30
0.0
 11
56.3797
 21
1223.0
 31
0.0
  0
LINE
  5
887
330
1E
100
AcDbEntity
  8
0
100
AcDbLine
 10
56.2045
 20
1215.119999999999
 30
0.0
 11
56.9459
 21
1215.08
 31
0.0
  0
LINE
  5
88A
330
1E
100
AcDbEntity
  8
0
100
AcDbLine
 10
56.2565
 20
1223.37
 30
0.0
 11
56.5999
 21
1223.19
 31
0.0
  0
LINE
  5
88C
330
1E
100
AcDbEntity
  8
0
100
AcDbLine
 10
56.0
 20
1224.14
 30
0.0
 11
56.29999999999999
 21
1224.32
 31
0.0
  0
LINE
  5
88D
330
1E
100
AcDbEntity
  8
0
100
AcDbLine
 10
56.0
 20
1224.14
 30
0.0
 11
56.29999999999999
 21
1223.96
 31
0.0
  0
LINE
  5
891
330
1E
100
AcDbEntity
  8
0
100
AcDbLine
 10
55.5274
 20
1224.849999999999
 30
0.0
 11
56.2565
 21
1224.91
 31
0.0
  0
LINE
  5
892
330
1E
100
AcDbEntity
  8
0
100
AcDbLine
 10
54.9709
 20
1225.31
 30
0.0
 11
55.7
 21
1225.36
 31
0.0
  0
LINE
  5
897
330
1E
100
AcDbEntity
  8
0
100
AcDbLine
 10
54.1312
 20
1227.93
 30
0.0
 11
54.6989
 21
1228.06
 31
0.0
  0
LINE
  5
89A
330
1E
100
AcDbEntity
  8
0
100
AcDbLine
 10
54.21520000000001
 20
1228.4
 30
0.0
 11
54.7228
 21
1228.25
 31
0.0
  0
LINE
  5
89E
330
1E
100
AcDbEntity
  8
0
100
AcDbLine
 10
54.6989
 20
1228.06
 30
0.0
 11
54.7228
 21
1228.25
 31
0.0
  0
LINE
  5
8A2
330
1E
100
AcDbEntity
  8
0
100
AcDbLine
 10
55.7
 20
1225.36
 30
0.0
 11
56.3797
 21
1225.27
 31
0.0
  0
LINE
  5
8A6
330
1E
100
AcDbEntity
  8
0
100
AcDbLine
 10
56.5986
 20
1215.589999999999
 30
0.0
 11
57.3401
 21
1215.54
 31
0.0
  0
LINE
  5
8AB
330
1E
100
AcDbEntity
  8
0
100
AcDbLine
 10
56.3797
 20
1223.0
 30
0.0
 11
56.5999
 21
1223.19
 31
0.0
  0
LINE
  5
8AD
330
1E
100
AcDbEntity
  8
0
100
AcDbLine
 10
56.29999999999999
 20
1223.96
 30
0.0
 11
57.0
 21
1223.88
 31
0.0
  0
LINE
  5
8B0
330
1E
100
AcDbEntity
  8
0
100
AcDbLine
 10
56.29999999999999
 20
1224.32
 30
0.0
 11
57.0
 21
1224.4
 31
0.0
  0
LINE
  5
8B3
330
1E
100
AcDbEntity
  8
0
100
AcDbLine
 10
56.9459
 20
1215.08
 30
0.0
 11
57.5832
 21
1215.18
 31
0.0
  0
LINE
  5
8B7
330
1E
100
AcDbEntity
  8
0
100
AcDbLine
 10
57.157
 20
1217.319999999999
 30
0.0
 11
57.75549999999999
 21
1217.44
 31
0.0
  0
LINE
  5
8B9
330
1E
100
AcDbEntity
  8
0
100
AcDbLine
 10
57.0483
 20
1217.119999999999
 30
0.0
 11
57.5193
 21
1216.97
 31
0.0
  0
LINE
  5
8BA
330
1E
100
AcDbEntity
  8
0
100
AcDbLine
 10
57.0483
 20
1217.119999999999
 30
0.0
 11
57.157
 21
1217.319999999999
 31
0.0
  0
LINE
  5
8BC
330
1E
100
AcDbEntity
  8
0
100
AcDbLine
 10
57.0
 20
1224.4
 30
0.0
 11
57.7
 21
1224.32
 31
0.0
  0
LINE
  5
8BE
330
1E
100
AcDbEntity
  8
0
100
AcDbLine
 10
57.0
 20
1223.88
 30
0.0
 11
57.7
 21
1223.96
 31
0.0
  0
LINE
  5
8C3
330
1E
100
AcDbEntity
  8
0
100
AcDbLine
 10
56.3797
 20
1225.27
 30
0.0
 11
56.5999
 21
1225.09
 31
0.0
  0
LINE
  5
8C5
330
1E
100
AcDbEntity
  8
0
100
AcDbLine
 10
56.2565
 20
1224.91
 30
0.0
 11
56.5999
 21
1225.09
 31
0.0
  0
LINE
  5
8C7
330
1E
100
AcDbEntity
  8
0
100
AcDbLine
 10
54.5556
 20
1230.24
 30
0.0
 11
54.9726
 21
1230.4
 31
0.0
  0
LINE
  5
8C9
330
1E
100
AcDbEntity
  8
0
100
AcDbLine
 10
53.8141
 20
1230.19
 30
0.0
 11
54.5556
 21
1230.24
 31
0.0
  0
LINE
  5
8CF
330
1E
100
AcDbEntity
  8
0
100
AcDbLine
 10
53.1769
 20
1230.299999999999
 30
0.0
 11
53.8141
 21
1230.19
 31
0.0
  0
LINE
  5
8D1
330
1E
100
AcDbEntity
  8
0
100
AcDbLine
 10
53.003
 20
1230.49
 30
0.0
 11
53.42
 21
1230.66
 31
0.0
  0
LINE
  5
8D2
330
1E
100
AcDbEntity
  8
0
100
AcDbLine
 10
53.003
 20
1230.49
 30
0.0
 11
53.1769
 21
1230.299999999999
 31
0.0
  0
LINE
  5
8D7
330
1E
100
AcDbEntity
  8
0
100
AcDbLine
 10
53.42
 20
1230.66
 30
0.0
 11
54.1614
 21
1230.7
 31
0.0
  0
LINE
  5
8DB
330
1E
100
AcDbEntity
  8
0
100
AcDbLine
 10
54.1614
 20
1230.7
 30
0.0
 11
54.7987
 21
1230.59
 31
0.0
  0
LINE
  5
8DD
330
1E
100
AcDbEntity
  8
0
100
AcDbLine
 10
54.7987
 20
1230.59
 30
0.0
 11
54.9726
 21
1230.4
 31
0.0
  0
LINE
  5
8E1
330
1E
100
AcDbEntity
  8
0
100
AcDbLine
 10
57.3401
 20
1215.54
 30
0.0
 11
57.7571
 21
1215.38
 31
0.0
  0
LINE
  5
8E3
330
1E
100
AcDbEntity
  8
0
100
AcDbLine
 10
57.5832
 20
1215.18
 30
0.0
 11
57.7571
 21
1215.38
 31
0.0
  0
LINE
  5
8E6
330
1E
100
AcDbEntity
  8
0
100
AcDbLine
 10
57.5193
 20
1216.97
 30
0.0
 11
58.2731
 21
1216.94
 31
0.0
  0
LINE
  5
8EA
330
1E
100
AcDbEntity
  8
0
100
AcDbLine
 10
57.7
 20
1224.32
 30
0.0
 11
58.0
 21
1224.14
 31
0.0
  0
LINE
  5
8EC
330
1E
100
AcDbEntity
  8
0
100
AcDbLine
 10
57.7571
 20
1215.82183
 30
0.0
 11
61.7
 21
1215.96
 31
0.0
  0
LINE
  5
8F2
330
1E
100
AcDbEntity
  8
0
100
AcDbLine
 10
58.0954
 20
1221.3
 30
0.0
 11
58.3783
 21
1221.119999999999
 31
0.0
  0
LINE
  5
8F3
330
1E
100
AcDbEntity
  8
0
100
AcDbLine
 10
58.0954
 20
1221.3
 30
0.0
 11
58.3783
 21
1221.49
 31
0.0
  0
LINE
  5
8F6
330
1E
100
AcDbEntity
  8
0
100
AcDbLine
 10
57.75549999999999
 20
1217.44
 30
0.0
 11
58.5093
 21
1217.41
 31
0.0
  0
LINE
  5
8FA
330
1E
100
AcDbEntity
  8
0
100
AcDbLine
 10
58.3783
 20
1221.49
 30
0.0
 11
59.0854
 21
1221.56
 31
0.0
  0
LINE
  5
8FC
330
1E
100
AcDbEntity
  8
0
100
AcDbLine
 10
58.3783
 20
1221.119999999999
 30
0.0
 11
59.0854
 21
1221.049999999999
 31
0.0
  0
LINE
  5
8FE
330
1E
100
AcDbEntity
  8
0
100
AcDbLine
 10
58.2731
 20
1216.94
 30
0.0
 11
58.8716
 21
1217.06
 31
0.0
  0
LINE
  5
902
330
1E
100
AcDbEntity
  8
0
100
AcDbLine
 10
57.7
 20
1223.96
 30
0.0
 11
58.0
 21
1224.14
 31
0.0
  0
LINE
  5
905
330
1E
100
AcDbEntity
  8
0
100
AcDbLine
 10
58.3783
 20
1227.219999999999
 30
0.0
 11
59.0854
 21
1227.15
 31
0.0
  0
LINE
  5
907
330
1E
100
AcDbEntity
  8
0
100
AcDbLine
 10
58.0954
 20
1227.4
 30
0.0
 11
58.3783
 21
1227.59
 31
0.0
  0
LINE
  5
908
330
1E
100
AcDbEntity
  8
0
100
AcDbLine
 10
58.0954
 20
1227.4
 30
0.0
 11
58.3783
 21
1227.219999999999
 31
0.0
  0
LINE
  5
90C
330
1E
100
AcDbEntity
  8
0
100
AcDbLine
 10
58.5093
 20
1217.41
 30
0.0
 11
58.9802
 21
1217.26
 31
0.0
  0
LINE
  5
90F
330
1E
100
AcDbEntity
  8
0
100
AcDbLine
 10
59.0854
 20
1221.049999999999
 30
0.0
 11
59.7925
 21
1221.119999999999
 31
0.0
  0
LINE
  5
913
330
1E
100
AcDbEntity
  8
0
100
AcDbLine
 10
59.0854
 20
1221.56
 30
0.0
 11
59.7925
 21
1221.49
 31
0.0
  0
LINE
  5
915
330
1E
100
AcDbEntity
  8
0
100
AcDbLine
 10
59.7925
 20
1221.119999999999
 30
0.0
 11
60.0753
 21
1221.3
 31
0.0
  0
LINE
  5
917
330
1E
100
AcDbEntity
  8
0
100
AcDbLine
 10
59.7925
 20
1221.49
 30
0.0
 11
60.0753
 21
1221.3
 31
0.0
  0
LINE
  5
91A
330
1E
100
AcDbEntity
  8
0
100
AcDbLine
 10
58.8716
 20
1217.06
 30
0.0
 11
58.9802
 21
1217.26
 31
0.0
  0
LINE
  5
91D
330
1E
100
AcDbEntity
  8
0
100
AcDbLine
 10
59.0854
 20
1227.15
 30
0.0
 11
59.7925
 21
1227.219999999999
 31
0.0
  0
LINE
  5
91E
330
1E
100
AcDbEntity
  8
0
100
AcDbLine
 10
58.3783
 20
1227.59
 30
0.0
 11
59.0854
 21
1227.66
 31
0.0
  0
LINE
  5
924
330
1E
100
AcDbEntity
  8
0
100
AcDbLine
 10
59.0854
 20
1227.66
 30
0.0
 11
59.7925
 21
1227.59
 31
0.0
  0
LINE
  5
926
330
1E
100
AcDbEntity
  8
0
100
AcDbLine
 10
59.7925
 20
1227.59
 30
0.0
 11
60.0753
 21
1227.4
 31
0.0
  0
LINE
  5
92B
330
1E
100
AcDbEntity
  8
0
100
AcDbLine
 10
60.5262
 20
1219.51
 30
0.0
 11
60.6164
 21
1219.319999999999
 31
0.0
  0
LINE
  5
92C
330
1E
100
AcDbEntity
  8
0
100
AcDbLine
 10
60.5262
 20
1219.51
 30
0.0
 11
60.9824
 21
1219.67
 31
0.0
  0
LINE
  5
92E
330
1E
100
AcDbEntity
  8
0
100
AcDbLine
 10
60.6164
 20
1219.319999999999
 30
0.0
 11
61.2262
 21
1219.2
 31
0.0
  0
LINE
  5
933
330
1E
100
AcDbEntity
  8
0
100
AcDbLine
 10
59.7925
 20
1227.219999999999
 30
0.0
 11
60.0753
 21
1227.4
 31
0.0
  0
LINE
  5
935
330
1E
100
AcDbEntity
  8
0
100
AcDbLine
 10
60.5262
 20
1229.67
 30
0.0
 11
60.6164
 21
1229.87
 31
0.0
  0
LINE
  5
936
330
1E
100
AcDbEntity
  8
0
100
AcDbLine
 10
60.5262
 20
1229.67
 30
0.0
 11
60.9824
 21
1229.51
 31
0.0
  0
LINE
  5
938
330
1E
100
AcDbEntity
  8
0
100
AcDbLine
 10
61.7
 20
1215.96
 30
0.0
 11
62.3991
 21
1216.03504100917
 31
0.0
  0
LINE
  5
93D
330
1E
100
AcDbEntity
  8
0
100
AcDbLine
 10
61.7386
 20
1219.69
 30
0.0
 11
62.3484
 21
1219.57
 31
0.0
  0
LINE
  5
93F
330
1E
100
AcDbEntity
  8
0
100
AcDbLine
 10
60.9824
 20
1219.67
 30
0.0
 11
61.7386
 21
1219.69
 31
0.0
  0
LINE
  5
941
330
1E
100
AcDbEntity
  8
0
100
AcDbLine
 10
61.2262
 20
1219.2
 30
0.0
 11
61.9824
 21
1219.219999999999
 31
0.0
  0
LINE
  5
944
330
1E
100
AcDbEntity
  8
0
100
AcDbLine
 10
61.9824
 20
1219.219999999999
 30
0.0
 11
62.4386
 21
1219.38
 31
0.0
  0
LINE
  5
947
330
1E
100
AcDbEntity
  8
0
100
AcDbLine
 10
61.9741
 20
1226.32
 30
0.0
 11
62.4818
 21
1226.47
 31
0.0
  0
LINE
  5
948
330
1E
100
AcDbEntity
  8
0
100
AcDbLine
 10
61.9741
 20
1226.32
 30
0.0
 11
61.9981
 21
1226.119999999998
 31
0.0
  0
LINE
  5
94A
330
1E
100
AcDbEntity
  8
0
100
AcDbLine
 10
61.7386
 20
1229.49
 30
0.0
 11
62.3484
 21
1229.61
 31
0.0
  0
LINE
  5
94E
330
1E
100
AcDbEntity
  8
0
100
AcDbLine
 10
60.9824
 20
1229.51
 30
0.0
 11
61.7386
 21
1229.49
 31
0.0
  0
LINE
  5
950
330
1E
100
AcDbEntity
  8
0
100
AcDbLine
 10
60.6164
 20
1229.87
 30
0.0
 11
61.2262
 21
1229.99
 31
0.0
  0
LINE
  5
956
330
1E
100
AcDbEntity
  8
0
100
AcDbLine
 10
61.2262
 20
1229.99
 30
0.0
 11
61.9824
 21
1229.96
 31
0.0
  0
LINE
  5
959
330
1E
100
AcDbEntity
  8
0
100
AcDbLine
 10
61.9981
 20
1226.119999999998
 30
0.0
 11
62.5658
 21
1225.99
 31
0.0
  0
LINE
  5
95B
330
1E
100
AcDbEntity
  8
0
100
AcDbLine
 10
61.9824
 20
1229.96
 30
0.0
 11
62.4386
 21
1229.81
 31
0.0
  0
LINE
  5
95F
330
1E
100
AcDbEntity
  8
0
100
AcDbLine
 10
58.5093
 20
1232.45
 30
0.0
 11
58.9802
 21
1232.609999999999
 31
0.0
  0
LINE
  5
961
330
1E
100
AcDbEntity
  8
0
100
AcDbLine
 10
57.75549999999999
 20
1232.42
 30
0.0
 11
58.5093
 21
1232.45
 31
0.0
  0
LINE
  5
963
330
1E
100
AcDbEntity
  8
0
100
AcDbLine
 10
57.157
 20
1232.55
 30
0.0
 11
57.75549999999999
 21
1232.42
 31
0.0
  0
LINE
  5
965
330
1E
100
AcDbEntity
  8
0
100
AcDbLine
 10
57.0483
 20
1232.74
 30
0.0
 11
57.5193
 21
1232.89
 31
0.0
  0
LINE
  5
966
330
1E
100
AcDbEntity
  8
0
100
AcDbLine
 10
57.0483
 20
1232.74
 30
0.0
 11
57.157
 21
1232.55
 31
0.0
  0
LINE
  5
967
330
1E
100
AcDbEntity
  8
0
100
AcDbLine
 10
57.5193
 20
1232.89
 30
0.0
 11
58.2731
 21
1232.92
 31
0.0
  0
LINE
  5
969
330
1E
100
AcDbEntity
  8
0
100
AcDbLine
 10
58.2731
 20
1232.92
 30
0.0
 11
58.8716
 21
1232.8
 31
0.0
  0
LINE
  5
96B
330
1E
100
AcDbEntity
  8
0
100
AcDbLine
 10
58.8716
 20
1232.8
 30
0.0
 11
58.9802
 21
1232.609999999999
 31
0.0
  0
LINE
  5
96E
330
1E
100
AcDbEntity
  8
0
100
AcDbLine
 10
53.3351
 20
1232.72
 30
0.0
 11
53.695
 21
1232.89
 31
0.0
  0
LINE
  5
976
330
1E
100
AcDbEntity
  8
0
100
AcDbLine
 10
53.4571
 20
1233.08
 30
0.0
 11
53.695
 21
1232.89
 31
0.0
  0
LINE
  5
97C
330
1E
100
AcDbEntity
  8
0
100
AcDbLine
 10
57.3401
 20
1235.0
 30
0.0
 11
57.7571
 21
1235.17
 31
0.0
  0
LINE
  5
97E
330
1E
100
AcDbEntity
  8
0
100
AcDbLine
 10
56.5986
 20
1234.96
 30
0.0
 11
57.3401
 21
1235.0
 31
0.0
  0
LINE
  5
980
330
1E
100
AcDbEntity
  8
0
100
AcDbLine
 10
55.9614
 20
1235.07
 30
0.0
 11
56.5986
 21
1234.96
 31
0.0
  0
LINE
  5
982
330
1E
100
AcDbEntity
  8
0
100
AcDbLine
 10
55.7875
 20
1235.26
 30
0.0
 11
56.2045
 21
1235.42
 31
0.0
  0
LINE
  5
983
330
1E
100
AcDbEntity
  8
0
100
AcDbLine
 10
55.7875
 20
1235.26
 30
0.0
 11
55.9614
 21
1235.07
 31
0.0
  0
LINE
  5
986
330
1E
100
AcDbEntity
  8
0
100
AcDbLine
 10
57.5832
 20
1235.36
 30
0.0
 11
57.7571
 21
1235.17
 31
0.0
  0
LINE
  5
98C
330
1E
100
AcDbEntity
  8
0
100
AcDbLine
 10
52.7859
 20
1233.17
 30
0.0
 11
53.4571
 21
1233.08
 31
0.0
  0
LINE
  5
98F
330
1E
100
AcDbEntity
  8
0
100
AcDbLine
 10
52.0624
 20
1233.109999999999
 30
0.0
 11
52.7859
 21
1233.17
 31
0.0
  0
LINE
  5
992
330
1E
100
AcDbEntity
  8
0
100
AcDbLine
 10
51.70259999999998
 20
1232.94
 30
0.0
 11
52.0624
 21
1233.109999999999
 31
0.0
  0
LINE
  5
993
330
1E
100
AcDbEntity
  8
0
100
AcDbLine
 10
51.70259999999998
 20
1232.94
 30
0.0
 11
51.9404
 21
1232.75
 31
0.0
  0
LINE
  5
995
330
1E
100
AcDbEntity
  8
0
100
AcDbLine
 10
56.2045
 20
1235.42
 30
0.0
 11
56.9459
 21
1235.47
 31
0.0
  0
LINE
  5
997
330
1E
100
AcDbEntity
  8
0
100
AcDbLine
 10
56.9459
 20
1235.47
 30
0.0
 11
57.5832
 21
1235.36
 31
0.0
  0
LINE
  5
99A
330
1E
100
AcDbEntity
  8
0
100
AcDbLine
 10
50.7
 20
1235.19
 30
0.0
 11
51.0
 21
1235.37
 31
0.0
  0
LINE
  5
9A3
330
1E
100
AcDbEntity
  8
0
100
AcDbLine
 10
50.7
 20
1235.549999999999
 30
0.0
 11
51.0
 21
1235.37
 31
0.0
  0
LINE
  5
9A5
330
1E
100
AcDbEntity
  8
0
100
AcDbLine
 10
50.0
 20
1249.19
 30
0.0
 11
62.6
 21
1248.72
 31
0.0
  0
LINE
  5
9A6
330
1E
100
AcDbEntity
  8
0
100
AcDbLine
 10
57.2
 20
1264.74
 30
0.0
 11
63.9
 21
1264.04
 31
0.0
  0
LINE
  5
9A7
330
1E
100
AcDbEntity
  8
0
100
AcDbLine
 10
50.0
 20
1265.0
 30
0.0
 11
57.2
 21
1264.74
 31
0.0
  0
LINE
  5
9A8
330
1E
100
AcDbEntity
  8
0
100
AcDbLine
 10
50.0
 20
1249.93
 30
0.0
 11
62.8
 21
1249.46
 31
0.0
  0
LINE
  5
9AB
330
1E
100
AcDbEntity
  8
0
100
AcDbLine
 10
62.15600000000002
 20
1217.76
 30
0.0
 11
62.17999999999999
 21
1217.559999999999
 31
0.0
  0
LINE
  5
9AC
330
1E
100
AcDbEntity
  8
0
100
AcDbLine
 10
62.15600000000002
 20
1217.76
 30
0.0
 11
62.6637
 21
1217.9
 31
0.0
  0
LINE
  5
9AE
330
1E
100
AcDbEntity
  8
0
100
AcDbLine
 10
62.17999999999999
 20
1217.559999999999
 30
0.0
 11
62.7477
 21
1217.43
 31
0.0
  0
LINE
  5
9B3
330
1E
100
AcDbEntity
  8
0
100
AcDbLine
 10
62.4416
 20
1215.9
 30
0.0
 11
62.9968
 21
1216.029999999999
 31
0.0
  0
LINE
  5
9B5
330
1E
100
AcDbEntity
  8
0
100
AcDbLine
 10
62.3991
 20
1215.7
 30
0.0
 11
62.9204
 21
1215.55
 31
0.0
  0
LINE
  5
9B6
330
1E
100
AcDbEntity
  8
0
100
AcDbLine
 10
62.3991
 20
1215.7
 30
0.0
 11
62.4416
 21
1215.9
 31
0.0
  0
LINE
  5
9BA
330
1E
100
AcDbEntity
  8
0
100
AcDbLine
 10
63.7572
 20
1216.02
 30
0.0
 11
64.27849999999999
 21
1215.88
 31
0.0
  0
LINE
  5
9BE
330
1E
100
AcDbEntity
  8
0
100
AcDbLine
 10
62.9968
 20
1216.029999999999
 30
0.0
 11
63.7572
 21
1216.02
 31
0.0
  0
LINE
  5
9C0
330
1E
100
AcDbEntity
  8
0
100
AcDbLine
 10
62.9204
 20
1215.55
 30
0.0
 11
63.68079999999999
 21
1215.54
 31
0.0
  0
LINE
  5
9C2
330
1E
100
AcDbEntity
  8
0
100
AcDbLine
 10
63.68079999999999
 20
1215.54
 30
0.0
 11
64.236
 21
1215.68
 31
0.0
  0
LINE
  5
9C4
330
1E
100
AcDbEntity
  8
0
100
AcDbLine
 10
62.7477
 20
1217.43
 30
0.0
 11
63.50889999999999
 21
1217.43
 31
0.0
  0
LINE
  5
9CA
330
1E
100
AcDbEntity
  8
0
100
AcDbLine
 10
63.4249
 20
1217.91
 30
0.0
 11
63.9926
 21
1217.78
 31
0.0
  0
LINE
  5
9CC
330
1E
100
AcDbEntity
  8
0
100
AcDbLine
 10
62.6637
 20
1217.9
 30
0.0
 11
63.4249
 21
1217.91
 31
0.0
  0
LINE
  5
9CE
330
1E
100
AcDbEntity
  8
0
100
AcDbLine
 10
63.50889999999999
 20
1217.43
 30
0.0
 11
64.0165
 21
1217.579999999998
 31
0.0
  0
LINE
  5
9D2
330
1E
100
AcDbEntity
  8
0
100
AcDbLine
 10
63.9926
 20
1217.78
 30
0.0
 11
64.0165
 21
1217.579999999998
 31
0.0
  0
LINE
  5
9D7
330
1E
100
AcDbEntity
  8
0
100
AcDbLine
 10
62.3484
 20
1219.57
 30
0.0
 11
62.4386
 21
1219.38
 31
0.0
  0
LINE
  5
9DA
330
1E
100
AcDbEntity
  8
0
100
AcDbLine
 10
62.2453
 20
1222.72
 30
0.0
 11
62.8131
 21
1222.849999999999
 31
0.0
  0
LINE
  5
9DC
330
1E
100
AcDbEntity
  8
0
100
AcDbLine
 10
62.2214
 20
1222.52
 30
0.0
 11
62.72899999999999
 21
1222.369999999999
 31
0.0
  0
LINE
  5
9DD
330
1E
100
AcDbEntity
  8
0
100
AcDbLine
 10
62.2214
 20
1222.52
 30
0.0
 11
62.2453
 21
1222.72
 31
0.0
  0
LINE
  5
9E1
330
1E
100
AcDbEntity
  8
0
100
AcDbLine
 10
62.72899999999999
 20
1222.369999999999
 30
0.0
 11
63.4902
 21
1222.36
 31
0.0
  0
LINE
  5
9E3
330
1E
100
AcDbEntity
  8
0
100
AcDbLine
 10
63.4902
 20
1222.36
 30
0.0
 11
64.05800000000001
 21
1222.5
 31
0.0
  0
LINE
  5
9E6
330
1E
100
AcDbEntity
  8
0
100
AcDbLine
 10
64.236
 20
1215.68
 30
0.0
 11
64.27849999999999
 21
1215.88
 31
0.0
  0
LINE
  5
9E9
330
1E
100
AcDbEntity
  8
0
100
AcDbLine
 10
64.05800000000001
 20
1222.5
 30
0.0
 11
64.08190000000001
 21
1222.69
 31
0.0
  0
LINE
  5
9F0
330
1E
100
AcDbEntity
  8
0
100
AcDbLine
 10
62.8131
 20
1222.849999999999
 30
0.0
 11
63.5743
 21
1222.839999999999
 31
0.0
  0
LINE
  5
9F2
330
1E
100
AcDbEntity
  8
0
100
AcDbLine
 10
63.5743
 20
1222.839999999999
 30
0.0
 11
64.08190000000001
 21
1222.69
 31
0.0
  0
LINE
  5
9F4
330
1E
100
AcDbEntity
  8
0
100
AcDbLine
 10
64.27849999999999
 20
1216.23677477064
 30
0.0
 11
68.5438
 21
1216.694609724769
 31
0.0
  0
LINE
  5
9F5
330
1E
100
AcDbEntity
  8
0
100
AcDbLine
 10
64.27849999999999
 20
1215.88
 30
0.0
 11
64.27849999999999
 21
1216.23677477064
 31
0.0
  0
LINE
  5
9F6
330
1E
100
AcDbEntity
  8
0
100
AcDbLine
 10
64.27849999999999
 20
1216.23677477064
 30
0.0
 11
64.27849999999999
 21
1215.88
 31
0.0
  0
LINE
  5
9F8
330
1E
100
AcDbEntity
  8
0
100
AcDbLine
 10
64.2531
 20
1224.11
 30
0.0
 11
64.9766
 21
1224.05
 31
0.0
  0
LINE
  5
9FB
330
1E
100
AcDbEntity
  8
0
100
AcDbLine
 10
63.89330000000001
 20
1224.29
 30
0.0
 11
64.1311
 21
1224.47
 31
0.0
  0
LINE
  5
9FC
330
1E
100
AcDbEntity
  8
0
100
AcDbLine
 10
63.89330000000001
 20
1224.29
 30
0.0
 11
64.2531
 21
1224.11
 31
0.0
  0
LINE
  5
9FF
330
1E
100
AcDbEntity
  8
0
100
AcDbLine
 10
68.5438
 20
1216.599999999999
 30
0.0
 11
68.634
 21
1216.4
 31
0.0
  0
LINE
  5
A00
330
1E
100
AcDbEntity
  8
0
100
AcDbLine
 10
68.5438
 20
1216.599999999999
 30
0.0
 11
69.0
 21
1216.75
 31
0.0
  0
LINE
  5
A04
330
1E
100
AcDbEntity
  8
0
100
AcDbLine
 10
68.634
 20
1216.4
 30
0.0
 11
69.24379999999999
 21
1216.28
 31
0.0
  0
LINE
  5
A06
330
1E
100
AcDbEntity
  8
0
100
AcDbLine
 10
69.24379999999999
 20
1216.28
 30
0.0
 11
70.0
 21
1216.31
 31
0.0
  0
LINE
  5
A09
330
1E
100
AcDbEntity
  8
0
100
AcDbLine
 10
70.0
 20
1216.31
 30
0.0
 11
70.45619999999998
 21
1216.46
 31
0.0
  0
LINE
  5
A0C
330
1E
100
AcDbEntity
  8
0
100
AcDbLine
 10
70.45619999999998
 20
1216.899885688069
 30
0.0
 11
72.59999999999998
 21
1217.13
 31
0.0
  0
LINE
  5
A0F
330
1E
100
AcDbEntity
  8
0
100
AcDbLine
 10
72.59999999999998
 20
1217.13
 30
0.0
 11
74.20969967287629
 21
1217.45024551387
 31
0.0
  0
LINE
  5
A13
330
1E
100
AcDbEntity
  8
0
100
AcDbLine
 10
69.75620000000001
 20
1216.779999999999
 30
0.0
 11
70.36599999999999
 21
1216.66
 31
0.0
  0
LINE
  5
A15
330
1E
100
AcDbEntity
  8
0
100
AcDbLine
 10
69.0
 20
1216.75
 30
0.0
 11
69.75620000000001
 21
1216.779999999999
 31
0.0
  0
LINE
  5
A17
330
1E
100
AcDbEntity
  8
0
100
AcDbLine
 10
70.36599999999999
 20
1216.66
 30
0.0
 11
70.45619999999998
 21
1216.46
 31
0.0
  0
LINE
  5
A1C
330
1E
100
AcDbEntity
  8
0
100
AcDbLine
 10
66.7858
 20
1218.41
 30
0.0
 11
66.9415
 21
1218.22
 31
0.0
  0
LINE
  5
A1D
330
1E
100
AcDbEntity
  8
0
100
AcDbLine
 10
66.7858
 20
1218.41
 30
0.0
 11
67.1871
 21
1218.58
 31
0.0
  0
LINE
  5
A23
330
1E
100
AcDbEntity
  8
0
100
AcDbLine
 10
67.9326
 20
1218.62
 30
0.0
 11
68.57980000000001
 21
1218.52
 31
0.0
  0
LINE
  5
A25
330
1E
100
AcDbEntity
  8
0
100
AcDbLine
 10
67.1871
 20
1218.58
 30
0.0
 11
67.9326
 21
1218.62
 31
0.0
  0
LINE
  5
A27
330
1E
100
AcDbEntity
  8
0
100
AcDbLine
 10
66.9415
 20
1218.22
 30
0.0
 11
67.58880000000001
 21
1218.11
 31
0.0
  0
LINE
  5
A29
330
1E
100
AcDbEntity
  8
0
100
AcDbLine
 10
67.58880000000001
 20
1218.11
 30
0.0
 11
68.3342
 21
1218.16
 31
0.0
  0
LINE
  5
A2B
330
1E
100
AcDbEntity
  8
0
100
AcDbLine
 10
68.3342
 20
1218.16
 30
0.0
 11
68.73560000000001
 21
1218.32
 31
0.0
  0
LINE
  5
A2E
330
1E
100
AcDbEntity
  8
0
100
AcDbLine
 10
66.826
 20
1220.94
 30
0.0
 11
67.50579999999999
 21
1221.03
 31
0.0
  0
LINE
  5
A30
330
1E
100
AcDbEntity
  8
0
100
AcDbLine
 10
66.6059
 20
1220.75
 30
0.0
 11
66.9492
 21
1220.57
 31
0.0
  0
LINE
  5
A31
330
1E
100
AcDbEntity
  8
0
100
AcDbLine
 10
66.6059
 20
1220.75
 30
0.0
 11
66.826
 21
1220.94
 31
0.0
  0
LINE
  5
A35
330
1E
100
AcDbEntity
  8
0
100
AcDbLine
 10
66.9492
 20
1220.57
 30
0.0
 11
67.6783
 21
1220.52
 31
0.0
  0
LINE
  5
A37
330
1E
100
AcDbEntity
  8
0
100
AcDbLine
 10
67.6783
 20
1220.52
 30
0.0
 11
68.35809999999999
 21
1220.6
 31
0.0
  0
LINE
  5
A3D
330
1E
100
AcDbEntity
  8
0
100
AcDbLine
 10
71.18829999999999
 20
1219.45
 30
0.0
 11
71.8954
 21
1219.52
 31
0.0
  0
LINE
  5
A3F
330
1E
100
AcDbEntity
  8
0
100
AcDbLine
 10
70.9055
 20
1219.26
 30
0.0
 11
71.18829999999999
 21
1219.079999999999
 31
0.0
  0
LINE
  5
A40
330
1E
100
AcDbEntity
  8
0
100
AcDbLine
 10
70.9055
 20
1219.26
 30
0.0
 11
71.18829999999999
 21
1219.45
 31
0.0
  0
LINE
  5
A43
330
1E
100
AcDbEntity
  8
0
100
AcDbLine
 10
71.18829999999999
 20
1219.079999999999
 30
0.0
 11
71.8954
 21
1219.01
 31
0.0
  0
LINE
  5
A45
330
1E
100
AcDbEntity
  8
0
100
AcDbLine
 10
71.8954
 20
1219.01
 30
0.0
 11
72.6025
 21
1219.079999999999
 31
0.0
  0
LINE
  5
A47
330
1E
100
AcDbEntity
  8
0
100
AcDbLine
 10
72.6025
 20
1219.079999999999
 30
0.0
 11
72.88540000000002
 21
1219.26
 31
0.0
  0
LINE
  5
A4E
330
1E
100
AcDbEntity
  8
0
100
AcDbLine
 10
71.8954
 20
1219.52
 30
0.0
 11
72.6025
 21
1219.45
 31
0.0
  0
LINE
  5
A50
330
1E
100
AcDbEntity
  8
0
100
AcDbLine
 10
72.6025
 20
1219.45
 30
0.0
 11
72.88540000000002
 21
1219.26
 31
0.0
  0
LINE
  5
A54
330
1E
100
AcDbEntity
  8
0
100
AcDbLine
 10
68.57980000000001
 20
1218.52
 30
0.0
 11
68.73560000000001
 21
1218.32
 31
0.0
  0
LINE
  5
A57
330
1E
100
AcDbEntity
  8
0
100
AcDbLine
 10
68.35809999999999
 20
1220.6
 30
0.0
 11
68.5782
 21
1220.79
 31
0.0
  0
LINE
  5
A5C
330
1E
100
AcDbEntity
  8
0
100
AcDbLine
 10
71.2378
 20
1222.32
 30
0.0
 11
71.99819999999998
 21
1222.33
 31
0.0
  0
LINE
  5
A5E
330
1E
100
AcDbEntity
  8
0
100
AcDbLine
 10
71.99819999999998
 20
1222.33
 30
0.0
 11
72.51949999999998
 21
1222.47
 31
0.0
  0
LINE
  5
A66
330
1E
100
AcDbEntity
  8
0
100
AcDbLine
 10
71.16150000000001
 20
1222.79
 30
0.0
 11
71.9219
 21
1222.8
 31
0.0
  0
LINE
  5
A68
330
1E
100
AcDbEntity
  8
0
100
AcDbLine
 10
70.6401
 20
1222.65
 30
0.0
 11
70.68259999999998
 21
1222.45
 31
0.0
  0
LINE
  5
A69
330
1E
100
AcDbEntity
  8
0
100
AcDbLine
 10
70.6401
 20
1222.65
 30
0.0
 11
71.16150000000001
 21
1222.79
 31
0.0
  0
LINE
  5
A6B
330
1E
100
AcDbEntity
  8
0
100
AcDbLine
 10
70.68259999999998
 20
1222.45
 30
0.0
 11
71.2378
 21
1222.32
 31
0.0
  0
LINE
  5
A71
330
1E
100
AcDbEntity
  8
0
100
AcDbLine
 10
72.477
 20
1222.67
 30
0.0
 11
72.51949999999998
 21
1222.47
 31
0.0
  0
LINE
  5
A73
330
1E
100
AcDbEntity
  8
0
100
AcDbLine
 10
71.9219
 20
1222.8
 30
0.0
 11
72.477
 21
1222.67
 31
0.0
  0
LINE
  5
A76
330
1E
100
AcDbEntity
  8
0
100
AcDbLine
 10
67.50579999999999
 20
1221.03
 30
0.0
 11
68.2348
 21
1220.97
 31
0.0
  0
LINE
  5
A78
330
1E
100
AcDbEntity
  8
0
100
AcDbLine
 10
68.2348
 20
1220.97
 30
0.0
 11
68.5782
 21
1220.79
 31
0.0
  0
LINE
  5
A7B
330
1E
100
AcDbEntity
  8
0
100
AcDbLine
 10
74.08249999999998
 20
1217.559999999999
 30
0.0
 11
74.3027
 21
1217.369999999998
 31
0.0
  0
LINE
  5
A7C
330
1E
100
AcDbEntity
  8
0
100
AcDbLine
 10
74.08249999999998
 20
1217.559999999999
 30
0.0
 11
74.4259
 21
1217.74
 31
0.0
  0
LINE
  5
A7F
330
1E
100
AcDbEntity
  8
0
100
AcDbLine
 10
74.39
 20
1220.29
 30
0.0
 11
74.79130000000002
 21
1220.12
 31
0.0
  0
LINE
  5
A80
330
1E
100
AcDbEntity
  8
0
100
AcDbLine
 10
74.39
 20
1220.29
 30
0.0
 11
74.5457
 21
1220.48
 31
0.0
  0
LINE
  5
A82
330
1E
100
AcDbEntity
  8
0
100
AcDbLine
 10
74.3027
 20
1217.369999999998
 30
0.0
 11
74.9824
 21
1217.28
 31
0.0
  0
LINE
  5
A86
330
1E
100
AcDbEntity
  8
0
100
AcDbLine
 10
65.6478
 20
1224.15
 30
0.0
 11
65.8857
 21
1224.33
 31
0.0
  0
LINE
  5
A88
330
1E
100
AcDbEntity
  8
0
100
AcDbLine
 10
64.9766
 20
1224.05
 30
0.0
 11
65.6478
 21
1224.15
 31
0.0
  0
LINE
  5
A89
330
1E
100
AcDbEntity
  8
0
100
AcDbLine
 10
64.1311
 20
1224.47
 30
0.0
 11
64.8023
 21
1224.569999999999
 31
0.0
  0
LINE
  5
A8B
330
1E
100
AcDbEntity
  8
0
100
AcDbLine
 10
64.8023
 20
1224.569999999999
 30
0.0
 11
65.5258
 21
1224.51
 31
0.0
  0
LINE
  5
A8D
330
1E
100
AcDbEntity
  8
0
100
AcDbLine
 10
65.5258
 20
1224.51
 30
0.0
 11
65.8857
 21
1224.33
 31
0.0
  0
LINE
  5
A90
330
1E
100
AcDbEntity
  8
0
100
AcDbLine
 10
72.26479999999998
 20
1224.41
 30
0.0
 11
72.96479999999998
 21
1224.33
 31
0.0
  0
LINE
  5
A92
330
1E
100
AcDbEntity
  8
0
100
AcDbLine
 10
71.9648
 20
1224.59
 30
0.0
 11
72.26479999999998
 21
1224.77
 31
0.0
  0
LINE
  5
A93
330
1E
100
AcDbEntity
  8
0
100
AcDbLine
 10
71.9648
 20
1224.59
 30
0.0
 11
72.26479999999998
 21
1224.41
 31
0.0
  0
LINE
  5
A96
330
1E
100
AcDbEntity
  8
0
100
AcDbLine
 10
72.26479999999998
 20
1224.77
 30
0.0
 11
72.96479999999998
 21
1224.849999999999
 31
0.0
  0
LINE
  5
A9D
330
1E
100
AcDbEntity
  8
0
100
AcDbLine
 10
62.5658
 20
1225.99
 30
0.0
 11
63.32699999999999
 21
1226.0
 31
0.0
  0
LINE
  5
A9F
330
1E
100
AcDbEntity
  8
0
100
AcDbLine
 10
62.4818
 20
1226.47
 30
0.0
 11
63.243
 21
1226.47
 31
0.0
  0
LINE
  5
AA1
330
1E
100
AcDbEntity
  8
0
100
AcDbLine
 10
63.243
 20
1226.47
 30
0.0
 11
63.8107
 21
1226.339999999999
 31
0.0
  0
LINE
  5
AA4
330
1E
100
AcDbEntity
  8
0
100
AcDbLine
 10
63.8107
 20
1226.339999999999
 30
0.0
 11
63.8346
 21
1226.14
 31
0.0
  0
LINE
  5
AA6
330
1E
100
AcDbEntity
  8
0
100
AcDbLine
 10
63.32699999999999
 20
1226.0
 30
0.0
 11
63.8346
 21
1226.14
 31
0.0
  0
LINE
  5
AAC
330
1E
100
AcDbEntity
  8
0
100
AcDbLine
 10
70.6401
 20
1226.539999999999
 30
0.0
 11
70.68259999999998
 21
1226.73
 31
0.0
  0
LINE
  5
AAD
330
1E
100
AcDbEntity
  8
0
100
AcDbLine
 10
70.6401
 20
1226.539999999999
 30
0.0
 11
71.16150000000001
 21
1226.39
 31
0.0
  0
LINE
  5
AB1
330
1E
100
AcDbEntity
  8
0
100
AcDbLine
 10
71.16150000000001
 20
1226.39
 30
0.0
 11
71.9219
 21
1226.38
 31
0.0
  0
LINE
  5
AB3
330
1E
100
AcDbEntity
  8
0
100
AcDbLine
 10
70.68259999999998
 20
1226.73
 30
0.0
 11
71.2378
 21
1226.869999999999
 31
0.0
  0
LINE
  5
AB9
330
1E
100
AcDbEntity
  8
0
100
AcDbLine
 10
67.50579999999999
 20
1228.16
 30
0.0
 11
68.2348
 21
1228.21
 31
0.0
  0
LINE
  5
ABB
330
1E
100
AcDbEntity
  8
0
100
AcDbLine
 10
66.826
 20
1228.25
 30
0.0
 11
67.50579999999999
 21
1228.16
 31
0.0
  0
LINE
  5
ABD
330
1E
100
AcDbEntity
  8
0
100
AcDbLine
 10
66.6059
 20
1228.43
 30
0.0
 11
66.9492
 21
1228.609999999999
 31
0.0
  0
LINE
  5
ABE
330
1E
100
AcDbEntity
  8
0
100
AcDbLine
 10
66.6059
 20
1228.43
 30
0.0
 11
66.826
 21
1228.25
 31
0.0
  0
LINE
  5
AC1
330
1E
100
AcDbEntity
  8
0
100
AcDbLine
 10
66.9492
 20
1228.609999999999
 30
0.0
 11
67.6783
 21
1228.67
 31
0.0
  0
LINE
  5
AC3
330
1E
100
AcDbEntity
  8
0
100
AcDbLine
 10
62.3484
 20
1229.61
 30
0.0
 11
62.4386
 21
1229.81
 31
0.0
  0
LINE
  5
ACA
330
1E
100
AcDbEntity
  8
0
100
AcDbLine
 10
66.7858
 20
1231.45
 30
0.0
 11
66.9415
 21
1231.65
 31
0.0
  0
LINE
  5
ACB
330
1E
100
AcDbEntity
  8
0
100
AcDbLine
 10
66.7858
 20
1231.45
 30
0.0
 11
67.1871
 21
1231.279999999999
 31
0.0
  0
LINE
  5
ACD
330
1E
100
AcDbEntity
  8
0
100
AcDbLine
 10
67.9326
 20
1231.24
 30
0.0
 11
68.57980000000001
 21
1231.349999999999
 31
0.0
  0
LINE
  5
AD1
330
1E
100
AcDbEntity
  8
0
100
AcDbLine
 10
67.1871
 20
1231.279999999999
 30
0.0
 11
67.9326
 21
1231.24
 31
0.0
  0
LINE
  5
AD3
330
1E
100
AcDbEntity
  8
0
100
AcDbLine
 10
66.9415
 20
1231.65
 30
0.0
 11
67.58880000000001
 21
1231.75
 31
0.0
  0
LINE
  5
AD7
330
1E
100
AcDbEntity
  8
0
100
AcDbLine
 10
62.15600000000002
 20
1232.11
 30
0.0
 11
62.17999999999999
 21
1232.3
 31
0.0
  0
LINE
  5
AD8
330
1E
100
AcDbEntity
  8
0
100
AcDbLine
 10
62.15600000000002
 20
1232.11
 30
0.0
 11
62.6637
 21
1231.96
 31
0.0
  0
LINE
  5
ADA
330
1E
100
AcDbEntity
  8
0
100
AcDbLine
 10
63.4249
 20
1231.95
 30
0.0
 11
63.9926
 21
1232.09
 31
0.0
  0
LINE
  5
ADF
330
1E
100
AcDbEntity
  8
0
100
AcDbLine
 10
62.6637
 20
1231.96
 30
0.0
 11
63.4249
 21
1231.95
 31
0.0
  0
LINE
  5
AE1
330
1E
100
AcDbEntity
  8
0
100
AcDbLine
 10
62.17999999999999
 20
1232.3
 30
0.0
 11
62.7477
 21
1232.44
 31
0.0
  0
LINE
  5
AE7
330
1E
100
AcDbEntity
  8
0
100
AcDbLine
 10
62.4416
 20
1234.65
 30
0.0
 11
62.9968
 21
1234.51
 31
0.0
  0
LINE
  5
AE9
330
1E
100
AcDbEntity
  8
0
100
AcDbLine
 10
62.3991
 20
1234.85
 30
0.0
 11
62.9204
 21
1234.99
 31
0.0
  0
LINE
  5
AEA
330
1E
100
AcDbEntity
  8
0
100
AcDbLine
 10
62.3991
 20
1234.85
 30
0.0
 11
62.4416
 21
1234.65
 31
0.0
  0
LINE
  5
AEE
330
1E
100
AcDbEntity
  8
0
100
AcDbLine
 10
62.9968
 20
1234.51
 30
0.0
 11
63.7572
 21
1234.52
 31
0.0
  0
LINE
  5
AF0
330
1E
100
AcDbEntity
  8
0
100
AcDbLine
 10
62.8
 20
1248.499999999999
 30
0.0
 11
74.90000000000001
 21
1247.23
 31
0.0
  0
LINE
  5
AF3
330
1E
100
AcDbEntity
  8
0
100
AcDbLine
 10
62.9204
 20
1234.99
 30
0.0
 11
63.68079999999999
 21
1235.0
 31
0.0
  0
LINE
  5
AF6
330
1E
100
AcDbEntity
  8
0
100
AcDbLine
 10
63.7572
 20
1234.52
 30
0.0
 11
64.27849999999999
 21
1234.67
 31
0.0
  0
LINE
  5
AF8
330
1E
100
AcDbEntity
  8
0
100
AcDbLine
 10
63.68079999999999
 20
1235.0
 30
0.0
 11
64.236
 21
1234.869999999999
 31
0.0
  0
LINE
  5
AFB
330
1E
100
AcDbEntity
  8
0
100
AcDbLine
 10
62.7477
 20
1232.44
 30
0.0
 11
63.50889999999999
 21
1232.43
 31
0.0
  0
LINE
  5
AFD
330
1E
100
AcDbEntity
  8
0
100
AcDbLine
 10
63.50889999999999
 20
1232.43
 30
0.0
 11
64.0165
 21
1232.28
 31
0.0
  0
LINE
  5
B02
330
1E
100
AcDbEntity
  8
0
100
AcDbLine
 10
64.236
 20
1234.869999999999
 30
0.0
 11
64.27849999999999
 21
1234.67
 31
0.0
  0
LINE
  5
B06
330
1E
100
AcDbEntity
  8
0
100
AcDbLine
 10
63.9926
 20
1232.09
 30
0.0
 11
64.0165
 21
1232.28
 31
0.0
  0
LINE
  5
B0A
330
1E
100
AcDbEntity
  8
0
100
AcDbLine
 10
67.58880000000001
 20
1231.75
 30
0.0
 11
68.3342
 21
1231.71
 31
0.0
  0
LINE
  5
B0C
330
1E
100
AcDbEntity
  8
0
100
AcDbLine
 10
68.3342
 20
1231.71
 30
0.0
 11
68.73560000000001
 21
1231.54
 31
0.0
  0
LINE
  5
B10
330
1E
100
AcDbEntity
  8
0
100
AcDbLine
 10
67.6783
 20
1228.67
 30
0.0
 11
68.35809999999999
 21
1228.58
 31
0.0
  0
LINE
  5
B13
330
1E
100
AcDbEntity
  8
0
100
AcDbLine
 10
68.5438
 20
1233.95
 30
0.0
 11
68.634
 21
1234.14
 31
0.0
  0
LINE
  5
B14
330
1E
100
AcDbEntity
  8
0
100
AcDbLine
 10
68.5438
 20
1233.95
 30
0.0
 11
69.0
 21
1233.789999999999
 31
0.0
  0
LINE
  5
B17
330
1E
100
AcDbEntity
  8
0
100
AcDbLine
 10
71.18829999999999
 20
1230.42
 30
0.0
 11
71.8954
 21
1230.339999999999
 31
0.0
  0
LINE
  5
B19
330
1E
100
AcDbEntity
  8
0
100
AcDbLine
 10
70.9055
 20
1230.599999999999
 30
0.0
 11
71.18829999999999
 21
1230.78
 31
0.0
  0
LINE
  5
B1A
330
1E
100
AcDbEntity
  8
0
100
AcDbLine
 10
70.9055
 20
1230.599999999999
 30
0.0
 11
71.18829999999999
 21
1230.42
 31
0.0
  0
LINE
  5
B1E
330
1E
100
AcDbEntity
  8
0
100
AcDbLine
 10
68.634
 20
1234.14
 30
0.0
 11
69.24379999999999
 21
1234.26
 31
0.0
  0
LINE
  5
B20
330
1E
100
AcDbEntity
  8
0
100
AcDbLine
 10
69.75620000000001
 20
1233.77
 30
0.0
 11
70.36599999999999
 21
1233.88
 31
0.0
  0
LINE
  5
B22
330
1E
100
AcDbEntity
  8
0
100
AcDbLine
 10
69.0
 20
1233.789999999999
 30
0.0
 11
69.75620000000001
 21
1233.77
 31
0.0
  0
LINE
  5
B28
330
1E
100
AcDbEntity
  8
0
100
AcDbLine
 10
69.24379999999999
 20
1234.26
 30
0.0
 11
70.0
 21
1234.24
 31
0.0
  0
LINE
  5
B2D
330
1E
100
AcDbEntity
  8
0
100
AcDbLine
 10
70.0
 20
1234.24
 30
0.0
 11
70.45619999999998
 21
1234.08
 31
0.0
  0
LINE
  5
B2F
330
1E
100
AcDbEntity
  8
0
100
AcDbLine
 10
70.36599999999999
 20
1233.88
 30
0.0
 11
70.45619999999998
 21
1234.08
 31
0.0
  0
LINE
  5
B33
330
1E
100
AcDbEntity
  8
0
100
AcDbLine
 10
68.57980000000001
 20
1231.349999999999
 30
0.0
 11
68.73560000000001
 21
1231.54
 31
0.0
  0
LINE
  5
B37
330
1E
100
AcDbEntity
  8
0
100
AcDbLine
 10
71.18829999999999
 20
1230.78
 30
0.0
 11
71.8954
 21
1230.859999999998
 31
0.0
  0
LINE
  5
B3B
330
1E
100
AcDbEntity
  8
0
100
AcDbLine
 10
68.35809999999999
 20
1228.58
 30
0.0
 11
68.5782
 21
1228.39
 31
0.0
  0
LINE
  5
B3D
330
1E
100
AcDbEntity
  8
0
100
AcDbLine
 10
68.2348
 20
1228.21
 30
0.0
 11
68.5782
 21
1228.39
 31
0.0
  0
LINE
  5
B3F
330
1E
100
AcDbEntity
  8
0
100
AcDbLine
 10
71.8954
 20
1230.339999999999
 30
0.0
 11
72.6025
 21
1230.42
 31
0.0
  0
LINE
  5
B41
330
1E
100
AcDbEntity
  8
0
100
AcDbLine
 10
71.8954
 20
1230.859999999998
 30
0.0
 11
72.6025
 21
1230.78
 31
0.0
  0
LINE
  5
B44
330
1E
100
AcDbEntity
  8
0
100
AcDbLine
 10
71.2378
 20
1226.869999999999
 30
0.0
 11
71.99819999999998
 21
1226.86
 31
0.0
  0
LINE
  5
B47
330
1E
100
AcDbEntity
  8
0
100
AcDbLine
 10
71.99819999999998
 20
1226.86
 30
0.0
 11
72.51949999999998
 21
1226.71
 31
0.0
  0
LINE
  5
B49
330
1E
100
AcDbEntity
  8
0
100
AcDbLine
 10
71.9219
 20
1226.38
 30
0.0
 11
72.477
 21
1226.52
 31
0.0
  0
LINE
  5
B50
330
1E
100
AcDbEntity
  8
0
100
AcDbLine
 10
72.6025
 20
1230.78
 30
0.0
 11
72.88540000000002
 21
1230.599999999999
 31
0.0
  0
LINE
  5
B52
330
1E
100
AcDbEntity
  8
0
100
AcDbLine
 10
72.6025
 20
1230.42
 30
0.0
 11
72.88540000000002
 21
1230.599999999999
 31
0.0
  0
LINE
  5
B57
330
1E
100
AcDbEntity
  8
0
100
AcDbLine
 10
72.477
 20
1226.52
 30
0.0
 11
72.51949999999998
 21
1226.71
 31
0.0
  0
LINE
  5
B5C
330
1E
100
AcDbEntity
  8
0
100
AcDbLine
 10
72.96479999999998
 20
1224.849999999999
 30
0.0
 11
73.6648
 21
1224.77
 31
0.0
  0
LINE
  5
B5E
330
1E
100
AcDbEntity
  8
0
100
AcDbLine
 10
73.6648
 20
1224.77
 30
0.0
 11
73.9648
 21
1224.59
 31
0.0
  0
LINE
  5
B61
330
1E
100
AcDbEntity
  8
0
100
AcDbLine
 10
74.39
 20
1229.57
 30
0.0
 11
74.79130000000002
 21
1229.74
 31
0.0
  0
LINE
  5
B62
330
1E
100
AcDbEntity
  8
0
100
AcDbLine
 10
74.39
 20
1229.57
 30
0.0
 11
74.5457
 21
1229.38
 31
0.0
  0
LINE
  5
B64
330
1E
100
AcDbEntity
  8
0
100
AcDbLine
 10
74.08249999999998
 20
1232.98
 30
0.0
 11
74.3027
 21
1233.17
 31
0.0
  0
LINE
  5
B65
330
1E
100
AcDbEntity
  8
0
100
AcDbLine
 10
74.08249999999998
 20
1232.98
 30
0.0
 11
74.4259
 21
1232.809999999999
 31
0.0
  0
LINE
  5
B69
330
1E
100
AcDbEntity
  8
0
100
AcDbLine
 10
74.3027
 20
1233.17
 30
0.0
 11
74.9824
 21
1233.26
 31
0.0
  0
LINE
  5
B6D
330
1E
100
AcDbEntity
  8
0
100
AcDbLine
 10
73.6648
 20
1224.41
 30
0.0
 11
73.9648
 21
1224.59
 31
0.0
  0
LINE
  5
B6F
330
1E
100
AcDbEntity
  8
0
100
AcDbLine
 10
72.96479999999998
 20
1224.33
 30
0.0
 11
73.6648
 21
1224.41
 31
0.0
  0
LINE
  5
B73
330
1E
100
AcDbEntity
  8
0
100
AcDbLine
 10
74.5457
 20
1220.48
 30
0.0
 11
75.193
 21
1220.59
 31
0.0
  0
LINE
  5
B75
330
1E
100
AcDbEntity
  8
0
100
AcDbLine
 10
74.79130000000002
 20
1220.12
 30
0.0
 11
75.53679999999999
 21
1220.08
 31
0.0
  0
LINE
  5
B77
330
1E
100
AcDbEntity
  8
0
100
AcDbLine
 10
74.4259
 20
1217.74
 30
0.0
 11
75.155
 21
1217.789999999999
 31
0.0
  0
LINE
  5
B7B
330
1E
100
AcDbEntity
  8
0
100
AcDbLine
 10
74.5457
 20
1229.38
 30
0.0
 11
75.193
 21
1229.28
 31
0.0
  0
LINE
  5
B7D
330
1E
100
AcDbEntity
  8
0
100
AcDbLine
 10
74.79130000000002
 20
1229.74
 30
0.0
 11
75.53679999999999
 21
1229.78
 31
0.0
  0
LINE
  5
B7F
330
1E
100
AcDbEntity
  8
0
100
AcDbLine
 10
74.90000000000001
 20
1247.23
 30
0.0
 11
85.29999999999999
 21
1245.16
 31
0.0
  0
LINE
  5
B81
330
1E
100
AcDbEntity
  8
0
100
AcDbLine
 10
74.4259
 20
1232.809999999999
 30
0.0
 11
75.155
 21
1232.75
 31
0.0
  0
LINE
  5
B83
330
1E
100
AcDbEntity
  8
0
100
AcDbLine
 10
74.40000000000002
 20
1247.48
 30
0.0
 11
84.59999999999999
 21
1245.46
 31
0.0
  0
LINE
  5
B84
330
1E
100
AcDbEntity
  8
0
100
AcDbLine
 10
62.6
 20
1248.72
 30
0.0
 11
74.40000000000002
 21
1247.48
 31
0.0
  0
LINE
  5
B86
330
1E
100
AcDbEntity
  8
0
100
AcDbLine
 10
74.9824
 20
1217.28
 30
0.0
 11
75.7115
 21
1217.34
 31
0.0
  0
LINE
  5
B88
330
1E
100
AcDbEntity
  8
0
100
AcDbLine
 10
75.7115
 20
1217.34
 30
0.0
 11
76.0549
 21
1217.52
 31
0.0
  0
LINE
  5
B8B
330
1E
100
AcDbEntity
  8
0
100
AcDbLine
 10
76.0549
 20
1217.81734326316
 30
0.0
 11
79.73212378445779
 21
1218.54891725817
 31
0.0
  0
LINE
  5
B8D
330
1E
100
AcDbEntity
  8
0
100
AcDbLine
 10
79.1097
 20
1218.95
 30
0.0
 11
79.78950000000001
 21
1219.04
 31
0.0
  0
LINE
  5
B8F
330
1E
100
AcDbEntity
  8
0
100
AcDbLine
 10
78.8895
 20
1218.76
 30
0.0
 11
79.2329
 21
1218.59
 31
0.0
  0
LINE
  5
B90
330
1E
100
AcDbEntity
  8
0
100
AcDbLine
 10
78.8895
 20
1218.76
 30
0.0
 11
79.1097
 21
1218.95
 31
0.0
  0
LINE
  5
B93
330
1E
100
AcDbEntity
  8
0
100
AcDbLine
 10
79.2329
 20
1218.59
 30
0.0
 11
79.962
 21
1218.53
 31
0.0
  0
LINE
  5
B95
330
1E
100
AcDbEntity
  8
0
100
AcDbLine
 10
79.962
 20
1218.53
 30
0.0
 11
80.6418
 21
1218.62
 31
0.0
  0
LINE
  5
B9B
330
1E
100
AcDbEntity
  8
0
100
AcDbLine
 10
75.193
 20
1220.59
 30
0.0
 11
75.9384
 21
1220.55
 31
0.0
  0
LINE
  5
B9D
330
1E
100
AcDbEntity
  8
0
100
AcDbLine
 10
75.53679999999999
 20
1220.08
 30
0.0
 11
76.184
 21
1220.19
 31
0.0
  0
LINE
  5
B9F
330
1E
100
AcDbEntity
  8
0
100
AcDbLine
 10
79.78950000000001
 20
1219.04
 30
0.0
 11
80.51849999999998
 21
1218.98
 31
0.0
  0
LINE
  5
BA5
330
1E
100
AcDbEntity
  8
0
100
AcDbLine
 10
77.1573
 20
1221.65
 30
0.0
 11
77.72499999999998
 21
1221.79
 31
0.0
  0
LINE
  5
BA7
330
1E
100
AcDbEntity
  8
0
100
AcDbLine
 10
77.13339999999998
 20
1221.46
 30
0.0
 11
77.641
 21
1221.309999999999
 31
0.0
  0
LINE
  5
BA8
330
1E
100
AcDbEntity
  8
0
100
AcDbLine
 10
77.13339999999998
 20
1221.46
 30
0.0
 11
77.1573
 21
1221.65
 31
0.0
  0
LINE
  5
BAC
330
1E
100
AcDbEntity
  8
0
100
AcDbLine
 10
77.641
 20
1221.309999999999
 30
0.0
 11
78.40219999999998
 21
1221.3
 31
0.0
  0
LINE
  5
BAE
330
1E
100
AcDbEntity
  8
0
100
AcDbLine
 10
78.40219999999998
 20
1221.3
 30
0.0
 11
78.96989999999998
 21
1221.44
 31
0.0
  0
LINE
  5
BB3
330
1E
100
AcDbEntity
  8
0
100
AcDbLine
 10
78.96989999999998
 20
1221.44
 30
0.0
 11
78.9939
 21
1221.63
 31
0.0
  0
LINE
  5
BB8
330
1E
100
AcDbEntity
  8
0
100
AcDbLine
 10
79.6509
 20
1222.609999999999
 30
0.0
 11
80.4047
 21
1222.64
 31
0.0
  0
LINE
  5
BBB
330
1E
100
AcDbEntity
  8
0
100
AcDbLine
 10
78.94379999999998
 20
1222.93
 30
0.0
 11
79.0524
 21
1222.73
 31
0.0
  0
LINE
  5
BBC
330
1E
100
AcDbEntity
  8
0
100
AcDbLine
 10
78.94379999999998
 20
1222.93
 30
0.0
 11
79.41469999999998
 21
1223.08
 31
0.0
  0
LINE
  5
BC1
330
1E
100
AcDbEntity
  8
0
100
AcDbLine
 10
79.41469999999998
 20
1223.08
 30
0.0
 11
80.16849999999998
 21
1223.11
 31
0.0
  0
LINE
  5
BC3
330
1E
100
AcDbEntity
  8
0
100
AcDbLine
 10
79.0524
 20
1222.73
 30
0.0
 11
79.6509
 21
1222.609999999999
 31
0.0
  0
LINE
  5
BC7
330
1E
100
AcDbEntity
  8
0
100
AcDbLine
 10
77.72499999999998
 20
1221.79
 30
0.0
 11
78.4862
 21
1221.78
 31
0.0
  0
LINE
  5
BC9
330
1E
100
AcDbEntity
  8
0
100
AcDbLine
 10
78.4862
 20
1221.78
 30
0.0
 11
78.9939
 21
1221.63
 31
0.0
  0
LINE
  5
BCC
330
1E
100
AcDbEntity
  8
0
100
AcDbLine
 10
76.184
 20
1220.19
 30
0.0
 11
76.3398
 21
1220.38
 31
0.0
  0
LINE
  5
BCE
330
1E
100
AcDbEntity
  8
0
100
AcDbLine
 10
75.9384
 20
1220.55
 30
0.0
 11
76.3398
 21
1220.38
 31
0.0
  0
LINE
  5
BD1
330
1E
100
AcDbEntity
  8
0
100
AcDbLine
 10
75.155
 20
1217.789999999999
 30
0.0
 11
75.8348
 21
1217.71
 31
0.0
  0
LINE
  5
BD3
330
1E
100
AcDbEntity
  8
0
100
AcDbLine
 10
75.8348
 20
1217.71
 30
0.0
 11
76.0549
 21
1217.52
 31
0.0
  0
LINE
  5
BD6
330
1E
100
AcDbEntity
  8
0
100
AcDbLine
 10
79.8508
 20
1224.26
 30
0.0
 11
80.0886
 21
1224.07
 31
0.0
  0
LINE
  5
BD7
330
1E
100
AcDbEntity
  8
0
100
AcDbLine
 10
79.8508
 20
1224.26
 30
0.0
 11
80.2106
 21
1224.43
 31
0.0
  0
LINE
  5
BD9
330
1E
100
AcDbEntity
  8
0
100
AcDbLine
 10
80.0886
 20
1224.07
 30
0.0
 11
80.75979999999999
 21
1223.98
 31
0.0
  0
LINE
  5
BDC
330
1E
100
AcDbEntity
  8
0
100
AcDbLine
 10
79.8508
 20
1225.61
 30
0.0
 11
80.0886
 21
1225.8
 31
0.0
  0
LINE
  5
BDD
330
1E
100
AcDbEntity
  8
0
100
AcDbLine
 10
79.8508
 20
1225.61
 30
0.0
 11
80.2106
 21
1225.43
 31
0.0
  0
LINE
  5
BE2
330
1E
100
AcDbEntity
  8
0
100
AcDbLine
 10
80.80723054029109
 20
1218.762806918018
 30
0.0
 11
82.09999999999999
 21
1219.02
 31
0.0
  0
LINE
  5
BE6
330
1E
100
AcDbEntity
  8
0
100
AcDbLine
 10
80.6418
 20
1218.62
 30
0.0
 11
80.8619
 21
1218.81
 31
0.0
  0
LINE
  5
BE8
330
1E
100
AcDbEntity
  8
0
100
AcDbLine
 10
80.51849999999998
 20
1218.98
 30
0.0
 11
80.8619
 21
1218.81
 31
0.0
  0
LINE
  5
BEB
330
1E
100
AcDbEntity
  8
0
100
AcDbLine
 10
80.4047
 20
1222.64
 30
0.0
 11
80.87560000000001
 21
1222.79
 31
0.0
  0
LINE
  5
BEF
330
1E
100
AcDbEntity
  8
0
100
AcDbLine
 10
80.767
 20
1222.99
 30
0.0
 11
80.87560000000001
 21
1222.79
 31
0.0
  0
LINE
  5
BF1
330
1E
100
AcDbEntity
  8
0
100
AcDbLine
 10
80.16849999999998
 20
1223.11
 30
0.0
 11
80.767
 21
1222.99
 31
0.0
  0
LINE
  5
BF4
330
1E
100
AcDbEntity
  8
0
100
AcDbLine
 10
80.2106
 20
1224.43
 30
0.0
 11
80.9341
 21
1224.49
 31
0.0
  0
LINE
  5
BF6
330
1E
100
AcDbEntity
  8
0
100
AcDbLine
 10
80.75979999999999
 20
1223.98
 30
0.0
 11
81.48329999999999
 21
1224.04
 31
0.0
  0
LINE
  5
BF8
330
1E
100
AcDbEntity
  8
0
100
AcDbLine
 10
80.9341
 20
1224.49
 30
0.0
 11
81.60529999999999
 21
1224.4
 31
0.0
  0
LINE
  5
BFB
330
1E
100
AcDbEntity
  8
0
100
AcDbLine
 10
80.2106
 20
1225.43
 30
0.0
 11
80.9341
 21
1225.369999999998
 31
0.0
  0
LINE
  5
BFE
330
1E
100
AcDbEntity
  8
0
100
AcDbLine
 10
80.0886
 20
1225.8
 30
0.0
 11
80.75979999999999
 21
1225.89
 31
0.0
  0
LINE
  5
C01
330
1E
100
AcDbEntity
  8
0
100
AcDbLine
 10
80.16849999999998
 20
1226.76
 30
0.0
 11
80.767
 21
1226.88
 31
0.0
  0
LINE
  5
C04
330
1E
100
AcDbEntity
  8
0
100
AcDbLine
 10
80.75979999999999
 20
1225.89
 30
0.0
 11
81.48329999999999
 21
1225.83
 31
0.0
  0
LINE
  5
C06
330
1E
100
AcDbEntity
  8
0
100
AcDbLine
 10
82.09999999999999
 20
1219.02
 30
0.0
 11
89.40000000000003
 21
1221.48
 31
0.0
  0
LINE
  5
C0A
330
1E
100
AcDbEntity
  8
0
100
AcDbLine
 10
82.90899999999998
 20
1220.35
 30
0.0
 11
83.51879999999999
 21
1220.47
 31
0.0
  0
LINE
  5
C0C
330
1E
100
AcDbEntity
  8
0
100
AcDbLine
 10
82.81879999999999
 20
1220.16
 30
0.0
 11
83.275
 21
1220.0
 31
0.0
  0
LINE
  5
C0D
330
1E
100
AcDbEntity
  8
0
100
AcDbLine
 10
82.81879999999999
 20
1220.16
 30
0.0
 11
82.90899999999998
 21
1220.35
 31
0.0
  0
LINE
  5
C12
330
1E
100
AcDbEntity
  8
0
100
AcDbLine
 10
83.51879999999999
 20
1220.47
 30
0.0
 11
84.275
 21
1220.45
 31
0.0
  0
LINE
  5
C14
330
1E
100
AcDbEntity
  8
0
100
AcDbLine
 10
83.275
 20
1220.0
 30
0.0
 11
84.03119999999999
 21
1219.98
 31
0.0
  0
LINE
  5
C16
330
1E
100
AcDbEntity
  8
0
100
AcDbLine
 10
84.03119999999999
 20
1219.98
 30
0.0
 11
84.641
 21
1220.099999999999
 31
0.0
  0
LINE
  5
C1B
330
1E
100
AcDbEntity
  8
0
100
AcDbLine
 10
84.641
 20
1220.099999999999
 30
0.0
 11
84.73119999999999
 21
1220.29
 31
0.0
  0
LINE
  5
C1D
330
1E
100
AcDbEntity
  8
0
100
AcDbLine
 10
84.275
 20
1220.45
 30
0.0
 11
84.73119999999999
 21
1220.29
 31
0.0
  0
LINE
  5
C21
330
1E
100
AcDbEntity
  8
0
100
AcDbLine
 10
85.70829999999999
 20
1221.91
 30
0.0
 11
85.75079999999998
 21
1221.71
 31
0.0
  0
LINE
  5
C22
330
1E
100
AcDbEntity
  8
0
100
AcDbLine
 10
85.70829999999999
 20
1221.91
 30
0.0
 11
86.2296
 21
1222.05
 31
0.0
  0
LINE
  5
C27
330
1E
100
AcDbEntity
  8
0
100
AcDbLine
 10
86.2296
 20
1222.05
 30
0.0
 11
86.98999999999998
 21
1222.059999999999
 31
0.0
  0
LINE
  5
C29
330
1E
100
AcDbEntity
  8
0
100
AcDbLine
 10
85.75079999999998
 20
1221.71
 30
0.0
 11
86.30599999999999
 21
1221.58
 31
0.0
  0
LINE
  5
C2B
330
1E
100
AcDbEntity
  8
0
100
AcDbLine
 10
86.30599999999999
 20
1221.58
 30
0.0
 11
87.0664
 21
1221.589999999999
 31
0.0
  0
LINE
  5
C2F
330
1E
100
AcDbEntity
  8
0
100
AcDbLine
 10
87.0664
 20
1221.589999999999
 30
0.0
 11
87.5877
 21
1221.729999999999
 31
0.0
  0
LINE
  5
C31
330
1E
100
AcDbEntity
  8
0
100
AcDbLine
 10
87.54519999999997
 20
1221.93
 30
0.0
 11
87.5877
 21
1221.729999999999
 31
0.0
  0
LINE
  5
C33
330
1E
100
AcDbEntity
  8
0
100
AcDbLine
 10
86.98999999999998
 20
1222.059999999999
 30
0.0
 11
87.54519999999997
 21
1221.93
 31
0.0
  0
LINE
  5
C37
330
1E
100
AcDbEntity
  8
0
100
AcDbLine
 10
81.48329999999999
 20
1224.04
 30
0.0
 11
81.84310000000001
 21
1224.21
 31
0.0
  0
LINE
  5
C3A
330
1E
100
AcDbEntity
  8
0
100
AcDbLine
 10
81.60529999999999
 20
1224.4
 30
0.0
 11
81.84310000000001
 21
1224.21
 31
0.0
  0
LINE
  5
C3F
330
1E
100
AcDbEntity
  8
0
100
AcDbLine
 10
87.8397
 20
1223.73
 30
0.0
 11
88.58119999999997
 21
1223.77
 31
0.0
  0
LINE
  5
C41
330
1E
100
AcDbEntity
  8
0
100
AcDbLine
 10
87.42270000000003
 20
1223.559999999999
 30
0.0
 11
87.5966
 21
1223.37
 31
0.0
  0
LINE
  5
C42
330
1E
100
AcDbEntity
  8
0
100
AcDbLine
 10
87.42270000000003
 20
1223.559999999999
 30
0.0
 11
87.8397
 21
1223.73
 31
0.0
  0
LINE
  5
C44
330
1E
100
AcDbEntity
  8
0
100
AcDbLine
 10
87.5966
 20
1223.37
 30
0.0
 11
88.23390000000001
 21
1223.26
 31
0.0
  0
LINE
  5
C48
330
1E
100
AcDbEntity
  8
0
100
AcDbLine
 10
88.23390000000001
 20
1223.26
 30
0.0
 11
88.97530000000001
 21
1223.31
 31
0.0
  0
LINE
  5
C4B
330
1E
100
AcDbEntity
  8
0
100
AcDbLine
 10
88.97530000000001
 20
1223.31
 30
0.0
 11
89.3923
 21
1223.47
 31
0.0
  0
LINE
  5
C4D
330
1E
100
AcDbEntity
  8
0
100
AcDbLine
 10
88.58119999999997
 20
1223.77
 30
0.0
 11
89.21840000000001
 21
1223.67
 31
0.0
  0
LINE
  5
C50
330
1E
100
AcDbEntity
  8
0
100
AcDbLine
 10
88.3
 20
1225.09
 30
0.0
 11
89.0
 21
1225.01
 31
0.0
  0
LINE
  5
C52
330
1E
100
AcDbEntity
  8
0
100
AcDbLine
 10
88.0
 20
1225.27
 30
0.0
 11
88.3
 21
1225.45
 31
0.0
  0
LINE
  5
C53
330
1E
100
AcDbEntity
  8
0
100
AcDbLine
 10
88.0
 20
1225.27
 30
0.0
 11
88.3
 21
1225.09
 31
0.0
  0
LINE
  5
C55
330
1E
100
AcDbEntity
  8
0
100
AcDbLine
 10
88.3
 20
1225.45
 30
0.0
 11
89.0
 21
1225.53
 31
0.0
  0
LINE
  5
C58
330
1E
100
AcDbEntity
  8
0
100
AcDbLine
 10
89.40000000000003
 20
1221.48
 30
0.0
 11
91.6
 21
1222.59
 31
0.0
  0
LINE
  5
C59
330
1E
100
AcDbEntity
  8
0
100
AcDbLine
 10
91.6
 20
1222.59
 30
0.0
 11
96.3
 21
1225.589999999999
 31
0.0
  0
LINE
  5
C5C
330
1E
100
AcDbEntity
  8
0
100
AcDbLine
 10
89.21840000000001
 20
1223.67
 30
0.0
 11
89.3923
 21
1223.47
 31
0.0
  0
LINE
  5
C60
330
1E
100
AcDbEntity
  8
0
100
AcDbLine
 10
89.7
 20
1225.45
 30
0.0
 11
90.0
 21
1225.27
 31
0.0
  0
LINE
  5
C62
330
1E
100
AcDbEntity
  8
0
100
AcDbLine
 10
89.7
 20
1225.09
 30
0.0
 11
90.0
 21
1225.27
 31
0.0
  0
LINE
  5
C64
330
1E
100
AcDbEntity
  8
0
100
AcDbLine
 10
89.0
 20
1225.01
 30
0.0
 11
89.7
 21
1225.09
 31
0.0
  0
LINE
  5
C67
330
1E
100
AcDbEntity
  8
0
100
AcDbLine
 10
96.3
 20
1225.589999999999
 30
0.0
 11
97.70000000000001
 21
1227.9
 31
0.0
  0
LINE
  5
C68
330
1E
100
AcDbEntity
  8
0
100
AcDbLine
 10
89.0
 20
1225.53
 30
0.0
 11
89.7
 21
1225.45
 31
0.0
  0
LINE
  5
C73
330
1E
100
AcDbEntity
  8
0
100
AcDbLine
 10
81.48329999999999
 20
1225.83
 30
0.0
 11
81.84310000000001
 21
1225.65
 31
0.0
  0
LINE
  5
C75
330
1E
100
AcDbEntity
  8
0
100
AcDbLine
 10
81.60529999999999
 20
1225.47
 30
0.0
 11
81.84310000000001
 21
1225.65
 31
0.0
  0
LINE
  5
C78
330
1E
100
AcDbEntity
  8
0
100
AcDbLine
 10
80.9341
 20
1225.369999999998
 30
0.0
 11
81.60529999999999
 21
1225.47
 31
0.0
  0
LINE
  5
C7A
330
1E
100
AcDbEntity
  8
0
100
AcDbLine
 10
79.41469999999998
 20
1226.779999999998
 30
0.0
 11
80.16849999999998
 21
1226.76
 31
0.0
  0
LINE
  5
C7E
330
1E
100
AcDbEntity
  8
0
100
AcDbLine
 10
78.94379999999998
 20
1226.94
 30
0.0
 11
79.0524
 21
1227.13
 31
0.0
  0
LINE
  5
C7F
330
1E
100
AcDbEntity
  8
0
100
AcDbLine
 10
78.94379999999998
 20
1226.94
 30
0.0
 11
79.41469999999998
 21
1226.779999999998
 31
0.0
  0
LINE
  5
C81
330
1E
100
AcDbEntity
  8
0
100
AcDbLine
 10
80.767
 20
1226.88
 30
0.0
 11
80.87560000000001
 21
1227.07
 31
0.0
  0
LINE
  5
C84
330
1E
100
AcDbEntity
  8
0
100
AcDbLine
 10
79.0524
 20
1227.13
 30
0.0
 11
79.6509
 21
1227.26
 31
0.0
  0
LINE
  5
C88
330
1E
100
AcDbEntity
  8
0
100
AcDbLine
 10
80.4047
 20
1227.23
 30
0.0
 11
80.87560000000001
 21
1227.07
 31
0.0
  0
LINE
  5
C8A
330
1E
100
AcDbEntity
  8
0
100
AcDbLine
 10
87.42270000000003
 20
1226.98
 30
0.0
 11
87.5966
 21
1227.17
 31
0.0
  0
LINE
  5
C8B
330
1E
100
AcDbEntity
  8
0
100
AcDbLine
 10
87.42270000000003
 20
1226.98
 30
0.0
 11
87.8397
 21
1226.82
 31
0.0
  0
LINE
  5
C90
330
1E
100
AcDbEntity
  8
0
100
AcDbLine
 10
87.8397
 20
1226.82
 30
0.0
 11
88.58119999999997
 21
1226.77
 31
0.0
  0
LINE
  5
C92
330
1E
100
AcDbEntity
  8
0
100
AcDbLine
 10
87.5966
 20
1227.17
 30
0.0
 11
88.23390000000001
 21
1227.28
 31
0.0
  0
LINE
  5
C97
330
1E
100
AcDbEntity
  8
0
100
AcDbLine
 10
77.72499999999998
 20
1228.08
 30
0.0
 11
78.4862
 21
1228.08
 31
0.0
  0
LINE
  5
C99
330
1E
100
AcDbEntity
  8
0
100
AcDbLine
 10
77.1573
 20
1228.21
 30
0.0
 11
77.72499999999998
 21
1228.08
 31
0.0
  0
LINE
  5
C9B
330
1E
100
AcDbEntity
  8
0
100
AcDbLine
 10
77.13339999999998
 20
1228.41
 30
0.0
 11
77.641
 21
1228.55
 31
0.0
  0
LINE
  5
C9C
330
1E
100
AcDbEntity
  8
0
100
AcDbLine
 10
77.13339999999998
 20
1228.41
 30
0.0
 11
77.1573
 21
1228.21
 31
0.0
  0
LINE
  5
CA3
330
1E
100
AcDbEntity
  8
0
100
AcDbLine
 10
79.6509
 20
1227.26
 30
0.0
 11
80.4047
 21
1227.23
 31
0.0
  0
LINE
  5
CA6
330
1E
100
AcDbEntity
  8
0
100
AcDbLine
 10
78.96989999999998
 20
1228.43
 30
0.0
 11
78.9939
 21
1228.23
 31
0.0
  0
LINE
  5
CA8
330
1E
100
AcDbEntity
  8
0
100
AcDbLine
 10
78.4862
 20
1228.08
 30
0.0
 11
78.9939
 21
1228.23
 31
0.0
  0
LINE
  5
CAA
330
1E
100
AcDbEntity
  8
0
100
AcDbLine
 10
77.641
 20
1228.55
 30
0.0
 11
78.40219999999998
 21
1228.56
 31
0.0
  0
LINE
  5
CAC
330
1E
100
AcDbEntity
  8
0
100
AcDbLine
 10
78.40219999999998
 20
1228.56
 30
0.0
 11
78.96989999999998
 21
1228.43
 31
0.0
  0
LINE
  5
CAE
330
1E
100
AcDbEntity
  8
0
100
AcDbLine
 10
86.2296
 20
1228.49
 30
0.0
 11
86.98999999999998
 21
1228.48
 31
0.0
  0
LINE
  5
CB0
330
1E
100
AcDbEntity
  8
0
100
AcDbLine
 10
86.98999999999998
 20
1228.48
 30
0.0
 11
87.54519999999997
 21
1228.62
 31
0.0
  0
LINE
  5
CB7
330
1E
100
AcDbEntity
  8
0
100
AcDbLine
 10
85.70829999999999
 20
1228.64
 30
0.0
 11
85.75079999999998
 21
1228.83
 31
0.0
  0
LINE
  5
CB8
330
1E
100
AcDbEntity
  8
0
100
AcDbLine
 10
85.70829999999999
 20
1228.64
 30
0.0
 11
86.2296
 21
1228.49
 31
0.0
  0
LINE
  5
CBA
330
1E
100
AcDbEntity
  8
0
100
AcDbLine
 10
85.75079999999998
 20
1228.83
 30
0.0
 11
86.30599999999999
 21
1228.97
 31
0.0
  0
LINE
  5
CBD
330
1E
100
AcDbEntity
  8
0
100
AcDbLine
 10
87.54519999999997
 20
1228.62
 30
0.0
 11
87.5877
 21
1228.81
 31
0.0
  0
LINE
  5
CC3
330
1E
100
AcDbEntity
  8
0
100
AcDbLine
 10
75.193
 20
1229.28
 30
0.0
 11
75.9384
 21
1229.319999999999
 31
0.0
  0
LINE
  5
CC5
330
1E
100
AcDbEntity
  8
0
100
AcDbLine
 10
75.53679999999999
 20
1229.78
 30
0.0
 11
76.184
 21
1229.68
 31
0.0
  0
LINE
  5
CCB
330
1E
100
AcDbEntity
  8
0
100
AcDbLine
 10
76.184
 20
1229.68
 30
0.0
 11
76.3398
 21
1229.48
 31
0.0
  0
LINE
  5
CCD
330
1E
100
AcDbEntity
  8
0
100
AcDbLine
 10
75.9384
 20
1229.319999999999
 30
0.0
 11
76.3398
 21
1229.48
 31
0.0
  0
LINE
  5
CD0
330
1E
100
AcDbEntity
  8
0
100
AcDbLine
 10
82.90899999999998
 20
1230.19
 30
0.0
 11
83.51879999999999
 21
1230.069999999999
 31
0.0
  0
LINE
  5
CD2
330
1E
100
AcDbEntity
  8
0
100
AcDbLine
 10
82.81879999999999
 20
1230.39
 30
0.0
 11
83.275
 21
1230.54
 31
0.0
  0
LINE
  5
CD3
330
1E
100
AcDbEntity
  8
0
100
AcDbLine
 10
82.81879999999999
 20
1230.39
 30
0.0
 11
82.90899999999998
 21
1230.19
 31
0.0
  0
LINE
  5
CD7
330
1E
100
AcDbEntity
  8
0
100
AcDbLine
 10
83.51879999999999
 20
1230.069999999999
 30
0.0
 11
84.275
 21
1230.1
 31
0.0
  0
LINE
  5
CD9
330
1E
100
AcDbEntity
  8
0
100
AcDbLine
 10
83.275
 20
1230.54
 30
0.0
 11
84.03119999999999
 21
1230.57
 31
0.0
  0
LINE
  5
CDE
330
1E
100
AcDbEntity
  8
0
100
AcDbLine
 10
84.03119999999999
 20
1230.57
 30
0.0
 11
84.641
 21
1230.45
 31
0.0
  0
LINE
  5
CE1
330
1E
100
AcDbEntity
  8
0
100
AcDbLine
 10
84.641
 20
1230.45
 30
0.0
 11
84.73119999999999
 21
1230.25
 31
0.0
  0
LINE
  5
CE3
330
1E
100
AcDbEntity
  8
0
100
AcDbLine
 10
84.275
 20
1230.1
 30
0.0
 11
84.73119999999999
 21
1230.25
 31
0.0
  0
LINE
  5
CE8
330
1E
100
AcDbEntity
  8
0
100
AcDbLine
 10
79.78950000000001
 20
1231.51
 30
0.0
 11
80.51849999999998
 21
1231.559999999999
 31
0.0
  0
LINE
  5
CEA
330
1E
100
AcDbEntity
  8
0
100
AcDbLine
 10
80.51849999999998
 20
1231.559999999999
 30
0.0
 11
80.8619
 21
1231.74
 31
0.0
  0
LINE
  5
CEF
330
1E
100
AcDbEntity
  8
0
100
AcDbLine
 10
75.155
 20
1232.75
 30
0.0
 11
75.8348
 21
1232.84
 31
0.0
  0
LINE
  5
CF2
330
1E
100
AcDbEntity
  8
0
100
AcDbLine
 10
74.9824
 20
1233.26
 30
0.0
 11
75.7115
 21
1233.2
 31
0.0
  0
LINE
  5
CF4
330
1E
100
AcDbEntity
  8
0
100
AcDbLine
 10
75.7115
 20
1233.2
 30
0.0
 11
76.0549
 21
1233.03
 31
0.0
  0
LINE
  5
CF7
330
1E
100
AcDbEntity
  8
0
100
AcDbLine
 10
79.1097
 20
1231.589999999999
 30
0.0
 11
79.78950000000001
 21
1231.51
 31
0.0
  0
LINE
  5
CF9
330
1E
100
AcDbEntity
  8
0
100
AcDbLine
 10
78.8895
 20
1231.78
 30
0.0
 11
79.2329
 21
1231.96
 31
0.0
  0
LINE
  5
CFA
330
1E
100
AcDbEntity
  8
0
100
AcDbLine
 10
78.8895
 20
1231.78
 30
0.0
 11
79.1097
 21
1231.589999999999
 31
0.0
  0
LINE
  5
CFE
330
1E
100
AcDbEntity
  8
0
100
AcDbLine
 10
79.2329
 20
1231.96
 30
0.0
 11
79.962
 21
1232.02
 31
0.0
  0
LINE
  5
D00
330
1E
100
AcDbEntity
  8
0
100
AcDbLine
 10
79.962
 20
1232.02
 30
0.0
 11
80.6418
 21
1231.93
 31
0.0
  0
LINE
  5
D03
330
1E
100
AcDbEntity
  8
0
100
AcDbLine
 10
80.6418
 20
1231.93
 30
0.0
 11
80.8619
 21
1231.74
 31
0.0
  0
LINE
  5
D0C
330
1E
100
AcDbEntity
  8
0
100
AcDbLine
 10
75.8348
 20
1232.84
 30
0.0
 11
76.0549
 21
1233.03
 31
0.0
  0
LINE
  5
D12
330
1E
100
AcDbEntity
  8
0
100
AcDbLine
 10
86.30599999999999
 20
1228.97
 30
0.0
 11
87.0664
 21
1228.96
 31
0.0
  0
LINE
  5
D15
330
1E
100
AcDbEntity
  8
0
100
AcDbLine
 10
87.0664
 20
1228.96
 30
0.0
 11
87.5877
 21
1228.81
 31
0.0
  0
LINE
  5
D19
330
1E
100
AcDbEntity
  8
0
100
AcDbLine
 10
88.23390000000001
 20
1227.28
 30
0.0
 11
88.97530000000001
 21
1227.23
 31
0.0
  0
LINE
  5
D1B
330
1E
100
AcDbEntity
  8
0
100
AcDbLine
 10
88.97530000000001
 20
1227.23
 30
0.0
 11
89.3923
 21
1227.07
 31
0.0
  0
LINE
  5
D1D
330
1E
100
AcDbEntity
  8
0
100
AcDbLine
 10
98.2
 20
1239.33
 30
0.0
 11
100.0
 21
1236.02
 31
0.0
  0
LINE
  5
D1E
330
1E
100
AcDbEntity
  8
0
100
AcDbLine
 10
99.50000000000001
 20
1231.19
 30
0.0
 11
100.0
 21
1233.6
 31
0.0
  0
LINE
  5
D1F
330
1E
100
AcDbEntity
  8
0
100
AcDbLine
 10
97.70000000000001
 20
1227.9
 30
0.0
 11
99.50000000000001
 21
1231.19
 31
0.0
  0
LINE
  5
D22
330
1E
100
AcDbEntity
  8
0
100
AcDbLine
 10
89.21840000000001
 20
1226.88
 30
0.0
 11
89.3923
 21
1227.07
 31
0.0
  0
LINE
  5
D24
330
1E
100
AcDbEntity
  8
0
100
AcDbLine
 10
88.58119999999997
 20
1226.77
 30
0.0
 11
89.21840000000001
 21
1226.88
 31
0.0
  0
LINE
  5
D26
330
1E
100
AcDbEntity
  8
0
100
AcDbLine
 10
100.0
 20
1233.6
 30
0.0
 11
100.0
 21
1236.02
 31
0.0
  0
LINE
  5
D27
330
1E
100
AcDbEntity
  8
0
100
AcDbLine
 10
100.0
 20
1236.02
 30
0.0
 11
100.0
 21
1233.6
 31
0.0
  0
LINE
  5
D28
330
1E
100
AcDbEntity
  8
0
100
AcDbLine
 10
99.73665158371041
 20
1236.50426847662
 30
0.0
 11
100.0
 21
1236.99
 31
0.0
  0
LINE
  5
D29
330
1E
100
AcDbEntity
  8
0
100
AcDbLine
 10
85.29999999999999
 20
1245.16
 30
0.0
 11
93.3
 21
1242.46
 31
0.0
  0
LINE
  5
D2A
330
1E
100
AcDbEntity
  8
0
100
AcDbLine
 10
84.59999999999999
 20
1245.46
 30
0.0
 11
92.4
 21
1242.82
 31
0.0
  0
LINE
  5
D2B
330
1E
100
AcDbEntity
  8
0
100
AcDbLine
 10
93.3
 20
1242.46
 30
0.0
 11
98.2
 21
1239.33
 31
0.0
  0
LINE
  5
D2C
330
1E
100
AcDbEntity
  8
0
100
AcDbLine
 10
92.4
 20
1242.82
 30
0.0
 11
92.58749999999979
 21
1242.70046875
 31
0.0
  0
LINE
  5
D2D
330
1E
100
AcDbEntity
  8
0
100
AcDbLine
 10
92.4
 20
1242.82
 30
0.0
 11
93.3
 21
1242.46
 31
0.0
  0
LINE
  5
D2E
330
1E
100
AcDbEntity
  8
0
100
AcDbLine
 10
85.29999999999999
 20
1246.12
 30
0.0
 11
93.3
 21
1243.43
 31
0.0
  0
LINE
  5
D2F
330
1E
100
AcDbEntity
  8
0
100
AcDbLine
 10
100.0
 20
1247.13
 30
0.0
 11
100.0
 21
1236.99
 31
0.0
  0
LINE
  5
D30
330
1E
100
AcDbEntity
  8
0
100
AcDbLine
 10
93.3
 20
1243.43
 30
0.0
 11
98.2
 21
1240.3
 31
0.0
  0
LINE
  5
D31
330
1E
100
AcDbEntity
  8
0
100
AcDbLine
 10
98.2
 20
1240.3
 30
0.0
 11
100.0
 21
1236.99
 31
0.0
  0
LINE
  5
D32
330
1E
100
AcDbEntity
  8
0
100
AcDbLine
 10
100.0
 20
1236.99
 30
0.0
 11
100.0
 21
1247.13
 31
0.0
  0
LINE
  5
D33
330
1E
100
AcDbEntity
  8
0
100
AcDbLine
 10
99.50000000000001
 20
1248.09
 30
0.0
 11
100.0
 21
1247.13
 31
0.0
  0
LINE
  5
D34
330
1E
100
AcDbEntity
  8
0
100
AcDbLine
 10
74.90000000000001
 20
1248.19
 30
0.0
 11
85.29999999999999
 21
1246.12
 31
0.0
  0
LINE
  5
D35
330
1E
100
AcDbEntity
  8
0
100
AcDbLine
 10
63.9
 20
1264.04
 30
0.0
 11
67.40000000000001
 21
1263.66
 31
0.0
  0
LINE
  5
D36
330
1E
100
AcDbEntity
  8
0
100
AcDbLine
 10
67.40000000000001
 20
1263.66
 30
0.0
 11
74.7
 21
1262.21
 31
0.0
  0
LINE
  5
D37
330
1E
100
AcDbEntity
  8
0
100
AcDbLine
 10
74.7
 20
1262.21
 30
0.0
 11
79.29999999999998
 21
1260.99
 31
0.0
  0
LINE
  5
D38
330
1E
100
AcDbEntity
  8
0
100
AcDbLine
 10
79.29999999999998
 20
1260.99
 30
0.0
 11
85.90000000000001
 21
1258.74
 31
0.0
  0
LINE
  5
D39
330
1E
100
AcDbEntity
  8
0
100
AcDbLine
 10
85.90000000000001
 20
1258.74
 30
0.0
 11
89.8
 21
1256.92
 31
0.0
  0
LINE
  5
D3A
330
1E
100
AcDbEntity
  8
0
100
AcDbLine
 10
89.8
 20
1256.92
 30
0.0
 11
94.29999999999999
 21
1254.05
 31
0.0
  0
LINE
  5
D3B
330
1E
100
AcDbEntity
  8
0
100
AcDbLine
 10
94.29999999999999
 20
1254.05
 30
0.0
 11
97.70000000000001
 21
1251.38
 31
0.0
  0
LINE
  5
D3C
330
1E
100
AcDbEntity
  8
0
100
AcDbLine
 10
97.70000000000001
 20
1251.38
 30
0.0
 11
99.50000000000001
 21
1248.09
 31
0.0
  0
LINE
  5
D3D
330
1E
100
AcDbEntity
  8
0
100
AcDbLine
 10
62.8
 20
1249.46
 30
0.0
 11
74.90000000000001
 21
1248.19
 31
0.0
  0
LINE
  5
D3E
330
1E
100
AcDbEntity
  8
0
100
AcDbLine
 10
62.0
 20
1215.99220183486
 30
0.0
 11
62.0
 21
1213.17
 31
0.0
  0
LINE
  5
D3F
330
1E
100
AcDbEntity
  8
0
100
AcDbLine
 10
62.0
 20
1213.17
 30
0.0
 11
62.0
 21
1215.99220183486
 31
0.0
  0
LINE
  5
D40
330
1E
100
AcDbEntity
  8
0
100
AcDbLine
 10
62.0
 20
1213.17
 30
0.0
 11
62.0
 21
1204.35
 31
0.0
  0
LINE
  5
D41
330
1E
100
AcDbEntity
  8
0
100
AcDbLine
 10
42.8
 20
1264.74
 30
0.0
 11
50.0
 21
1265.0
 31
0.0
  0
LINE
  5
D42
330
1E
100
AcDbEntity
  8
0
100
AcDbLine
 10
38.43199999999999
 20
1156.339999999999
 30
0.0
 11
39.584
 21
1154.12
 31
0.0
  0
LINE
  5
D43
330
1E
100
AcDbEntity
  8
0
100
AcDbLine
 10
38.0
 20
1158.7
 30
0.0
 11
38.43199999999999
 21
1156.339999999999
 31
0.0
  0
LINE
  5
D44
330
1E
100
AcDbEntity
  8
0
100
AcDbLine
 10
38.0
 20
1158.7
 30
0.0
 11
38.0
 21
1146.05
 31
0.0
  0
LINE
  5
D45
330
1E
100
AcDbEntity
  8
0
100
AcDbLine
 10
38.0
 20
1158.7
 30
0.0
 11
38.0
 21
1164.849999999999
 31
0.0
  0
LINE
  5
D46
330
1E
100
AcDbEntity
  8
0
100
AcDbLine
 10
39.0
 20
1070.0
 30
0.0
 11
39.0
 21
919.02958490566
 31
0.0
  0
LINE
  5
D47
330
1E
100
AcDbEntity
  8
0
100
AcDbLine
 10
39.0
 20
1070.0
 30
0.0
 11
39.0
 21
1059.0
 31
0.0
  0
LINE
  5
D48
330
1E
100
AcDbEntity
  8
0
100
AcDbLine
 10
7.775689999999999
 20
648.9580000000001
 30
0.0
 11
11.76418017813768
 21
638.0
 31
0.0
  0
LINE
  5
D4D
330
1E
100
AcDbEntity
  8
0
100
AcDbLine
 10
31.4562
 20
1216.599999999999
 30
0.0
 11
31.4562
 21
1216.694609724769
 31
0.0
  0
LINE
  5
D4E
330
1E
100
AcDbEntity
  8
0
100
AcDbLine
 10
29.5438
 20
1216.46
 30
0.0
 11
29.5438
 21
1216.899885688069
 31
0.0
  0
LINE
  5
D4F
330
1E
100
AcDbEntity
  8
0
100
AcDbLine
 10
23.94509999999999
 20
1217.81734326316
 30
0.0
 11
24.1652
 21
1217.71
 31
0.0
  0
ENDSEC
  0
SECTION
  2
OBJECTS
  0
DICTIONARY
  5
C
330
0
100
AcDbDictionary
281
     1
  3
ACAD_GROUP
350
D
  3
ACAD_LAYOUT
350
19
  3
ACAD_MLINESTYLE
350
16
  3
ACAD_PLOTSETTINGS
350
18
  3
ACAD_PLOTSTYLENAME
350
E
  3
AcDbVariableDictionary
350
D50
  0
DICTIONARY
  5
D
102
{ACAD_REACTORS
330
C
102
}
330
C
100
AcDbDictionary
281
     1
  0
DICTIONARY
  5
19
102
{ACAD_REACTORS
330
C
102
}
330
C
100
AcDbDictionary
281
     1
  3
Layout1
350
1D
  3
Model
350
21
  0
DICTIONARY
  5
16
102
{ACAD_REACTORS
330
C
102
}
330
C
100
AcDbDictionary
281
     1
  3
Standard
350
17
  0
DICTIONARY
  5
18
102
{ACAD_REACTORS
330
C
102
}
330
C
100
AcDbDictionary
281
     1
  0
ACDBDICTIONARYWDFLT
  5
E
102
{ACAD_REACTORS
330
C
102
}
330
C
100
AcDbDictionary
281
     1
  3
Normal
350
F
100
AcDbDictionaryWithDefault
340
F
  0
DICTIONARY
  5
D50
102
{ACAD_REACTORS
330
C
102
}
330
C
100
AcDbDictionary
281
     1
  3
DIMASSOC
350
D51
  0
LAYOUT
  5
1D
102
{ACAD_REACTORS
330
19
102
}
330
19
100
AcDbPlotSettings
  1

  2
hp deskjet 980c series
  4

  6

 40
0.0
 41
0.0
 42
0.0
 43
0.0
 44
0.0
 45
0.0
 46
0.0
 47
0.0
 48
0.0
 49
0.0
140
0.0
141
0.0
142
1.0
143
1.0
 70
   688
 72
     0
 73
     0
 74
     5
  7

 75
    16
147
1.0
148
0.0
149
0.0
100
AcDbLayout
  1
Layout1
 70
     1
 71
     1
 10
0.0
 20
0.0
 11
12.0
 21
9.0
 12
0.0
 22
0.0
 32
0.0
 14
1.000000000000000E+20
 24
1.000000000000000E+20
 34
1.000000000000000E+20
 15
-1.000000000000000E+20
 25
-1.000000000000000E+20
 35
-1.000000000000000E+20
146
0.0
 13
0.0
 23
0.0
 33
0.0
 16
1.0
 26
0.0
 36
0.0
 17
0.0
 27
1.0
 37
0.0
 76
     0
330
1A
  0
LAYOUT
  5
21
102
{ACAD_REACTORS
330
19
102
}
330
19
100
AcDbPlotSettings
  1

  2
hp deskjet 980c series
  4

  6

 40
0.0
 41
0.0
 42
0.0
 43
0.0
 44
0.0
 45
0.0
 46
0.0
 47
0.0
 48
0.0
 49
0.0
140
0.0
141
0.0
142
1.0
143
1.0
 70
  1712
 72
     0
 73
     0
 74
     0
  7

 75
     0
147
1.0
148
0.0
149
0.0
100
AcDbLayout
  1
Model
 70
     1
 71
     0
 10
0.0
 20
0.0
 11
12.0
 21
9.0
 12
0.0
 22
0.0
 32
0.0
 14
0.0
 24
0.0
 34
0.0
 15
0.0
 25
0.0
 35
0.0
146
0.0
 13
0.0
 23
0.0
 33
0.0
 16
1.0
 26
0.0
 36
0.0
 17
0.0
 27
1.0
 37
0.0
 76
     0
330
1E
  0
MLINESTYLE
  5
17
102
{ACAD_REACTORS
330
16
102
}
330
16
100
AcDbMlineStyle
  2
STANDARD
 70
     0
  3

 62
   256
 51
90.0
 52
90.0
 71
     2
 49
0.5
 62
   256
  6
BYLAYER
 49
-0.5
 62
   256
  6
BYLAYER
  0
ACDBPLACEHOLDER
  5
F
102
{ACAD_REACTORS
330
E
102
}
330
E
  0
DICTIONARYVAR
  5
D51
102
{ACAD_REACTORS
330
D50
102
}
330
D50
100
DictionaryVariables
280
     0
  1
1
  0
ENDSEC
  0
EOF
