  0
SECTION
  2
HEADER
  9
$ACADVER
  1
AC1015
  9
$ACADMAINTVER
 70
    13
  9
$DWGCODEPAGE
  3
ANSI_1252
  9
$INSBASE
 10
0.0
 20
0.0
 30
0.0
  9
$EXTMIN
 10
0.0767650000000075
 20
0.14484999999997
 30
0.0
  9
$EXTMAX
 10
139.923235
 20
1186.855149999999
 30
0.0
  9
$LIMMIN
 10
0.0
 20
0.0
  9
$LIMMAX
 10
12.0
 20
9.0
  9
$ORTHOMODE
 70
     0
  9
$REGENMODE
 70
     1
  9
$FILLMODE
 70
     1
  9
$QTEXTMODE
 70
     0
  9
$MIRRTEXT
 70
     1
  9
$LTSCALE
 40
1.0
  9
$ATTMODE
 70
     1
  9
$TEXTSIZE
 40
0.2
  9
$TRACEWID
 40
0.05
  9
$TEXTSTYLE
  7
Standard
  9
$CLAYER
  8
0
  9
$CELTYPE
  6
Continuous
  9
$CECOLOR
 62
   256
  9
$CELTSCALE
 40
1.0
  9
$DISPSILH
 70
     0
  9
$DIMSCALE
 40
1.0
  9
$DIMASZ
 40
0.18
  9
$DIMEXO
 40
0.0625
  9
$DIMDLI
 40
0.38
  9
$DIMRND
 40
0.0
  9
$DIMDLE
 40
0.0
  9
$DIMEXE
 40
0.18
  9
$DIMTP
 40
0.0
  9
$DIMTM
 40
0.0
  9
$DIMTXT
 40
0.18
  9
$DIMCEN
 40
0.09
  9
$DIMTSZ
 40
0.0
  9
$DIMTOL
 70
     0
  9
$DIMLIM
 70
     0
  9
$DIMTIH
 70
     1
  9
$DIMTOH
 70
     1
  9
$DIMSE1
 70
     0
  9
$DIMSE2
 70
     0
  9
$DIMTAD
 70
     0
  9
$DIMZIN
 70
     0
  9
$DIMBLK
  1

  9
$DIMASO
 70
     1
  9
$DIMSHO
 70
     1
  9
$DIMPOST
  1

  9
$DIMAPOST
  1

  9
$DIMALT
 70
     0
  9
$DIMALTD
 70
     2
  9
$DIMALTF
 40
25.4
  9
$DIMLFAC
 40
1.0
  9
$DIMTOFL
 70
     0
  9
$DIMTVP
 40
0.0
  9
$DIMTIX
 70
     0
  9
$DIMSOXD
 70
     0
  9
$DIMSAH
 70
     0
  9
$DIMBLK1
  1

  9
$DIMBLK2
  1

  9
$DIMSTYLE
  2
Standard
  9
$DIMCLRD
 70
     0
  9
$DIMCLRE
 70
     0
  9
$DIMCLRT
 70
     0
  9
$DIMTFAC
 40
1.0
  9
$DIMGAP
 40
0.09
  9
$DIMJUST
 70
     0
  9
$DIMSD1
 70
     0
  9
$DIMSD2
 70
     0
  9
$DIMTOLJ
 70
     1
  9
$DIMTZIN
 70
     0
  9
$DIMALTZ
 70
     0
  9
$DIMALTTZ
 70
     0
  9
$DIMUPT
 70
     0
  9
$DIMDEC
 70
     4
  9
$DIMTDEC
 70
     4
  9
$DIMALTU
 70
     2
  9
$DIMALTTD
 70
     2
  9
$DIMTXSTY
  7
Standard
  9
$DIMAUNIT
 70
     0
  9
$DIMADEC
 70
     0
  9
$DIMALTRND
 40
0.0
  9
$DIMAZIN
 70
     0
  9
$DIMDSEP
 70
    46
  9
$DIMATFIT
 70
     3
  9
$DIMFRAC
 70
     0
  9
$DIMLDRBLK
  1

  9
$DIMLUNIT
 70
     2
  9
$DIMLWD
 70
    -2
  9
$DIMLWE
 70
    -2
  9
$DIMTMOVE
 70
     0
  9
$LUNITS
 70
     2
  9
$LUPREC
 70
     4
  9
$SKETCHINC
 40
0.1
  9
$FILLETRAD
 40
0.0
  9
$AUNITS
 70
     0
  9
$AUPREC
 70
     0
  9
$MENU
  1
.
  9
$ELEVATION
 40
0.0
  9
$PELEVATION
 40
0.0
  9
$THICKNESS
 40
0.0
  9
$LIMCHECK
 70
     0
  9
$CHAMFERA
 40
0.0
  9
$CHAMFERB
 40
0.0
  9
$CHAMFERC
 40
0.0
  9
$CHAMFERD
 40
0.0
  9
$SKPOLY
 70
     0
  9
$TDCREATE
 40
2454738.877930046
  9
$TDUCREATE
 40
2454738.794596713
  9
$TDUPDATE
 40
2454738.888252314
  9
$TDUUPDATE
 40
2454738.804918981
  9
$TDINDWG
 40
0.0103222685
  9
$TDUSRTIMER
 40
0.0103222685
  9
$USRTIMER
 70
     1
  9
$ANGBASE
 50
0.0
  9
$ANGDIR
 70
     0
  9
$PDMODE
 70
     0
  9
$PDSIZE
 40
0.0
  9
$PLINEWID
 40
0.0
  9
$SPLFRAME
 70
     0
  9
$SPLINETYPE
 70
     6
  9
$SPLINESEGS
 70
     8
  9
$HANDSEED
  5
997
  9
$SURFTAB1
 70
     6
  9
$SURFTAB2
 70
     6
  9
$SURFTYPE
 70
     6
  9
$SURFU
 70
     6
  9
$SURFV
 70
     6
  9
$UCSBASE
  2

  9
$UCSNAME
  2

  9
$UCSORG
 10
0.0
 20
0.0
 30
0.0
  9
$UCSXDIR
 10
1.0
 20
0.0
 30
0.0
  9
$UCSYDIR
 10
0.0
 20
1.0
 30
0.0
  9
$UCSORTHOREF
  2

  9
$UCSORTHOVIEW
 70
     1
  9
$UCSORGTOP
 10
0.0
 20
0.0
 30
0.0
  9
$UCSORGBOTTOM
 10
0.0
 20
0.0
 30
0.0
  9
$UCSORGLEFT
 10
0.0
 20
0.0
 30
0.0
  9
$UCSORGRIGHT
 10
0.0
 20
0.0
 30
0.0
  9
$UCSORGFRONT
 10
0.0
 20
0.0
 30
0.0
  9
$UCSORGBACK
 10
0.0
 20
0.0
 30
0.0
  9
$PUCSBASE
  2

  9
$PUCSNAME
  2

  9
$PUCSORG
 10
0.0
 20
0.0
 30
0.0
  9
$PUCSXDIR
 10
1.0
 20
0.0
 30
0.0
  9
$PUCSYDIR
 10
0.0
 20
1.0
 30
0.0
  9
$PUCSORTHOREF
  2

  9
$PUCSORTHOVIEW
 70
     0
  9
$PUCSORGTOP
 10
0.0
 20
0.0
 30
0.0
  9
$PUCSORGBOTTOM
 10
0.0
 20
0.0
 30
0.0
  9
$PUCSORGLEFT
 10
0.0
 20
0.0
 30
0.0
  9
$PUCSORGRIGHT
 10
0.0
 20
0.0
 30
0.0
  9
$PUCSORGFRONT
 10
0.0
 20
0.0
 30
0.0
  9
$PUCSORGBACK
 10
0.0
 20
0.0
 30
0.0
  9
$USERI1
 70
     0
  9
$USERI2
 70
     0
  9
$USERI3
 70
     0
  9
$USERI4
 70
     0
  9
$USERI5
 70
     0
  9
$USERR1
 40
0.0
  9
$USERR2
 40
0.0
  9
$USERR3
 40
0.0
  9
$USERR4
 40
0.0
  9
$USERR5
 40
0.0
  9
$WORLDVIEW
 70
     1
  9
$SHADEDGE
 70
     3
  9
$SHADEDIF
 70
    70
  9
$TILEMODE
 70
     1
  9
$MAXACTVP
 70
    64
  9
$PINSBASE
 10
0.0
 20
0.0
 30
0.0
  9
$PLIMCHECK
 70
     0
  9
$PEXTMIN
 10
1.000000000000000E+20
 20
1.000000000000000E+20
 30
1.000000000000000E+20
  9
$PEXTMAX
 10
-1.000000000000000E+20
 20
-1.000000000000000E+20
 30
-1.000000000000000E+20
  9
$PLIMMIN
 10
0.0
 20
0.0
  9
$PLIMMAX
 10
12.0
 20
9.0
  9
$UNITMODE
 70
     0
  9
$VISRETAIN
 70
     1
  9
$PLINEGEN
 70
     0
  9
$PSLTSCALE
 70
     1
  9
$TREEDEPTH
 70
  3020
  9
$CMLSTYLE
  2
Standard
  9
$CMLJUST
 70
     0
  9
$CMLSCALE
 40
1.0
  9
$PROXYGRAPHICS
 70
     1
  9
$MEASUREMENT
 70
     0
  9
$CELWEIGHT
370
    -1
  9
$ENDCAPS
280
     0
  9
$JOINSTYLE
280
     0
  9
$LWDISPLAY
290
     0
  9
$INSUNITS
 70
     0
  9
$HYPERLINKBASE
  1

  9
$STYLESHEET
  1

  9
$XEDIT
290
     1
  9
$CEPSNTYPE
380
     0
  9
$PSTYLEMODE
290
     1
  9
$FINGERPRINTGUID
  2
{9F585D52-EE2C-4772-9C56-7853E4AAF793}
  9
$VERSIONGUID
  2
{47B33E6B-E68C-4CA0-A257-5781D7EE0E53}
  9
$EXTNAMES
290
     1
  9
$PSVPSCALE
 40
0.0
  9
$OLESTARTUP
290
     0
  0
ENDSEC
  0
SECTION
  2
CLASSES
  0
CLASS
  1
ACDBDICTIONARYWDFLT
  2
AcDbDictionaryWithDefault
  3
AutoCAD 2000
 90
        0
280
     0
281
     0
  0
CLASS
  1
ACDBPLACEHOLDER
  2
AcDbPlaceHolder
  3
AutoCAD 2000
 90
        0
280
     0
281
     0
  0
CLASS
  1
LAYOUT
  2
AcDbLayout
  3
AutoCAD 2000
 90
        0
280
     0
281
     0
  0
CLASS
  1
DICTIONARYVAR
  2
AcDbDictionaryVar
  3
AutoCAD 2000
 90
        0
280
     0
281
     0
  0
ENDSEC
  0
SECTION
  2
TABLES
  0
TABLE
  2
VPORT
  5
8
330
0
100
AcDbSymbolTable
 70
     6
  0
VPORT
  5
996
330
8
100
AcDbSymbolTableRecord
100
AcDbViewportTableRecord
  2
*Active
 70
     0
 10
0.0
 20
0.0
 11
1.0
 21
1.0
 12
70.00000000000001
 22
593.5
 13
0.0
 23
0.0
 14
1.0
 24
1.0
 15
0.0
 25
0.0
 16
0.0
 26
0.0
 36
1.0
 17
0.0
 27
0.0
 37
0.0
 40
1195.815494117647
 41
2.078104993597951
 42
50.0
 43
0.0
 44
0.0
 50
0.0
 51
0.0
 71
     0
 72
   100
 73
     1
 74
     3
 75
     0
 76
     0
 77
     0
 78
     0
281
     0
 65
     1
110
0.0
120
0.0
130
0.0
111
1.0
121
0.0
131
0.0
112
0.0
122
1.0
132
0.0
 79
     1
146
0.0
  0
ENDTAB
  0
TABLE
  2
LTYPE
  5
5
330
0
100
AcDbSymbolTable
 70
     1
  0
LTYPE
  5
13
330
5
100
AcDbSymbolTableRecord
100
AcDbLinetypeTableRecord
  2
ByBlock
 70
     0
  3

 72
    65
 73
     0
 40
0.0
  0
LTYPE
  5
14
330
5
100
AcDbSymbolTableRecord
100
AcDbLinetypeTableRecord
  2
ByLayer
 70
     0
  3

 72
    65
 73
     0
 40
0.0
  0
LTYPE
  5
15
330
5
100
AcDbSymbolTableRecord
100
AcDbLinetypeTableRecord
  2
Continuous
 70
     0
  3
Solid line
 72
    65
 73
     0
 40
0.0
  0
ENDTAB
  0
TABLE
  2
LAYER
  5
2
330
0
100
AcDbSymbolTable
 70
     1
  0
LAYER
  5
10
330
2
100
AcDbSymbolTableRecord
100
AcDbLayerTableRecord
  2
0
 70
     0
 62
     7
  6
Continuous
370
    -3
390
F
  0
ENDTAB
  0
TABLE
  2
STYLE
  5
3
330
0
100
AcDbSymbolTable
 70
     1
  0
STYLE
  5
11
330
3
100
AcDbSymbolTableRecord
100
AcDbTextStyleTableRecord
  2
Standard
 70
     0
 40
0.0
 41
1.0
 50
0.0
 71
     0
 42
0.2
  3
txt
  4

  0
ENDTAB
  0
TABLE
  2
VIEW
  5
6
330
0
100
AcDbSymbolTable
 70
     0
  0
ENDTAB
  0
TABLE
  2
UCS
  5
7
330
0
100
AcDbSymbolTable
 70
     0
  0
ENDTAB
  0
TABLE
  2
APPID
  5
9
330
0
100
AcDbSymbolTable
 70
     1
  0
APPID
  5
12
330
9
100
AcDbSymbolTableRecord
100
AcDbRegAppTableRecord
  2
ACAD
 70
     0
  0
ENDTAB
  0
TABLE
  2
DIMSTYLE
  5
A
330
0
100
AcDbSymbolTable
 70
     1
100
AcDbDimStyleTable
 71
     0
  0
DIMSTYLE
105
980
330
A
100
AcDbSymbolTableRecord
100
AcDbDimStyleTableRecord
  2
Standard
 70
     0
340
11
  0
ENDTAB
  0
TABLE
  2
BLOCK_RECORD
  5
1
330
0
100
AcDbSymbolTable
 70
     0
  0
BLOCK_RECORD
  5
1E
330
1
100
AcDbSymbolTableRecord
100
AcDbBlockTableRecord
  2
*Model_Space
340
21
  0
BLOCK_RECORD
  5
1A
330
1
100
AcDbSymbolTableRecord
100
AcDbBlockTableRecord
  2
*Paper_Space
340
1D
  0
ENDTAB
  0
ENDSEC
  0
SECTION
  2
BLOCKS
  0
BLOCK
  5
1F
330
1E
100
AcDbEntity
  8
0
100
AcDbBlockBegin
  2
*Model_Space
 70
     0
 10
0.0
 20
0.0
 30
0.0
  3
*Model_Space
  1

  0
ENDBLK
  5
20
330
1E
100
AcDbEntity
  8
0
100
AcDbBlockEnd
  0
BLOCK
  5
1B
330
1A
100
AcDbEntity
 67
     1
  8
0
100
AcDbBlockBegin
  2
*Paper_Space
 70
     0
 10
0.0
 20
0.0
 30
0.0
  3
*Paper_Space
  1

  0
ENDBLK
  5
1C
330
1A
100
AcDbEntity
 67
     1
  8
0
100
AcDbBlockEnd
  0
ENDSEC
  0
SECTION
  2
ENTITIES
  0
LINE
  5
22
330
1E
100
AcDbEntity
  8
0
100
AcDbLine
 10
0.0767650000000075
 20
965.45915
 30
0.0
 11
0.214315000000007
 21
964.8711499999999
 31
0.0
  0
LINE
  5
23
330
1E
100
AcDbEntity
  8
0
100
AcDbLine
 10
0.0767650000000075
 20
965.45915
 30
0.0
 11
0.178245000000007
 21
965.4961499999998
 31
0.0
  0
LINE
  5
24
330
1E
100
AcDbEntity
  8
0
100
AcDbLine
 10
0.178245000000007
 20
965.4961499999998
 30
0.0
 11
0.4488750000000071
 21
965.59515
 31
0.0
  0
LINE
  5
25
330
1E
100
AcDbEntity
  8
0
100
AcDbLine
 10
0.0767650000000075
 20
965.45915
 30
0.0
 11
0.214315000000007
 21
964.8711499999999
 31
0.0
  0
LINE
  5
26
330
1E
100
AcDbEntity
  8
0
100
AcDbLine
 10
0.8886550000000077
 20
965.75515
 30
0.0
 11
1.46374500000001
 21
965.9641500000001
 31
0.0
  0
LINE
  5
27
330
1E
100
AcDbEntity
  8
0
100
AcDbLine
 10
0.4488750000000071
 20
965.59515
 30
0.0
 11
0.8886550000000077
 21
965.75515
 31
0.0
  0
LINE
  5
28
330
1E
100
AcDbEntity
  8
0
100
AcDbLine
 10
0.214315000000007
 20
964.8711499999999
 30
0.0
 11
5.923235000000009
 21
949.18542472641
 31
0.0
  0
LINE
  5
29
330
1E
100
AcDbEntity
  8
0
100
AcDbLine
 10
0.214315000000007
 20
964.8711499999999
 30
0.0
 11
5.923235000000009
 21
949.18542472641
 31
0.0
  0
LINE
  5
2A
330
1E
100
AcDbEntity
  8
0
100
AcDbLine
 10
0.9232350000000078
 20
351.85515
 30
0.0
 11
0.9232350000000078
 21
328.85515
 31
0.0
  0
LINE
  5
2B
330
1E
100
AcDbEntity
  8
0
100
AcDbLine
 10
0.9232350000000078
 20
351.85515
 30
0.0
 11
1.52323500000001
 21
351.85515
 31
0.0
  0
LINE
  5
2C
330
1E
100
AcDbEntity
  8
0
100
AcDbLine
 10
17.123235
 20
328.85515
 30
0.0
 11
22.523235
 21
328.85515
 31
0.0
  0
LINE
  5
2D
330
1E
100
AcDbEntity
  8
0
100
AcDbLine
 10
22.523235
 20
328.85515
 30
0.0
 11
28.52323499999999
 21
328.85515
 31
0.0
  0
LINE
  5
2E
330
1E
100
AcDbEntity
  8
0
100
AcDbLine
 10
28.52323499999999
 20
328.85515
 30
0.0
 11
34.92323499999999
 21
328.85515
 31
0.0
  0
LINE
  5
2F
330
1E
100
AcDbEntity
  8
0
100
AcDbLine
 10
45.32323499999999
 20
229.3551499999999
 30
0.0
 11
46.42323499999999
 21
229.3551499999999
 31
0.0
  0
LINE
  5
30
330
1E
100
AcDbEntity
  8
0
100
AcDbLine
 10
44.923235
 20
229.3551499999999
 30
0.0
 11
44.923235
 21
280.3551499999999
 31
0.0
  0
LINE
  5
31
330
1E
100
AcDbEntity
  8
0
100
AcDbLine
 10
44.923235
 20
229.3551499999999
 30
0.0
 11
45.32323499999999
 21
229.3551499999999
 31
0.0
  0
LINE
  5
32
330
1E
100
AcDbEntity
  8
0
100
AcDbLine
 10
44.923235
 20
229.3551499999999
 30
0.0
 11
45.423235
 21
228.85515
 31
0.0
  0
LINE
  5
33
330
1E
100
AcDbEntity
  8
0
100
AcDbLine
 10
45.823235
 20
228.85515
 30
0.0
 11
46.82323499999999
 21
228.85515
 31
0.0
  0
LINE
  5
34
330
1E
100
AcDbEntity
  8
0
100
AcDbLine
 10
45.423235
 20
228.85515
 30
0.0
 11
55.923235
 21
228.85515
 31
0.0
  0
LINE
  5
35
330
1E
100
AcDbEntity
  8
0
100
AcDbLine
 10
45.423235
 20
228.85515
 30
0.0
 11
45.823235
 21
228.85515
 31
0.0
  0
LINE
  5
36
330
1E
100
AcDbEntity
  8
0
100
AcDbLine
 10
45.32323499999999
 20
280.3551499999999
 30
0.0
 11
46.42323499999999
 21
280.3551499999999
 31
0.0
  0
LINE
  5
37
330
1E
100
AcDbEntity
  8
0
100
AcDbLine
 10
44.923235
 20
280.3551499999999
 30
0.0
 11
45.423235
 21
280.8551499999999
 31
0.0
  0
LINE
  5
38
330
1E
100
AcDbEntity
  8
0
100
AcDbLine
 10
44.923235
 20
280.3551499999999
 30
0.0
 11
45.32323499999999
 21
280.3551499999999
 31
0.0
  0
LINE
  5
39
330
1E
100
AcDbEntity
  8
0
100
AcDbLine
 10
44.923235
 20
280.3551499999999
 30
0.0
 11
44.923235
 21
229.3551499999999
 31
0.0
  0
LINE
  5
3A
330
1E
100
AcDbEntity
  8
0
100
AcDbLine
 10
46.82323499999999
 20
228.85515
 30
0.0
 11
48.523235
 21
228.85515
 31
0.0
  0
LINE
  5
3B
330
1E
100
AcDbEntity
  8
0
100
AcDbLine
 10
48.123235
 20
229.3551499999999
 30
0.0
 11
50.423235
 21
229.3551499999999
 31
0.0
  0
LINE
  5
3C
330
1E
100
AcDbEntity
  8
0
100
AcDbLine
 10
46.42323499999999
 20
229.3551499999999
 30
0.0
 11
48.123235
 21
229.3551499999999
 31
0.0
  0
LINE
  5
3D
330
1E
100
AcDbEntity
  8
0
100
AcDbLine
 10
48.523235
 20
228.85515
 30
0.0
 11
50.72323499999999
 21
228.85515
 31
0.0
  0
LINE
  5
3E
330
1E
100
AcDbEntity
  8
0
100
AcDbLine
 10
48.123235
 20
280.3551499999999
 30
0.0
 11
50.423235
 21
280.3551499999999
 31
0.0
  0
LINE
  5
3F
330
1E
100
AcDbEntity
  8
0
100
AcDbLine
 10
46.42323499999999
 20
280.3551499999999
 30
0.0
 11
48.123235
 21
280.3551499999999
 31
0.0
  0
LINE
  5
40
330
1E
100
AcDbEntity
  8
0
100
AcDbLine
 10
48.523235
 20
280.8551499999999
 30
0.0
 11
50.72323499999999
 21
280.8551499999999
 31
0.0
  0
LINE
  5
41
330
1E
100
AcDbEntity
  8
0
100
AcDbLine
 10
46.82323499999999
 20
280.8551499999999
 30
0.0
 11
48.523235
 21
280.8551499999999
 31
0.0
  0
LINE
  5
42
330
1E
100
AcDbEntity
  8
0
100
AcDbLine
 10
45.823235
 20
280.8551499999999
 30
0.0
 11
46.82323499999999
 21
280.8551499999999
 31
0.0
  0
LINE
  5
43
330
1E
100
AcDbEntity
  8
0
100
AcDbLine
 10
44.63923499999999
 20
328.85515
 30
0.0
 11
44.923235
 21
328.85515
 31
0.0
  0
LINE
  5
44
330
1E
100
AcDbEntity
  8
0
100
AcDbLine
 10
43.39123499999999
 20
328.85515
 30
0.0
 11
44.63923499999999
 21
328.85515
 31
0.0
  0
LINE
  5
45
330
1E
100
AcDbEntity
  8
0
100
AcDbLine
 10
44.923235
 20
328.85515
 30
0.0
 11
44.923235
 21
281.3551499999999
 31
0.0
  0
LINE
  5
46
330
1E
100
AcDbEntity
  8
0
100
AcDbLine
 10
44.923235
 20
328.85515
 30
0.0
 11
48.92323499999999
 21
328.85515
 31
0.0
  0
LINE
  5
47
330
1E
100
AcDbEntity
  8
0
100
AcDbLine
 10
48.123235
 20
281.3551499999999
 30
0.0
 11
50.423235
 21
281.3551499999999
 31
0.0
  0
LINE
  5
48
330
1E
100
AcDbEntity
  8
0
100
AcDbLine
 10
46.42323499999999
 20
281.3551499999999
 30
0.0
 11
48.123235
 21
281.3551499999999
 31
0.0
  0
LINE
  5
49
330
1E
100
AcDbEntity
  8
0
100
AcDbLine
 10
45.32323499999999
 20
281.3551499999999
 30
0.0
 11
46.42323499999999
 21
281.3551499999999
 31
0.0
  0
LINE
  5
4A
330
1E
100
AcDbEntity
  8
0
100
AcDbLine
 10
44.923235
 20
281.3551499999999
 30
0.0
 11
45.32323499999999
 21
281.3551499999999
 31
0.0
  0
LINE
  5
4B
330
1E
100
AcDbEntity
  8
0
100
AcDbLine
 10
44.923235
 20
281.3551499999999
 30
0.0
 11
45.423235
 21
280.8551499999999
 31
0.0
  0
LINE
  5
4C
330
1E
100
AcDbEntity
  8
0
100
AcDbLine
 10
44.923235
 20
281.3551499999999
 30
0.0
 11
44.923235
 21
328.85515
 31
0.0
  0
LINE
  5
4D
330
1E
100
AcDbEntity
  8
0
100
AcDbLine
 10
45.423235
 20
280.8551499999999
 30
0.0
 11
45.823235
 21
280.8551499999999
 31
0.0
  0
LINE
  5
4E
330
1E
100
AcDbEntity
  8
0
100
AcDbLine
 10
40.52323499999999
 20
328.85515
 30
0.0
 11
42.923235
 21
328.85515
 31
0.0
  0
LINE
  5
4F
330
1E
100
AcDbEntity
  8
0
100
AcDbLine
 10
42.923235
 20
328.85515
 30
0.0
 11
55.923235
 21
328.85515
 31
0.0
  0
LINE
  5
50
330
1E
100
AcDbEntity
  8
0
100
AcDbLine
 10
42.923235
 20
328.85515
 30
0.0
 11
43.39123499999999
 21
328.85515
 31
0.0
  0
LINE
  5
51
330
1E
100
AcDbEntity
  8
0
100
AcDbLine
 10
34.92323499999999
 20
328.85515
 30
0.0
 11
41.723235
 21
328.85515
 31
0.0
  0
LINE
  5
52
330
1E
100
AcDbEntity
  8
0
100
AcDbLine
 10
34.92323499999999
 20
328.85515
 30
0.0
 11
40.52323499999999
 21
328.85515
 31
0.0
  0
LINE
  5
53
330
1E
100
AcDbEntity
  8
0
100
AcDbLine
 10
41.723235
 20
328.85515
 30
0.0
 11
48.723235
 21
328.85515
 31
0.0
  0
LINE
  5
54
330
1E
100
AcDbEntity
  8
0
100
AcDbLine
 10
50.72323499999999
 20
228.85515
 30
0.0
 11
53.22323499999999
 21
228.85515
 31
0.0
  0
LINE
  5
55
330
1E
100
AcDbEntity
  8
0
100
AcDbLine
 10
50.423235
 20
229.3551499999999
 30
0.0
 11
53.123235
 21
229.3551499999999
 31
0.0
  0
LINE
  5
56
330
1E
100
AcDbEntity
  8
0
100
AcDbLine
 10
48.92323499999999
 20
328.85515
 30
0.0
 11
55.923235
 21
328.85515
 31
0.0
  0
LINE
  5
57
330
1E
100
AcDbEntity
  8
0
100
AcDbLine
 10
50.423235
 20
281.3551499999999
 30
0.0
 11
53.123235
 21
281.3551499999999
 31
0.0
  0
LINE
  5
58
330
1E
100
AcDbEntity
  8
0
100
AcDbLine
 10
50.423235
 20
280.3551499999999
 30
0.0
 11
53.123235
 21
280.3551499999999
 31
0.0
  0
LINE
  5
59
330
1E
100
AcDbEntity
  8
0
100
AcDbLine
 10
53.123235
 20
229.3551499999999
 30
0.0
 11
55.923235
 21
229.3551499999999
 31
0.0
  0
LINE
  5
5A
330
1E
100
AcDbEntity
  8
0
100
AcDbLine
 10
58.623235
 20
228.85515
 30
0.0
 11
61.123235
 21
228.85515
 31
0.0
  0
LINE
  5
5B
330
1E
100
AcDbEntity
  8
0
100
AcDbLine
 10
61.123235
 20
228.85515
 30
0.0
 11
63.323235
 21
228.85515
 31
0.0
  0
LINE
  5
5C
330
1E
100
AcDbEntity
  8
0
100
AcDbLine
 10
63.323235
 20
228.85515
 30
0.0
 11
65.023235
 21
228.85515
 31
0.0
  0
LINE
  5
5D
330
1E
100
AcDbEntity
  8
0
100
AcDbLine
 10
65.023235
 20
228.85515
 30
0.0
 11
66.023235
 21
228.85515
 31
0.0
  0
LINE
  5
5E
330
1E
100
AcDbEntity
  8
0
100
AcDbLine
 10
66.023235
 20
228.85515
 30
0.0
 11
66.42323499999999
 21
228.85515
 31
0.0
  0
LINE
  5
5F
330
1E
100
AcDbEntity
  8
0
100
AcDbLine
 10
66.42323499999999
 20
228.85515
 30
0.0
 11
66.92323499999999
 21
229.3551499999999
 31
0.0
  0
LINE
  5
60
330
1E
100
AcDbEntity
  8
0
100
AcDbLine
 10
55.923235
 20
228.85515
 30
0.0
 11
66.42323499999999
 21
228.85515
 31
0.0
  0
LINE
  5
61
330
1E
100
AcDbEntity
  8
0
100
AcDbLine
 10
55.923235
 20
228.85515
 30
0.0
 11
58.623235
 21
228.85515
 31
0.0
  0
LINE
  5
62
330
1E
100
AcDbEntity
  8
0
100
AcDbLine
 10
55.923235
 20
229.3551499999999
 30
0.0
 11
58.723235
 21
229.3551499999999
 31
0.0
  0
LINE
  5
63
330
1E
100
AcDbEntity
  8
0
100
AcDbLine
 10
55.923235
 20
280.3551499999999
 30
0.0
 11
58.723235
 21
280.3551499999999
 31
0.0
  0
LINE
  5
64
330
1E
100
AcDbEntity
  8
0
100
AcDbLine
 10
55.923235
 20
280.8551499999999
 30
0.0
 11
58.623235
 21
280.8551499999999
 31
0.0
  0
LINE
  5
65
330
1E
100
AcDbEntity
  8
0
100
AcDbLine
 10
58.723235
 20
229.3551499999999
 30
0.0
 11
61.42323499999999
 21
229.3551499999999
 31
0.0
  0
LINE
  5
66
330
1E
100
AcDbEntity
  8
0
100
AcDbLine
 10
61.42323499999999
 20
229.3551499999999
 30
0.0
 11
63.723235
 21
229.3551499999999
 31
0.0
  0
LINE
  5
67
330
1E
100
AcDbEntity
  8
0
100
AcDbLine
 10
58.723235
 20
280.3551499999999
 30
0.0
 11
61.42323499999999
 21
280.3551499999999
 31
0.0
  0
LINE
  5
68
330
1E
100
AcDbEntity
  8
0
100
AcDbLine
 10
61.42323499999999
 20
280.3551499999999
 30
0.0
 11
63.723235
 21
280.3551499999999
 31
0.0
  0
LINE
  5
69
330
1E
100
AcDbEntity
  8
0
100
AcDbLine
 10
58.623235
 20
280.8551499999999
 30
0.0
 11
61.123235
 21
280.8551499999999
 31
0.0
  0
LINE
  5
6A
330
1E
100
AcDbEntity
  8
0
100
AcDbLine
 10
61.123235
 20
280.8551499999999
 30
0.0
 11
63.323235
 21
280.8551499999999
 31
0.0
  0
LINE
  5
6B
330
1E
100
AcDbEntity
  8
0
100
AcDbLine
 10
63.723235
 20
229.3551499999999
 30
0.0
 11
65.42323499999999
 21
229.3551499999999
 31
0.0
  0
LINE
  5
6C
330
1E
100
AcDbEntity
  8
0
100
AcDbLine
 10
65.42323499999999
 20
229.3551499999999
 30
0.0
 11
66.523235
 21
229.3551499999999
 31
0.0
  0
LINE
  5
6D
330
1E
100
AcDbEntity
  8
0
100
AcDbLine
 10
63.723235
 20
280.3551499999999
 30
0.0
 11
65.42323499999999
 21
280.3551499999999
 31
0.0
  0
LINE
  5
6E
330
1E
100
AcDbEntity
  8
0
100
AcDbLine
 10
65.42323499999999
 20
280.3551499999999
 30
0.0
 11
66.523235
 21
280.3551499999999
 31
0.0
  0
LINE
  5
6F
330
1E
100
AcDbEntity
  8
0
100
AcDbLine
 10
63.323235
 20
280.8551499999999
 30
0.0
 11
65.023235
 21
280.8551499999999
 31
0.0
  0
LINE
  5
70
330
1E
100
AcDbEntity
  8
0
100
AcDbLine
 10
65.023235
 20
280.8551499999999
 30
0.0
 11
66.023235
 21
280.8551499999999
 31
0.0
  0
LINE
  5
71
330
1E
100
AcDbEntity
  8
0
100
AcDbLine
 10
66.523235
 20
229.3551499999999
 30
0.0
 11
66.92323499999999
 21
229.3551499999999
 31
0.0
  0
LINE
  5
72
330
1E
100
AcDbEntity
  8
0
100
AcDbLine
 10
66.92323499999999
 20
229.3551499999999
 30
0.0
 11
66.92323499999999
 21
280.3551499999999
 31
0.0
  0
LINE
  5
73
330
1E
100
AcDbEntity
  8
0
100
AcDbLine
 10
66.92323499999999
 20
280.3551499999999
 30
0.0
 11
66.92323499999999
 21
229.3551499999999
 31
0.0
  0
LINE
  5
74
330
1E
100
AcDbEntity
  8
0
100
AcDbLine
 10
66.523235
 20
280.3551499999999
 30
0.0
 11
66.92323499999999
 21
280.3551499999999
 31
0.0
  0
LINE
  5
75
330
1E
100
AcDbEntity
  8
0
100
AcDbLine
 10
66.42323499999999
 20
280.8551499999999
 30
0.0
 11
66.92323499999999
 21
280.3551499999999
 31
0.0
  0
LINE
  5
76
330
1E
100
AcDbEntity
  8
0
100
AcDbLine
 10
66.42323499999999
 20
280.8551499999999
 30
0.0
 11
66.92323499999999
 21
281.3551499999999
 31
0.0
  0
LINE
  5
77
330
1E
100
AcDbEntity
  8
0
100
AcDbLine
 10
66.023235
 20
280.8551499999999
 30
0.0
 11
66.42323499999999
 21
280.8551499999999
 31
0.0
  0
LINE
  5
78
330
1E
100
AcDbEntity
  8
0
100
AcDbLine
 10
53.22323499999999
 20
228.85515
 30
0.0
 11
55.923235
 21
228.85515
 31
0.0
  0
LINE
  5
79
330
1E
100
AcDbEntity
  8
0
100
AcDbLine
 10
53.123235
 20
280.3551499999999
 30
0.0
 11
55.923235
 21
280.3551499999999
 31
0.0
  0
LINE
  5
7A
330
1E
100
AcDbEntity
  8
0
100
AcDbLine
 10
55.923235
 20
281.3551499999999
 30
0.0
 11
58.723235
 21
281.3551499999999
 31
0.0
  0
LINE
  5
7B
330
1E
100
AcDbEntity
  8
0
100
AcDbLine
 10
58.723235
 20
281.3551499999999
 30
0.0
 11
61.42323499999999
 21
281.3551499999999
 31
0.0
  0
LINE
  5
7C
330
1E
100
AcDbEntity
  8
0
100
AcDbLine
 10
61.42323499999999
 20
281.3551499999999
 30
0.0
 11
63.723235
 21
281.3551499999999
 31
0.0
  0
LINE
  5
7D
330
1E
100
AcDbEntity
  8
0
100
AcDbLine
 10
63.723235
 20
281.3551499999999
 30
0.0
 11
65.42323499999999
 21
281.3551499999999
 31
0.0
  0
LINE
  5
7E
330
1E
100
AcDbEntity
  8
0
100
AcDbLine
 10
66.92323499999999
 20
281.3551499999999
 30
0.0
 11
66.92323499999999
 21
328.85515
 31
0.0
  0
LINE
  5
7F
330
1E
100
AcDbEntity
  8
0
100
AcDbLine
 10
65.42323499999999
 20
281.3551499999999
 30
0.0
 11
66.523235
 21
281.3551499999999
 31
0.0
  0
LINE
  5
80
330
1E
100
AcDbEntity
  8
0
100
AcDbLine
 10
62.923235
 20
328.85515
 30
0.0
 11
66.92323499999999
 21
328.85515
 31
0.0
  0
LINE
  5
81
330
1E
100
AcDbEntity
  8
0
100
AcDbLine
 10
67.207235
 20
328.85515
 30
0.0
 11
68.455235
 21
328.85515
 31
0.0
  0
LINE
  5
82
330
1E
100
AcDbEntity
  8
0
100
AcDbLine
 10
68.455235
 20
328.85515
 30
0.0
 11
68.92323499999999
 21
328.85515
 31
0.0
  0
LINE
  5
83
330
1E
100
AcDbEntity
  8
0
100
AcDbLine
 10
66.92323499999999
 20
328.85515
 30
0.0
 11
66.92323499999999
 21
281.3551499999999
 31
0.0
  0
LINE
  5
84
330
1E
100
AcDbEntity
  8
0
100
AcDbLine
 10
66.92323499999999
 20
328.85515
 30
0.0
 11
67.207235
 21
328.85515
 31
0.0
  0
LINE
  5
85
330
1E
100
AcDbEntity
  8
0
100
AcDbLine
 10
66.523235
 20
281.3551499999999
 30
0.0
 11
66.92323499999999
 21
281.3551499999999
 31
0.0
  0
LINE
  5
86
330
1E
100
AcDbEntity
  8
0
100
AcDbLine
 10
53.123235
 20
281.3551499999999
 30
0.0
 11
55.923235
 21
281.3551499999999
 31
0.0
  0
LINE
  5
87
330
1E
100
AcDbEntity
  8
0
100
AcDbLine
 10
53.22323499999999
 20
280.8551499999999
 30
0.0
 11
55.923235
 21
280.8551499999999
 31
0.0
  0
LINE
  5
88
330
1E
100
AcDbEntity
  8
0
100
AcDbLine
 10
50.72323499999999
 20
280.8551499999999
 30
0.0
 11
53.22323499999999
 21
280.8551499999999
 31
0.0
  0
LINE
  5
89
330
1E
100
AcDbEntity
  8
0
100
AcDbLine
 10
63.123235
 20
328.85515
 30
0.0
 11
70.12323499999999
 21
328.85515
 31
0.0
  0
LINE
  5
8A
330
1E
100
AcDbEntity
  8
0
100
AcDbLine
 10
70.12323499999999
 20
328.85515
 30
0.0
 11
76.92323499999999
 21
328.85515
 31
0.0
  0
LINE
  5
8B
330
1E
100
AcDbEntity
  8
0
100
AcDbLine
 10
81.11303499999999
 20
0.144849999999982
 30
0.0
 11
81.66728300362731
 21
328.85515
 31
0.0
  0
LINE
  5
8C
330
1E
100
AcDbEntity
  8
0
100
AcDbLine
 10
81.11303499999999
 20
0.14484999999997
 30
0.0
 11
81.37613499999998
 21
0.273749999999972
 31
0.0
  0
LINE
  5
8D
330
1E
100
AcDbEntity
  8
0
100
AcDbLine
 10
81.11303499999999
 20
0.14484999999997
 30
0.0
 11
81.66728300362731
 21
328.85515
 31
0.0
  0
LINE
  5
8E
330
1E
100
AcDbEntity
  8
0
100
AcDbLine
 10
82.149035
 20
0.6531499999999721
 30
0.0
 11
84.086935
 21
1.604149999999969
 31
0.0
  0
LINE
  5
8F
330
1E
100
AcDbEntity
  8
0
100
AcDbLine
 10
81.8224250951785
 20
0.4929030746903621
 30
0.0
 11
82.149035
 21
0.6531499999999721
 31
0.0
  0
LINE
  5
90
330
1E
100
AcDbEntity
  8
0
100
AcDbLine
 10
81.37613499999998
 20
0.273749999999972
 30
0.0
 11
82.807135
 21
0.976449999999976
 31
0.0
  0
LINE
  5
91
330
1E
100
AcDbEntity
  8
0
100
AcDbLine
 10
84.086935
 20
1.604149999999969
 30
0.0
 11
84.54331014913739
 21
1.82824328039346
 31
0.0
  0
LINE
  5
92
330
1E
100
AcDbEntity
  8
0
100
AcDbLine
 10
82.807135
 20
0.976449999999976
 30
0.0
 11
85.204535
 21
2.152649999999969
 31
0.0
  0
LINE
  5
93
330
1E
100
AcDbEntity
  8
0
100
AcDbLine
 10
88.11713500000001
 20
3.58234999999997
 30
0.0
 11
91.266835
 21
5.127349999999969
 31
0.0
  0
LINE
  5
94
330
1E
100
AcDbEntity
  8
0
100
AcDbLine
 10
88.12236521360821
 20
3.584915539583029
 30
0.0
 11
90.02853499999998
 21
4.519749999999969
 31
0.0
  0
LINE
  5
95
330
1E
100
AcDbEntity
  8
0
100
AcDbLine
 10
85.204535
 20
2.152649999999969
 30
0.0
 11
88.11713500000001
 21
3.58234999999997
 31
0.0
  0
LINE
  5
96
330
1E
100
AcDbEntity
  8
0
100
AcDbLine
 10
90.02853499999998
 20
4.519749999999969
 30
0.0
 11
91.06288904022431
 21
5.0273098349514
 31
0.0
  0
LINE
  5
97
330
1E
100
AcDbEntity
  8
0
100
AcDbLine
 10
91.72289784741257
 20
5.35117762897129
 30
0.0
 11
92.93783499999999
 21
5.947349999999969
 31
0.0
  0
LINE
  5
98
330
1E
100
AcDbEntity
  8
0
100
AcDbLine
 10
92.93783499999999
 20
5.947349999999969
 30
0.0
 11
95.33383499999999
 21
7.123449999999969
 31
0.0
  0
LINE
  5
99
330
1E
100
AcDbEntity
  8
0
100
AcDbLine
 10
94.06583499999999
 20
6.50104999999998
 30
0.0
 11
96.00513499999999
 21
7.45314999999997
 31
0.0
  0
LINE
  5
9A
330
1E
100
AcDbEntity
  8
0
100
AcDbLine
 10
91.266835
 20
5.127349999999969
 30
0.0
 11
94.06583499999999
 21
6.50104999999998
 31
0.0
  0
LINE
  5
9B
330
1E
100
AcDbEntity
  8
0
100
AcDbLine
 10
95.33383499999999
 20
7.123449999999969
 30
0.0
 11
96.76853499999999
 21
7.82724999999997
 31
0.0
  0
LINE
  5
9C
330
1E
100
AcDbEntity
  8
0
100
AcDbLine
 10
97.03523500000001
 20
7.95834999999999
 30
0.0
 11
97.6328425932872
 21
328.85515
 31
0.0
  0
LINE
  5
9D
330
1E
100
AcDbEntity
  8
0
100
AcDbLine
 10
96.76853499999999
 20
7.82724999999997
 30
0.0
 11
97.03523500000001
 21
7.95834999999997
 31
0.0
  0
LINE
  5
9E
330
1E
100
AcDbEntity
  8
0
100
AcDbLine
 10
97.03523500000001
 20
7.95834999999997
 30
0.0
 11
97.6328425932872
 21
328.85515
 31
0.0
  0
LINE
  5
9F
330
1E
100
AcDbEntity
  8
0
100
AcDbLine
 10
96.00513499999999
 20
7.45314999999997
 30
0.0
 11
97.03523500000001
 21
7.95834999999997
 31
0.0
  0
LINE
  5
A0
330
1E
100
AcDbEntity
  8
0
100
AcDbLine
 10
94.72323499999999
 20
328.85515
 30
0.0
 11
99.523235
 21
328.85515
 31
0.0
  0
LINE
  5
A1
330
1E
100
AcDbEntity
  8
0
100
AcDbLine
 10
99.523235
 20
328.85515
 30
0.0
 11
103.523235
 21
328.85515
 31
0.0
  0
LINE
  5
A2
330
1E
100
AcDbEntity
  8
0
100
AcDbLine
 10
103.523235
 20
328.85515
 30
0.0
 11
106.623235
 21
328.85515
 31
0.0
  0
LINE
  5
A3
330
1E
100
AcDbEntity
  8
0
100
AcDbLine
 10
106.623235
 20
328.85515
 30
0.0
 11
108.923235
 21
328.85515
 31
0.0
  0
LINE
  5
A4
330
1E
100
AcDbEntity
  8
0
100
AcDbLine
 10
110.923235
 20
328.85515
 30
0.0
 11
110.923235
 21
351.85515
 31
0.0
  0
LINE
  5
A5
330
1E
100
AcDbEntity
  8
0
100
AcDbLine
 10
108.923235
 20
328.85515
 30
0.0
 11
110.323235
 21
328.85515
 31
0.0
  0
LINE
  5
A6
330
1E
100
AcDbEntity
  8
0
100
AcDbLine
 10
110.323235
 20
328.85515
 30
0.0
 11
110.923235
 21
328.85515
 31
0.0
  0
LINE
  5
A7
330
1E
100
AcDbEntity
  8
0
100
AcDbLine
 10
89.323235
 20
328.85515
 30
0.0
 11
94.72323499999999
 21
328.85515
 31
0.0
  0
LINE
  5
A8
330
1E
100
AcDbEntity
  8
0
100
AcDbLine
 10
83.32323499999999
 20
328.85515
 30
0.0
 11
89.323235
 21
328.85515
 31
0.0
  0
LINE
  5
A9
330
1E
100
AcDbEntity
  8
0
100
AcDbLine
 10
76.92323499999999
 20
328.85515
 30
0.0
 11
83.32323499999999
 21
328.85515
 31
0.0
  0
LINE
  5
AA
330
1E
100
AcDbEntity
  8
0
100
AcDbLine
 10
71.323235
 20
328.85515
 30
0.0
 11
76.92323499999999
 21
328.85515
 31
0.0
  0
LINE
  5
AB
330
1E
100
AcDbEntity
  8
0
100
AcDbLine
 10
68.92323499999999
 20
328.85515
 30
0.0
 11
71.323235
 21
328.85515
 31
0.0
  0
LINE
  5
AC
330
1E
100
AcDbEntity
  8
0
100
AcDbLine
 10
55.923235
 20
328.85515
 30
0.0
 11
68.92323499999999
 21
328.85515
 31
0.0
  0
LINE
  5
AD
330
1E
100
AcDbEntity
  8
0
100
AcDbLine
 10
55.923235
 20
328.85515
 30
0.0
 11
63.123235
 21
328.85515
 31
0.0
  0
LINE
  5
AE
330
1E
100
AcDbEntity
  8
0
100
AcDbLine
 10
55.923235
 20
328.85515
 30
0.0
 11
62.923235
 21
328.85515
 31
0.0
  0
LINE
  5
AF
330
1E
100
AcDbEntity
  8
0
100
AcDbLine
 10
48.723235
 20
328.85515
 30
0.0
 11
55.923235
 21
328.85515
 31
0.0
  0
LINE
  5
B0
330
1E
100
AcDbEntity
  8
0
100
AcDbLine
 10
12.323235
 20
328.85515
 30
0.0
 11
17.123235
 21
328.85515
 31
0.0
  0
LINE
  5
B1
330
1E
100
AcDbEntity
  8
0
100
AcDbLine
 10
8.323235000000009
 20
328.85515
 30
0.0
 11
12.323235
 21
328.85515
 31
0.0
  0
LINE
  5
B2
330
1E
100
AcDbEntity
  8
0
100
AcDbLine
 10
5.223235000000009
 20
328.85515
 30
0.0
 11
8.323235000000009
 21
328.85515
 31
0.0
  0
LINE
  5
B3
330
1E
100
AcDbEntity
  8
0
100
AcDbLine
 10
2.923235000000009
 20
328.85515
 30
0.0
 11
5.223235000000009
 21
328.85515
 31
0.0
  0
LINE
  5
B4
330
1E
100
AcDbEntity
  8
0
100
AcDbLine
 10
1.46374500000001
 20
965.9641500000001
 30
0.0
 11
2.11777500000001
 21
966.2021499999999
 31
0.0
  0
LINE
  5
B5
330
1E
100
AcDbEntity
  8
0
100
AcDbLine
 10
103.523235
 20
351.85515
 30
0.0
 11
106.623235
 21
351.85515
 31
0.0
  0
LINE
  5
B6
330
1E
100
AcDbEntity
  8
0
100
AcDbLine
 10
106.623235
 20
351.85515
 30
0.0
 11
108.923235
 21
351.85515
 31
0.0
  0
LINE
  5
B7
330
1E
100
AcDbEntity
  8
0
100
AcDbLine
 10
108.923235
 20
351.85515
 30
0.0
 11
110.323235
 21
351.85515
 31
0.0
  0
LINE
  5
B8
330
1E
100
AcDbEntity
  8
0
100
AcDbLine
 10
110.923235
 20
351.85515
 30
0.0
 11
110.923235
 21
328.85515
 31
0.0
  0
LINE
  5
B9
330
1E
100
AcDbEntity
  8
0
100
AcDbLine
 10
110.323235
 20
351.85515
 30
0.0
 11
110.923235
 21
351.85515
 31
0.0
  0
LINE
  5
BA
330
1E
100
AcDbEntity
  8
0
100
AcDbLine
 10
8.323235000000009
 20
351.85515
 30
0.0
 11
12.323235
 21
351.85515
 31
0.0
  0
LINE
  5
BB
330
1E
100
AcDbEntity
  8
0
100
AcDbLine
 10
5.223235000000009
 20
351.85515
 30
0.0
 11
8.323235000000009
 21
351.85515
 31
0.0
  0
LINE
  5
BC
330
1E
100
AcDbEntity
  8
0
100
AcDbLine
 10
6.677085000000009
 20
918.86015
 30
0.0
 11
37.83603499999999
 21
918.86015
 31
0.0
  0
LINE
  5
BD
330
1E
100
AcDbEntity
  8
0
100
AcDbLine
 10
5.923235000000009
 20
932.32315
 30
0.0
 11
5.923235000000009
 21
936.80415
 31
0.0
  0
LINE
  5
BE
330
1E
100
AcDbEntity
  8
0
100
AcDbLine
 10
5.923235000000009
 20
932.32315
 30
0.0
 11
5.923235000000009
 21
928.07115
 31
0.0
  0
LINE
  5
BF
330
1E
100
AcDbEntity
  8
0
100
AcDbLine
 10
5.923235000000009
 20
936.80415
 30
0.0
 11
5.923235000000009
 21
941.38815
 31
0.0
  0
LINE
  5
C0
330
1E
100
AcDbEntity
  8
0
100
AcDbLine
 10
5.923235000000009
 20
936.80415
 30
0.0
 11
5.923235000000009
 21
932.32315
 31
0.0
  0
LINE
  5
C1
330
1E
100
AcDbEntity
  8
0
100
AcDbLine
 10
5.923235000000009
 20
949.18542472641
 30
0.0
 11
5.923235000000009
 21
945.63915
 31
0.0
  0
LINE
  5
C2
330
1E
100
AcDbEntity
  8
0
100
AcDbLine
 10
5.923235000000009
 20
941.38815
 30
0.0
 11
5.923235000000009
 21
945.6561500000001
 31
0.0
  0
LINE
  5
C3
330
1E
100
AcDbEntity
  8
0
100
AcDbLine
 10
5.923235000000009
 20
941.38815
 30
0.0
 11
5.923235000000009
 21
936.80415
 31
0.0
  0
LINE
  5
C4
330
1E
100
AcDbEntity
  8
0
100
AcDbLine
 10
5.923235000000009
 20
945.6561500000001
 30
0.0
 11
5.923235000000009
 21
949.2401499999999
 31
0.0
  0
LINE
  5
C5
330
1E
100
AcDbEntity
  8
0
100
AcDbLine
 10
5.923235000000009
 20
945.6561500000001
 30
0.0
 11
5.923235000000009
 21
941.38815
 31
0.0
  0
LINE
  5
C6
330
1E
100
AcDbEntity
  8
0
100
AcDbLine
 10
2.11777500000001
 20
966.2021499999999
 30
0.0
 11
2.828185000000009
 21
966.4611499999999
 31
0.0
  0
LINE
  5
C7
330
1E
100
AcDbEntity
  8
0
100
AcDbLine
 10
2.828185000000009
 20
966.4611499999999
 30
0.0
 11
3.538595000000009
 21
966.7191499999999
 31
0.0
  0
LINE
  5
C8
330
1E
100
AcDbEntity
  8
0
100
AcDbLine
 10
3.538595000000009
 20
966.7191499999999
 30
0.0
 11
4.192615000000009
 21
966.9571499999999
 31
0.0
  0
LINE
  5
C9
330
1E
100
AcDbEntity
  8
0
100
AcDbLine
 10
4.192615000000009
 20
966.9571499999999
 30
0.0
 11
4.767705000000009
 21
967.16715
 31
0.0
  0
LINE
  5
CA
330
1E
100
AcDbEntity
  8
0
100
AcDbLine
 10
4.767705000000009
 20
967.16715
 30
0.0
 11
5.207485000000009
 21
967.32715
 31
0.0
  0
LINE
  5
CB
330
1E
100
AcDbEntity
  8
0
100
AcDbLine
 10
5.207485000000009
 20
967.32715
 30
0.0
 11
5.478115000000009
 21
967.42515
 31
0.0
  0
LINE
  5
CC
330
1E
100
AcDbEntity
  8
0
100
AcDbLine
 10
5.478115000000009
 20
967.42515
 30
0.0
 11
5.579605000000009
 21
967.4621499999998
 31
0.0
  0
LINE
  5
CD
330
1E
100
AcDbEntity
  8
0
100
AcDbLine
 10
5.579605000000009
 20
967.4621499999998
 30
0.0
 11
5.852475000000009
 21
966.92315
 31
0.0
  0
LINE
  5
CE
330
1E
100
AcDbEntity
  8
0
100
AcDbLine
 10
5.852475000000009
 20
966.92315
 30
0.0
 11
10.274671943371
 21
954.77348510178
 31
0.0
  0
LINE
  5
CF
330
1E
100
AcDbEntity
  8
0
100
AcDbLine
 10
5.923235000000009
 20
953.77615
 30
0.0
 11
5.923235000000009
 21
952.0691499999999
 31
0.0
  0
LINE
  5
D0
330
1E
100
AcDbEntity
  8
0
100
AcDbLine
 10
5.923235000000009
 20
952.0691499999999
 30
0.0
 11
5.923235000000009
 21
949.2401499999999
 31
0.0
  0
LINE
  5
D1
330
1E
100
AcDbEntity
  8
0
100
AcDbLine
 10
5.923235000000009
 20
952.0691499999999
 30
0.0
 11
5.923235000000009
 21
953.77615
 31
0.0
  0
LINE
  5
D2
330
1E
100
AcDbEntity
  8
0
100
AcDbLine
 10
5.923235000000009
 20
949.2401499999999
 30
0.0
 11
5.923235000000009
 21
952.0691499999999
 31
0.0
  0
LINE
  5
D3
330
1E
100
AcDbEntity
  8
0
100
AcDbLine
 10
5.923235000000009
 20
949.2401499999999
 30
0.0
 11
5.923235000000009
 21
945.6561500000001
 31
0.0
  0
LINE
  5
D4
330
1E
100
AcDbEntity
  8
0
100
AcDbLine
 10
5.923235000000009
 20
945.63915
 30
0.0
 11
5.923235000000009
 21
941.38715
 31
0.0
  0
LINE
  5
D5
330
1E
100
AcDbEntity
  8
0
100
AcDbLine
 10
5.923235000000009
 20
945.63915
 30
0.0
 11
5.923235000000009
 21
949.18542472641
 31
0.0
  0
LINE
  5
D6
330
1E
100
AcDbEntity
  8
0
100
AcDbLine
 10
5.923235000000009
 20
941.38715
 30
0.0
 11
5.923235000000009
 21
936.90615
 31
0.0
  0
LINE
  5
D7
330
1E
100
AcDbEntity
  8
0
100
AcDbLine
 10
5.923235000000009
 20
941.38715
 30
0.0
 11
5.923235000000009
 21
945.63915
 31
0.0
  0
LINE
  5
D8
330
1E
100
AcDbEntity
  8
0
100
AcDbLine
 10
5.923235000000009
 20
936.90615
 30
0.0
 11
5.923235000000009
 21
932.32215
 31
0.0
  0
LINE
  5
D9
330
1E
100
AcDbEntity
  8
0
100
AcDbLine
 10
5.923235000000009
 20
936.90615
 30
0.0
 11
5.923235000000009
 21
941.38715
 31
0.0
  0
LINE
  5
DA
330
1E
100
AcDbEntity
  8
0
100
AcDbLine
 10
5.923235000000009
 20
932.32215
 30
0.0
 11
5.923235000000009
 21
928.0541499999999
 31
0.0
  0
LINE
  5
DB
330
1E
100
AcDbEntity
  8
0
100
AcDbLine
 10
5.923235000000009
 20
932.32215
 30
0.0
 11
5.923235000000009
 21
936.90615
 31
0.0
  0
LINE
  5
DC
330
1E
100
AcDbEntity
  8
0
100
AcDbLine
 10
5.923235000000009
 20
928.0541499999999
 30
0.0
 11
5.923235000000009
 21
924.4701499999999
 31
0.0
  0
LINE
  5
DD
330
1E
100
AcDbEntity
  8
0
100
AcDbLine
 10
5.923235000000009
 20
928.0541499999999
 30
0.0
 11
5.923235000000009
 21
932.32215
 31
0.0
  0
LINE
  5
DE
330
1E
100
AcDbEntity
  8
0
100
AcDbLine
 10
5.923235000000009
 20
924.4701499999999
 30
0.0
 11
5.923235000000009
 21
921.6411500000001
 31
0.0
  0
LINE
  5
DF
330
1E
100
AcDbEntity
  8
0
100
AcDbLine
 10
5.923235000000009
 20
924.4701499999999
 30
0.0
 11
5.923235000000009
 21
928.0541499999999
 31
0.0
  0
LINE
  5
E0
330
1E
100
AcDbEntity
  8
0
100
AcDbLine
 10
5.923235000000009
 20
928.07115
 30
0.0
 11
5.923235000000009
 21
924.4671499999999
 31
0.0
  0
LINE
  5
E1
330
1E
100
AcDbEntity
  8
0
100
AcDbLine
 10
5.923235000000009
 20
928.07115
 30
0.0
 11
5.923235000000009
 21
932.32315
 31
0.0
  0
LINE
  5
E2
330
1E
100
AcDbEntity
  8
0
100
AcDbLine
 10
5.923235000000009
 20
924.4671499999999
 30
0.0
 11
5.923235000000009
 21
928.07115
 31
0.0
  0
LINE
  5
E3
330
1E
100
AcDbEntity
  8
0
100
AcDbLine
 10
5.923235000000009
 20
924.4671499999999
 30
0.0
 11
5.923235000000009
 21
921.71415
 31
0.0
  0
LINE
  5
E4
330
1E
100
AcDbEntity
  8
0
100
AcDbLine
 10
5.923235000000009
 20
921.71415
 30
0.0
 11
5.923235000000009
 21
924.4671499999999
 31
0.0
  0
LINE
  5
E5
330
1E
100
AcDbEntity
  8
0
100
AcDbLine
 10
5.923235000000009
 20
921.71415
 30
0.0
 11
5.923235000000009
 21
919.9381499999999
 31
0.0
  0
LINE
  5
E6
330
1E
100
AcDbEntity
  8
0
100
AcDbLine
 10
5.923235000000009
 20
919.9381499999999
 30
0.0
 11
5.923235000000009
 21
921.71415
 31
0.0
  0
LINE
  5
E7
330
1E
100
AcDbEntity
  8
0
100
AcDbLine
 10
5.923235000000009
 20
919.9381499999999
 30
0.0
 11
5.923235000000009
 21
919.3421499999999
 31
0.0
  0
LINE
  5
E8
330
1E
100
AcDbEntity
  8
0
100
AcDbLine
 10
5.923235000000009
 20
919.93415
 30
0.0
 11
5.923235000000009
 21
919.3421499999999
 31
0.0
  0
LINE
  5
E9
330
1E
100
AcDbEntity
  8
0
100
AcDbLine
 10
5.923235000000009
 20
919.93415
 30
0.0
 11
5.923235000000009
 21
921.6411500000001
 31
0.0
  0
LINE
  5
EA
330
1E
100
AcDbEntity
  8
0
100
AcDbLine
 10
5.923235000000009
 20
919.3421499999999
 30
0.0
 11
6.677085000000009
 21
918.86015
 31
0.0
  0
LINE
  5
EB
330
1E
100
AcDbEntity
  8
0
100
AcDbLine
 10
5.923235000000009
 20
919.3421499999999
 30
0.0
 11
5.923235000000009
 21
919.9381499999999
 31
0.0
  0
LINE
  5
EC
330
1E
100
AcDbEntity
  8
0
100
AcDbLine
 10
5.923235000000009
 20
919.3421499999999
 30
0.0
 11
5.923235000000009
 21
919.93415
 31
0.0
  0
LINE
  5
ED
330
1E
100
AcDbEntity
  8
0
100
AcDbLine
 10
10.2120067005738
 20
954.85015
 30
0.0
 11
37.83603499999999
 21
954.85015
 31
0.0
  0
LINE
  5
EE
330
1E
100
AcDbEntity
  8
0
100
AcDbLine
 10
5.923235000000009
 20
921.6411500000001
 30
0.0
 11
5.923235000000009
 21
919.93415
 31
0.0
  0
LINE
  5
EF
330
1E
100
AcDbEntity
  8
0
100
AcDbLine
 10
5.923235000000009
 20
921.6411500000001
 30
0.0
 11
5.923235000000009
 21
924.4701499999999
 31
0.0
  0
LINE
  5
F0
330
1E
100
AcDbEntity
  8
0
100
AcDbLine
 10
6.677085000000009
 20
918.86015
 30
0.0
 11
37.83603499999999
 21
918.86015
 31
0.0
  0
LINE
  5
F1
330
1E
100
AcDbEntity
  8
0
100
AcDbLine
 10
17.123235
 20
351.85515
 30
0.0
 11
22.523235
 21
351.85515
 31
0.0
  0
LINE
  5
F2
330
1E
100
AcDbEntity
  8
0
100
AcDbLine
 10
22.523235
 20
351.85515
 30
0.0
 11
28.52323499999999
 21
351.85515
 31
0.0
  0
LINE
  5
F3
330
1E
100
AcDbEntity
  8
0
100
AcDbLine
 10
28.52323499999999
 20
351.85515
 30
0.0
 11
34.92323499999999
 21
351.85515
 31
0.0
  0
LINE
  5
F4
330
1E
100
AcDbEntity
  8
0
100
AcDbLine
 10
34.92323499999999
 20
351.85515
 30
0.0
 11
41.723235
 21
351.85515
 31
0.0
  0
LINE
  5
F5
330
1E
100
AcDbEntity
  8
0
100
AcDbLine
 10
44.92323499999995
 20
351.85515
 30
0.0
 11
44.923235
 21
918.86015
 31
0.0
  0
LINE
  5
F6
330
1E
100
AcDbEntity
  8
0
100
AcDbLine
 10
66.92323499999993
 20
353.1747260310051
 30
0.0
 11
66.92323499999999
 21
919.004329116718
 31
0.0
  0
LINE
  5
F7
330
1E
100
AcDbEntity
  8
0
100
AcDbLine
 10
83.32323499999999
 20
351.85515
 30
0.0
 11
81.998835
 21
815.4901499999999
 31
0.0
  0
LINE
  5
F8
330
1E
100
AcDbEntity
  8
0
100
AcDbLine
 10
99.523235
 20
351.85515
 30
0.0
 11
97.99903499999999
 21
815.4891499999999
 31
0.0
  0
LINE
  5
F9
330
1E
100
AcDbEntity
  8
0
100
AcDbLine
 10
94.72323499999999
 20
351.85515
 30
0.0
 11
99.523235
 21
351.85515
 31
0.0
  0
LINE
  5
FA
330
1E
100
AcDbEntity
  8
0
100
AcDbLine
 10
99.523235
 20
351.85515
 30
0.0
 11
103.523235
 21
351.85515
 31
0.0
  0
LINE
  5
FB
330
1E
100
AcDbEntity
  8
0
100
AcDbLine
 10
89.323235
 20
351.85515
 30
0.0
 11
94.72323499999999
 21
351.85515
 31
0.0
  0
LINE
  5
FC
330
1E
100
AcDbEntity
  8
0
100
AcDbLine
 10
83.32323499999999
 20
351.85515
 30
0.0
 11
89.323235
 21
351.85515
 31
0.0
  0
LINE
  5
FD
330
1E
100
AcDbEntity
  8
0
100
AcDbLine
 10
76.92323499999999
 20
351.85515
 30
0.0
 11
83.32323499999999
 21
351.85515
 31
0.0
  0
LINE
  5
FE
330
1E
100
AcDbEntity
  8
0
100
AcDbLine
 10
70.12323499999999
 20
351.85515
 30
0.0
 11
76.92323499999999
 21
351.85515
 31
0.0
  0
LINE
  5
FF
330
1E
100
AcDbEntity
  8
0
100
AcDbLine
 10
63.123235
 20
351.85515
 30
0.0
 11
70.12323499999999
 21
351.85515
 31
0.0
  0
LINE
  5
100
330
1E
100
AcDbEntity
  8
0
100
AcDbLine
 10
55.923235
 20
351.85515
 30
0.0
 11
63.123235
 21
351.85515
 31
0.0
  0
LINE
  5
101
330
1E
100
AcDbEntity
  8
0
100
AcDbLine
 10
41.723235
 20
351.85515
 30
0.0
 11
48.723235
 21
351.85515
 31
0.0
  0
LINE
  5
102
330
1E
100
AcDbEntity
  8
0
100
AcDbLine
 10
44.923235
 20
918.86015
 30
0.0
 11
44.92323499999995
 21
351.85515
 31
0.0
  0
LINE
  5
103
330
1E
100
AcDbEntity
  8
0
100
AcDbLine
 10
44.923235
 20
918.86015
 30
0.0
 11
75.92323499999999
 21
918.86015
 31
0.0
  0
LINE
  5
104
330
1E
100
AcDbEntity
  8
0
100
AcDbLine
 10
39.34373499999999
 20
918.86015
 30
0.0
 11
44.923235
 21
918.86015
 31
0.0
  0
LINE
  5
105
330
1E
100
AcDbEntity
  8
0
100
AcDbLine
 10
37.83603499999999
 20
918.86015
 30
0.0
 11
38.589935
 21
919.3421499999999
 31
0.0
  0
LINE
  5
106
330
1E
100
AcDbEntity
  8
0
100
AcDbLine
 10
38.589935
 20
919.3421499999999
 30
0.0
 11
39.34373499999999
 21
918.86015
 31
0.0
  0
LINE
  5
107
330
1E
100
AcDbEntity
  8
0
100
AcDbLine
 10
38.589935
 20
919.3421499999999
 30
0.0
 11
38.589935
 21
919.9381499999999
 31
0.0
  0
LINE
  5
108
330
1E
100
AcDbEntity
  8
0
100
AcDbLine
 10
66.92323499999999
 20
919.004329116718
 30
0.0
 11
66.92323499999993
 21
353.1747260310051
 31
0.0
  0
LINE
  5
109
330
1E
100
AcDbEntity
  8
0
100
AcDbLine
 10
38.589935
 20
919.9381499999999
 30
0.0
 11
38.589935
 21
919.3421499999999
 31
0.0
  0
LINE
  5
10A
330
1E
100
AcDbEntity
  8
0
100
AcDbLine
 10
38.589935
 20
919.9381499999999
 30
0.0
 11
38.589935
 21
921.71415
 31
0.0
  0
LINE
  5
10B
330
1E
100
AcDbEntity
  8
0
100
AcDbLine
 10
75.92323499999999
 20
918.86015
 30
0.0
 11
75.92323499999999
 21
919.44615
 31
0.0
  0
LINE
  5
10C
330
1E
100
AcDbEntity
  8
0
100
AcDbLine
 10
75.92323499999999
 20
918.86015
 30
0.0
 11
81.92323499999998
 21
918.8591499999999
 31
0.0
  0
LINE
  5
10D
330
1E
100
AcDbEntity
  8
0
100
AcDbLine
 10
75.92323499999999
 20
919.44615
 30
0.0
 11
75.92323499999999
 21
921.31115
 31
0.0
  0
LINE
  5
10E
330
1E
100
AcDbEntity
  8
0
100
AcDbLine
 10
75.92323499999999
 20
919.44615
 30
0.0
 11
75.92323499999999
 21
918.86015
 31
0.0
  0
LINE
  5
110
330
1E
100
AcDbEntity
  8
0
100
AcDbLine
 10
38.589935
 20
928.07115
 30
0.0
 11
38.589935
 21
924.4671499999999
 31
0.0
  0
LINE
  5
111
330
1E
100
AcDbEntity
  8
0
100
AcDbLine
 10
38.589935
 20
928.07115
 30
0.0
 11
38.589935
 21
932.32315
 31
0.0
  0
LINE
  5
112
330
1E
100
AcDbEntity
  8
0
100
AcDbLine
 10
38.589935
 20
924.4671499999999
 30
0.0
 11
38.589935
 21
921.71415
 31
0.0
  0
LINE
  5
113
330
1E
100
AcDbEntity
  8
0
100
AcDbLine
 10
38.589935
 20
924.4671499999999
 30
0.0
 11
38.589935
 21
928.07115
 31
0.0
  0
LINE
  5
114
330
1E
100
AcDbEntity
  8
0
100
AcDbLine
 10
38.589935
 20
921.71415
 30
0.0
 11
38.589935
 21
919.9381499999999
 31
0.0
  0
LINE
  5
115
330
1E
100
AcDbEntity
  8
0
100
AcDbLine
 10
38.589935
 20
921.71415
 30
0.0
 11
38.589935
 21
924.4671499999999
 31
0.0
  0
LINE
  5
116
330
1E
100
AcDbEntity
  8
0
100
AcDbLine
 10
75.92323499999999
 20
921.31115
 30
0.0
 11
75.92323499999999
 21
924.1881499999999
 31
0.0
  0
LINE
  5
117
330
1E
100
AcDbEntity
  8
0
100
AcDbLine
 10
75.92323499999999
 20
921.31115
 30
0.0
 11
75.92323499999999
 21
919.44615
 31
0.0
  0
LINE
  5
119
330
1E
100
AcDbEntity
  8
0
100
AcDbLine
 10
75.92323499999999
 20
924.1881499999999
 30
0.0
 11
75.92323499999999
 21
927.85515
 31
0.0
  0
LINE
  5
11A
330
1E
100
AcDbEntity
  8
0
100
AcDbLine
 10
75.92323499999999
 20
924.1881499999999
 30
0.0
 11
75.92323499999999
 21
921.31115
 31
0.0
  0
LINE
  5
11C
330
1E
100
AcDbEntity
  8
0
100
AcDbLine
 10
38.589935
 20
932.32315
 30
0.0
 11
38.589935
 21
928.07115
 31
0.0
  0
LINE
  5
11D
330
1E
100
AcDbEntity
  8
0
100
AcDbLine
 10
38.589935
 20
932.32315
 30
0.0
 11
38.589935
 21
936.80415
 31
0.0
  0
LINE
  5
11E
330
1E
100
AcDbEntity
  8
0
100
AcDbLine
 10
38.589935
 20
936.80415
 30
0.0
 11
38.589935
 21
932.32315
 31
0.0
  0
LINE
  5
11F
330
1E
100
AcDbEntity
  8
0
100
AcDbLine
 10
38.589935
 20
936.80415
 30
0.0
 11
38.589935
 21
941.38815
 31
0.0
  0
LINE
  5
120
330
1E
100
AcDbEntity
  8
0
100
AcDbLine
 10
38.589935
 20
941.38815
 30
0.0
 11
38.589935
 21
936.80415
 31
0.0
  0
LINE
  5
121
330
1E
100
AcDbEntity
  8
0
100
AcDbLine
 10
38.589935
 20
941.38815
 30
0.0
 11
38.589935
 21
945.6561500000001
 31
0.0
  0
LINE
  5
122
330
1E
100
AcDbEntity
  8
0
100
AcDbLine
 10
38.589935
 20
945.6561500000001
 30
0.0
 11
38.589935
 21
941.38815
 31
0.0
  0
LINE
  5
123
330
1E
100
AcDbEntity
  8
0
100
AcDbLine
 10
38.589935
 20
945.6561500000001
 30
0.0
 11
38.589935
 21
949.2401499999999
 31
0.0
  0
LINE
  5
124
330
1E
100
AcDbEntity
  8
0
100
AcDbLine
 10
38.589935
 20
949.2401499999999
 30
0.0
 11
38.589935
 21
945.6561500000001
 31
0.0
  0
LINE
  5
125
330
1E
100
AcDbEntity
  8
0
100
AcDbLine
 10
38.589935
 20
949.2401499999999
 30
0.0
 11
38.589935
 21
952.0691499999999
 31
0.0
  0
LINE
  5
126
330
1E
100
AcDbEntity
  8
0
100
AcDbLine
 10
38.589935
 20
953.77615
 30
0.0
 11
38.589935
 21
952.0691499999999
 31
0.0
  0
LINE
  5
127
330
1E
100
AcDbEntity
  8
0
100
AcDbLine
 10
38.589935
 20
953.77615
 30
0.0
 11
38.589935
 21
954.3681499999999
 31
0.0
  0
LINE
  5
128
330
1E
100
AcDbEntity
  8
0
100
AcDbLine
 10
38.589935
 20
952.0691499999999
 30
0.0
 11
38.589935
 21
949.2401499999999
 31
0.0
  0
LINE
  5
129
330
1E
100
AcDbEntity
  8
0
100
AcDbLine
 10
38.589935
 20
952.0691499999999
 30
0.0
 11
38.589935
 21
953.77615
 31
0.0
  0
LINE
  5
12A
330
1E
100
AcDbEntity
  8
0
100
AcDbLine
 10
75.92323499999999
 20
949.5781500000001
 30
0.0
 11
75.92323499999999
 21
952.44315
 31
0.0
  0
LINE
  5
12B
330
1E
100
AcDbEntity
  8
0
100
AcDbLine
 10
75.92323499999999
 20
949.5781500000001
 30
0.0
 11
75.92323499999999
 21
945.9221499999999
 31
0.0
  0
LINE
  5
12D
330
1E
100
AcDbEntity
  8
0
100
AcDbLine
 10
75.92323499999999
 20
945.9221499999999
 30
0.0
 11
75.92323499999999
 21
949.5781500000001
 31
0.0
  0
LINE
  5
12E
330
1E
100
AcDbEntity
  8
0
100
AcDbLine
 10
75.92323499999999
 20
945.9221499999999
 30
0.0
 11
75.92323499999999
 21
941.52015
 31
0.0
  0
LINE
  5
130
330
1E
100
AcDbEntity
  8
0
100
AcDbLine
 10
75.92323499999999
 20
941.52015
 30
0.0
 11
75.92323499999999
 21
945.9221499999999
 31
0.0
  0
LINE
  5
131
330
1E
100
AcDbEntity
  8
0
100
AcDbLine
 10
75.92323499999999
 20
941.52015
 30
0.0
 11
75.92323499999999
 21
936.77515
 31
0.0
  0
LINE
  5
133
330
1E
100
AcDbEntity
  8
0
100
AcDbLine
 10
75.92323499999999
 20
936.77515
 30
0.0
 11
75.92323499999999
 21
941.52015
 31
0.0
  0
LINE
  5
134
330
1E
100
AcDbEntity
  8
0
100
AcDbLine
 10
75.92323499999999
 20
936.77515
 30
0.0
 11
75.92323499999999
 21
932.1701500000001
 31
0.0
  0
LINE
  5
136
330
1E
100
AcDbEntity
  8
0
100
AcDbLine
 10
75.92323499999999
 20
932.1701500000001
 30
0.0
 11
75.92323499999999
 21
936.77515
 31
0.0
  0
LINE
  5
137
330
1E
100
AcDbEntity
  8
0
100
AcDbLine
 10
75.92323499999999
 20
932.1701500000001
 30
0.0
 11
75.92323499999999
 21
927.85515
 31
0.0
  0
LINE
  5
139
330
1E
100
AcDbEntity
  8
0
100
AcDbLine
 10
75.92323499999999
 20
927.85515
 30
0.0
 11
75.92323499999999
 21
932.1701500000001
 31
0.0
  0
LINE
  5
13A
330
1E
100
AcDbEntity
  8
0
100
AcDbLine
 10
75.92323499999999
 20
927.85515
 30
0.0
 11
75.92323499999999
 21
924.1881499999999
 31
0.0
  0
LINE
  5
13C
330
1E
100
AcDbEntity
  8
0
100
AcDbLine
 10
44.923235
 20
954.748869556035
 30
0.0
 11
44.923235
 21
1110.551087499999
 31
0.0
  0
LINE
  5
13D
330
1E
100
AcDbEntity
  8
0
100
AcDbLine
 10
44.923235
 20
954.748869556035
 30
0.0
 11
75.92323499999999
 21
954.85015
 31
0.0
  0
LINE
  5
13E
330
1E
100
AcDbEntity
  8
0
100
AcDbLine
 10
66.92323499999999
 20
954.85015
 30
0.0
 11
66.92323499999999
 21
1095.556977586206
 31
0.0
  0
LINE
  5
13F
330
1E
100
AcDbEntity
  8
0
100
AcDbLine
 10
39.34373499999999
 20
954.85015
 30
0.0
 11
44.923235
 21
954.85015
 31
0.0
  0
LINE
  5
140
330
1E
100
AcDbEntity
  8
0
100
AcDbLine
 10
37.83603499999999
 20
954.85015
 30
0.0
 11
38.589935
 21
954.3681499999999
 31
0.0
  0
LINE
  5
141
330
1E
100
AcDbEntity
  8
0
100
AcDbLine
 10
38.589935
 20
954.3681499999999
 30
0.0
 11
38.589935
 21
953.77615
 31
0.0
  0
LINE
  5
142
330
1E
100
AcDbEntity
  8
0
100
AcDbLine
 10
38.589935
 20
954.3681499999999
 30
0.0
 11
39.34373499999999
 21
954.85015
 31
0.0
  0
LINE
  5
143
330
1E
100
AcDbEntity
  8
0
100
AcDbLine
 10
75.92323499999999
 20
954.85015
 30
0.0
 11
75.92323499999999
 21
954.1861499999999
 31
0.0
  0
LINE
  5
144
330
1E
100
AcDbEntity
  8
0
100
AcDbLine
 10
75.92323499999999
 20
954.1861499999999
 30
0.0
 11
75.92323499999999
 21
954.85015
 31
0.0
  0
LINE
  5
145
330
1E
100
AcDbEntity
  8
0
100
AcDbLine
 10
75.92323499999999
 20
954.1861499999999
 30
0.0
 11
75.92323499999999
 21
952.44315
 31
0.0
  0
LINE
  5
146
330
1E
100
AcDbEntity
  8
0
100
AcDbLine
 10
75.92323499999999
 20
952.44315
 30
0.0
 11
75.92323499999999
 21
954.17515
 31
0.0
  0
LINE
  5
147
330
1E
100
AcDbEntity
  8
0
100
AcDbLine
 10
75.92323499999999
 20
952.44315
 30
0.0
 11
75.92323499999999
 21
954.1861499999999
 31
0.0
  0
LINE
  5
148
330
1E
100
AcDbEntity
  8
0
100
AcDbLine
 10
75.92323499999999
 20
952.44315
 30
0.0
 11
75.92323499999999
 21
949.5781500000001
 31
0.0
  0
LINE
  5
149
330
1E
100
AcDbEntity
  8
0
100
AcDbLine
 10
39.92323499999999
 20
1125.770149999999
 30
0.0
 11
39.92323499999999
 21
1123.72215
 31
0.0
  0
LINE
  5
14A
330
1E
100
AcDbEntity
  8
0
100
AcDbLine
 10
39.92323499999999
 20
1125.770149999999
 30
0.0
 11
41.723235
 21
1133.11215
 31
0.0
  0
LINE
  5
14B
330
1E
100
AcDbEntity
  8
0
100
AcDbLine
 10
39.92323499999999
 20
1123.72215
 30
0.0
 11
39.92323499999999
 21
1125.770149999999
 31
0.0
  0
LINE
  5
14C
330
1E
100
AcDbEntity
  8
0
100
AcDbLine
 10
40.67502071428321
 20
1120.656117261914
 30
0.0
 11
41.723235
 21
1116.38115
 31
0.0
  0
LINE
  5
14D
330
1E
100
AcDbEntity
  8
0
100
AcDbLine
 10
41.723235
 20
1116.38115
 30
0.0
 11
42.22323499999999
 21
1114.390149999999
 31
0.0
  0
LINE
  5
14E
330
1E
100
AcDbEntity
  8
0
100
AcDbLine
 10
42.22323499999999
 20
1114.390149999999
 30
0.0
 11
47.023235
 21
1107.565149999999
 31
0.0
  0
LINE
  5
14F
330
1E
100
AcDbEntity
  8
0
100
AcDbLine
 10
41.723235
 20
1133.11215
 30
0.0
 11
46.623235
 21
1140.05215
 31
0.0
  0
LINE
  5
150
330
1E
100
AcDbEntity
  8
0
100
AcDbLine
 10
41.723235
 20
1133.931149999999
 30
0.0
 11
46.623235
 21
1140.87215
 31
0.0
  0
LINE
  5
151
330
1E
100
AcDbEntity
  8
0
100
AcDbLine
 10
39.92323499999999
 20
1135.19115
 30
0.0
 11
41.723235
 21
1142.53215
 31
0.0
  0
LINE
  5
152
330
1E
100
AcDbEntity
  8
0
100
AcDbLine
 10
39.92323499999999
 20
1135.19115
 30
0.0
 11
39.92323499999999
 21
1126.58915
 31
0.0
  0
LINE
  5
153
330
1E
100
AcDbEntity
  8
0
100
AcDbLine
 10
42.22323499999999
 20
1143.29415
 30
0.0
 11
47.023235
 21
1150.12015
 31
0.0
  0
LINE
  5
154
330
1E
100
AcDbEntity
  8
0
100
AcDbLine
 10
41.723235
 20
1142.53215
 30
0.0
 11
42.22323499999999
 21
1143.29415
 31
0.0
  0
LINE
  5
155
330
1E
100
AcDbEntity
  8
0
100
AcDbLine
 10
39.92323499999999
 20
1126.58915
 30
0.0
 11
40.0236368252401
 21
1126.179677889396
 31
0.0
  0
LINE
  5
156
330
1E
100
AcDbEntity
  8
0
100
AcDbLine
 10
39.92323499999999
 20
1126.58915
 30
0.0
 11
39.92323499999999
 21
1135.19115
 31
0.0
  0
LINE
  5
157
330
1E
100
AcDbEntity
  8
0
100
AcDbLine
 10
39.92323499999999
 20
1126.58915
 30
0.0
 11
41.723235
 21
1133.931149999999
 31
0.0
  0
LINE
  5
158
330
1E
100
AcDbEntity
  8
0
100
AcDbLine
 10
44.923235
 20
1110.551087499999
 30
0.0
 11
44.923235
 21
954.7488695560359
 31
0.0
  0
LINE
  5
159
330
1E
100
AcDbEntity
  8
0
100
AcDbLine
 10
44.923235
 20
1147.133775
 30
0.0
 11
44.923235
 21
1186.355149999999
 31
0.0
  0
LINE
  5
15A
330
1E
100
AcDbEntity
  8
0
100
AcDbLine
 10
46.623235
 20
1140.05215
 30
0.0
 11
54.623235
 21
1146.018149999999
 31
0.0
  0
LINE
  5
15D
330
1E
100
AcDbEntity
  8
0
100
AcDbLine
 10
50.22323499999999
 20
1117.05715
 30
0.0
 11
50.923235
 21
1117.22915
 31
0.0
  0
LINE
  5
15F
330
1E
100
AcDbEntity
  8
0
100
AcDbLine
 10
49.923235
 20
1116.65615
 30
0.0
 11
50.22323499999999
 21
1116.25415
 31
0.0
  0
LINE
  5
160
330
1E
100
AcDbEntity
  8
0
100
AcDbLine
 10
49.923235
 20
1116.65615
 30
0.0
 11
50.22323499999999
 21
1117.05715
 31
0.0
  0
LINE
  5
162
330
1E
100
AcDbEntity
  8
0
100
AcDbLine
 10
50.22323499999999
 20
1116.25415
 30
0.0
 11
50.923235
 21
1116.082149999999
 31
0.0
  0
LINE
  5
163
330
1E
100
AcDbEntity
  8
0
100
AcDbLine
 10
47.023235
 20
1107.565149999999
 30
0.0
 11
48.323235
 21
1105.918149999999
 31
0.0
  0
LINE
  5
164
330
1E
100
AcDbEntity
  8
0
100
AcDbLine
 10
48.323235
 20
1105.918149999999
 30
0.0
 11
56.023235
 21
1100.18215
 31
0.0
  0
LINE
  5
165
330
1E
100
AcDbEntity
  8
0
100
AcDbLine
 10
46.623235
 20
1140.87215
 30
0.0
 11
54.623235
 21
1146.837149999999
 31
0.0
  0
LINE
  5
166
330
1E
100
AcDbEntity
  8
0
100
AcDbLine
 10
47.023235
 20
1150.12015
 30
0.0
 11
54.923235
 21
1156.085149999999
 31
0.0
  0
LINE
  5
169
330
1E
100
AcDbEntity
  8
0
100
AcDbLine
 10
50.530935
 20
1112.672149999999
 30
0.0
 11
50.70483499999999
 21
1113.09715
 31
0.0
  0
LINE
  5
16A
330
1E
100
AcDbEntity
  8
0
100
AcDbLine
 10
50.530935
 20
1112.672149999999
 30
0.0
 11
50.947935
 21
1112.306149999999
 31
0.0
  0
LINE
  5
16C
330
1E
100
AcDbEntity
  8
0
100
AcDbLine
 10
50.70483499999999
 20
1113.09715
 30
0.0
 11
51.34203499999999
 21
1113.33615
 31
0.0
  0
LINE
  5
16F
330
1E
100
AcDbEntity
  8
0
100
AcDbLine
 10
50.530935
 20
1120.64015
 30
0.0
 11
50.70483499999999
 21
1120.21415
 31
0.0
  0
LINE
  5
170
330
1E
100
AcDbEntity
  8
0
100
AcDbLine
 10
50.530935
 20
1120.64015
 30
0.0
 11
50.947935
 21
1121.00515
 31
0.0
  0
LINE
  5
173
330
1E
100
AcDbEntity
  8
0
100
AcDbLine
 10
51.34203499999999
 20
1113.33615
 30
0.0
 11
52.083535
 21
1113.23615
 31
0.0
  0
LINE
  5
175
330
1E
100
AcDbEntity
  8
0
100
AcDbLine
 10
50.947935
 20
1112.306149999999
 30
0.0
 11
51.689335
 21
1112.20615
 31
0.0
  0
LINE
  5
176
330
1E
100
AcDbEntity
  8
0
100
AcDbLine
 10
50.923235
 20
1116.082149999999
 30
0.0
 11
51.623235
 21
1116.25415
 31
0.0
  0
LINE
  5
178
330
1E
100
AcDbEntity
  8
0
100
AcDbLine
 10
50.923235
 20
1117.22915
 30
0.0
 11
51.623235
 21
1117.05715
 31
0.0
  0
LINE
  5
17B
330
1E
100
AcDbEntity
  8
0
100
AcDbLine
 10
52.083535
 20
1113.23615
 30
0.0
 11
52.50053499999999
 21
1112.871149999999
 31
0.0
  0
LINE
  5
17D
330
1E
100
AcDbEntity
  8
0
100
AcDbLine
 10
52.326635
 20
1112.44515
 30
0.0
 11
52.50053499999999
 21
1112.871149999999
 31
0.0
  0
LINE
  5
17E
330
1E
100
AcDbEntity
  8
0
100
AcDbLine
 10
51.689335
 20
1112.20615
 30
0.0
 11
52.326635
 21
1112.44515
 31
0.0
  0
LINE
  5
180
330
1E
100
AcDbEntity
  8
0
100
AcDbLine
 10
51.623235
 20
1116.25415
 30
0.0
 11
51.923235
 21
1116.65615
 31
0.0
  0
LINE
  5
183
330
1E
100
AcDbEntity
  8
0
100
AcDbLine
 10
51.623235
 20
1117.05715
 30
0.0
 11
51.923235
 21
1116.65615
 31
0.0
  0
LINE
  5
185
330
1E
100
AcDbEntity
  8
0
100
AcDbLine
 10
51.34203499999999
 20
1119.975149999999
 30
0.0
 11
52.083535
 21
1120.07515
 31
0.0
  0
LINE
  5
186
330
1E
100
AcDbEntity
  8
0
100
AcDbLine
 10
52.083535
 20
1120.07515
 30
0.0
 11
52.50053499999999
 21
1120.44015
 31
0.0
  0
LINE
  5
189
330
1E
100
AcDbEntity
  8
0
100
AcDbLine
 10
52.335535
 20
1108.80915
 30
0.0
 11
52.378035
 21
1109.24515
 31
0.0
  0
LINE
  5
18A
330
1E
100
AcDbEntity
  8
0
100
AcDbLine
 10
52.335535
 20
1108.80915
 30
0.0
 11
52.856835
 21
1108.49015
 31
0.0
  0
LINE
  5
18C
330
1E
100
AcDbEntity
  8
0
100
AcDbLine
 10
52.378035
 20
1109.24515
 30
0.0
 11
52.93323499999999
 21
1109.54415
 31
0.0
  0
LINE
  5
18F
330
1E
100
AcDbEntity
  8
0
100
AcDbLine
 10
53.617235
 20
1108.466149999999
 30
0.0
 11
54.172435
 21
1108.765149999999
 31
0.0
  0
LINE
  5
192
330
1E
100
AcDbEntity
  8
0
100
AcDbLine
 10
52.93323499999999
 20
1109.54415
 30
0.0
 11
53.693635
 21
1109.51915
 31
0.0
  0
LINE
  5
194
330
1E
100
AcDbEntity
  8
0
100
AcDbLine
 10
53.693635
 20
1109.51915
 30
0.0
 11
54.214935
 21
1109.201149999999
 31
0.0
  0
LINE
  5
196
330
1E
100
AcDbEntity
  8
0
100
AcDbLine
 10
52.856835
 20
1108.49015
 30
0.0
 11
53.617235
 21
1108.466149999999
 31
0.0
  0
LINE
  5
199
330
1E
100
AcDbEntity
  8
0
100
AcDbLine
 10
52.326635
 20
1120.866149999999
 30
0.0
 11
52.50053499999999
 21
1120.44015
 31
0.0
  0
LINE
  5
19F
330
1E
100
AcDbEntity
  8
0
100
AcDbLine
 10
51.689335
 20
1121.105149999999
 30
0.0
 11
52.326635
 21
1120.866149999999
 31
0.0
  0
LINE
  5
1A1
330
1E
100
AcDbEntity
  8
0
100
AcDbLine
 10
50.947935
 20
1121.00515
 30
0.0
 11
51.689335
 21
1121.105149999999
 31
0.0
  0
LINE
  5
1A3
330
1E
100
AcDbEntity
  8
0
100
AcDbLine
 10
50.70483499999999
 20
1120.21415
 30
0.0
 11
51.34203499999999
 21
1119.975149999999
 31
0.0
  0
LINE
  5
1A4
330
1E
100
AcDbEntity
  8
0
100
AcDbLine
 10
52.93323499999999
 20
1123.76715
 30
0.0
 11
53.693635
 21
1123.79215
 31
0.0
  0
LINE
  5
1A7
330
1E
100
AcDbEntity
  8
0
100
AcDbLine
 10
54.172435
 20
1108.765149999999
 30
0.0
 11
54.214935
 21
1109.201149999999
 31
0.0
  0
LINE
  5
1A8
330
1E
100
AcDbEntity
  8
0
100
AcDbLine
 10
53.693635
 20
1123.79215
 30
0.0
 11
54.214935
 21
1124.110149999999
 31
0.0
  0
LINE
  5
1AB
330
1E
100
AcDbEntity
  8
0
100
AcDbLine
 10
54.172435
 20
1124.54615
 30
0.0
 11
54.214935
 21
1124.110149999999
 31
0.0
  0
LINE
  5
1B1
330
1E
100
AcDbEntity
  8
0
100
AcDbLine
 10
53.617235
 20
1124.84515
 30
0.0
 11
54.172435
 21
1124.54615
 31
0.0
  0
LINE
  5
1B3
330
1E
100
AcDbEntity
  8
0
100
AcDbLine
 10
52.856835
 20
1124.82115
 30
0.0
 11
53.617235
 21
1124.84515
 31
0.0
  0
LINE
  5
1B5
330
1E
100
AcDbEntity
  8
0
100
AcDbLine
 10
52.335535
 20
1124.50315
 30
0.0
 11
52.378035
 21
1124.06615
 31
0.0
  0
LINE
  5
1B6
330
1E
100
AcDbEntity
  8
0
100
AcDbLine
 10
52.335535
 20
1124.50315
 30
0.0
 11
52.856835
 21
1124.82115
 31
0.0
  0
LINE
  5
1B8
330
1E
100
AcDbEntity
  8
0
100
AcDbLine
 10
52.378035
 20
1124.06615
 30
0.0
 11
52.93323499999999
 21
1123.76715
 31
0.0
  0
LINE
  5
1B9
330
1E
100
AcDbEntity
  8
0
100
AcDbLine
 10
54.623235
 20
1146.018149999999
 30
0.0
 11
65.023235
 21
1150.60615
 31
0.0
  0
LINE
  5
1BA
330
1E
100
AcDbEntity
  8
0
100
AcDbLine
 10
54.623235
 20
1146.837149999999
 30
0.0
 11
65.023235
 21
1151.42515
 31
0.0
  0
LINE
  5
1BC
330
1E
100
AcDbEntity
  8
0
100
AcDbLine
 10
55.19203499999999
 20
1105.61815
 30
0.0
 11
55.648235
 21
1105.96815
 31
0.0
  0
LINE
  5
1BD
330
1E
100
AcDbEntity
  8
0
100
AcDbLine
 10
55.19203499999999
 20
1105.61815
 30
0.0
 11
55.282235
 21
1105.18415
 31
0.0
  0
LINE
  5
1C0
330
1E
100
AcDbEntity
  8
0
100
AcDbLine
 10
55.648235
 20
1105.96815
 30
0.0
 11
56.40443499999999
 21
1106.01915
 31
0.0
  0
LINE
  5
1C4
330
1E
100
AcDbEntity
  8
0
100
AcDbLine
 10
56.40443499999999
 20
1106.01915
 30
0.0
 11
57.014235
 21
1105.75815
 31
0.0
  0
LINE
  5
1C7
330
1E
100
AcDbEntity
  8
0
100
AcDbLine
 10
57.014235
 20
1105.75815
 30
0.0
 11
57.104435
 21
1105.324149999999
 31
0.0
  0
LINE
  5
1C9
330
1E
100
AcDbEntity
  8
0
100
AcDbLine
 10
56.648235
 20
1104.97415
 30
0.0
 11
57.104435
 21
1105.324149999999
 31
0.0
  0
LINE
  5
1CA
330
1E
100
AcDbEntity
  8
0
100
AcDbLine
 10
55.89203499999999
 20
1104.922149999999
 30
0.0
 11
56.648235
 21
1104.97415
 31
0.0
  0
LINE
  5
1CB
330
1E
100
AcDbEntity
  8
0
100
AcDbLine
 10
55.282235
 20
1105.18415
 30
0.0
 11
55.89203499999999
 21
1104.922149999999
 31
0.0
  0
LINE
  5
1CC
330
1E
100
AcDbEntity
  8
0
100
AcDbLine
 10
55.648235
 20
1127.344149999999
 30
0.0
 11
56.40443499999999
 21
1127.29215
 31
0.0
  0
LINE
  5
1CD
330
1E
100
AcDbEntity
  8
0
100
AcDbLine
 10
56.40443499999999
 20
1127.29215
 30
0.0
 11
57.014235
 21
1127.55315
 31
0.0
  0
LINE
  5
1D1
330
1E
100
AcDbEntity
  8
0
100
AcDbLine
 10
58.080135
 20
1114.76915
 30
0.0
 11
58.31793499999999
 21
1115.18415
 31
0.0
  0
LINE
  5
1D2
330
1E
100
AcDbEntity
  8
0
100
AcDbLine
 10
58.080135
 20
1114.76915
 30
0.0
 11
58.43993499999999
 21
1114.38415
 31
0.0
  0
LINE
  5
1D4
330
1E
100
AcDbEntity
  8
0
100
AcDbLine
 10
58.31793499999999
 20
1115.18415
 30
0.0
 11
58.98913499999999
 21
1115.391149999999
 31
0.0
  0
LINE
  5
1D6
330
1E
100
AcDbEntity
  8
0
100
AcDbLine
 10
58.080135
 20
1117.96515
 30
0.0
 11
58.31793499999999
 21
1117.55015
 31
0.0
  0
LINE
  5
1D7
330
1E
100
AcDbEntity
  8
0
100
AcDbLine
 10
58.080135
 20
1117.96515
 30
0.0
 11
58.43993499999999
 21
1118.35015
 31
0.0
  0
LINE
  5
1D9
330
1E
100
AcDbEntity
  8
0
100
AcDbLine
 10
58.43993499999999
 20
1114.38415
 30
0.0
 11
59.16343499999999
 21
1114.248149999999
 31
0.0
  0
LINE
  5
1DB
330
1E
100
AcDbEntity
  8
0
100
AcDbLine
 10
58.43993499999999
 20
1118.35015
 30
0.0
 11
59.16343499999999
 21
1118.487149999999
 31
0.0
  0
LINE
  5
1DD
330
1E
100
AcDbEntity
  8
0
100
AcDbLine
 10
58.31793499999999
 20
1117.55015
 30
0.0
 11
58.98913499999999
 21
1117.344149999999
 31
0.0
  0
LINE
  5
1DF
330
1E
100
AcDbEntity
  8
0
100
AcDbLine
 10
57.014235
 20
1127.55315
 30
0.0
 11
57.104435
 21
1127.987149999999
 31
0.0
  0
LINE
  5
1E4
330
1E
100
AcDbEntity
  8
0
100
AcDbLine
 10
56.648235
 20
1128.337149999999
 30
0.0
 11
57.104435
 21
1127.987149999999
 31
0.0
  0
LINE
  5
1E6
330
1E
100
AcDbEntity
  8
0
100
AcDbLine
 10
55.89203499999999
 20
1128.38915
 30
0.0
 11
56.648235
 21
1128.337149999999
 31
0.0
  0
LINE
  5
1E8
330
1E
100
AcDbEntity
  8
0
100
AcDbLine
 10
55.282235
 20
1128.12715
 30
0.0
 11
55.89203499999999
 21
1128.38915
 31
0.0
  0
LINE
  5
1EA
330
1E
100
AcDbEntity
  8
0
100
AcDbLine
 10
55.19203499999999
 20
1127.69315
 30
0.0
 11
55.648235
 21
1127.344149999999
 31
0.0
  0
LINE
  5
1EB
330
1E
100
AcDbEntity
  8
0
100
AcDbLine
 10
55.19203499999999
 20
1127.69315
 30
0.0
 11
55.282235
 21
1128.12715
 31
0.0
  0
LINE
  5
1ED
330
1E
100
AcDbEntity
  8
0
100
AcDbLine
 10
56.023235
 20
1100.18215
 30
0.0
 11
66.023235
 21
1095.76615
 31
0.0
  0
LINE
  5
1EE
330
1E
100
AcDbEntity
  8
0
100
AcDbLine
 10
54.923235
 20
1156.085149999999
 30
0.0
 11
65.323235
 21
1160.616149999999
 31
0.0
  0
LINE
  5
1EF
330
1E
100
AcDbEntity
  8
0
100
AcDbLine
 10
53.123235
 20
1186.355149999999
 30
0.0
 11
55.923235
 21
1186.355149999999
 31
0.0
  0
LINE
  5
1F0
330
1E
100
AcDbEntity
  8
0
100
AcDbLine
 10
50.423235
 20
1186.355149999999
 30
0.0
 11
53.123235
 21
1186.355149999999
 31
0.0
  0
LINE
  5
1F1
330
1E
100
AcDbEntity
  8
0
100
AcDbLine
 10
48.123235
 20
1186.355149999999
 30
0.0
 11
50.423235
 21
1186.355149999999
 31
0.0
  0
LINE
  5
1F2
330
1E
100
AcDbEntity
  8
0
100
AcDbLine
 10
46.42323499999999
 20
1186.355149999999
 30
0.0
 11
48.123235
 21
1186.355149999999
 31
0.0
  0
LINE
  5
1F3
330
1E
100
AcDbEntity
  8
0
100
AcDbLine
 10
45.32323499999999
 20
1186.355149999999
 30
0.0
 11
46.42323499999999
 21
1186.355149999999
 31
0.0
  0
LINE
  5
1F4
330
1E
100
AcDbEntity
  8
0
100
AcDbLine
 10
44.923235
 20
1186.355149999999
 30
0.0
 11
44.923235
 21
1147.133775
 31
0.0
  0
LINE
  5
1F5
330
1E
100
AcDbEntity
  8
0
100
AcDbLine
 10
44.923235
 20
1186.355149999999
 30
0.0
 11
45.32323499999999
 21
1186.355149999999
 31
0.0
  0
LINE
  5
1F6
330
1E
100
AcDbEntity
  8
0
100
AcDbLine
 10
44.923235
 20
1186.355149999999
 30
0.0
 11
45.423235
 21
1186.855149999999
 31
0.0
  0
LINE
  5
1F7
330
1E
100
AcDbEntity
  8
0
100
AcDbLine
 10
55.923235
 20
1186.355149999999
 30
0.0
 11
58.723235
 21
1186.355149999999
 31
0.0
  0
LINE
  5
1F9
330
1E
100
AcDbEntity
  8
0
100
AcDbLine
 10
59.061335
 20
1102.326149999999
 30
0.0
 11
59.40473499999999
 21
1102.71615
 31
0.0
  0
LINE
  5
1FA
330
1E
100
AcDbEntity
  8
0
100
AcDbLine
 10
59.061335
 20
1102.326149999999
 30
0.0
 11
59.281435
 21
1101.90815
 31
0.0
  0
LINE
  5
1FE
330
1E
100
AcDbEntity
  8
0
100
AcDbLine
 10
59.047635
 20
1111.62215
 30
0.0
 11
59.15623499999999
 21
1112.05415
 31
0.0
  0
LINE
  5
1FF
330
1E
100
AcDbEntity
  8
0
100
AcDbLine
 10
59.047635
 20
1111.62215
 30
0.0
 11
59.518535
 21
1111.279149999999
 31
0.0
  0
LINE
  5
201
330
1E
100
AcDbEntity
  8
0
100
AcDbLine
 10
59.15623499999999
 20
1112.05415
 30
0.0
 11
59.75473499999999
 21
1112.324149999999
 31
0.0
  0
LINE
  5
203
330
1E
100
AcDbEntity
  8
0
100
AcDbLine
 10
58.98913499999999
 20
1115.391149999999
 30
0.0
 11
59.712635
 21
1115.254149999999
 31
0.0
  0
LINE
  5
204
330
1E
100
AcDbEntity
  8
0
100
AcDbLine
 10
59.16343499999999
 20
1114.248149999999
 30
0.0
 11
59.834635
 21
1114.45415
 31
0.0
  0
LINE
  5
206
330
1E
100
AcDbEntity
  8
0
100
AcDbLine
 10
58.98913499999999
 20
1117.344149999999
 30
0.0
 11
59.712635
 21
1117.48015
 31
0.0
  0
LINE
  5
208
330
1E
100
AcDbEntity
  8
0
100
AcDbLine
 10
59.40473499999999
 20
1102.71615
 30
0.0
 11
60.133735
 21
1102.84215
 31
0.0
  0
LINE
  5
20A
330
1E
100
AcDbEntity
  8
0
100
AcDbLine
 10
59.281435
 20
1101.90815
 30
0.0
 11
59.96123499999999
 21
1101.71115
 31
0.0
  0
LINE
  5
20B
330
1E
100
AcDbEntity
  8
0
100
AcDbLine
 10
59.518535
 20
1111.279149999999
 30
0.0
 11
60.272335
 21
1111.216149999999
 31
0.0
  0
LINE
  5
20C
330
1E
100
AcDbEntity
  8
0
100
AcDbLine
 10
59.712635
 20
1115.254149999999
 30
0.0
 11
60.072435
 21
1114.86915
 31
0.0
  0
LINE
  5
20E
330
1E
100
AcDbEntity
  8
0
100
AcDbLine
 10
60.133735
 20
1102.84215
 30
0.0
 11
60.81353499999999
 21
1102.645149999999
 31
0.0
  0
LINE
  5
210
330
1E
100
AcDbEntity
  8
0
100
AcDbLine
 10
59.96123499999999
 20
1101.71115
 30
0.0
 11
60.69033499999999
 21
1101.837149999999
 31
0.0
  0
LINE
  5
212
330
1E
100
AcDbEntity
  8
0
100
AcDbLine
 10
59.75473499999999
 20
1112.324149999999
 30
0.0
 11
60.50853499999999
 21
1112.26215
 31
0.0
  0
LINE
  5
215
330
1E
100
AcDbEntity
  8
0
100
AcDbLine
 10
60.50853499999999
 20
1112.26215
 30
0.0
 11
60.97943499999999
 21
1111.91915
 31
0.0
  0
LINE
  5
217
330
1E
100
AcDbEntity
  8
0
100
AcDbLine
 10
60.272335
 20
1111.216149999999
 30
0.0
 11
60.870835
 21
1111.486149999999
 31
0.0
  0
LINE
  5
218
330
1E
100
AcDbEntity
  8
0
100
AcDbLine
 10
59.834635
 20
1114.45415
 30
0.0
 11
60.072435
 21
1114.86915
 31
0.0
  0
LINE
  5
219
330
1E
100
AcDbEntity
  8
0
100
AcDbLine
 10
59.712635
 20
1117.48015
 30
0.0
 11
60.072435
 21
1117.86515
 31
0.0
  0
LINE
  5
21B
330
1E
100
AcDbEntity
  8
0
100
AcDbLine
 10
59.834635
 20
1118.28015
 30
0.0
 11
60.072435
 21
1117.86515
 31
0.0
  0
LINE
  5
21D
330
1E
100
AcDbEntity
  8
0
100
AcDbLine
 10
59.16343499999999
 20
1118.487149999999
 30
0.0
 11
59.834635
 21
1118.28015
 31
0.0
  0
LINE
  5
21F
330
1E
100
AcDbEntity
  8
0
100
AcDbLine
 10
59.75473499999999
 20
1120.41015
 30
0.0
 11
60.50853499999999
 21
1120.47215
 31
0.0
  0
LINE
  5
223
330
1E
100
AcDbEntity
  8
0
100
AcDbLine
 10
60.81353499999999
 20
1102.645149999999
 30
0.0
 11
61.033635
 21
1102.22715
 31
0.0
  0
LINE
  5
225
330
1E
100
AcDbEntity
  8
0
100
AcDbLine
 10
60.69033499999999
 20
1101.837149999999
 30
0.0
 11
61.033635
 21
1102.22715
 31
0.0
  0
LINE
  5
226
330
1E
100
AcDbEntity
  8
0
100
AcDbLine
 10
60.870835
 20
1111.486149999999
 30
0.0
 11
60.97943499999999
 21
1111.91915
 31
0.0
  0
LINE
  5
228
330
1E
100
AcDbEntity
  8
0
100
AcDbLine
 10
62.282235
 20
1108.341149999999
 30
0.0
 11
62.78983499999999
 21
1108.66715
 31
0.0
  0
LINE
  5
229
330
1E
100
AcDbEntity
  8
0
100
AcDbLine
 10
61.52103499999999
 20
1108.328149999999
 30
0.0
 11
62.282235
 21
1108.341149999999
 31
0.0
  0
LINE
  5
22A
330
1E
100
AcDbEntity
  8
0
100
AcDbLine
 10
61.43703499999999
 20
1109.38115
 30
0.0
 11
62.198235
 21
1109.395149999999
 31
0.0
  0
LINE
  5
231
330
1E
100
AcDbEntity
  8
0
100
AcDbLine
 10
62.198235
 20
1109.395149999999
 30
0.0
 11
62.765935
 21
1109.10415
 31
0.0
  0
LINE
  5
233
330
1E
100
AcDbEntity
  8
0
100
AcDbLine
 10
62.765935
 20
1109.10415
 30
0.0
 11
62.78983499999999
 21
1108.66715
 31
0.0
  0
LINE
  5
235
330
1E
100
AcDbEntity
  8
0
100
AcDbLine
 10
60.95333499999999
 20
1108.619149999999
 30
0.0
 11
61.52103499999999
 21
1108.328149999999
 31
0.0
  0
LINE
  5
236
330
1E
100
AcDbEntity
  8
0
100
AcDbLine
 10
60.929335
 20
1109.05515
 30
0.0
 11
61.43703499999999
 21
1109.38115
 31
0.0
  0
LINE
  5
237
330
1E
100
AcDbEntity
  8
0
100
AcDbLine
 10
60.929335
 20
1109.05515
 30
0.0
 11
60.95333499999999
 21
1108.619149999999
 31
0.0
  0
LINE
  5
239
330
1E
100
AcDbEntity
  8
0
100
AcDbLine
 10
63.583435
 20
1106.279149999999
 30
0.0
 11
63.984835
 21
1106.650149999999
 31
0.0
  0
LINE
  5
23A
330
1E
100
AcDbEntity
  8
0
100
AcDbLine
 10
63.583435
 20
1106.279149999999
 30
0.0
 11
63.739235
 21
1105.85115
 31
0.0
  0
LINE
  5
23B
330
1E
100
AcDbEntity
  8
0
100
AcDbLine
 10
60.50853499999999
 20
1120.47215
 30
0.0
 11
60.97943499999999
 21
1120.81615
 31
0.0
  0
LINE
  5
240
330
1E
100
AcDbEntity
  8
0
100
AcDbLine
 10
60.870835
 20
1121.248149999999
 30
0.0
 11
60.97943499999999
 21
1120.81615
 31
0.0
  0
LINE
  5
242
330
1E
100
AcDbEntity
  8
0
100
AcDbLine
 10
60.272335
 20
1121.577986886792
 30
0.0
 11
60.272335
 21
1121.518149999999
 31
0.0
  0
LINE
  5
244
330
1E
100
AcDbEntity
  8
0
100
AcDbLine
 10
59.40473499999999
 20
1130.59515
 30
0.0
 11
60.133735
 21
1130.469149999999
 31
0.0
  0
LINE
  5
245
330
1E
100
AcDbEntity
  8
0
100
AcDbLine
 10
60.133735
 20
1130.469149999999
 30
0.0
 11
60.81353499999999
 21
1130.66615
 31
0.0
  0
LINE
  5
248
330
1E
100
AcDbEntity
  8
0
100
AcDbLine
 10
59.96123499999999
 20
1131.60015
 30
0.0
 11
60.69033499999999
 21
1131.47415
 31
0.0
  0
LINE
  5
24A
330
1E
100
AcDbEntity
  8
0
100
AcDbLine
 10
59.281435
 20
1131.40315
 30
0.0
 11
59.96123499999999
 21
1131.60015
 31
0.0
  0
LINE
  5
24C
330
1E
100
AcDbEntity
  8
0
100
AcDbLine
 10
59.061335
 20
1130.98515
 30
0.0
 11
59.40473499999999
 21
1130.59515
 31
0.0
  0
LINE
  5
24D
330
1E
100
AcDbEntity
  8
0
100
AcDbLine
 10
59.061335
 20
1130.98515
 30
0.0
 11
59.281435
 21
1131.40315
 31
0.0
  0
LINE
  5
250
330
1E
100
AcDbEntity
  8
0
100
AcDbLine
 10
60.929335
 20
1123.809972491802
 30
0.0
 11
60.929335
 21
1123.679149999999
 31
0.0
  0
LINE
  5
251
330
1E
100
AcDbEntity
  8
0
100
AcDbLine
 10
61.43703499999999
 20
1123.35315
 30
0.0
 11
62.198235
 21
1123.340149999999
 31
0.0
  0
LINE
  5
252
330
1E
100
AcDbEntity
  8
0
100
AcDbLine
 10
62.198235
 20
1123.340149999999
 30
0.0
 11
62.765935
 21
1123.63115
 31
0.0
  0
LINE
  5
253
330
1E
100
AcDbEntity
  8
0
100
AcDbLine
 10
62.765935
 20
1123.63115
 30
0.0
 11
62.78983499999999
 21
1124.067149999999
 31
0.0
  0
LINE
  5
254
330
1E
100
AcDbEntity
  8
0
100
AcDbLine
 10
62.282235
 20
1124.393149999999
 30
0.0
 11
62.78983499999999
 21
1124.067149999999
 31
0.0
  0
LINE
  5
255
330
1E
100
AcDbEntity
  8
0
100
AcDbLine
 10
61.52103499999999
 20
1124.40715
 30
0.0
 11
62.282235
 21
1124.393149999999
 31
0.0
  0
LINE
  5
256
330
1E
100
AcDbEntity
  8
0
100
AcDbLine
 10
60.95333499999999
 20
1124.116149999999
 30
0.0
 11
61.52103499999999
 21
1124.40715
 31
0.0
  0
LINE
  5
257
330
1E
100
AcDbEntity
  8
0
100
AcDbLine
 10
60.929335
 20
1123.679149999999
 30
0.0
 11
61.43703499999999
 21
1123.35315
 31
0.0
  0
LINE
  5
258
330
1E
100
AcDbEntity
  8
0
100
AcDbLine
 10
60.929335
 20
1123.679149999999
 30
0.0
 11
60.95333499999999
 21
1124.116149999999
 31
0.0
  0
LINE
  5
259
330
1E
100
AcDbEntity
  8
0
100
AcDbLine
 10
60.929335
 20
1123.679149999999
 30
0.0
 11
60.929335
 21
1123.809972491802
 31
0.0
  0
LINE
  5
25D
330
1E
100
AcDbEntity
  8
0
100
AcDbLine
 10
60.81353499999999
 20
1130.66615
 30
0.0
 11
61.033635
 21
1131.08415
 31
0.0
  0
LINE
  5
25E
330
1E
100
AcDbEntity
  8
0
100
AcDbLine
 10
60.69033499999999
 20
1131.47415
 30
0.0
 11
61.033635
 21
1131.08415
 31
0.0
  0
LINE
  5
260
330
1E
100
AcDbEntity
  8
0
100
AcDbLine
 10
63.583435
 20
1126.456149999999
 30
0.0
 11
63.984835
 21
1126.08415
 31
0.0
  0
LINE
  5
261
330
1E
100
AcDbEntity
  8
0
100
AcDbLine
 10
63.583435
 20
1126.456149999999
 30
0.0
 11
63.739235
 21
1126.88315
 31
0.0
  0
LINE
  5
262
330
1E
100
AcDbEntity
  8
0
100
AcDbLine
 10
60.272335
 20
1121.518149999999
 30
0.0
 11
60.870835
 21
1121.248149999999
 31
0.0
  0
LINE
  5
263
330
1E
100
AcDbEntity
  8
0
100
AcDbLine
 10
60.272335
 20
1121.518149999999
 30
0.0
 11
60.272335
 21
1121.577986886792
 31
0.0
  0
LINE
  5
264
330
1E
100
AcDbEntity
  8
0
100
AcDbLine
 10
59.518535
 20
1121.456149999999
 30
0.0
 11
60.272335
 21
1121.518149999999
 31
0.0
  0
LINE
  5
266
330
1E
100
AcDbEntity
  8
0
100
AcDbLine
 10
59.047635
 20
1121.112149999999
 30
0.0
 11
59.15623499999999
 21
1120.68015
 31
0.0
  0
LINE
  5
267
330
1E
100
AcDbEntity
  8
0
100
AcDbLine
 10
59.047635
 20
1121.112149999999
 30
0.0
 11
59.518535
 21
1121.456149999999
 31
0.0
  0
LINE
  5
269
330
1E
100
AcDbEntity
  8
0
100
AcDbLine
 10
59.15623499999999
 20
1120.68015
 30
0.0
 11
59.75473499999999
 21
1120.41015
 31
0.0
  0
LINE
  5
26A
330
1E
100
AcDbEntity
  8
0
100
AcDbLine
 10
58.723235
 20
1186.355149999999
 30
0.0
 11
61.42323499999999
 21
1186.355149999999
 31
0.0
  0
LINE
  5
26B
330
1E
100
AcDbEntity
  8
0
100
AcDbLine
 10
61.42323499999999
 20
1186.355149999999
 30
0.0
 11
63.723235
 21
1186.355149999999
 31
0.0
  0
LINE
  5
26C
330
1E
100
AcDbEntity
  8
0
100
AcDbLine
 10
63.739235
 20
1105.85115
 30
0.0
 11
64.38643499999999
 21
1105.621149999999
 31
0.0
  0
LINE
  5
26F
330
1E
100
AcDbEntity
  8
0
100
AcDbLine
 10
63.984835
 20
1106.650149999999
 30
0.0
 11
64.730235
 21
1106.739149999999
 31
0.0
  0
LINE
  5
271
330
1E
100
AcDbEntity
  8
0
100
AcDbLine
 10
64.730235
 20
1106.739149999999
 30
0.0
 11
65.37753499999999
 21
1106.509149999999
 31
0.0
  0
LINE
  5
272
330
1E
100
AcDbEntity
  8
0
100
AcDbLine
 10
64.38643499999999
 20
1105.621149999999
 30
0.0
 11
65.13193499999999
 21
1105.710149999999
 31
0.0
  0
LINE
  5
273
330
1E
100
AcDbEntity
  8
0
100
AcDbLine
 10
64.088435
 20
1099.888149999999
 30
0.0
 11
64.768235
 21
1100.085149999999
 31
0.0
  0
LINE
  5
275
330
1E
100
AcDbEntity
  8
0
100
AcDbLine
 10
64.211735
 20
1099.08015
 30
0.0
 11
64.94083499999999
 21
1098.954149999999
 31
0.0
  0
LINE
  5
276
330
1E
100
AcDbEntity
  8
0
100
AcDbLine
 10
63.86833499999999
 20
1099.47015
 30
0.0
 11
64.088435
 21
1099.888149999999
 31
0.0
  0
LINE
  5
277
330
1E
100
AcDbEntity
  8
0
100
AcDbLine
 10
63.86833499999999
 20
1099.47015
 30
0.0
 11
64.211735
 21
1099.08015
 31
0.0
  0
LINE
  5
279
330
1E
100
AcDbEntity
  8
0
100
AcDbLine
 10
63.984835
 20
1126.08415
 30
0.0
 11
64.730235
 21
1125.99515
 31
0.0
  0
LINE
  5
27B
330
1E
100
AcDbEntity
  8
0
100
AcDbLine
 10
64.768235
 20
1100.085149999999
 30
0.0
 11
65.49733499999999
 21
1099.95915
 31
0.0
  0
LINE
  5
27D
330
1E
100
AcDbEntity
  8
0
100
AcDbLine
 10
64.94083499999999
 20
1098.954149999999
 30
0.0
 11
65.62053500000001
 21
1099.15115
 31
0.0
  0
LINE
  5
27E
330
1E
100
AcDbEntity
  8
0
100
AcDbLine
 10
64.730235
 20
1125.99515
 30
0.0
 11
65.37753499999999
 21
1126.22515
 31
0.0
  0
LINE
  5
27F
330
1E
100
AcDbEntity
  8
0
100
AcDbLine
 10
64.088435
 20
1133.42315
 30
0.0
 11
64.768235
 21
1133.22615
 31
0.0
  0
LINE
  5
282
330
1E
100
AcDbEntity
  8
0
100
AcDbLine
 10
64.211735
 20
1134.23115
 30
0.0
 11
64.94083499999999
 21
1134.35715
 31
0.0
  0
LINE
  5
284
330
1E
100
AcDbEntity
  8
0
100
AcDbLine
 10
63.86833499999999
 20
1133.84115
 30
0.0
 11
64.088435
 21
1133.42315
 31
0.0
  0
LINE
  5
285
330
1E
100
AcDbEntity
  8
0
100
AcDbLine
 10
63.86833499999999
 20
1133.84115
 30
0.0
 11
64.211735
 21
1134.23115
 31
0.0
  0
LINE
  5
287
330
1E
100
AcDbEntity
  8
0
100
AcDbLine
 10
64.768235
 20
1133.22615
 30
0.0
 11
65.49733499999999
 21
1133.35215
 31
0.0
  0
LINE
  5
289
330
1E
100
AcDbEntity
  8
0
100
AcDbLine
 10
64.94083499999999
 20
1134.35715
 30
0.0
 11
65.62053500000001
 21
1134.16015
 31
0.0
  0
LINE
  5
28C
330
1E
100
AcDbEntity
  8
0
100
AcDbLine
 10
64.38643499999999
 20
1127.11315
 30
0.0
 11
65.13193499999999
 21
1127.02415
 31
0.0
  0
LINE
  5
28E
330
1E
100
AcDbEntity
  8
0
100
AcDbLine
 10
63.739235
 20
1126.88315
 30
0.0
 11
64.38643499999999
 21
1127.11315
 31
0.0
  0
LINE
  5
290
330
1E
100
AcDbEntity
  8
0
100
AcDbLine
 10
65.023235
 20
1150.60615
 30
0.0
 11
77.123235
 21
1153.417149999999
 31
0.0
  0
LINE
  5
291
330
1E
100
AcDbEntity
  8
0
100
AcDbLine
 10
65.13193499999999
 20
1105.710149999999
 30
0.0
 11
65.53323499999999
 21
1106.08115
 31
0.0
  0
LINE
  5
293
330
1E
100
AcDbEntity
  8
0
100
AcDbLine
 10
65.37753499999999
 20
1106.509149999999
 30
0.0
 11
65.53323499999999
 21
1106.08115
 31
0.0
  0
LINE
  5
297
330
1E
100
AcDbEntity
  8
0
100
AcDbLine
 10
65.49733499999999
 20
1099.95915
 30
0.0
 11
65.84073499999999
 21
1099.56915
 31
0.0
  0
LINE
  5
29B
330
1E
100
AcDbEntity
  8
0
100
AcDbLine
 10
65.62053500000001
 20
1099.15115
 30
0.0
 11
65.84073499999999
 21
1099.56915
 31
0.0
  0
LINE
  5
29E
330
1E
100
AcDbEntity
  8
0
100
AcDbLine
 10
66.25843499999999
 20
1116.480149999999
 30
0.0
 11
66.95843499999999
 21
1116.652149999999
 31
0.0
  0
LINE
  5
2A0
330
1E
100
AcDbEntity
  8
0
100
AcDbLine
 10
65.95843499999999
 20
1116.07915
 30
0.0
 11
66.25843499999999
 21
1115.67715
 31
0.0
  0
LINE
  5
2A1
330
1E
100
AcDbEntity
  8
0
100
AcDbLine
 10
65.95843499999999
 20
1116.07915
 30
0.0
 11
66.25843499999999
 21
1116.480149999999
 31
0.0
  0
LINE
  5
2A3
330
1E
100
AcDbEntity
  8
0
100
AcDbLine
 10
66.25843499999999
 20
1115.67715
 30
0.0
 11
66.95843499999999
 21
1115.505149999999
 31
0.0
  0
LINE
  5
2A4
330
1E
100
AcDbEntity
  8
0
100
AcDbLine
 10
65.49733499999999
 20
1133.35215
 30
0.0
 11
65.84073499999999
 21
1133.74215
 31
0.0
  0
LINE
  5
2A9
330
1E
100
AcDbEntity
  8
0
100
AcDbLine
 10
65.62053500000001
 20
1134.16015
 30
0.0
 11
65.84073499999999
 21
1133.74215
 31
0.0
  0
LINE
  5
2AC
330
1E
100
AcDbEntity
  8
0
100
AcDbLine
 10
65.37753499999999
 20
1126.22515
 30
0.0
 11
65.53323499999999
 21
1126.65315
 31
0.0
  0
LINE
  5
2AD
330
1E
100
AcDbEntity
  8
0
100
AcDbLine
 10
65.13193499999999
 20
1127.02415
 30
0.0
 11
65.53323499999999
 21
1126.65315
 31
0.0
  0
LINE
  5
2AF
330
1E
100
AcDbEntity
  8
0
100
AcDbLine
 10
66.023235
 20
1095.76615
 30
0.0
 11
77.62323499999999
 21
1093.070149999999
 31
0.0
  0
LINE
  5
2B0
330
1E
100
AcDbEntity
  8
0
100
AcDbLine
 10
65.023235
 20
1151.42515
 30
0.0
 11
77.123235
 21
1154.23615
 31
0.0
  0
LINE
  5
2B1
330
1E
100
AcDbEntity
  8
0
100
AcDbLine
 10
65.323235
 20
1160.616149999999
 30
0.0
 11
67.023235
 21
1161.29615
 31
0.0
  0
LINE
  5
2B2
330
1E
100
AcDbEntity
  8
0
100
AcDbLine
 10
63.723235
 20
1186.355149999999
 30
0.0
 11
65.42323499999999
 21
1186.355149999999
 31
0.0
  0
LINE
  5
2B3
330
1E
100
AcDbEntity
  8
0
100
AcDbLine
 10
53.22323499999999
 20
1186.855149999999
 30
0.0
 11
55.923235
 21
1186.855149999999
 31
0.0
  0
LINE
  5
2B4
330
1E
100
AcDbEntity
  8
0
100
AcDbLine
 10
50.72323499999999
 20
1186.855149999999
 30
0.0
 11
53.22323499999999
 21
1186.855149999999
 31
0.0
  0
LINE
  5
2B5
330
1E
100
AcDbEntity
  8
0
100
AcDbLine
 10
48.523235
 20
1186.855149999999
 30
0.0
 11
50.72323499999999
 21
1186.855149999999
 31
0.0
  0
LINE
  5
2B6
330
1E
100
AcDbEntity
  8
0
100
AcDbLine
 10
46.82323499999999
 20
1186.855149999999
 30
0.0
 11
48.523235
 21
1186.855149999999
 31
0.0
  0
LINE
  5
2B7
330
1E
100
AcDbEntity
  8
0
100
AcDbLine
 10
45.823235
 20
1186.855149999999
 30
0.0
 11
46.82323499999999
 21
1186.855149999999
 31
0.0
  0
LINE
  5
2B8
330
1E
100
AcDbEntity
  8
0
100
AcDbLine
 10
45.423235
 20
1186.855149999999
 30
0.0
 11
45.823235
 21
1186.855149999999
 31
0.0
  0
LINE
  5
2B9
330
1E
100
AcDbEntity
  8
0
100
AcDbLine
 10
55.923235
 20
1186.855149999999
 30
0.0
 11
58.623235
 21
1186.855149999999
 31
0.0
  0
LINE
  5
2BA
330
1E
100
AcDbEntity
  8
0
100
AcDbLine
 10
58.623235
 20
1186.855149999999
 30
0.0
 11
61.123235
 21
1186.855149999999
 31
0.0
  0
LINE
  5
2BB
330
1E
100
AcDbEntity
  8
0
100
AcDbLine
 10
61.123235
 20
1186.855149999999
 30
0.0
 11
63.323235
 21
1186.855149999999
 31
0.0
  0
LINE
  5
2BC
330
1E
100
AcDbEntity
  8
0
100
AcDbLine
 10
63.323235
 20
1186.855149999999
 30
0.0
 11
65.023235
 21
1186.855149999999
 31
0.0
  0
LINE
  5
2BD
330
1E
100
AcDbEntity
  8
0
100
AcDbLine
 10
65.023235
 20
1186.855149999999
 30
0.0
 11
66.023235
 21
1186.855149999999
 31
0.0
  0
LINE
  5
2BE
330
1E
100
AcDbEntity
  8
0
100
AcDbLine
 10
66.023235
 20
1186.855149999999
 30
0.0
 11
66.42323499999999
 21
1186.855149999999
 31
0.0
  0
LINE
  5
2BF
330
1E
100
AcDbEntity
  8
0
100
AcDbLine
 10
66.42323499999999
 20
1186.855149999999
 30
0.0
 11
66.92323499999999
 21
1186.355149999999
 31
0.0
  0
LINE
  5
2C0
330
1E
100
AcDbEntity
  8
0
100
AcDbLine
 10
65.42323499999999
 20
1186.355149999999
 30
0.0
 11
66.523235
 21
1186.355149999999
 31
0.0
  0
LINE
  5
2C1
330
1E
100
AcDbEntity
  8
0
100
AcDbLine
 10
75.687235
 20
1095.395149999999
 30
0.0
 11
76.242435
 21
1095.096149999999
 31
0.0
  0
LINE
  5
2C2
330
1E
100
AcDbEntity
  8
0
100
AcDbLine
 10
66.95843499999999
 20
1115.505149999999
 30
0.0
 11
67.65843499999999
 21
1115.67715
 31
0.0
  0
LINE
  5
2C4
330
1E
100
AcDbEntity
  8
0
100
AcDbLine
 10
66.95843499999999
 20
1116.652149999999
 30
0.0
 11
67.65843499999999
 21
1116.480149999999
 31
0.0
  0
LINE
  5
2C7
330
1E
100
AcDbEntity
  8
0
100
AcDbLine
 10
67.320735
 20
1104.21415
 30
0.0
 11
68.027835
 21
1104.37615
 31
0.0
  0
LINE
  5
2C8
330
1E
100
AcDbEntity
  8
0
100
AcDbLine
 10
67.320735
 20
1103.40315
 30
0.0
 11
68.027835
 21
1103.241149999999
 31
0.0
  0
LINE
  5
2C9
330
1E
100
AcDbEntity
  8
0
100
AcDbLine
 10
67.037835
 20
1103.808149999999
 30
0.0
 11
67.320735
 21
1104.21415
 31
0.0
  0
LINE
  5
2CA
330
1E
100
AcDbEntity
  8
0
100
AcDbLine
 10
67.037835
 20
1103.808149999999
 30
0.0
 11
67.320735
 21
1103.40315
 31
0.0
  0
LINE
  5
2CD
330
1E
100
AcDbEntity
  8
0
100
AcDbLine
 10
67.403735
 20
1111.378149999999
 30
0.0
 11
67.446235
 21
1111.81415
 31
0.0
  0
LINE
  5
2CE
330
1E
100
AcDbEntity
  8
0
100
AcDbLine
 10
67.403735
 20
1111.378149999999
 30
0.0
 11
67.92503499999999
 21
1111.059149999999
 31
0.0
  0
LINE
  5
2CF
330
1E
100
AcDbEntity
  8
0
100
AcDbLine
 10
67.446235
 20
1111.81415
 30
0.0
 11
68.001335
 21
1112.11315
 31
0.0
  0
LINE
  5
2D2
330
1E
100
AcDbEntity
  8
0
100
AcDbLine
 10
67.320735
 20
1128.520149999999
 30
0.0
 11
68.027835
 21
1128.35815
 31
0.0
  0
LINE
  5
2D4
330
1E
100
AcDbEntity
  8
0
100
AcDbLine
 10
67.320735
 20
1129.33115
 30
0.0
 11
68.027835
 21
1129.494149999999
 31
0.0
  0
LINE
  5
2D6
330
1E
100
AcDbEntity
  8
0
100
AcDbLine
 10
67.037835
 20
1128.92615
 30
0.0
 11
67.320735
 21
1128.520149999999
 31
0.0
  0
LINE
  5
2D7
330
1E
100
AcDbEntity
  8
0
100
AcDbLine
 10
67.037835
 20
1128.92615
 30
0.0
 11
67.320735
 21
1129.33115
 31
0.0
  0
LINE
  5
2D9
330
1E
100
AcDbEntity
  8
0
100
AcDbLine
 10
67.403735
 20
1120.78015
 30
0.0
 11
67.446235
 21
1120.344149999999
 31
0.0
  0
LINE
  5
2DA
330
1E
100
AcDbEntity
  8
0
100
AcDbLine
 10
67.403735
 20
1120.78015
 30
0.0
 11
67.92503499999999
 21
1121.09915
 31
0.0
  0
LINE
  5
2DC
330
1E
100
AcDbEntity
  8
0
100
AcDbLine
 10
68.001335
 20
1112.11315
 30
0.0
 11
68.761735
 21
1112.08815
 31
0.0
  0
LINE
  5
2DE
330
1E
100
AcDbEntity
  8
0
100
AcDbLine
 10
67.92503499999999
 20
1111.059149999999
 30
0.0
 11
68.685435
 21
1111.03515
 31
0.0
  0
LINE
  5
2E0
330
1E
100
AcDbEntity
  8
0
100
AcDbLine
 10
67.65843499999999
 20
1115.67715
 30
0.0
 11
67.958435
 21
1116.07915
 31
0.0
  0
LINE
  5
2E3
330
1E
100
AcDbEntity
  8
0
100
AcDbLine
 10
67.65843499999999
 20
1116.480149999999
 30
0.0
 11
67.958435
 21
1116.07915
 31
0.0
  0
LINE
  5
2E6
330
1E
100
AcDbEntity
  8
0
100
AcDbLine
 10
68.027835
 20
1104.37615
 30
0.0
 11
68.73493499999999
 21
1104.21415
 31
0.0
  0
LINE
  5
2EB
330
1E
100
AcDbEntity
  8
0
100
AcDbLine
 10
68.73493499999999
 20
1104.21415
 30
0.0
 11
69.017735
 21
1103.808149999999
 31
0.0
  0
LINE
  5
2ED
330
1E
100
AcDbEntity
  8
0
100
AcDbLine
 10
68.73493499999999
 20
1103.40315
 30
0.0
 11
69.017735
 21
1103.808149999999
 31
0.0
  0
LINE
  5
2EE
330
1E
100
AcDbEntity
  8
0
100
AcDbLine
 10
68.027835
 20
1103.241149999999
 30
0.0
 11
68.73493499999999
 21
1103.40315
 31
0.0
  0
LINE
  5
2F0
330
1E
100
AcDbEntity
  8
0
100
AcDbLine
 10
68.761735
 20
1112.08815
 30
0.0
 11
69.283135
 21
1111.770149999999
 31
0.0
  0
LINE
  5
2F2
330
1E
100
AcDbEntity
  8
0
100
AcDbLine
 10
69.24063499999999
 20
1111.33415
 30
0.0
 11
69.283135
 21
1111.770149999999
 31
0.0
  0
LINE
  5
2F3
330
1E
100
AcDbEntity
  8
0
100
AcDbLine
 10
68.685435
 20
1111.03515
 30
0.0
 11
69.24063499999999
 21
1111.33415
 31
0.0
  0
LINE
  5
2F4
330
1E
100
AcDbEntity
  8
0
100
AcDbLine
 10
68.001335
 20
1120.045149999999
 30
0.0
 11
68.761735
 21
1120.06915
 31
0.0
  0
LINE
  5
2F5
330
1E
100
AcDbEntity
  8
0
100
AcDbLine
 10
68.761735
 20
1120.06915
 30
0.0
 11
69.283135
 21
1120.388149999999
 31
0.0
  0
LINE
  5
2F7
330
1E
100
AcDbEntity
  8
0
100
AcDbLine
 10
70.679435
 20
1096.735149999999
 30
0.0
 11
71.28923499999999
 21
1096.99615
 31
0.0
  0
LINE
  5
2F8
330
1E
100
AcDbEntity
  8
0
100
AcDbLine
 10
69.55723499999999
 20
1097.570149999999
 30
0.0
 11
70.167035
 21
1097.831149999999
 31
0.0
  0
LINE
  5
2FD
330
1E
100
AcDbEntity
  8
0
100
AcDbLine
 10
70.167035
 20
1097.831149999999
 30
0.0
 11
70.92323499999999
 21
1097.780149999999
 31
0.0
  0
LINE
  5
2FF
330
1E
100
AcDbEntity
  8
0
100
AcDbLine
 10
70.92323499999999
 20
1097.780149999999
 30
0.0
 11
71.379435
 21
1097.43015
 31
0.0
  0
LINE
  5
301
330
1E
100
AcDbEntity
  8
0
100
AcDbLine
 10
71.28923499999999
 20
1096.99615
 30
0.0
 11
71.379435
 21
1097.43015
 31
0.0
  0
LINE
  5
302
330
1E
100
AcDbEntity
  8
0
100
AcDbLine
 10
69.92323499999999
 20
1096.78615
 30
0.0
 11
70.679435
 21
1096.735149999999
 31
0.0
  0
LINE
  5
303
330
1E
100
AcDbEntity
  8
0
100
AcDbLine
 10
69.46703499999999
 20
1097.13615
 30
0.0
 11
69.55723499999999
 21
1097.570149999999
 31
0.0
  0
LINE
  5
304
330
1E
100
AcDbEntity
  8
0
100
AcDbLine
 10
69.46703499999999
 20
1097.13615
 30
0.0
 11
69.92323499999999
 21
1096.78615
 31
0.0
  0
LINE
  5
308
330
1E
100
AcDbEntity
  8
0
100
AcDbLine
 10
71.34343499999999
 20
1102.14715
 30
0.0
 11
71.990635
 21
1102.37815
 31
0.0
  0
LINE
  5
30A
330
1E
100
AcDbEntity
  8
0
100
AcDbLine
 10
71.187635
 20
1101.72015
 30
0.0
 11
71.34343499999999
 21
1102.14715
 31
0.0
  0
LINE
  5
30B
330
1E
100
AcDbEntity
  8
0
100
AcDbLine
 10
71.187635
 20
1101.72015
 30
0.0
 11
71.589035
 21
1101.34915
 31
0.0
  0
LINE
  5
310
330
1E
100
AcDbEntity
  8
0
100
AcDbLine
 10
71.990635
 20
1102.37815
 30
0.0
 11
72.736135
 21
1102.288149999999
 31
0.0
  0
LINE
  5
312
330
1E
100
AcDbEntity
  8
0
100
AcDbLine
 10
71.589035
 20
1101.34915
 30
0.0
 11
72.33443499999999
 21
1101.259149999999
 31
0.0
  0
LINE
  5
314
330
1E
100
AcDbEntity
  8
0
100
AcDbLine
 10
75.644735
 20
1095.83115
 30
0.0
 11
75.687235
 21
1095.395149999999
 31
0.0
  0
LINE
  5
315
330
1E
100
AcDbEntity
  8
0
100
AcDbLine
 10
75.644735
 20
1095.83115
 30
0.0
 11
76.166035
 21
1096.150149999999
 31
0.0
  0
LINE
  5
318
330
1E
100
AcDbEntity
  8
0
100
AcDbLine
 10
72.736135
 20
1102.288149999999
 30
0.0
 11
73.137435
 21
1101.91715
 31
0.0
  0
LINE
  5
31A
330
1E
100
AcDbEntity
  8
0
100
AcDbLine
 10
72.981735
 20
1101.489149999999
 30
0.0
 11
73.137435
 21
1101.91715
 31
0.0
  0
LINE
  5
31B
330
1E
100
AcDbEntity
  8
0
100
AcDbLine
 10
72.33443499999999
 20
1101.259149999999
 30
0.0
 11
72.981735
 21
1101.489149999999
 31
0.0
  0
LINE
  5
31C
330
1E
100
AcDbEntity
  8
0
100
AcDbLine
 10
72.973935
 20
1107.17315
 30
0.0
 11
73.317335
 21
1107.56215
 31
0.0
  0
LINE
  5
31D
330
1E
100
AcDbEntity
  8
0
100
AcDbLine
 10
72.244935
 20
1107.04615
 30
0.0
 11
72.973935
 21
1107.17315
 31
0.0
  0
LINE
  5
31E
330
1E
100
AcDbEntity
  8
0
100
AcDbLine
 10
71.688435
 20
1108.05115
 30
0.0
 11
72.417435
 21
1108.17815
 31
0.0
  0
LINE
  5
31F
330
1E
100
AcDbEntity
  8
0
100
AcDbLine
 10
72.417435
 20
1108.17815
 30
0.0
 11
73.097235
 21
1107.98115
 31
0.0
  0
LINE
  5
320
330
1E
100
AcDbEntity
  8
0
100
AcDbLine
 10
73.097235
 20
1107.98115
 30
0.0
 11
73.317335
 21
1107.56215
 31
0.0
  0
LINE
  5
321
330
1E
100
AcDbEntity
  8
0
100
AcDbLine
 10
71.56513499999999
 20
1107.24315
 30
0.0
 11
72.244935
 21
1107.04615
 31
0.0
  0
LINE
  5
322
330
1E
100
AcDbEntity
  8
0
100
AcDbLine
 10
71.345035
 20
1107.661149999999
 30
0.0
 11
71.688435
 21
1108.05115
 31
0.0
  0
LINE
  5
323
330
1E
100
AcDbEntity
  8
0
100
AcDbLine
 10
71.345035
 20
1107.661149999999
 30
0.0
 11
71.56513499999999
 21
1107.24315
 31
0.0
  0
LINE
  5
326
330
1E
100
AcDbEntity
  8
0
100
AcDbLine
 10
74.03753499999999
 20
1115.78315
 30
0.0
 11
74.275435
 21
1116.19815
 31
0.0
  0
LINE
  5
327
330
1E
100
AcDbEntity
  8
0
100
AcDbLine
 10
74.03753499999999
 20
1115.78315
 30
0.0
 11
74.397435
 21
1115.39815
 31
0.0
  0
LINE
  5
329
330
1E
100
AcDbEntity
  8
0
100
AcDbLine
 10
75.120935
 20
1115.26215
 30
0.0
 11
75.792135
 21
1115.46815
 31
0.0
  0
LINE
  5
32C
330
1E
100
AcDbEntity
  8
0
100
AcDbLine
 10
74.946635
 20
1116.404149999999
 30
0.0
 11
75.670135
 21
1116.26815
 31
0.0
  0
LINE
  5
32E
330
1E
100
AcDbEntity
  8
0
100
AcDbLine
 10
75.670135
 20
1116.26815
 30
0.0
 11
76.029935
 21
1115.88315
 31
0.0
  0
LINE
  5
330
330
1E
100
AcDbEntity
  8
0
100
AcDbLine
 10
74.397435
 20
1115.39815
 30
0.0
 11
75.120935
 21
1115.26215
 31
0.0
  0
LINE
  5
331
330
1E
100
AcDbEntity
  8
0
100
AcDbLine
 10
74.275435
 20
1116.19815
 30
0.0
 11
74.946635
 21
1116.404149999999
 31
0.0
  0
LINE
  5
334
330
1E
100
AcDbEntity
  8
0
100
AcDbLine
 10
75.906735
 20
1100.07615
 30
0.0
 11
75.93063499999999
 21
1100.51315
 31
0.0
  0
LINE
  5
335
330
1E
100
AcDbEntity
  8
0
100
AcDbLine
 10
75.906735
 20
1100.07615
 30
0.0
 11
76.41433499999999
 21
1099.75115
 31
0.0
  0
LINE
  5
336
330
1E
100
AcDbEntity
  8
0
100
AcDbLine
 10
75.792135
 20
1115.46815
 30
0.0
 11
76.029935
 21
1115.88315
 31
0.0
  0
LINE
  5
337
330
1E
100
AcDbEntity
  8
0
100
AcDbLine
 10
75.79833499999999
 20
1111.72915
 30
0.0
 11
76.36603499999999
 21
1111.43815
 31
0.0
  0
LINE
  5
338
330
1E
100
AcDbEntity
  8
0
100
AcDbLine
 10
75.774435
 20
1112.166149999999
 30
0.0
 11
76.28203499999999
 21
1112.491149999999
 31
0.0
  0
LINE
  5
339
330
1E
100
AcDbEntity
  8
0
100
AcDbLine
 10
75.774435
 20
1112.166149999999
 30
0.0
 11
75.79833499999999
 21
1111.72915
 31
0.0
  0
LINE
  5
33B
330
1E
100
AcDbEntity
  8
0
100
AcDbLine
 10
75.774435
 20
1119.647331454545
 30
0.0
 11
75.774435
 21
1119.58815
 31
0.0
  0
LINE
  5
33C
330
1E
100
AcDbEntity
  8
0
100
AcDbLine
 10
75.79833499999999
 20
1120.02515
 30
0.0
 11
76.36603499999999
 21
1120.31615
 31
0.0
  0
LINE
  5
33E
330
1E
100
AcDbEntity
  8
0
100
AcDbLine
 10
75.774435
 20
1119.58815
 30
0.0
 11
76.28203499999999
 21
1119.26315
 31
0.0
  0
LINE
  5
33F
330
1E
100
AcDbEntity
  8
0
100
AcDbLine
 10
75.774435
 20
1119.58815
 30
0.0
 11
75.79833499999999
 21
1120.02515
 31
0.0
  0
LINE
  5
340
330
1E
100
AcDbEntity
  8
0
100
AcDbLine
 10
75.774435
 20
1119.58815
 30
0.0
 11
75.774435
 21
1119.647331454545
 31
0.0
  0
LINE
  5
341
330
1E
100
AcDbEntity
  8
0
100
AcDbLine
 10
69.24063499999999
 20
1120.82415
 30
0.0
 11
69.283135
 21
1120.388149999999
 31
0.0
  0
LINE
  5
342
330
1E
100
AcDbEntity
  8
0
100
AcDbLine
 10
68.027835
 20
1128.35815
 30
0.0
 11
68.73493499999999
 21
1128.520149999999
 31
0.0
  0
LINE
  5
344
330
1E
100
AcDbEntity
  8
0
100
AcDbLine
 10
68.027835
 20
1129.494149999999
 30
0.0
 11
68.73493499999999
 21
1129.33115
 31
0.0
  0
LINE
  5
346
330
1E
100
AcDbEntity
  8
0
100
AcDbLine
 10
68.73493499999999
 20
1128.520149999999
 30
0.0
 11
69.017735
 21
1128.92615
 31
0.0
  0
LINE
  5
347
330
1E
100
AcDbEntity
  8
0
100
AcDbLine
 10
71.688435
 20
1124.10615
 30
0.0
 11
72.417435
 21
1123.980149999999
 31
0.0
  0
LINE
  5
348
330
1E
100
AcDbEntity
  8
0
100
AcDbLine
 10
72.417435
 20
1123.980149999999
 30
0.0
 11
73.097235
 21
1124.17715
 31
0.0
  0
LINE
  5
349
330
1E
100
AcDbEntity
  8
0
100
AcDbLine
 10
73.097235
 20
1124.17715
 30
0.0
 11
73.317335
 21
1124.59515
 31
0.0
  0
LINE
  5
34A
330
1E
100
AcDbEntity
  8
0
100
AcDbLine
 10
72.973935
 20
1124.98515
 30
0.0
 11
73.317335
 21
1124.59515
 31
0.0
  0
LINE
  5
34B
330
1E
100
AcDbEntity
  8
0
100
AcDbLine
 10
72.244935
 20
1125.11115
 30
0.0
 11
72.973935
 21
1124.98515
 31
0.0
  0
LINE
  5
34C
330
1E
100
AcDbEntity
  8
0
100
AcDbLine
 10
71.56513499999999
 20
1124.91415
 30
0.0
 11
72.244935
 21
1125.11115
 31
0.0
  0
LINE
  5
34D
330
1E
100
AcDbEntity
  8
0
100
AcDbLine
 10
71.345035
 20
1124.49615
 30
0.0
 11
71.688435
 21
1124.10615
 31
0.0
  0
LINE
  5
34E
330
1E
100
AcDbEntity
  8
0
100
AcDbLine
 10
71.345035
 20
1124.49615
 30
0.0
 11
71.56513499999999
 21
1124.91415
 31
0.0
  0
LINE
  5
34F
330
1E
100
AcDbEntity
  8
0
100
AcDbLine
 10
69.55723499999999
 20
1135.741149999999
 30
0.0
 11
70.167035
 21
1135.48015
 31
0.0
  0
LINE
  5
350
330
1E
100
AcDbEntity
  8
0
100
AcDbLine
 10
70.167035
 20
1135.48015
 30
0.0
 11
70.92323499999999
 21
1135.53115
 31
0.0
  0
LINE
  5
352
330
1E
100
AcDbEntity
  8
0
100
AcDbLine
 10
71.990635
 20
1130.35715
 30
0.0
 11
72.736135
 21
1130.44615
 31
0.0
  0
LINE
  5
353
330
1E
100
AcDbEntity
  8
0
100
AcDbLine
 10
71.34343499999999
 20
1130.587149999999
 30
0.0
 11
71.990635
 21
1130.35715
 31
0.0
  0
LINE
  5
354
330
1E
100
AcDbEntity
  8
0
100
AcDbLine
 10
72.736135
 20
1130.44615
 30
0.0
 11
73.137435
 21
1130.817149999999
 31
0.0
  0
LINE
  5
355
330
1E
100
AcDbEntity
  8
0
100
AcDbLine
 10
72.981735
 20
1131.24515
 30
0.0
 11
73.137435
 21
1130.817149999999
 31
0.0
  0
LINE
  5
356
330
1E
100
AcDbEntity
  8
0
100
AcDbLine
 10
75.906735
 20
1132.658149999999
 30
0.0
 11
75.93063499999999
 21
1132.221149999999
 31
0.0
  0
LINE
  5
357
330
1E
100
AcDbEntity
  8
0
100
AcDbLine
 10
75.906735
 20
1132.658149999999
 30
0.0
 11
76.41433499999999
 21
1132.98415
 31
0.0
  0
LINE
  5
358
330
1E
100
AcDbEntity
  8
0
100
AcDbLine
 10
72.33443499999999
 20
1131.475149999999
 30
0.0
 11
72.981735
 21
1131.24515
 31
0.0
  0
LINE
  5
359
330
1E
100
AcDbEntity
  8
0
100
AcDbLine
 10
71.589035
 20
1131.386149999999
 30
0.0
 11
72.33443499999999
 21
1131.475149999999
 31
0.0
  0
LINE
  5
35A
330
1E
100
AcDbEntity
  8
0
100
AcDbLine
 10
71.187635
 20
1131.01415
 30
0.0
 11
71.34343499999999
 21
1130.587149999999
 31
0.0
  0
LINE
  5
35B
330
1E
100
AcDbEntity
  8
0
100
AcDbLine
 10
71.187635
 20
1131.01415
 30
0.0
 11
71.589035
 21
1131.386149999999
 31
0.0
  0
LINE
  5
35E
330
1E
100
AcDbEntity
  8
0
100
AcDbLine
 10
70.92323499999999
 20
1135.53115
 30
0.0
 11
71.379435
 21
1135.88115
 31
0.0
  0
LINE
  5
35F
330
1E
100
AcDbEntity
  8
0
100
AcDbLine
 10
71.28923499999999
 20
1136.315149999999
 30
0.0
 11
71.379435
 21
1135.88115
 31
0.0
  0
LINE
  5
364
330
1E
100
AcDbEntity
  8
0
100
AcDbLine
 10
70.679435
 20
1136.57715
 30
0.0
 11
71.28923499999999
 21
1136.315149999999
 31
0.0
  0
LINE
  5
366
330
1E
100
AcDbEntity
  8
0
100
AcDbLine
 10
69.92323499999999
 20
1136.525149999999
 30
0.0
 11
70.679435
 21
1136.57715
 31
0.0
  0
LINE
  5
368
330
1E
100
AcDbEntity
  8
0
100
AcDbLine
 10
69.46703499999999
 20
1136.17515
 30
0.0
 11
69.55723499999999
 21
1135.741149999999
 31
0.0
  0
LINE
  5
369
330
1E
100
AcDbEntity
  8
0
100
AcDbLine
 10
69.46703499999999
 20
1136.17515
 30
0.0
 11
69.92323499999999
 21
1136.525149999999
 31
0.0
  0
LINE
  5
36B
330
1E
100
AcDbEntity
  8
0
100
AcDbLine
 10
69.017735
 20
1128.977210474138
 30
0.0
 11
69.017735
 21
1128.92615
 31
0.0
  0
LINE
  5
36C
330
1E
100
AcDbEntity
  8
0
100
AcDbLine
 10
69.017735
 20
1128.92615
 30
0.0
 11
69.017735
 21
1128.977210474138
 31
0.0
  0
LINE
  5
36D
330
1E
100
AcDbEntity
  8
0
100
AcDbLine
 10
68.73493499999999
 20
1129.33115
 30
0.0
 11
69.017735
 21
1128.92615
 31
0.0
  0
LINE
  5
36F
330
1E
100
AcDbEntity
  8
0
100
AcDbLine
 10
68.685435
 20
1121.123149999999
 30
0.0
 11
69.24063499999999
 21
1120.82415
 31
0.0
  0
LINE
  5
370
330
1E
100
AcDbEntity
  8
0
100
AcDbLine
 10
67.92503499999999
 20
1121.09915
 30
0.0
 11
68.685435
 21
1121.123149999999
 31
0.0
  0
LINE
  5
371
330
1E
100
AcDbEntity
  8
0
100
AcDbLine
 10
67.446235
 20
1120.344149999999
 30
0.0
 11
68.001335
 21
1120.045149999999
 31
0.0
  0
LINE
  5
376
330
1E
100
AcDbEntity
  8
0
100
AcDbLine
 10
75.687235
 20
1137.91615
 30
0.0
 11
76.242435
 21
1138.21515
 31
0.0
  0
LINE
  5
378
330
1E
100
AcDbEntity
  8
0
100
AcDbLine
 10
75.644735
 20
1137.480149999999
 30
0.0
 11
75.687235
 21
1137.91615
 31
0.0
  0
LINE
  5
379
330
1E
100
AcDbEntity
  8
0
100
AcDbLine
 10
75.644735
 20
1137.480149999999
 30
0.0
 11
76.166035
 21
1137.161149999999
 31
0.0
  0
LINE
  5
37B
330
1E
100
AcDbEntity
  8
0
100
AcDbLine
 10
67.023235
 20
1161.29615
 30
0.0
 11
78.12323499999999
 21
1163.87715
 31
0.0
  0
LINE
  5
37C
330
1E
100
AcDbEntity
  8
0
100
AcDbLine
 10
66.92323499999999
 20
1095.556977586206
 30
0.0
 11
66.92323499999999
 21
954.85015
 31
0.0
  0
LINE
  5
37D
330
1E
100
AcDbEntity
  8
0
100
AcDbLine
 10
66.523235
 20
1186.355149999999
 30
0.0
 11
66.92323499999999
 21
1186.355149999999
 31
0.0
  0
LINE
  5
37E
330
1E
100
AcDbEntity
  8
0
100
AcDbLine
 10
75.92323499999999
 20
992.2811499999999
 30
0.0
 11
75.92323499999999
 21
954.17515
 31
0.0
  0
LINE
  5
37F
330
1E
100
AcDbEntity
  8
0
100
AcDbLine
 10
75.92323499999999
 20
992.2811499999999
 30
0.0
 11
76.42723499999999
 21
990.5171499999999
 31
0.0
  0
LINE
  5
380
330
1E
100
AcDbEntity
  8
0
100
AcDbLine
 10
75.92323499999999
 20
992.2811499999999
 30
0.0
 11
76.42723499999999
 21
994.04415
 31
0.0
  0
LINE
  5
384
330
1E
100
AcDbEntity
  8
0
100
AcDbLine
 10
81.912935
 20
896.2851500000001
 30
0.0
 11
81.95483499999999
 21
871.48815
 31
0.0
  0
LINE
  5
385
330
1E
100
AcDbEntity
  8
0
100
AcDbLine
 10
81.86444121060722
 20
918.8649019923959
 30
0.0
 11
81.912935
 21
896.2851500000001
 31
0.0
  0
LINE
  5
386
330
1E
100
AcDbEntity
  8
0
100
AcDbLine
 10
81.92323499999998
 20
918.8591499999999
 30
0.0
 11
81.92323499999998
 21
919.44315
 31
0.0
  0
LINE
  5
387
330
1E
100
AcDbEntity
  8
0
100
AcDbLine
 10
81.92323499999998
 20
919.44315
 30
0.0
 11
81.92323499999998
 21
921.31115
 31
0.0
  0
LINE
  5
388
330
1E
100
AcDbEntity
  8
0
100
AcDbLine
 10
81.92323499999998
 20
919.44315
 30
0.0
 11
81.92323499999998
 21
918.8591499999999
 31
0.0
  0
LINE
  5
389
330
1E
100
AcDbEntity
  8
0
100
AcDbLine
 10
81.92323499999998
 20
921.31115
 30
0.0
 11
81.92323499999998
 21
924.16415
 31
0.0
  0
LINE
  5
38A
330
1E
100
AcDbEntity
  8
0
100
AcDbLine
 10
81.92323499999998
 20
921.31115
 30
0.0
 11
81.92323499999998
 21
919.44315
 31
0.0
  0
LINE
  5
38B
330
1E
100
AcDbEntity
  8
0
100
AcDbLine
 10
81.92323499999998
 20
924.16415
 30
0.0
 11
81.92323499999998
 21
927.85515
 31
0.0
  0
LINE
  5
38C
330
1E
100
AcDbEntity
  8
0
100
AcDbLine
 10
81.92323499999998
 20
924.16415
 30
0.0
 11
81.92323499999998
 21
921.31115
 31
0.0
  0
LINE
  5
38D
330
1E
100
AcDbEntity
  8
0
100
AcDbLine
 10
81.92323499999998
 20
941.5171499999999
 30
0.0
 11
81.92323499999998
 21
936.77515
 31
0.0
  0
LINE
  5
38E
330
1E
100
AcDbEntity
  8
0
100
AcDbLine
 10
81.92323499999998
 20
936.77515
 30
0.0
 11
81.92323499999998
 21
941.5171499999999
 31
0.0
  0
LINE
  5
38F
330
1E
100
AcDbEntity
  8
0
100
AcDbLine
 10
81.92323499999998
 20
936.77515
 30
0.0
 11
81.92323499999998
 21
932.1461499999999
 31
0.0
  0
LINE
  5
390
330
1E
100
AcDbEntity
  8
0
100
AcDbLine
 10
81.92323499999998
 20
932.1461499999999
 30
0.0
 11
81.92323499999998
 21
936.77515
 31
0.0
  0
LINE
  5
391
330
1E
100
AcDbEntity
  8
0
100
AcDbLine
 10
81.92323499999998
 20
932.1461499999999
 30
0.0
 11
81.92323499999998
 21
927.85515
 31
0.0
  0
LINE
  5
392
330
1E
100
AcDbEntity
  8
0
100
AcDbLine
 10
81.92323499999998
 20
927.85515
 30
0.0
 11
81.92323499999998
 21
932.1461499999999
 31
0.0
  0
LINE
  5
393
330
1E
100
AcDbEntity
  8
0
100
AcDbLine
 10
81.92323499999998
 20
927.85515
 30
0.0
 11
81.92323499999998
 21
924.16415
 31
0.0
  0
LINE
  5
395
330
1E
100
AcDbEntity
  8
0
100
AcDbLine
 10
81.92323499999998
 20
963.718775
 30
0.0
 11
82.823235
 21
963.12815
 31
0.0
  0
LINE
  5
397
330
1E
100
AcDbEntity
  8
0
100
AcDbLine
 10
81.92323499999998
 20
986.6701500000001
 30
0.0
 11
81.92323499999998
 21
948.5651500000001
 31
0.0
  0
LINE
  5
399
330
1E
100
AcDbEntity
  8
0
100
AcDbLine
 10
80.011235
 20
949.2981499999999
 30
0.0
 11
81.92323499999998
 21
948.5651500000001
 31
0.0
  0
LINE
  5
39C
330
1E
100
AcDbEntity
  8
0
100
AcDbLine
 10
81.982935
 20
848.4911499999999
 30
0.0
 11
81.998835
 21
815.4901499999999
 31
0.0
  0
LINE
  5
39D
330
1E
100
AcDbEntity
  8
0
100
AcDbLine
 10
97.95383499999999
 20
871.49715
 30
0.0
 11
97.982835
 21
848.4901499999999
 31
0.0
  0
LINE
  5
39E
330
1E
100
AcDbEntity
  8
0
100
AcDbLine
 10
97.912835
 20
896.2941499999999
 30
0.0
 11
97.95383499999999
 21
871.49715
 31
0.0
  0
LINE
  5
39F
330
1E
100
AcDbEntity
  8
0
100
AcDbLine
 10
97.857935
 20
921.39115
 30
0.0
 11
97.912835
 21
896.2941499999999
 31
0.0
  0
LINE
  5
3A0
330
1E
100
AcDbEntity
  8
0
100
AcDbLine
 10
81.95483499999999
 20
871.48815
 30
0.0
 11
81.982935
 21
848.4911499999999
 31
0.0
  0
LINE
  5
3A1
330
1E
100
AcDbEntity
  8
0
100
AcDbLine
 10
97.982835
 20
848.4901499999999
 30
0.0
 11
97.99903499999999
 21
815.4891499999999
 31
0.0
  0
LINE
  5
3A2
330
1E
100
AcDbEntity
  8
0
100
AcDbLine
 10
97.96893500000001
 20
929.37215
 30
0.0
 11
99.75513499999999
 21
931.06015
 31
0.0
  0
LINE
  5
3A3
330
1E
100
AcDbEntity
  8
0
100
AcDbLine
 10
99.75513499999999
 20
931.06015
 30
0.0
 11
102.056235
 21
933.8971499999999
 31
0.0
  0
LINE
  5
3A5
330
1E
100
AcDbEntity
  8
0
100
AcDbLine
 10
102.056235
 20
933.8971499999999
 30
0.0
 11
103.3582349999999
 21
936.4021499999999
 31
0.0
  0
LINE
  5
3A8
330
1E
100
AcDbEntity
  8
0
100
AcDbLine
 10
97.788035
 20
944.4871500000001
 30
0.0
 11
97.923235
 21
952.1713849336061
 31
0.0
  0
LINE
  5
3A9
330
1E
100
AcDbEntity
  8
0
100
AcDbLine
 10
97.788035
 20
944.4871500000001
 30
0.0
 11
97.857935
 21
921.39115
 31
0.0
  0
LINE
  5
3B1
330
1E
100
AcDbEntity
  8
0
100
AcDbLine
 10
103.3582349999999
 20
936.4021499999999
 30
0.0
 11
103.923235
 21
938.58715
 31
0.0
  0
LINE
  5
3B3
330
1E
100
AcDbEntity
  8
0
100
AcDbLine
 10
103.923235
 20
938.58715
 30
0.0
 11
103.923235
 21
992.2811499999999
 31
0.0
  0
LINE
  5
3B6
330
1E
100
AcDbEntity
  8
0
100
AcDbLine
 10
89.92323499999999
 20
961.67815
 30
0.0
 11
92.52323500000001
 21
961.87815
 31
0.0
  0
LINE
  5
3B7
330
1E
100
AcDbEntity
  8
0
100
AcDbLine
 10
92.52323500000001
 20
961.87815
 30
0.0
 11
94.92323499999999
 21
962.32815
 31
0.0
  0
LINE
  5
3B8
330
1E
100
AcDbEntity
  8
0
100
AcDbLine
 10
94.92323499999999
 20
962.32815
 30
0.0
 11
97.023235
 21
963.12815
 31
0.0
  0
LINE
  5
3B9
330
1E
100
AcDbEntity
  8
0
100
AcDbLine
 10
87.32323499999999
 20
961.87815
 30
0.0
 11
89.92323499999999
 21
961.67815
 31
0.0
  0
LINE
  5
3BA
330
1E
100
AcDbEntity
  8
0
100
AcDbLine
 10
97.023235
 20
963.12815
 30
0.0
 11
97.923235
 21
963.718775
 31
0.0
  0
LINE
  5
3BB
330
1E
100
AcDbEntity
  8
0
100
AcDbLine
 10
84.92323499999999
 20
962.32815
 30
0.0
 11
87.32323499999999
 21
961.87815
 31
0.0
  0
LINE
  5
3BC
330
1E
100
AcDbEntity
  8
0
100
AcDbLine
 10
82.823235
 20
963.12815
 30
0.0
 11
84.92323499999999
 21
962.32815
 31
0.0
  0
LINE
  5
3BD
330
1E
100
AcDbEntity
  8
0
100
AcDbLine
 10
89.92323499999999
 20
986.2991500000001
 30
0.0
 11
92.94723499999999
 21
986.5151499999999
 31
0.0
  0
LINE
  5
3BE
330
1E
100
AcDbEntity
  8
0
100
AcDbLine
 10
92.94723499999999
 20
986.5151499999999
 30
0.0
 11
95.73123499999999
 21
987.09115
 31
0.0
  0
LINE
  5
3BF
330
1E
100
AcDbEntity
  8
0
100
AcDbLine
 10
95.73123499999999
 20
987.09115
 30
0.0
 11
97.923235
 21
987.9292676470591
 31
0.0
  0
LINE
  5
3C0
330
1E
100
AcDbEntity
  8
0
100
AcDbLine
 10
86.899235
 20
986.5151499999999
 30
0.0
 11
89.92323499999999
 21
986.2991500000001
 31
0.0
  0
LINE
  5
3C1
330
1E
100
AcDbEntity
  8
0
100
AcDbLine
 10
84.11523499999999
 20
987.09115
 30
0.0
 11
86.899235
 21
986.5151499999999
 31
0.0
  0
LINE
  5
3C4
330
1E
100
AcDbEntity
  8
0
100
AcDbLine
 10
97.923235
 20
986.6701500000001
 30
0.0
 11
99.835235
 21
987.4031499999999
 31
0.0
  0
LINE
  5
3C6
330
1E
100
AcDbEntity
  8
0
100
AcDbLine
 10
99.835235
 20
949.2981499999999
 30
0.0
 11
102.0752349999999
 21
950.75815
 31
0.0
  0
LINE
  5
3C8
330
1E
100
AcDbEntity
  8
0
100
AcDbLine
 10
102.0752349999999
 20
950.75815
 30
0.0
 11
103.8924843434333
 21
952.9628795785844
 31
0.0
  0
LINE
  5
3CA
330
1E
100
AcDbEntity
  8
0
100
AcDbLine
 10
99.835235
 20
987.4031499999999
 30
0.0
 11
102.0752349999999
 21
988.86315
 31
0.0
  0
LINE
  5
3D1
330
1E
100
AcDbEntity
  8
0
100
AcDbLine
 10
97.923235
 20
948.5651500000001
 30
0.0
 11
99.835235
 21
949.2981499999999
 31
0.0
  0
LINE
  5
3D4
330
1E
100
AcDbEntity
  8
0
100
AcDbLine
 10
81.92323499999998
 20
948.5651500000001
 30
0.0
 11
81.92323499999998
 21
986.6701500000001
 31
0.0
  0
LINE
  5
3D5
330
1E
100
AcDbEntity
  8
0
100
AcDbLine
 10
81.92323499999998
 20
948.5651500000001
 30
0.0
 11
81.93063499999999
 21
923.3311499999999
 31
0.0
  0
LINE
  5
3D6
330
1E
100
AcDbEntity
  8
0
100
AcDbLine
 10
81.92323499999998
 20
987.9292676470591
 30
0.0
 11
84.11523499999999
 21
987.09115
 31
0.0
  0
LINE
  5
3D9
330
1E
100
AcDbEntity
  8
0
100
AcDbLine
 10
102.0752349999999
 20
988.86315
 30
0.0
 11
103.419235
 21
990.5171499999999
 31
0.0
  0
LINE
  5
3DB
330
1E
100
AcDbEntity
  8
0
100
AcDbLine
 10
81.92323499999998
 20
987.9292676470591
 30
0.0
 11
81.92323499999998
 21
986.6701500000001
 31
0.0
  0
LINE
  5
3DC
330
1E
100
AcDbEntity
  8
0
100
AcDbLine
 10
80.011235
 20
987.4031499999999
 30
0.0
 11
81.92323499999998
 21
986.6701500000001
 31
0.0
  0
LINE
  5
3DF
330
1E
100
AcDbEntity
  8
0
100
AcDbLine
 10
77.771235
 20
950.75815
 30
0.0
 11
80.011235
 21
949.2981499999999
 31
0.0
  0
LINE
  5
3E3
330
1E
100
AcDbEntity
  8
0
100
AcDbLine
 10
103.419235
 20
990.5171499999999
 30
0.0
 11
103.923235
 21
992.2811499999999
 31
0.0
  0
LINE
  5
3E5
330
1E
100
AcDbEntity
  8
0
100
AcDbLine
 10
77.771235
 20
988.86315
 30
0.0
 11
80.011235
 21
987.4031499999999
 31
0.0
  0
LINE
  5
3E8
330
1E
100
AcDbEntity
  8
0
100
AcDbLine
 10
76.42723499999999
 20
952.4121499999999
 30
0.0
 11
77.771235
 21
950.75815
 31
0.0
  0
LINE
  5
3EB
330
1E
100
AcDbEntity
  8
0
100
AcDbLine
 10
75.93063499999999
 20
1100.51315
 30
0.0
 11
76.49833499999999
 21
1100.804149999999
 31
0.0
  0
LINE
  5
3EE
330
1E
100
AcDbEntity
  8
0
100
AcDbLine
 10
76.166035
 20
1096.150149999999
 30
0.0
 11
76.92643499999999
 21
1096.17415
 31
0.0
  0
LINE
  5
3F1
330
1E
100
AcDbEntity
  8
0
100
AcDbLine
 10
75.93063499999999
 20
1132.221149999999
 30
0.0
 11
76.49833499999999
 21
1131.93015
 31
0.0
  0
LINE
  5
3F2
330
1E
100
AcDbEntity
  8
0
100
AcDbLine
 10
76.242435
 20
1095.096149999999
 30
0.0
 11
77.00283500000001
 21
1095.12015
 31
0.0
  0
LINE
  5
3F4
330
1E
100
AcDbEntity
  8
0
100
AcDbLine
 10
76.28203499999999
 20
1112.491149999999
 30
0.0
 11
77.043235
 21
1112.50515
 31
0.0
  0
LINE
  5
3F6
330
1E
100
AcDbEntity
  8
0
100
AcDbLine
 10
76.41433499999999
 20
1099.75115
 30
0.0
 11
77.175535
 21
1099.737149999999
 31
0.0
  0
LINE
  5
3F7
330
1E
100
AcDbEntity
  8
0
100
AcDbLine
 10
76.36603499999999
 20
1111.43815
 30
0.0
 11
77.127235
 21
1111.45215
 31
0.0
  0
LINE
  5
3F8
330
1E
100
AcDbEntity
  8
0
100
AcDbLine
 10
76.28203499999999
 20
1119.26315
 30
0.0
 11
77.043235
 21
1119.24915
 31
0.0
  0
LINE
  5
3FA
330
1E
100
AcDbEntity
  8
0
100
AcDbLine
 10
76.41433499999999
 20
1132.98415
 30
0.0
 11
77.175535
 21
1132.99715
 31
0.0
  0
LINE
  5
3FD
330
1E
100
AcDbEntity
  8
0
100
AcDbLine
 10
76.36603499999999
 20
1120.31615
 30
0.0
 11
77.127235
 21
1120.30215
 31
0.0
  0
LINE
  5
3FF
330
1E
100
AcDbEntity
  8
0
100
AcDbLine
 10
76.166035
 20
1137.161149999999
 30
0.0
 11
76.92643499999999
 21
1137.13715
 31
0.0
  0
LINE
  5
401
330
1E
100
AcDbEntity
  8
0
100
AcDbLine
 10
76.242435
 20
1138.21515
 30
0.0
 11
77.00283500000001
 21
1138.19115
 31
0.0
  0
LINE
  5
404
330
1E
100
AcDbEntity
  8
0
100
AcDbLine
 10
101.2915509990049
 20
990.7952497760639
 30
0.0
 11
101.491235
 21
991.13915
 31
0.0
  0
LINE
  5
405
330
1E
100
AcDbEntity
  8
0
100
AcDbLine
 10
101.491235
 20
991.13915
 30
0.0
 11
101.923235
 21
992.6751499999999
 31
0.0
  0
LINE
  5
408
330
1E
100
AcDbEntity
  8
0
100
AcDbLine
 10
101.923235
 20
992.6751499999999
 30
0.0
 11
101.923235
 21
996.4851499999999
 31
0.0
  0
LINE
  5
409
330
1E
100
AcDbEntity
  8
0
100
AcDbLine
 10
78.35523499999999
 20
991.13915
 30
0.0
 11
78.55491900099541
 21
990.7952497760639
 31
0.0
  0
LINE
  5
40A
330
1E
100
AcDbEntity
  8
0
100
AcDbLine
 10
77.92323499999999
 20
992.6751499999999
 30
0.0
 11
78.35523499999999
 21
991.13915
 31
0.0
  0
LINE
  5
40B
330
1E
100
AcDbEntity
  8
0
100
AcDbLine
 10
77.92323499999999
 20
992.6751499999999
 30
0.0
 11
77.92323499999999
 21
996.4851499999999
 31
0.0
  0
LINE
  5
40C
330
1E
100
AcDbEntity
  8
0
100
AcDbLine
 10
101.923235
 20
995.6554218894009
 30
0.0
 11
102.0752349999999
 21
995.6981500000001
 31
0.0
  0
LINE
  5
40D
330
1E
100
AcDbEntity
  8
0
100
AcDbLine
 10
102.0752349999999
 20
995.6981500000001
 30
0.0
 11
103.419235
 21
994.04415
 31
0.0
  0
LINE
  5
40E
330
1E
100
AcDbEntity
  8
0
100
AcDbLine
 10
103.419235
 20
994.04415
 30
0.0
 11
103.923235
 21
992.2811499999999
 31
0.0
  0
LINE
  5
40F
330
1E
100
AcDbEntity
  8
0
100
AcDbLine
 10
103.923235
 20
992.2811499999999
 30
0.0
 11
103.923235
 21
938.58715
 31
0.0
  0
LINE
  5
410
330
1E
100
AcDbEntity
  8
0
100
AcDbLine
 10
76.49833499999999
 20
1100.804149999999
 30
0.0
 11
77.259535
 21
1100.79015
 31
0.0
  0
LINE
  5
412
330
1E
100
AcDbEntity
  8
0
100
AcDbLine
 10
76.92643499999999
 20
1096.17415
 30
0.0
 11
77.481635
 21
1095.875149999999
 31
0.0
  0
LINE
  5
414
330
1E
100
AcDbEntity
  8
0
100
AcDbLine
 10
77.00283500000001
 20
1095.12015
 30
0.0
 11
77.524135
 21
1095.43915
 31
0.0
  0
LINE
  5
415
330
1E
100
AcDbEntity
  8
0
100
AcDbLine
 10
76.49833499999999
 20
1131.93015
 30
0.0
 11
77.259535
 21
1131.94415
 31
0.0
  0
LINE
  5
417
330
1E
100
AcDbEntity
  8
0
100
AcDbLine
 10
76.92643499999999
 20
1137.13715
 30
0.0
 11
77.481635
 21
1137.43615
 31
0.0
  0
LINE
  5
419
330
1E
100
AcDbEntity
  8
0
100
AcDbLine
 10
77.043235
 20
1112.50515
 30
0.0
 11
77.610935
 21
1112.21415
 31
0.0
  0
LINE
  5
41B
330
1E
100
AcDbEntity
  8
0
100
AcDbLine
 10
77.043235
 20
1119.24915
 30
0.0
 11
77.610935
 21
1119.54015
 31
0.0
  0
LINE
  5
41C
330
1E
100
AcDbEntity
  8
0
100
AcDbLine
 10
77.00283500000001
 20
1138.19115
 30
0.0
 11
77.524135
 21
1137.87215
 31
0.0
  0
LINE
  5
41E
330
1E
100
AcDbEntity
  8
0
100
AcDbLine
 10
77.123235
 20
1153.417149999999
 30
0.0
 11
89.92323499999999
 21
1154.44915
 31
0.0
  0
LINE
  5
41F
330
1E
100
AcDbEntity
  8
0
100
AcDbLine
 10
101.923235
 20
996.4851499999999
 30
0.0
 11
101.923235
 21
992.6751499999999
 31
0.0
  0
LINE
  5
420
330
1E
100
AcDbEntity
  8
0
100
AcDbLine
 10
101.923235
 20
996.4851499999999
 30
0.0
 11
101.923235
 21
1010.74715
 31
0.0
  0
LINE
  5
421
330
1E
100
AcDbEntity
  8
0
100
AcDbLine
 10
77.127235
 20
1111.45215
 30
0.0
 11
77.634935
 21
1111.777149999999
 31
0.0
  0
LINE
  5
424
330
1E
100
AcDbEntity
  8
0
100
AcDbLine
 10
77.481635
 20
1095.875149999999
 30
0.0
 11
77.524135
 21
1095.43915
 31
0.0
  0
LINE
  5
426
330
1E
100
AcDbEntity
  8
0
100
AcDbLine
 10
77.259535
 20
1100.79015
 30
0.0
 11
77.767235
 21
1100.46515
 31
0.0
  0
LINE
  5
427
330
1E
100
AcDbEntity
  8
0
100
AcDbLine
 10
77.175535
 20
1099.737149999999
 30
0.0
 11
77.743235
 21
1100.02815
 31
0.0
  0
LINE
  5
42A
330
1E
100
AcDbEntity
  8
0
100
AcDbLine
 10
77.57483499999999
 20
1104.95815
 30
0.0
 11
78.184635
 21
1105.22015
 31
0.0
  0
LINE
  5
42B
330
1E
100
AcDbEntity
  8
0
100
AcDbLine
 10
77.48463499999999
 20
1104.525149999999
 30
0.0
 11
77.57483499999999
 21
1104.95815
 31
0.0
  0
LINE
  5
42C
330
1E
100
AcDbEntity
  8
0
100
AcDbLine
 10
77.48463499999999
 20
1104.525149999999
 30
0.0
 11
77.94083499999999
 21
1104.17515
 31
0.0
  0
LINE
  5
42E
330
1E
100
AcDbEntity
  8
0
100
AcDbLine
 10
77.610935
 20
1112.21415
 30
0.0
 11
77.634935
 21
1111.777149999999
 31
0.0
  0
LINE
  5
430
330
1E
100
AcDbEntity
  8
0
100
AcDbLine
 10
77.259535
 20
1131.94415
 30
0.0
 11
77.767235
 21
1132.270149999999
 31
0.0
  0
LINE
  5
432
330
1E
100
AcDbEntity
  8
0
100
AcDbLine
 10
77.175535
 20
1132.99715
 30
0.0
 11
77.743235
 21
1132.706149999999
 31
0.0
  0
LINE
  5
434
330
1E
100
AcDbEntity
  8
0
100
AcDbLine
 10
77.57483499999999
 20
1127.199149999999
 30
0.0
 11
78.184635
 21
1126.938149999999
 31
0.0
  0
LINE
  5
435
330
1E
100
AcDbEntity
  8
0
100
AcDbLine
 10
77.48463499999999
 20
1127.63315
 30
0.0
 11
77.57483499999999
 21
1127.199149999999
 31
0.0
  0
LINE
  5
436
330
1E
100
AcDbEntity
  8
0
100
AcDbLine
 10
77.48463499999999
 20
1127.63315
 30
0.0
 11
77.94083499999999
 21
1127.98315
 31
0.0
  0
LINE
  5
437
330
1E
100
AcDbEntity
  8
0
100
AcDbLine
 10
77.610935
 20
1119.54015
 30
0.0
 11
77.634935
 21
1119.97715
 31
0.0
  0
LINE
  5
438
330
1E
100
AcDbEntity
  8
0
100
AcDbLine
 10
77.127235
 20
1120.30215
 30
0.0
 11
77.634935
 21
1119.97715
 31
0.0
  0
LINE
  5
43C
330
1E
100
AcDbEntity
  8
0
100
AcDbLine
 10
77.481635
 20
1137.43615
 30
0.0
 11
77.524135
 21
1137.87215
 31
0.0
  0
LINE
  5
43E
330
1E
100
AcDbEntity
  8
0
100
AcDbLine
 10
77.767235
 20
1100.52471028169
 30
0.0
 11
77.767235
 21
1100.46515
 31
0.0
  0
LINE
  5
43F
330
1E
100
AcDbEntity
  8
0
100
AcDbLine
 10
77.767235
 20
1100.46515
 30
0.0
 11
77.767235
 21
1100.52471028169
 31
0.0
  0
LINE
  5
440
330
1E
100
AcDbEntity
  8
0
100
AcDbLine
 10
77.743235
 20
1100.02815
 30
0.0
 11
77.767235
 21
1100.46515
 31
0.0
  0
LINE
  5
445
330
1E
100
AcDbEntity
  8
0
100
AcDbLine
 10
77.743235
 20
1132.706149999999
 30
0.0
 11
77.767235
 21
1132.270149999999
 31
0.0
  0
LINE
  5
449
330
1E
100
AcDbEntity
  8
0
100
AcDbLine
 10
77.62323499999999
 20
1093.070149999999
 30
0.0
 11
88.42323499999999
 21
1092.214052439024
 31
0.0
  0
LINE
  5
44A
330
1E
100
AcDbEntity
  8
0
100
AcDbLine
 10
77.92323499999999
 20
1093.046369512195
 30
0.0
 11
77.92323499999999
 21
1091.10615
 31
0.0
  0
LINE
  5
44B
330
1E
100
AcDbEntity
  8
0
100
AcDbLine
 10
77.92323499999999
 20
1091.10615
 30
0.0
 11
77.92323499999999
 21
1082.018149999999
 31
0.0
  0
LINE
  5
44C
330
1E
100
AcDbEntity
  8
0
100
AcDbLine
 10
77.92323499999999
 20
1091.10615
 30
0.0
 11
77.92323499999999
 21
1093.046369512195
 31
0.0
  0
LINE
  5
44D
330
1E
100
AcDbEntity
  8
0
100
AcDbLine
 10
77.92323499999999
 20
1082.018149999999
 30
0.0
 11
77.92323499999999
 21
1069.62615
 31
0.0
  0
LINE
  5
44E
330
1E
100
AcDbEntity
  8
0
100
AcDbLine
 10
77.92323499999999
 20
1082.018149999999
 30
0.0
 11
77.92323499999999
 21
1091.10615
 31
0.0
  0
LINE
  5
44F
330
1E
100
AcDbEntity
  8
0
100
AcDbLine
 10
77.92323499999999
 20
1069.62615
 30
0.0
 11
77.92323499999999
 21
1056.34315
 31
0.0
  0
LINE
  5
450
330
1E
100
AcDbEntity
  8
0
100
AcDbLine
 10
77.92323499999999
 20
1069.62615
 30
0.0
 11
77.92323499999999
 21
1082.018149999999
 31
0.0
  0
LINE
  5
451
330
1E
100
AcDbEntity
  8
0
100
AcDbLine
 10
77.92323499999999
 20
1056.34315
 30
0.0
 11
77.92323499999999
 21
1041.563149999999
 31
0.0
  0
LINE
  5
452
330
1E
100
AcDbEntity
  8
0
100
AcDbLine
 10
77.92323499999999
 20
1056.34315
 30
0.0
 11
77.92323499999999
 21
1069.62615
 31
0.0
  0
LINE
  5
453
330
1E
100
AcDbEntity
  8
0
100
AcDbLine
 10
77.92323499999999
 20
1041.563149999999
 30
0.0
 11
77.92323499999999
 21
1024.484149999999
 31
0.0
  0
LINE
  5
454
330
1E
100
AcDbEntity
  8
0
100
AcDbLine
 10
77.92323499999999
 20
1041.563149999999
 30
0.0
 11
77.92323499999999
 21
1056.34315
 31
0.0
  0
LINE
  5
455
330
1E
100
AcDbEntity
  8
0
100
AcDbLine
 10
77.92323499999999
 20
1024.484149999999
 30
0.0
 11
77.92323499999999
 21
1010.74715
 31
0.0
  0
LINE
  5
456
330
1E
100
AcDbEntity
  8
0
100
AcDbLine
 10
77.92323499999999
 20
1024.484149999999
 30
0.0
 11
77.92323499999999
 21
1041.563149999999
 31
0.0
  0
LINE
  5
457
330
1E
100
AcDbEntity
  8
0
100
AcDbLine
 10
101.923235
 20
1010.74715
 30
0.0
 11
101.923235
 21
1024.484149999999
 31
0.0
  0
LINE
  5
458
330
1E
100
AcDbEntity
  8
0
100
AcDbLine
 10
101.923235
 20
1010.74715
 30
0.0
 11
101.923235
 21
996.4851499999999
 31
0.0
  0
LINE
  5
459
330
1E
100
AcDbEntity
  8
0
100
AcDbLine
 10
88.42323499999999
 20
1087.00115
 30
0.0
 11
88.42323499999999
 21
1086.21815
 31
0.0
  0
LINE
  5
45A
330
1E
100
AcDbEntity
  8
0
100
AcDbLine
 10
88.42323499999999
 20
1087.00115
 30
0.0
 11
88.42323499999999
 21
1088.64215
 31
0.0
  0
LINE
  5
45B
330
1E
100
AcDbEntity
  8
0
100
AcDbLine
 10
88.42323499999999
 20
1086.21815
 30
0.0
 11
88.42323499999999
 21
1087.00115
 31
0.0
  0
LINE
  5
45C
330
1E
100
AcDbEntity
  8
0
100
AcDbLine
 10
88.42323499999999
 20
1086.179149999999
 30
0.0
 11
88.42323499999999
 21
1087.10415
 31
0.0
  0
LINE
  5
45D
330
1E
100
AcDbEntity
  8
0
100
AcDbLine
 10
88.42323499999999
 20
1086.179149999999
 30
0.0
 11
91.42323499999999
 21
1086.179149999999
 31
0.0
  0
LINE
  5
45E
330
1E
100
AcDbEntity
  8
0
100
AcDbLine
 10
91.42323499999999
 20
1086.179149999999
 30
0.0
 11
91.42323499999999
 21
1087.10415
 31
0.0
  0
LINE
  5
45F
330
1E
100
AcDbEntity
  8
0
100
AcDbLine
 10
88.42323499999999
 20
1087.10415
 30
0.0
 11
88.42323499999999
 21
1088.42315
 31
0.0
  0
LINE
  5
460
330
1E
100
AcDbEntity
  8
0
100
AcDbLine
 10
88.42323499999999
 20
1087.10415
 30
0.0
 11
88.42323499999999
 21
1086.179149999999
 31
0.0
  0
LINE
  5
461
330
1E
100
AcDbEntity
  8
0
100
AcDbLine
 10
88.42323499999999
 20
1088.42315
 30
0.0
 11
88.42323499999999
 21
1089.73715
 31
0.0
  0
LINE
  5
462
330
1E
100
AcDbEntity
  8
0
100
AcDbLine
 10
88.42323499999999
 20
1088.42315
 30
0.0
 11
88.42323499999999
 21
1087.10415
 31
0.0
  0
LINE
  5
463
330
1E
100
AcDbEntity
  8
0
100
AcDbLine
 10
91.42323499999999
 20
1087.10415
 30
0.0
 11
91.42323499999999
 21
1086.179149999999
 31
0.0
  0
LINE
  5
464
330
1E
100
AcDbEntity
  8
0
100
AcDbLine
 10
91.42323499999999
 20
1087.10415
 30
0.0
 11
91.42323499999999
 21
1088.42315
 31
0.0
  0
LINE
  5
465
330
1E
100
AcDbEntity
  8
0
100
AcDbLine
 10
88.42323499999999
 20
1089.80215
 30
0.0
 11
88.42323499999999
 21
1088.64215
 31
0.0
  0
LINE
  5
466
330
1E
100
AcDbEntity
  8
0
100
AcDbLine
 10
88.42323499999999
 20
1089.80215
 30
0.0
 11
88.42323499999999
 21
1091.121149999999
 31
0.0
  0
LINE
  5
467
330
1E
100
AcDbEntity
  8
0
100
AcDbLine
 10
88.42323499999999
 20
1088.64215
 30
0.0
 11
88.42323499999999
 21
1087.00115
 31
0.0
  0
LINE
  5
468
330
1E
100
AcDbEntity
  8
0
100
AcDbLine
 10
88.42323499999999
 20
1088.64215
 30
0.0
 11
88.42323499999999
 21
1089.80215
 31
0.0
  0
LINE
  5
469
330
1E
100
AcDbEntity
  8
0
100
AcDbLine
 10
88.42323499999999
 20
1089.73715
 30
0.0
 11
88.42323499999999
 21
1091.62015
 31
0.0
  0
LINE
  5
46A
330
1E
100
AcDbEntity
  8
0
100
AcDbLine
 10
88.42323499999999
 20
1089.73715
 30
0.0
 11
88.42323499999999
 21
1088.42315
 31
0.0
  0
LINE
  5
46B
330
1E
100
AcDbEntity
  8
0
100
AcDbLine
 10
91.42323499999999
 20
1088.42315
 30
0.0
 11
91.42323499999999
 21
1087.10415
 31
0.0
  0
LINE
  5
46C
330
1E
100
AcDbEntity
  8
0
100
AcDbLine
 10
91.42323499999999
 20
1088.42315
 30
0.0
 11
91.42323499999999
 21
1089.73715
 31
0.0
  0
LINE
  5
46D
330
1E
100
AcDbEntity
  8
0
100
AcDbLine
 10
91.42323499999999
 20
1089.73715
 30
0.0
 11
91.42323499999999
 21
1088.42315
 31
0.0
  0
LINE
  5
46E
330
1E
100
AcDbEntity
  8
0
100
AcDbLine
 10
91.42323499999999
 20
1089.73715
 30
0.0
 11
91.42323499999999
 21
1091.62015
 31
0.0
  0
LINE
  5
46F
330
1E
100
AcDbEntity
  8
0
100
AcDbLine
 10
101.923235
 20
1056.34315
 30
0.0
 11
101.923235
 21
1069.62615
 31
0.0
  0
LINE
  5
470
330
1E
100
AcDbEntity
  8
0
100
AcDbLine
 10
101.923235
 20
1056.34315
 30
0.0
 11
101.923235
 21
1041.563149999999
 31
0.0
  0
LINE
  5
471
330
1E
100
AcDbEntity
  8
0
100
AcDbLine
 10
101.923235
 20
1041.563149999999
 30
0.0
 11
101.923235
 21
1056.34315
 31
0.0
  0
LINE
  5
472
330
1E
100
AcDbEntity
  8
0
100
AcDbLine
 10
101.923235
 20
1041.563149999999
 30
0.0
 11
101.923235
 21
1024.484149999999
 31
0.0
  0
LINE
  5
473
330
1E
100
AcDbEntity
  8
0
100
AcDbLine
 10
101.923235
 20
1024.484149999999
 30
0.0
 11
101.923235
 21
1041.563149999999
 31
0.0
  0
LINE
  5
474
330
1E
100
AcDbEntity
  8
0
100
AcDbLine
 10
101.923235
 20
1024.484149999999
 30
0.0
 11
101.923235
 21
1010.74715
 31
0.0
  0
LINE
  5
475
330
1E
100
AcDbEntity
  8
0
100
AcDbLine
 10
101.923235
 20
1069.62615
 30
0.0
 11
101.923235
 21
1082.018149999999
 31
0.0
  0
LINE
  5
476
330
1E
100
AcDbEntity
  8
0
100
AcDbLine
 10
101.923235
 20
1069.62615
 30
0.0
 11
101.923235
 21
1056.34315
 31
0.0
  0
LINE
  5
477
330
1E
100
AcDbEntity
  8
0
100
AcDbLine
 10
88.42323499999999
 20
1091.121149999999
 30
0.0
 11
88.42323499999999
 21
1089.80215
 31
0.0
  0
LINE
  5
478
330
1E
100
AcDbEntity
  8
0
100
AcDbLine
 10
88.42323499999999
 20
1091.121149999999
 30
0.0
 11
88.42323499999999
 21
1092.214052439024
 31
0.0
  0
LINE
  5
479
330
1E
100
AcDbEntity
  8
0
100
AcDbLine
 10
88.42323499999999
 20
1091.62015
 30
0.0
 11
88.42323499999999
 21
1093.838831818181
 31
0.0
  0
LINE
  5
47A
330
1E
100
AcDbEntity
  8
0
100
AcDbLine
 10
88.42323499999999
 20
1091.62015
 30
0.0
 11
88.42323499999999
 21
1089.73715
 31
0.0
  0
LINE
  5
47B
330
1E
100
AcDbEntity
  8
0
100
AcDbLine
 10
88.42323499999999
 20
1092.214052439024
 30
0.0
 11
88.42323499999999
 21
1091.121149999999
 31
0.0
  0
LINE
  5
47C
330
1E
100
AcDbEntity
  8
0
100
AcDbLine
 10
91.42323499999999
 20
1091.62015
 30
0.0
 11
91.42323499999999
 21
1089.73715
 31
0.0
  0
LINE
  5
47D
330
1E
100
AcDbEntity
  8
0
100
AcDbLine
 10
91.42323499999999
 20
1091.62015
 30
0.0
 11
91.42323499999999
 21
1093.838831818181
 31
0.0
  0
LINE
  5
47E
330
1E
100
AcDbEntity
  8
0
100
AcDbLine
 10
91.42323499999999
 20
1092.214052439024
 30
0.0
 11
102.223235
 21
1093.070149999999
 31
0.0
  0
LINE
  5
47F
330
1E
100
AcDbEntity
  8
0
100
AcDbLine
 10
101.923235
 20
1091.10615
 30
0.0
 11
101.923235
 21
1093.046369512195
 31
0.0
  0
LINE
  5
480
330
1E
100
AcDbEntity
  8
0
100
AcDbLine
 10
101.923235
 20
1091.10615
 30
0.0
 11
101.923235
 21
1082.018149999999
 31
0.0
  0
LINE
  5
481
330
1E
100
AcDbEntity
  8
0
100
AcDbLine
 10
101.923235
 20
1082.018149999999
 30
0.0
 11
101.923235
 21
1091.10615
 31
0.0
  0
LINE
  5
482
330
1E
100
AcDbEntity
  8
0
100
AcDbLine
 10
101.923235
 20
1082.018149999999
 30
0.0
 11
101.923235
 21
1069.62615
 31
0.0
  0
LINE
  5
484
330
1E
100
AcDbEntity
  8
0
100
AcDbLine
 10
82.16613499999999
 20
1094.72615
 30
0.0
 11
82.340035
 21
1094.30015
 31
0.0
  0
LINE
  5
485
330
1E
100
AcDbEntity
  8
0
100
AcDbLine
 10
82.16613499999999
 20
1094.72615
 30
0.0
 11
82.58313499999999
 21
1095.09115
 31
0.0
  0
LINE
  5
487
330
1E
100
AcDbEntity
  8
0
100
AcDbLine
 10
81.65013499999998
 20
1098.65815
 30
0.0
 11
82.40393500000001
 21
1098.72015
 31
0.0
  0
LINE
  5
488
330
1E
100
AcDbEntity
  8
0
100
AcDbLine
 10
81.05163500000001
 20
1098.92815
 30
0.0
 11
81.65013499999998
 21
1098.65815
 31
0.0
  0
LINE
  5
489
330
1E
100
AcDbEntity
  8
0
100
AcDbLine
 10
78.69703499999999
 20
1104.123149999999
 30
0.0
 11
79.30683499999999
 21
1104.38515
 31
0.0
  0
LINE
  5
48B
330
1E
100
AcDbEntity
  8
0
100
AcDbLine
 10
78.184635
 20
1105.22015
 30
0.0
 11
78.94083499999999
 21
1105.168149999999
 31
0.0
  0
LINE
  5
48C
330
1E
100
AcDbEntity
  8
0
100
AcDbLine
 10
78.94083499999999
 20
1105.168149999999
 30
0.0
 11
79.397035
 21
1104.81815
 31
0.0
  0
LINE
  5
490
330
1E
100
AcDbEntity
  8
0
100
AcDbLine
 10
79.30683499999999
 20
1104.38515
 30
0.0
 11
79.397035
 21
1104.81815
 31
0.0
  0
LINE
  5
491
330
1E
100
AcDbEntity
  8
0
100
AcDbLine
 10
77.94083499999999
 20
1104.17515
 30
0.0
 11
78.69703499999999
 21
1104.123149999999
 31
0.0
  0
LINE
  5
493
330
1E
100
AcDbEntity
  8
0
100
AcDbLine
 10
80.85373500000001
 20
1109.03515
 30
0.0
 11
81.13653499999999
 21
1109.440149999999
 31
0.0
  0
LINE
  5
494
330
1E
100
AcDbEntity
  8
0
100
AcDbLine
 10
80.14663500000001
 20
1108.87215
 30
0.0
 11
80.85373500000001
 21
1109.03515
 31
0.0
  0
LINE
  5
495
330
1E
100
AcDbEntity
  8
0
100
AcDbLine
 10
79.43953499999999
 20
1109.03515
 30
0.0
 11
80.14663500000001
 21
1108.87215
 31
0.0
  0
LINE
  5
496
330
1E
100
AcDbEntity
  8
0
100
AcDbLine
 10
79.43953499999999
 20
1109.846149999999
 30
0.0
 11
80.14663500000001
 21
1110.00815
 31
0.0
  0
LINE
  5
49B
330
1E
100
AcDbEntity
  8
0
100
AcDbLine
 10
80.14663500000001
 20
1110.00815
 30
0.0
 11
80.85373500000001
 21
1109.846149999999
 31
0.0
  0
LINE
  5
49E
330
1E
100
AcDbEntity
  8
0
100
AcDbLine
 10
80.85373500000001
 20
1109.846149999999
 30
0.0
 11
81.13653499999999
 21
1109.440149999999
 31
0.0
  0
LINE
  5
49F
330
1E
100
AcDbEntity
  8
0
100
AcDbLine
 10
79.15663499999999
 20
1109.440149999999
 30
0.0
 11
79.43953499999999
 21
1109.846149999999
 31
0.0
  0
LINE
  5
4A0
330
1E
100
AcDbEntity
  8
0
100
AcDbLine
 10
79.15663499999999
 20
1109.440149999999
 30
0.0
 11
79.43953499999999
 21
1109.03515
 31
0.0
  0
LINE
  5
4A3
330
1E
100
AcDbEntity
  8
0
100
AcDbLine
 10
81.41393499999999
 20
1099.70315
 30
0.0
 11
82.167735
 21
1099.766149999999
 31
0.0
  0
LINE
  5
4A4
330
1E
100
AcDbEntity
  8
0
100
AcDbLine
 10
82.167735
 20
1099.766149999999
 30
0.0
 11
82.76623499999999
 21
1099.49615
 31
0.0
  0
LINE
  5
4A6
330
1E
100
AcDbEntity
  8
0
100
AcDbLine
 10
80.943035
 20
1099.36015
 30
0.0
 11
81.05163500000001
 21
1098.92815
 31
0.0
  0
LINE
  5
4A7
330
1E
100
AcDbEntity
  8
0
100
AcDbLine
 10
80.943035
 20
1099.36015
 30
0.0
 11
81.41393499999999
 21
1099.70315
 31
0.0
  0
LINE
  5
4A9
330
1E
100
AcDbEntity
  8
0
100
AcDbLine
 10
82.58313499999999
 20
1095.09115
 30
0.0
 11
83.32463500000001
 21
1095.19115
 31
0.0
  0
LINE
  5
4AB
330
1E
100
AcDbEntity
  8
0
100
AcDbLine
 10
82.340035
 20
1094.30015
 30
0.0
 11
82.97733499999999
 21
1094.06115
 31
0.0
  0
LINE
  5
4AC
330
1E
100
AcDbEntity
  8
0
100
AcDbLine
 10
82.76623499999999
 20
1099.49615
 30
0.0
 11
82.874935
 21
1099.063149999999
 31
0.0
  0
LINE
  5
4AD
330
1E
100
AcDbEntity
  8
0
100
AcDbLine
 10
82.40393500000001
 20
1098.72015
 30
0.0
 11
82.874935
 21
1099.063149999999
 31
0.0
  0
LINE
  5
4AE
330
1E
100
AcDbEntity
  8
0
100
AcDbLine
 10
88.42323499999999
 20
1093.838831818181
 30
0.0
 11
88.42323499999999
 21
1091.62015
 31
0.0
  0
LINE
  5
4AF
330
1E
100
AcDbEntity
  8
0
100
AcDbLine
 10
83.32463500000001
 20
1095.19115
 30
0.0
 11
83.96183499999999
 21
1094.95215
 31
0.0
  0
LINE
  5
4B2
330
1E
100
AcDbEntity
  8
0
100
AcDbLine
 10
83.96183499999999
 20
1094.95215
 30
0.0
 11
84.135735
 21
1094.52615
 31
0.0
  0
LINE
  5
4B4
330
1E
100
AcDbEntity
  8
0
100
AcDbLine
 10
83.71873499999999
 20
1094.161149999999
 30
0.0
 11
84.135735
 21
1094.52615
 31
0.0
  0
LINE
  5
4B5
330
1E
100
AcDbEntity
  8
0
100
AcDbLine
 10
82.97733499999999
 20
1094.06115
 30
0.0
 11
83.71873499999999
 21
1094.161149999999
 31
0.0
  0
LINE
  5
4B9
330
1E
100
AcDbEntity
  8
0
100
AcDbLine
 10
85.76183499999999
 20
1102.54215
 30
0.0
 11
86.503235
 21
1102.64215
 31
0.0
  0
LINE
  5
4BA
330
1E
100
AcDbEntity
  8
0
100
AcDbLine
 10
85.36763499999999
 20
1103.572149999999
 30
0.0
 11
86.109135
 21
1103.672149999999
 31
0.0
  0
LINE
  5
4BB
330
1E
100
AcDbEntity
  8
0
100
AcDbLine
 10
85.12453499999999
 20
1102.781149999999
 30
0.0
 11
85.76183499999999
 21
1102.54215
 31
0.0
  0
LINE
  5
4BC
330
1E
100
AcDbEntity
  8
0
100
AcDbLine
 10
84.95063499999998
 20
1103.206149999999
 30
0.0
 11
85.12453499999999
 21
1102.781149999999
 31
0.0
  0
LINE
  5
4BD
330
1E
100
AcDbEntity
  8
0
100
AcDbLine
 10
84.95063499999998
 20
1103.206149999999
 30
0.0
 11
85.36763499999999
 21
1103.572149999999
 31
0.0
  0
LINE
  5
4C0
330
1E
100
AcDbEntity
  8
0
100
AcDbLine
 10
86.228235
 20
1098.72415
 30
0.0
 11
86.46613499999999
 21
1098.30915
 31
0.0
  0
LINE
  5
4C2
330
1E
100
AcDbEntity
  8
0
100
AcDbLine
 10
86.228235
 20
1098.72415
 30
0.0
 11
86.58813499999999
 21
1099.10915
 31
0.0
  0
LINE
  5
4C4
330
1E
100
AcDbEntity
  8
0
100
AcDbLine
 10
86.46613499999999
 20
1098.30915
 30
0.0
 11
87.137335
 21
1098.103149999999
 31
0.0
  0
LINE
  5
4C6
330
1E
100
AcDbEntity
  8
0
100
AcDbLine
 10
86.109135
 20
1103.672149999999
 30
0.0
 11
86.746335
 21
1103.433149999999
 31
0.0
  0
LINE
  5
4C9
330
1E
100
AcDbEntity
  8
0
100
AcDbLine
 10
86.58813499999999
 20
1099.10915
 30
0.0
 11
87.31163499999999
 21
1099.245149999999
 31
0.0
  0
LINE
  5
4CB
330
1E
100
AcDbEntity
  8
0
100
AcDbLine
 10
86.746335
 20
1103.433149999999
 30
0.0
 11
86.92023499999999
 21
1103.00715
 31
0.0
  0
LINE
  5
4CC
330
1E
100
AcDbEntity
  8
0
100
AcDbLine
 10
86.503235
 20
1102.64215
 30
0.0
 11
86.92023499999999
 21
1103.00715
 31
0.0
  0
LINE
  5
4CF
330
1E
100
AcDbEntity
  8
0
100
AcDbLine
 10
85.85273499999999
 20
1107.56415
 30
0.0
 11
86.42053500000001
 21
1107.85515
 31
0.0
  0
LINE
  5
4D1
330
1E
100
AcDbEntity
  8
0
100
AcDbLine
 10
86.42053500000001
 20
1107.85515
 30
0.0
 11
87.181735
 21
1107.84115
 31
0.0
  0
LINE
  5
4D3
330
1E
100
AcDbEntity
  8
0
100
AcDbLine
 10
86.33643499999999
 20
1106.80215
 30
0.0
 11
87.09763499999999
 21
1106.788149999999
 31
0.0
  0
LINE
  5
4D4
330
1E
100
AcDbEntity
  8
0
100
AcDbLine
 10
85.82883499999999
 20
1107.127149999999
 30
0.0
 11
85.85273499999999
 21
1107.56415
 31
0.0
  0
LINE
  5
4D5
330
1E
100
AcDbEntity
  8
0
100
AcDbLine
 10
85.82883499999999
 20
1107.127149999999
 30
0.0
 11
86.33643499999999
 21
1106.80215
 31
0.0
  0
LINE
  5
4D7
330
1E
100
AcDbEntity
  8
0
100
AcDbLine
 10
84.95233499999999
 20
1113.10715
 30
0.0
 11
85.29573499999999
 21
1113.49715
 31
0.0
  0
LINE
  5
4D8
330
1E
100
AcDbEntity
  8
0
100
AcDbLine
 10
84.223235
 20
1112.98115
 30
0.0
 11
84.95233499999999
 21
1113.10715
 31
0.0
  0
LINE
  5
4D9
330
1E
100
AcDbEntity
  8
0
100
AcDbLine
 10
83.543535
 20
1113.17815
 30
0.0
 11
84.223235
 21
1112.98115
 31
0.0
  0
LINE
  5
4DF
330
1E
100
AcDbEntity
  8
0
100
AcDbLine
 10
83.666735
 20
1113.98615
 30
0.0
 11
84.39583499999999
 21
1114.112149999999
 31
0.0
  0
LINE
  5
4E2
330
1E
100
AcDbEntity
  8
0
100
AcDbLine
 10
84.39583499999999
 20
1114.112149999999
 30
0.0
 11
85.07563499999999
 21
1113.91515
 31
0.0
  0
LINE
  5
4E4
330
1E
100
AcDbEntity
  8
0
100
AcDbLine
 10
85.07563499999999
 20
1113.91515
 30
0.0
 11
85.29573499999999
 21
1113.49715
 31
0.0
  0
LINE
  5
4E6
330
1E
100
AcDbEntity
  8
0
100
AcDbLine
 10
83.323335
 20
1113.59615
 30
0.0
 11
83.666735
 21
1113.98615
 31
0.0
  0
LINE
  5
4E7
330
1E
100
AcDbEntity
  8
0
100
AcDbLine
 10
83.323335
 20
1113.59615
 30
0.0
 11
83.543535
 21
1113.17815
 31
0.0
  0
LINE
  5
4EB
330
1E
100
AcDbEntity
  8
0
100
AcDbLine
 10
87.137335
 20
1098.103149999999
 30
0.0
 11
87.860835
 21
1098.239149999999
 31
0.0
  0
LINE
  5
4ED
330
1E
100
AcDbEntity
  8
0
100
AcDbLine
 10
87.31163499999999
 20
1099.245149999999
 30
0.0
 11
87.982835
 21
1099.03915
 31
0.0
  0
LINE
  5
4F3
330
1E
100
AcDbEntity
  8
0
100
AcDbLine
 10
87.181735
 20
1107.84115
 30
0.0
 11
87.68933500000001
 21
1107.51615
 31
0.0
  0
LINE
  5
4F4
330
1E
100
AcDbEntity
  8
0
100
AcDbLine
 10
87.09763499999999
 20
1106.788149999999
 30
0.0
 11
87.66533499999999
 21
1107.07915
 31
0.0
  0
LINE
  5
4F5
330
1E
100
AcDbEntity
  8
0
100
AcDbLine
 10
87.982835
 20
1099.03915
 30
0.0
 11
88.220635
 21
1098.62415
 31
0.0
  0
LINE
  5
4F6
330
1E
100
AcDbEntity
  8
0
100
AcDbLine
 10
87.860835
 20
1098.239149999999
 30
0.0
 11
88.220635
 21
1098.62415
 31
0.0
  0
LINE
  5
4F9
330
1E
100
AcDbEntity
  8
0
100
AcDbLine
 10
87.66533499999999
 20
1107.07915
 30
0.0
 11
87.68933500000001
 21
1107.51615
 31
0.0
  0
LINE
  5
4FA
330
1E
100
AcDbEntity
  8
0
100
AcDbLine
 10
88.33293499999999
 20
1111.34815
 30
0.0
 11
88.749935
 21
1111.71315
 31
0.0
  0
LINE
  5
4FB
330
1E
100
AcDbEntity
  8
0
100
AcDbLine
 10
87.591435
 20
1111.248149999999
 30
0.0
 11
88.33293499999999
 21
1111.34815
 31
0.0
  0
LINE
  5
4FC
330
1E
100
AcDbEntity
  8
0
100
AcDbLine
 10
87.19723499999998
 20
1112.27815
 30
0.0
 11
87.938735
 21
1112.37815
 31
0.0
  0
LINE
  5
500
330
1E
100
AcDbEntity
  8
0
100
AcDbLine
 10
87.938735
 20
1112.37815
 30
0.0
 11
88.57603500000001
 21
1112.139149999999
 31
0.0
  0
LINE
  5
501
330
1E
100
AcDbEntity
  8
0
100
AcDbLine
 10
88.57603500000001
 20
1112.139149999999
 30
0.0
 11
88.749935
 21
1111.71315
 31
0.0
  0
LINE
  5
503
330
1E
100
AcDbEntity
  8
0
100
AcDbLine
 10
86.95413499999999
 20
1111.48715
 30
0.0
 11
87.591435
 21
1111.248149999999
 31
0.0
  0
LINE
  5
504
330
1E
100
AcDbEntity
  8
0
100
AcDbLine
 10
86.780235
 20
1111.91215
 30
0.0
 11
86.95413499999999
 21
1111.48715
 31
0.0
  0
LINE
  5
505
330
1E
100
AcDbEntity
  8
0
100
AcDbLine
 10
86.780235
 20
1111.91215
 30
0.0
 11
87.19723499999998
 21
1112.27815
 31
0.0
  0
LINE
  5
50A
330
1E
100
AcDbEntity
  8
0
100
AcDbLine
 10
89.223235
 20
1094.68815
 30
0.0
 11
89.92323499999999
 21
1094.86015
 31
0.0
  0
LINE
  5
50C
330
1E
100
AcDbEntity
  8
0
100
AcDbLine
 10
88.92323499999999
 20
1094.28615
 30
0.0
 11
89.223235
 21
1093.885149999999
 31
0.0
  0
LINE
  5
50E
330
1E
100
AcDbEntity
  8
0
100
AcDbLine
 10
88.92323499999999
 20
1094.28615
 30
0.0
 11
89.223235
 21
1094.68815
 31
0.0
  0
LINE
  5
510
330
1E
100
AcDbEntity
  8
0
100
AcDbLine
 10
89.223235
 20
1093.885149999999
 30
0.0
 11
89.92323499999999
 21
1093.712149999999
 31
0.0
  0
LINE
  5
512
330
1E
100
AcDbEntity
  8
0
100
AcDbLine
 10
82.923235
 20
1115.12115
 30
0.0
 11
83.623235
 21
1115.29315
 31
0.0
  0
LINE
  5
513
330
1E
100
AcDbEntity
  8
0
100
AcDbLine
 10
83.623235
 20
1115.29315
 30
0.0
 11
83.92323499999999
 21
1115.69515
 31
0.0
  0
LINE
  5
514
330
1E
100
AcDbEntity
  8
0
100
AcDbLine
 10
82.22323499999999
 20
1115.29315
 30
0.0
 11
82.923235
 21
1115.12115
 31
0.0
  0
LINE
  5
517
330
1E
100
AcDbEntity
  8
0
100
AcDbLine
 10
83.623235
 20
1116.096149999999
 30
0.0
 11
83.92323499999999
 21
1115.69515
 31
0.0
  0
LINE
  5
51C
330
1E
100
AcDbEntity
  8
0
100
AcDbLine
 10
82.923235
 20
1116.26815
 30
0.0
 11
83.623235
 21
1116.096149999999
 31
0.0
  0
LINE
  5
51E
330
1E
100
AcDbEntity
  8
0
100
AcDbLine
 10
82.22323499999999
 20
1116.096149999999
 30
0.0
 11
82.923235
 21
1116.26815
 31
0.0
  0
LINE
  5
520
330
1E
100
AcDbEntity
  8
0
100
AcDbLine
 10
81.92323499999998
 20
1115.69515
 30
0.0
 11
82.22323499999999
 21
1115.29315
 31
0.0
  0
LINE
  5
521
330
1E
100
AcDbEntity
  8
0
100
AcDbLine
 10
81.92323499999998
 20
1115.69515
 30
0.0
 11
82.22323499999999
 21
1116.096149999999
 31
0.0
  0
LINE
  5
524
330
1E
100
AcDbEntity
  8
0
100
AcDbLine
 10
78.184635
 20
1126.938149999999
 30
0.0
 11
78.94083499999999
 21
1126.989149999999
 31
0.0
  0
LINE
  5
525
330
1E
100
AcDbEntity
  8
0
100
AcDbLine
 10
78.94083499999999
 20
1126.989149999999
 30
0.0
 11
79.397035
 21
1127.33915
 31
0.0
  0
LINE
  5
527
330
1E
100
AcDbEntity
  8
0
100
AcDbLine
 10
78.69703499999999
 20
1128.03515
 30
0.0
 11
79.30683499999999
 21
1127.77315
 31
0.0
  0
LINE
  5
529
330
1E
100
AcDbEntity
  8
0
100
AcDbLine
 10
77.94083499999999
 20
1127.98315
 30
0.0
 11
78.69703499999999
 21
1128.03515
 31
0.0
  0
LINE
  5
52C
330
1E
100
AcDbEntity
  8
0
100
AcDbLine
 10
79.43953499999999
 20
1121.90815
 30
0.0
 11
80.14663500000001
 21
1121.746149999999
 31
0.0
  0
LINE
  5
52D
330
1E
100
AcDbEntity
  8
0
100
AcDbLine
 10
80.14663500000001
 20
1121.746149999999
 30
0.0
 11
80.85373500000001
 21
1121.90815
 31
0.0
  0
LINE
  5
52E
330
1E
100
AcDbEntity
  8
0
100
AcDbLine
 10
80.85373500000001
 20
1121.90815
 30
0.0
 11
81.13653499999999
 21
1122.31415
 31
0.0
  0
LINE
  5
530
330
1E
100
AcDbEntity
  8
0
100
AcDbLine
 10
80.85373500000001
 20
1122.719149999999
 30
0.0
 11
81.13653499999999
 21
1122.31415
 31
0.0
  0
LINE
  5
536
330
1E
100
AcDbEntity
  8
0
100
AcDbLine
 10
79.30683499999999
 20
1127.77315
 30
0.0
 11
79.397035
 21
1127.33915
 31
0.0
  0
LINE
  5
53B
330
1E
100
AcDbEntity
  8
0
100
AcDbLine
 10
80.14663500000001
 20
1122.882149999999
 30
0.0
 11
80.85373500000001
 21
1122.719149999999
 31
0.0
  0
LINE
  5
53D
330
1E
100
AcDbEntity
  8
0
100
AcDbLine
 10
79.43953499999999
 20
1122.719149999999
 30
0.0
 11
80.14663500000001
 21
1122.882149999999
 31
0.0
  0
LINE
  5
53F
330
1E
100
AcDbEntity
  8
0
100
AcDbLine
 10
79.15663499999999
 20
1122.31415
 30
0.0
 11
79.43953499999999
 21
1121.90815
 31
0.0
  0
LINE
  5
540
330
1E
100
AcDbEntity
  8
0
100
AcDbLine
 10
79.15663499999999
 20
1122.31415
 30
0.0
 11
79.43953499999999
 21
1122.719149999999
 31
0.0
  0
LINE
  5
542
330
1E
100
AcDbEntity
  8
0
100
AcDbLine
 10
81.41393499999999
 20
1133.03115
 30
0.0
 11
82.167735
 21
1132.969149999999
 31
0.0
  0
LINE
  5
543
330
1E
100
AcDbEntity
  8
0
100
AcDbLine
 10
82.167735
 20
1132.969149999999
 30
0.0
 11
82.76623499999999
 21
1133.239149999999
 31
0.0
  0
LINE
  5
545
330
1E
100
AcDbEntity
  8
0
100
AcDbLine
 10
83.666735
 20
1117.40315
 30
0.0
 11
84.39583499999999
 21
1117.27715
 31
0.0
  0
LINE
  5
546
330
1E
100
AcDbEntity
  8
0
100
AcDbLine
 10
84.39583499999999
 20
1117.27715
 30
0.0
 11
85.07563499999999
 21
1117.47415
 31
0.0
  0
LINE
  5
54A
330
1E
100
AcDbEntity
  8
0
100
AcDbLine
 10
84.223235
 20
1118.40815
 30
0.0
 11
84.95233499999999
 21
1118.28215
 31
0.0
  0
LINE
  5
54C
330
1E
100
AcDbEntity
  8
0
100
AcDbLine
 10
83.543535
 20
1118.21115
 30
0.0
 11
84.223235
 21
1118.40815
 31
0.0
  0
LINE
  5
54E
330
1E
100
AcDbEntity
  8
0
100
AcDbLine
 10
83.323335
 20
1117.79315
 30
0.0
 11
83.666735
 21
1117.40315
 31
0.0
  0
LINE
  5
54F
330
1E
100
AcDbEntity
  8
0
100
AcDbLine
 10
83.323335
 20
1117.79315
 30
0.0
 11
83.543535
 21
1118.21115
 31
0.0
  0
LINE
  5
551
330
1E
100
AcDbEntity
  8
0
100
AcDbLine
 10
82.76623499999999
 20
1133.239149999999
 30
0.0
 11
82.874935
 21
1133.67115
 31
0.0
  0
LINE
  5
552
330
1E
100
AcDbEntity
  8
0
100
AcDbLine
 10
80.943035
 20
1133.37415
 30
0.0
 11
81.05163500000001
 21
1133.80715
 31
0.0
  0
LINE
  5
553
330
1E
100
AcDbEntity
  8
0
100
AcDbLine
 10
80.943035
 20
1133.37415
 30
0.0
 11
81.41393499999999
 21
1133.03115
 31
0.0
  0
LINE
  5
556
330
1E
100
AcDbEntity
  8
0
100
AcDbLine
 10
85.85273499999999
 20
1124.190149999999
 30
0.0
 11
86.42053500000001
 21
1123.899149999999
 31
0.0
  0
LINE
  5
557
330
1E
100
AcDbEntity
  8
0
100
AcDbLine
 10
86.42053500000001
 20
1123.899149999999
 30
0.0
 11
87.181735
 21
1123.913149999999
 31
0.0
  0
LINE
  5
559
330
1E
100
AcDbEntity
  8
0
100
AcDbLine
 10
86.33643499999999
 20
1124.95215
 30
0.0
 11
87.09763499999999
 21
1124.96615
 31
0.0
  0
LINE
  5
55A
330
1E
100
AcDbEntity
  8
0
100
AcDbLine
 10
85.82883499999999
 20
1124.62715
 30
0.0
 11
85.85273499999999
 21
1124.190149999999
 31
0.0
  0
LINE
  5
55B
330
1E
100
AcDbEntity
  8
0
100
AcDbLine
 10
85.82883499999999
 20
1124.62715
 30
0.0
 11
86.33643499999999
 21
1124.95215
 31
0.0
  0
LINE
  5
55E
330
1E
100
AcDbEntity
  8
0
100
AcDbLine
 10
85.07563499999999
 20
1117.47415
 30
0.0
 11
85.29573499999999
 21
1117.89215
 31
0.0
  0
LINE
  5
55F
330
1E
100
AcDbEntity
  8
0
100
AcDbLine
 10
84.95233499999999
 20
1118.28215
 30
0.0
 11
85.29573499999999
 21
1117.89215
 31
0.0
  0
LINE
  5
561
330
1E
100
AcDbEntity
  8
0
100
AcDbLine
 10
85.36763499999999
 20
1128.58615
 30
0.0
 11
86.109135
 21
1128.48615
 31
0.0
  0
LINE
  5
562
330
1E
100
AcDbEntity
  8
0
100
AcDbLine
 10
86.109135
 20
1128.48615
 30
0.0
 11
86.746335
 21
1128.725149999999
 31
0.0
  0
LINE
  5
563
330
1E
100
AcDbEntity
  8
0
100
AcDbLine
 10
87.19723499999998
 20
1119.11215
 30
0.0
 11
87.938735
 21
1119.01215
 31
0.0
  0
LINE
  5
564
330
1E
100
AcDbEntity
  8
0
100
AcDbLine
 10
87.938735
 20
1119.01215
 30
0.0
 11
88.57603500000001
 21
1119.251149999999
 31
0.0
  0
LINE
  5
565
330
1E
100
AcDbEntity
  8
0
100
AcDbLine
 10
87.181735
 20
1123.913149999999
 30
0.0
 11
87.68933500000001
 21
1124.23815
 31
0.0
  0
LINE
  5
567
330
1E
100
AcDbEntity
  8
0
100
AcDbLine
 10
87.09763499999999
 20
1124.96615
 30
0.0
 11
87.66533499999999
 21
1124.67515
 31
0.0
  0
LINE
  5
56C
330
1E
100
AcDbEntity
  8
0
100
AcDbLine
 10
87.66533499999999
 20
1124.67515
 30
0.0
 11
87.68933500000001
 21
1124.23815
 31
0.0
  0
LINE
  5
56F
330
1E
100
AcDbEntity
  8
0
100
AcDbLine
 10
87.591435
 20
1120.14115
 30
0.0
 11
88.33293499999999
 21
1120.04215
 31
0.0
  0
LINE
  5
571
330
1E
100
AcDbEntity
  8
0
100
AcDbLine
 10
86.95413499999999
 20
1119.902149999999
 30
0.0
 11
87.591435
 21
1120.14115
 31
0.0
  0
LINE
  5
572
330
1E
100
AcDbEntity
  8
0
100
AcDbLine
 10
86.780235
 20
1119.47715
 30
0.0
 11
86.95413499999999
 21
1119.902149999999
 31
0.0
  0
LINE
  5
573
330
1E
100
AcDbEntity
  8
0
100
AcDbLine
 10
86.780235
 20
1119.47715
 30
0.0
 11
87.19723499999998
 21
1119.11215
 31
0.0
  0
LINE
  5
574
330
1E
100
AcDbEntity
  8
0
100
AcDbLine
 10
86.746335
 20
1128.725149999999
 30
0.0
 11
86.92023499999999
 21
1129.150149999999
 31
0.0
  0
LINE
  5
578
330
1E
100
AcDbEntity
  8
0
100
AcDbLine
 10
86.503235
 20
1129.516149999999
 30
0.0
 11
86.92023499999999
 21
1129.150149999999
 31
0.0
  0
LINE
  5
57A
330
1E
100
AcDbEntity
  8
0
100
AcDbLine
 10
85.76183499999999
 20
1129.616149999999
 30
0.0
 11
86.503235
 21
1129.516149999999
 31
0.0
  0
LINE
  5
57C
330
1E
100
AcDbEntity
  8
0
100
AcDbLine
 10
85.12453499999999
 20
1129.37615
 30
0.0
 11
85.76183499999999
 21
1129.616149999999
 31
0.0
  0
LINE
  5
57E
330
1E
100
AcDbEntity
  8
0
100
AcDbLine
 10
84.95063499999998
 20
1128.95115
 30
0.0
 11
85.12453499999999
 21
1129.37615
 31
0.0
  0
LINE
  5
57F
330
1E
100
AcDbEntity
  8
0
100
AcDbLine
 10
84.95063499999998
 20
1128.95115
 30
0.0
 11
85.36763499999999
 21
1128.58615
 31
0.0
  0
LINE
  5
580
330
1E
100
AcDbEntity
  8
0
100
AcDbLine
 10
81.05163500000001
 20
1133.80715
 30
0.0
 11
81.65013499999998
 21
1134.07715
 31
0.0
  0
LINE
  5
581
330
1E
100
AcDbEntity
  8
0
100
AcDbLine
 10
86.58813499999999
 20
1133.62515
 30
0.0
 11
87.31163499999999
 21
1133.489149999999
 31
0.0
  0
LINE
  5
583
330
1E
100
AcDbEntity
  8
0
100
AcDbLine
 10
87.31163499999999
 20
1133.489149999999
 30
0.0
 11
87.982835
 21
1133.69515
 31
0.0
  0
LINE
  5
584
330
1E
100
AcDbEntity
  8
0
100
AcDbLine
 10
88.57603500000001
 20
1119.251149999999
 30
0.0
 11
88.749935
 21
1119.67615
 31
0.0
  0
LINE
  5
585
330
1E
100
AcDbEntity
  8
0
100
AcDbLine
 10
88.33293499999999
 20
1120.04215
 30
0.0
 11
88.749935
 21
1119.67615
 31
0.0
  0
LINE
  5
586
330
1E
100
AcDbEntity
  8
0
100
AcDbLine
 10
87.982835
 20
1133.69515
 30
0.0
 11
88.220635
 21
1134.11015
 31
0.0
  0
LINE
  5
587
330
1E
100
AcDbEntity
  8
0
100
AcDbLine
 10
82.40393500000001
 20
1134.01415
 30
0.0
 11
82.874935
 21
1133.67115
 31
0.0
  0
LINE
  5
588
330
1E
100
AcDbEntity
  8
0
100
AcDbLine
 10
81.65013499999998
 20
1134.07715
 30
0.0
 11
82.40393500000001
 21
1134.01415
 31
0.0
  0
LINE
  5
58B
330
1E
100
AcDbEntity
  8
0
100
AcDbLine
 10
82.58313499999999
 20
1138.22015
 30
0.0
 11
83.32463500000001
 21
1138.120149999999
 31
0.0
  0
LINE
  5
58C
330
1E
100
AcDbEntity
  8
0
100
AcDbLine
 10
83.32463500000001
 20
1138.120149999999
 30
0.0
 11
83.96183499999999
 21
1138.35915
 31
0.0
  0
LINE
  5
58D
330
1E
100
AcDbEntity
  8
0
100
AcDbLine
 10
83.96183499999999
 20
1138.35915
 30
0.0
 11
84.135735
 21
1138.78515
 31
0.0
  0
LINE
  5
58F
330
1E
100
AcDbEntity
  8
0
100
AcDbLine
 10
87.860835
 20
1134.49515
 30
0.0
 11
88.220635
 21
1134.11015
 31
0.0
  0
LINE
  5
595
330
1E
100
AcDbEntity
  8
0
100
AcDbLine
 10
87.137335
 20
1134.63215
 30
0.0
 11
87.860835
 21
1134.49515
 31
0.0
  0
LINE
  5
597
330
1E
100
AcDbEntity
  8
0
100
AcDbLine
 10
86.46613499999999
 20
1134.425149999999
 30
0.0
 11
87.137335
 21
1134.63215
 31
0.0
  0
LINE
  5
598
330
1E
100
AcDbEntity
  8
0
100
AcDbLine
 10
86.228235
 20
1134.01015
 30
0.0
 11
86.46613499999999
 21
1134.425149999999
 31
0.0
  0
LINE
  5
59A
330
1E
100
AcDbEntity
  8
0
100
AcDbLine
 10
86.228235
 20
1134.01015
 30
0.0
 11
86.58813499999999
 21
1133.62515
 31
0.0
  0
LINE
  5
59E
330
1E
100
AcDbEntity
  8
0
100
AcDbLine
 10
89.223235
 20
1115.93215
 30
0.0
 11
89.92323499999999
 21
1116.10415
 31
0.0
  0
LINE
  5
5A0
330
1E
100
AcDbEntity
  8
0
100
AcDbLine
 10
88.92323499999999
 20
1115.53115
 30
0.0
 11
89.223235
 21
1115.12915
 31
0.0
  0
LINE
  5
5A1
330
1E
100
AcDbEntity
  8
0
100
AcDbLine
 10
88.92323499999999
 20
1115.53115
 30
0.0
 11
89.223235
 21
1115.93215
 31
0.0
  0
LINE
  5
5A3
330
1E
100
AcDbEntity
  8
0
100
AcDbLine
 10
89.92323499999999
 20
1093.712149999999
 30
0.0
 11
90.62323499999999
 21
1093.885149999999
 31
0.0
  0
LINE
  5
5A6
330
1E
100
AcDbEntity
  8
0
100
AcDbLine
 10
89.92323499999999
 20
1094.86015
 30
0.0
 11
90.62323499999999
 21
1094.68815
 31
0.0
  0
LINE
  5
5AC
330
1E
100
AcDbEntity
  8
0
100
AcDbLine
 10
89.92323499999999
 20
1114.95715
 30
0.0
 11
90.62323499999999
 21
1115.12915
 31
0.0
  0
LINE
  5
5AE
330
1E
100
AcDbEntity
  8
0
100
AcDbLine
 10
89.92323499999999
 20
1116.10415
 30
0.0
 11
90.62323499999999
 21
1115.93215
 31
0.0
  0
LINE
  5
5B0
330
1E
100
AcDbEntity
  8
0
100
AcDbLine
 10
89.223235
 20
1115.12915
 30
0.0
 11
89.92323499999999
 21
1114.95715
 31
0.0
  0
LINE
  5
5B2
330
1E
100
AcDbEntity
  8
0
100
AcDbLine
 10
82.340035
 20
1139.01115
 30
0.0
 11
82.97733499999999
 21
1139.250149999999
 31
0.0
  0
LINE
  5
5B4
330
1E
100
AcDbEntity
  8
0
100
AcDbLine
 10
82.16613499999999
 20
1138.58615
 30
0.0
 11
82.340035
 21
1139.01115
 31
0.0
  0
LINE
  5
5B5
330
1E
100
AcDbEntity
  8
0
100
AcDbLine
 10
82.16613499999999
 20
1138.58615
 30
0.0
 11
82.58313499999999
 21
1138.22015
 31
0.0
  0
LINE
  5
5B7
330
1E
100
AcDbEntity
  8
0
100
AcDbLine
 10
89.223235
 20
1138.62415
 30
0.0
 11
89.92323499999999
 21
1138.451149999999
 31
0.0
  0
LINE
  5
5B9
330
1E
100
AcDbEntity
  8
0
100
AcDbLine
 10
89.92323499999999
 20
1138.451149999999
 30
0.0
 11
90.62323499999999
 21
1138.62415
 31
0.0
  0
LINE
  5
5C3
330
1E
100
AcDbEntity
  8
0
100
AcDbLine
 10
83.71873499999999
 20
1139.15015
 30
0.0
 11
84.135735
 21
1138.78515
 31
0.0
  0
LINE
  5
5C5
330
1E
100
AcDbEntity
  8
0
100
AcDbLine
 10
82.97733499999999
 20
1139.250149999999
 30
0.0
 11
83.71873499999999
 21
1139.15015
 31
0.0
  0
LINE
  5
5CB
330
1E
100
AcDbEntity
  8
0
100
AcDbLine
 10
89.92323499999999
 20
1154.44915
 30
0.0
 11
102.723235
 21
1153.417149999999
 31
0.0
  0
LINE
  5
5CE
330
1E
100
AcDbEntity
  8
0
100
AcDbLine
 10
89.92323499999999
 20
1139.59915
 30
0.0
 11
90.62323499999999
 21
1139.42715
 31
0.0
  0
LINE
  5
5D1
330
1E
100
AcDbEntity
  8
0
100
AcDbLine
 10
89.223235
 20
1139.42715
 30
0.0
 11
89.92323499999999
 21
1139.59915
 31
0.0
  0
LINE
  5
5D4
330
1E
100
AcDbEntity
  8
0
100
AcDbLine
 10
88.92323499999999
 20
1139.025149999999
 30
0.0
 11
89.223235
 21
1139.42715
 31
0.0
  0
LINE
  5
5D5
330
1E
100
AcDbEntity
  8
0
100
AcDbLine
 10
88.92323499999999
 20
1139.025149999999
 30
0.0
 11
89.223235
 21
1138.62415
 31
0.0
  0
LINE
  5
5D8
330
1E
100
AcDbEntity
  8
0
100
AcDbLine
 10
90.62323499999999
 20
1094.68815
 30
0.0
 11
90.92323499999999
 21
1094.28615
 31
0.0
  0
LINE
  5
5DA
330
1E
100
AcDbEntity
  8
0
100
AcDbLine
 10
90.62323499999999
 20
1093.885149999999
 30
0.0
 11
90.92323499999999
 21
1094.28615
 31
0.0
  0
LINE
  5
5DC
330
1E
100
AcDbEntity
  8
0
100
AcDbLine
 10
90.62323499999999
 20
1115.12915
 30
0.0
 11
90.92323499999999
 21
1115.53115
 31
0.0
  0
LINE
  5
5DD
330
1E
100
AcDbEntity
  8
0
100
AcDbLine
 10
90.62323499999999
 20
1115.93215
 30
0.0
 11
90.92323499999999
 21
1115.53115
 31
0.0
  0
LINE
  5
5E0
330
1E
100
AcDbEntity
  8
0
100
AcDbLine
 10
90.62323499999999
 20
1138.62415
 30
0.0
 11
90.92323499999999
 21
1139.025149999999
 31
0.0
  0
LINE
  5
5E4
330
1E
100
AcDbEntity
  8
0
100
AcDbLine
 10
91.42323499999999
 20
1093.838831818181
 30
0.0
 11
91.42323499999999
 21
1091.62015
 31
0.0
  0
LINE
  5
5E5
330
1E
100
AcDbEntity
  8
0
100
AcDbLine
 10
91.625835
 20
1098.62415
 30
0.0
 11
91.985635
 21
1098.239149999999
 31
0.0
  0
LINE
  5
5E7
330
1E
100
AcDbEntity
  8
0
100
AcDbLine
 10
91.625835
 20
1098.62415
 30
0.0
 11
91.863635
 21
1099.03915
 31
0.0
  0
LINE
  5
5EA
330
1E
100
AcDbEntity
  8
0
100
AcDbLine
 10
91.710335
 20
1112.31915
 30
0.0
 11
92.34763499999999
 21
1112.558149999999
 31
0.0
  0
LINE
  5
5EC
330
1E
100
AcDbEntity
  8
0
100
AcDbLine
 10
91.53643499999999
 20
1111.89415
 30
0.0
 11
91.95343499999999
 21
1111.52815
 31
0.0
  0
LINE
  5
5ED
330
1E
100
AcDbEntity
  8
0
100
AcDbLine
 10
91.53643499999999
 20
1111.89415
 30
0.0
 11
91.710335
 21
1112.31915
 31
0.0
  0
LINE
  5
5F0
330
1E
100
AcDbEntity
  8
0
100
AcDbLine
 10
91.863635
 20
1099.03915
 30
0.0
 11
92.53483499999999
 21
1099.245149999999
 31
0.0
  0
LINE
  5
5F1
330
1E
100
AcDbEntity
  8
0
100
AcDbLine
 10
91.95343499999999
 20
1111.52815
 30
0.0
 11
92.69493500000001
 21
1111.42815
 31
0.0
  0
LINE
  5
5F2
330
1E
100
AcDbEntity
  8
0
100
AcDbLine
 10
91.710335
 20
1119.07115
 30
0.0
 11
92.34763499999999
 21
1118.831149999999
 31
0.0
  0
LINE
  5
5F5
330
1E
100
AcDbEntity
  8
0
100
AcDbLine
 10
91.53643499999999
 20
1119.49615
 30
0.0
 11
91.95343499999999
 21
1119.861149999999
 31
0.0
  0
LINE
  5
5F6
330
1E
100
AcDbEntity
  8
0
100
AcDbLine
 10
91.53643499999999
 20
1119.49615
 30
0.0
 11
91.710335
 21
1119.07115
 31
0.0
  0
LINE
  5
5F8
330
1E
100
AcDbEntity
  8
0
100
AcDbLine
 10
91.985635
 20
1098.239149999999
 30
0.0
 11
92.709135
 21
1098.103149999999
 31
0.0
  0
LINE
  5
5FD
330
1E
100
AcDbEntity
  8
0
100
AcDbLine
 10
92.53483499999999
 20
1099.245149999999
 30
0.0
 11
93.25833499999999
 21
1099.10915
 31
0.0
  0
LINE
  5
603
330
1E
100
AcDbEntity
  8
0
100
AcDbLine
 10
92.34763499999999
 20
1112.558149999999
 30
0.0
 11
93.08903499999999
 21
1112.458149999999
 31
0.0
  0
LINE
  5
605
330
1E
100
AcDbEntity
  8
0
100
AcDbLine
 10
92.34763499999999
 20
1118.831149999999
 30
0.0
 11
93.08903499999999
 21
1118.931149999999
 31
0.0
  0
LINE
  5
606
330
1E
100
AcDbEntity
  8
0
100
AcDbLine
 10
91.95343499999999
 20
1119.861149999999
 30
0.0
 11
92.69493500000001
 21
1119.96115
 31
0.0
  0
LINE
  5
608
330
1E
100
AcDbEntity
  8
0
100
AcDbLine
 10
91.863635
 20
1133.69515
 30
0.0
 11
92.53483499999999
 21
1133.489149999999
 31
0.0
  0
LINE
  5
60B
330
1E
100
AcDbEntity
  8
0
100
AcDbLine
 10
92.53483499999999
 20
1133.489149999999
 30
0.0
 11
93.25833499999999
 21
1133.62515
 31
0.0
  0
LINE
  5
60C
330
1E
100
AcDbEntity
  8
0
100
AcDbLine
 10
92.709135
 20
1098.103149999999
 30
0.0
 11
93.38033499999999
 21
1098.30915
 31
0.0
  0
LINE
  5
60D
330
1E
100
AcDbEntity
  8
0
100
AcDbLine
 10
92.92623499999999
 20
1103.00715
 30
0.0
 11
93.34323499999999
 21
1102.64215
 31
0.0
  0
LINE
  5
60E
330
1E
100
AcDbEntity
  8
0
100
AcDbLine
 10
92.92623499999999
 20
1103.00715
 30
0.0
 11
93.100135
 21
1103.433149999999
 31
0.0
  0
LINE
  5
60F
330
1E
100
AcDbEntity
  8
0
100
AcDbLine
 10
92.78553499999999
 20
1107.62415
 30
0.0
 11
92.809535
 21
1107.18715
 31
0.0
  0
LINE
  5
610
330
1E
100
AcDbEntity
  8
0
100
AcDbLine
 10
92.78553499999999
 20
1107.62415
 30
0.0
 11
93.29323499999999
 21
1107.95015
 31
0.0
  0
LINE
  5
611
330
1E
100
AcDbEntity
  8
0
100
AcDbLine
 10
92.809535
 20
1107.18715
 30
0.0
 11
93.377235
 21
1106.89615
 31
0.0
  0
LINE
  5
612
330
1E
100
AcDbEntity
  8
0
100
AcDbLine
 10
92.69493500000001
 20
1111.42815
 30
0.0
 11
93.332235
 21
1111.66715
 31
0.0
  0
LINE
  5
614
330
1E
100
AcDbEntity
  8
0
100
AcDbLine
 10
92.78553499999999
 20
1124.13015
 30
0.0
 11
92.809535
 21
1124.567149999999
 31
0.0
  0
LINE
  5
615
330
1E
100
AcDbEntity
  8
0
100
AcDbLine
 10
92.78553499999999
 20
1124.13015
 30
0.0
 11
93.29323499999999
 21
1123.80415
 31
0.0
  0
LINE
  5
616
330
1E
100
AcDbEntity
  8
0
100
AcDbLine
 10
92.809535
 20
1124.567149999999
 30
0.0
 11
93.377235
 21
1124.85815
 31
0.0
  0
LINE
  5
618
330
1E
100
AcDbEntity
  8
0
100
AcDbLine
 10
92.69493500000001
 20
1119.96115
 30
0.0
 11
93.332235
 21
1119.72215
 31
0.0
  0
LINE
  5
61A
330
1E
100
AcDbEntity
  8
0
100
AcDbLine
 10
93.08903499999999
 20
1112.458149999999
 30
0.0
 11
93.506035
 21
1112.09315
 31
0.0
  0
LINE
  5
61D
330
1E
100
AcDbEntity
  8
0
100
AcDbLine
 10
93.25833499999999
 20
1099.10915
 30
0.0
 11
93.61823499999999
 21
1098.72415
 31
0.0
  0
LINE
  5
61F
330
1E
100
AcDbEntity
  8
0
100
AcDbLine
 10
93.100135
 20
1103.433149999999
 30
0.0
 11
93.737335
 21
1103.672149999999
 31
0.0
  0
LINE
  5
621
330
1E
100
AcDbEntity
  8
0
100
AcDbLine
 10
93.29323499999999
 20
1107.95015
 30
0.0
 11
94.054435
 21
1107.96315
 31
0.0
  0
LINE
  5
623
330
1E
100
AcDbEntity
  8
0
100
AcDbLine
 10
93.38033499999999
 20
1098.30915
 30
0.0
 11
93.61823499999999
 21
1098.72415
 31
0.0
  0
LINE
  5
624
330
1E
100
AcDbEntity
  8
0
100
AcDbLine
 10
93.34323499999999
 20
1102.64215
 30
0.0
 11
94.08463499999999
 21
1102.54215
 31
0.0
  0
LINE
  5
625
330
1E
100
AcDbEntity
  8
0
100
AcDbLine
 10
93.377235
 20
1106.89615
 30
0.0
 11
94.138435
 21
1106.91015
 31
0.0
  0
LINE
  5
628
330
1E
100
AcDbEntity
  8
0
100
AcDbLine
 10
93.737335
 20
1103.672149999999
 30
0.0
 11
94.47883500000001
 21
1103.572149999999
 31
0.0
  0
LINE
  5
62B
330
1E
100
AcDbEntity
  8
0
100
AcDbLine
 10
93.332235
 20
1111.66715
 30
0.0
 11
93.506035
 21
1112.09315
 31
0.0
  0
LINE
  5
62D
330
1E
100
AcDbEntity
  8
0
100
AcDbLine
 10
93.08903499999999
 20
1118.931149999999
 30
0.0
 11
93.506035
 21
1119.297149999999
 31
0.0
  0
LINE
  5
62E
330
1E
100
AcDbEntity
  8
0
100
AcDbLine
 10
93.29323499999999
 20
1123.80415
 30
0.0
 11
94.054435
 21
1123.79115
 31
0.0
  0
LINE
  5
62F
330
1E
100
AcDbEntity
  8
0
100
AcDbLine
 10
93.377235
 20
1124.85815
 30
0.0
 11
94.138435
 21
1124.844149999999
 31
0.0
  0
LINE
  5
631
330
1E
100
AcDbEntity
  8
0
100
AcDbLine
 10
93.332235
 20
1119.72215
 30
0.0
 11
93.506035
 21
1119.297149999999
 31
0.0
  0
LINE
  5
632
330
1E
100
AcDbEntity
  8
0
100
AcDbLine
 10
94.47883500000001
 20
1103.572149999999
 30
0.0
 11
94.895835
 21
1103.206149999999
 31
0.0
  0
LINE
  5
633
330
1E
100
AcDbEntity
  8
0
100
AcDbLine
 10
94.08463499999999
 20
1102.54215
 30
0.0
 11
94.72193500000001
 21
1102.781149999999
 31
0.0
  0
LINE
  5
634
330
1E
100
AcDbEntity
  8
0
100
AcDbLine
 10
94.054435
 20
1107.96315
 30
0.0
 11
94.622135
 21
1107.672149999999
 31
0.0
  0
LINE
  5
635
330
1E
100
AcDbEntity
  8
0
100
AcDbLine
 10
94.138435
 20
1106.91015
 30
0.0
 11
94.646035
 21
1107.235149999999
 31
0.0
  0
LINE
  5
636
330
1E
100
AcDbEntity
  8
0
100
AcDbLine
 10
94.72193500000001
 20
1102.781149999999
 30
0.0
 11
94.895835
 21
1103.206149999999
 31
0.0
  0
LINE
  5
637
330
1E
100
AcDbEntity
  8
0
100
AcDbLine
 10
94.622135
 20
1107.672149999999
 30
0.0
 11
94.646035
 21
1107.235149999999
 31
0.0
  0
LINE
  5
63A
330
1E
100
AcDbEntity
  8
0
100
AcDbLine
 10
94.77083499999999
 20
1113.91515
 30
0.0
 11
95.45063499999999
 21
1114.112149999999
 31
0.0
  0
LINE
  5
63C
330
1E
100
AcDbEntity
  8
0
100
AcDbLine
 10
94.55073500000001
 20
1113.49715
 30
0.0
 11
94.89413499999999
 21
1113.10715
 31
0.0
  0
LINE
  5
63D
330
1E
100
AcDbEntity
  8
0
100
AcDbLine
 10
94.55073500000001
 20
1113.49715
 30
0.0
 11
94.77083499999999
 21
1113.91515
 31
0.0
  0
LINE
  5
63F
330
1E
100
AcDbEntity
  8
0
100
AcDbLine
 10
94.89413499999999
 20
1113.10715
 30
0.0
 11
95.62323499999999
 21
1112.98115
 31
0.0
  0
LINE
  5
640
330
1E
100
AcDbEntity
  8
0
100
AcDbLine
 10
94.77083499999999
 20
1117.47415
 30
0.0
 11
95.45063499999999
 21
1117.27715
 31
0.0
  0
LINE
  5
641
330
1E
100
AcDbEntity
  8
0
100
AcDbLine
 10
94.55073500000001
 20
1117.89215
 30
0.0
 11
94.89413499999999
 21
1118.28215
 31
0.0
  0
LINE
  5
642
330
1E
100
AcDbEntity
  8
0
100
AcDbLine
 10
94.55073500000001
 20
1117.89215
 30
0.0
 11
94.77083499999999
 21
1117.47415
 31
0.0
  0
LINE
  5
645
330
1E
100
AcDbEntity
  8
0
100
AcDbLine
 10
95.45063499999999
 20
1114.112149999999
 30
0.0
 11
96.17973499999999
 21
1113.98615
 31
0.0
  0
LINE
  5
649
330
1E
100
AcDbEntity
  8
0
100
AcDbLine
 10
95.88463500000001
 20
1094.95215
 30
0.0
 11
96.52183499999999
 21
1095.19115
 31
0.0
  0
LINE
  5
64B
330
1E
100
AcDbEntity
  8
0
100
AcDbLine
 10
95.710735
 20
1094.52615
 30
0.0
 11
96.12773500000001
 21
1094.161149999999
 31
0.0
  0
LINE
  5
64C
330
1E
100
AcDbEntity
  8
0
100
AcDbLine
 10
95.710735
 20
1094.52615
 30
0.0
 11
95.88463500000001
 21
1094.95215
 31
0.0
  0
LINE
  5
64E
330
1E
100
AcDbEntity
  8
0
100
AcDbLine
 10
95.62323499999999
 20
1112.98115
 30
0.0
 11
96.302935
 21
1113.17815
 31
0.0
  0
LINE
  5
650
330
1E
100
AcDbEntity
  8
0
100
AcDbLine
 10
96.12773500000001
 20
1094.161149999999
 30
0.0
 11
96.86913500000001
 21
1094.06115
 31
0.0
  0
LINE
  5
652
330
1E
100
AcDbEntity
  8
0
100
AcDbLine
 10
96.17973499999999
 20
1113.98615
 30
0.0
 11
96.52313499999999
 21
1113.59615
 31
0.0
  0
LINE
  5
654
330
1E
100
AcDbEntity
  8
0
100
AcDbLine
 10
95.92323499999999
 20
1115.69515
 30
0.0
 11
96.223235
 21
1116.096149999999
 31
0.0
  0
LINE
  5
655
330
1E
100
AcDbEntity
  8
0
100
AcDbLine
 10
95.92323499999999
 20
1115.69515
 30
0.0
 11
96.223235
 21
1115.29315
 31
0.0
  0
LINE
  5
657
330
1E
100
AcDbEntity
  8
0
100
AcDbLine
 10
95.45063499999999
 20
1117.27715
 30
0.0
 11
96.17973499999999
 21
1117.40315
 31
0.0
  0
LINE
  5
658
330
1E
100
AcDbEntity
  8
0
100
AcDbLine
 10
94.89413499999999
 20
1118.28215
 30
0.0
 11
95.62323499999999
 21
1118.40815
 31
0.0
  0
LINE
  5
65B
330
1E
100
AcDbEntity
  8
0
100
AcDbLine
 10
94.054435
 20
1123.79115
 30
0.0
 11
94.622135
 21
1124.08215
 31
0.0
  0
LINE
  5
65D
330
1E
100
AcDbEntity
  8
0
100
AcDbLine
 10
94.138435
 20
1124.844149999999
 30
0.0
 11
94.646035
 21
1124.518149999999
 31
0.0
  0
LINE
  5
65F
330
1E
100
AcDbEntity
  8
0
100
AcDbLine
 10
94.622135
 20
1124.08215
 30
0.0
 11
94.646035
 21
1124.518149999999
 31
0.0
  0
LINE
  5
662
330
1E
100
AcDbEntity
  8
0
100
AcDbLine
 10
95.62323499999999
 20
1118.40815
 30
0.0
 11
96.302935
 21
1118.21115
 31
0.0
  0
LINE
  5
665
330
1E
100
AcDbEntity
  8
0
100
AcDbLine
 10
96.52183499999999
 20
1095.19115
 30
0.0
 11
97.263335
 21
1095.09115
 31
0.0
  0
LINE
  5
669
330
1E
100
AcDbEntity
  8
0
100
AcDbLine
 10
96.302935
 20
1113.17815
 30
0.0
 11
96.52313499999999
 21
1113.59615
 31
0.0
  0
LINE
  5
66A
330
1E
100
AcDbEntity
  8
0
100
AcDbLine
 10
96.223235
 20
1115.29315
 30
0.0
 11
96.923235
 21
1115.12115
 31
0.0
  0
LINE
  5
66C
330
1E
100
AcDbEntity
  8
0
100
AcDbLine
 10
96.223235
 20
1116.096149999999
 30
0.0
 11
96.923235
 21
1116.26815
 31
0.0
  0
LINE
  5
66E
330
1E
100
AcDbEntity
  8
0
100
AcDbLine
 10
96.86913500000001
 20
1094.06115
 30
0.0
 11
97.506435
 21
1094.30015
 31
0.0
  0
LINE
  5
66F
330
1E
100
AcDbEntity
  8
0
100
AcDbLine
 10
97.08023500000001
 20
1099.49615
 30
0.0
 11
97.678735
 21
1099.766149999999
 31
0.0
  0
LINE
  5
670
330
1E
100
AcDbEntity
  8
0
100
AcDbLine
 10
96.971535
 20
1099.063149999999
 30
0.0
 11
97.44253499999999
 21
1098.72015
 31
0.0
  0
LINE
  5
671
330
1E
100
AcDbEntity
  8
0
100
AcDbLine
 10
96.971535
 20
1099.063149999999
 30
0.0
 11
97.08023500000001
 21
1099.49615
 31
0.0
  0
LINE
  5
673
330
1E
100
AcDbEntity
  8
0
100
AcDbLine
 10
96.923235
 20
1116.26815
 30
0.0
 11
97.623235
 21
1116.096149999999
 31
0.0
  0
LINE
  5
675
330
1E
100
AcDbEntity
  8
0
100
AcDbLine
 10
96.923235
 20
1115.12115
 30
0.0
 11
97.623235
 21
1115.29315
 31
0.0
  0
LINE
  5
679
330
1E
100
AcDbEntity
  8
0
100
AcDbLine
 10
96.302935
 20
1118.21115
 30
0.0
 11
96.52313499999999
 21
1117.79315
 31
0.0
  0
LINE
  5
67B
330
1E
100
AcDbEntity
  8
0
100
AcDbLine
 10
96.17973499999999
 20
1117.40315
 30
0.0
 11
96.52313499999999
 21
1117.79315
 31
0.0
  0
LINE
  5
67C
330
1E
100
AcDbEntity
  8
0
100
AcDbLine
 10
94.47883500000001
 20
1128.58615
 30
0.0
 11
94.895835
 21
1128.95115
 31
0.0
  0
LINE
  5
67D
330
1E
100
AcDbEntity
  8
0
100
AcDbLine
 10
93.737335
 20
1128.48615
 30
0.0
 11
94.47883500000001
 21
1128.58615
 31
0.0
  0
LINE
  5
67E
330
1E
100
AcDbEntity
  8
0
100
AcDbLine
 10
93.100135
 20
1128.725149999999
 30
0.0
 11
93.737335
 21
1128.48615
 31
0.0
  0
LINE
  5
67F
330
1E
100
AcDbEntity
  8
0
100
AcDbLine
 10
92.92623499999999
 20
1129.150149999999
 30
0.0
 11
93.34323499999999
 21
1129.516149999999
 31
0.0
  0
LINE
  5
680
330
1E
100
AcDbEntity
  8
0
100
AcDbLine
 10
92.92623499999999
 20
1129.150149999999
 30
0.0
 11
93.100135
 21
1128.725149999999
 31
0.0
  0
LINE
  5
683
330
1E
100
AcDbEntity
  8
0
100
AcDbLine
 10
93.34323499999999
 20
1129.516149999999
 30
0.0
 11
94.08463499999999
 21
1129.616149999999
 31
0.0
  0
LINE
  5
686
330
1E
100
AcDbEntity
  8
0
100
AcDbLine
 10
94.08463499999999
 20
1129.616149999999
 30
0.0
 11
94.72193500000001
 21
1129.37615
 31
0.0
  0
LINE
  5
688
330
1E
100
AcDbEntity
  8
0
100
AcDbLine
 10
94.72193500000001
 20
1129.37615
 30
0.0
 11
94.895835
 21
1128.95115
 31
0.0
  0
LINE
  5
68B
330
1E
100
AcDbEntity
  8
0
100
AcDbLine
 10
97.263335
 20
1095.09115
 30
0.0
 11
97.68033500000001
 21
1094.72615
 31
0.0
  0
LINE
  5
68F
330
1E
100
AcDbEntity
  8
0
100
AcDbLine
 10
97.506435
 20
1094.30015
 30
0.0
 11
97.68033500000001
 21
1094.72615
 31
0.0
  0
LINE
  5
692
330
1E
100
AcDbEntity
  8
0
100
AcDbLine
 10
98.01863500000001
 20
1109.116149999999
 30
0.0
 11
98.30153500000001
 21
1108.71015
 31
0.0
  0
LINE
  5
693
330
1E
100
AcDbEntity
  8
0
100
AcDbLine
 10
98.01863500000001
 20
1109.116149999999
 30
0.0
 11
98.30153500000001
 21
1109.52115
 31
0.0
  0
LINE
  5
695
330
1E
100
AcDbEntity
  8
0
100
AcDbLine
 10
97.678735
 20
1099.766149999999
 30
0.0
 11
98.43253500000001
 21
1099.70315
 31
0.0
  0
LINE
  5
697
330
1E
100
AcDbEntity
  8
0
100
AcDbLine
 10
97.44253499999999
 20
1098.72015
 30
0.0
 11
98.196335
 21
1098.65815
 31
0.0
  0
LINE
  5
699
330
1E
100
AcDbEntity
  8
0
100
AcDbLine
 10
98.30153500000001
 20
1109.52115
 30
0.0
 11
99.00863499999999
 21
1109.683149999999
 31
0.0
  0
LINE
  5
69B
330
1E
100
AcDbEntity
  8
0
100
AcDbLine
 10
98.30153500000001
 20
1108.71015
 30
0.0
 11
99.00863499999999
 21
1108.54815
 31
0.0
  0
LINE
  5
69C
330
1E
100
AcDbEntity
  8
0
100
AcDbLine
 10
98.196335
 20
1098.65815
 30
0.0
 11
98.79483499999999
 21
1098.92815
 31
0.0
  0
LINE
  5
6A0
330
1E
100
AcDbEntity
  8
0
100
AcDbLine
 10
97.623235
 20
1116.096149999999
 30
0.0
 11
97.923235
 21
1115.69515
 31
0.0
  0
LINE
  5
6A2
330
1E
100
AcDbEntity
  8
0
100
AcDbLine
 10
97.623235
 20
1115.29315
 30
0.0
 11
97.923235
 21
1115.69515
 31
0.0
  0
LINE
  5
6A3
330
1E
100
AcDbEntity
  8
0
100
AcDbLine
 10
98.30153500000001
 20
1122.23315
 30
0.0
 11
99.00863499999999
 21
1122.07115
 31
0.0
  0
LINE
  5
6A4
330
1E
100
AcDbEntity
  8
0
100
AcDbLine
 10
98.01863500000001
 20
1122.698226283465
 30
0.0
 11
98.01863500000001
 21
1122.63815
 31
0.0
  0
LINE
  5
6A5
330
1E
100
AcDbEntity
  8
0
100
AcDbLine
 10
98.01863500000001
 20
1122.63815
 30
0.0
 11
98.30153500000001
 21
1123.044149999999
 31
0.0
  0
LINE
  5
6A6
330
1E
100
AcDbEntity
  8
0
100
AcDbLine
 10
98.01863500000001
 20
1122.63815
 30
0.0
 11
98.30153500000001
 21
1122.23315
 31
0.0
  0
LINE
  5
6A7
330
1E
100
AcDbEntity
  8
0
100
AcDbLine
 10
98.01863500000001
 20
1122.63815
 30
0.0
 11
98.01863500000001
 21
1122.698226283465
 31
0.0
  0
LINE
  5
6A8
330
1E
100
AcDbEntity
  8
0
100
AcDbLine
 10
98.43253500000001
 20
1099.70315
 30
0.0
 11
98.903435
 21
1099.36015
 31
0.0
  0
LINE
  5
6A9
330
1E
100
AcDbEntity
  8
0
100
AcDbLine
 10
99.00863499999999
 20
1108.54815
 30
0.0
 11
99.71573499999999
 21
1108.71015
 31
0.0
  0
LINE
  5
6AA
330
1E
100
AcDbEntity
  8
0
100
AcDbLine
 10
99.71573499999999
 20
1108.71015
 30
0.0
 11
99.998535
 21
1109.116149999999
 31
0.0
  0
LINE
  5
6AC
330
1E
100
AcDbEntity
  8
0
100
AcDbLine
 10
99.00863499999999
 20
1109.683149999999
 30
0.0
 11
99.71573499999999
 21
1109.52115
 31
0.0
  0
LINE
  5
6AE
330
1E
100
AcDbEntity
  8
0
100
AcDbLine
 10
99.71573499999999
 20
1109.52115
 30
0.0
 11
99.998535
 21
1109.116149999999
 31
0.0
  0
LINE
  5
6AF
330
1E
100
AcDbEntity
  8
0
100
AcDbLine
 10
98.79483499999999
 20
1098.92815
 30
0.0
 11
98.903435
 21
1099.36015
 31
0.0
  0
LINE
  5
6B0
330
1E
100
AcDbEntity
  8
0
100
AcDbLine
 10
99.00863499999999
 20
1122.07115
 30
0.0
 11
99.71573499999999
 21
1122.23315
 31
0.0
  0
LINE
  5
6B1
330
1E
100
AcDbEntity
  8
0
100
AcDbLine
 10
98.30153500000001
 20
1123.044149999999
 30
0.0
 11
99.00863499999999
 21
1123.20615
 31
0.0
  0
LINE
  5
6B3
330
1E
100
AcDbEntity
  8
0
100
AcDbLine
 10
99.00863499999999
 20
1123.20615
 30
0.0
 11
99.71573499999999
 21
1123.044149999999
 31
0.0
  0
LINE
  5
6B4
330
1E
100
AcDbEntity
  8
0
100
AcDbLine
 10
99.71573499999999
 20
1123.044149999999
 30
0.0
 11
99.998535
 21
1122.63815
 31
0.0
  0
LINE
  5
6B8
330
1E
100
AcDbEntity
  8
0
100
AcDbLine
 10
100.4494349999999
 20
1104.81815
 30
0.0
 11
100.539635
 21
1104.38515
 31
0.0
  0
LINE
  5
6B9
330
1E
100
AcDbEntity
  8
0
100
AcDbLine
 10
100.4494349999999
 20
1104.81815
 30
0.0
 11
100.905635
 21
1105.168149999999
 31
0.0
  0
LINE
  5
6BB
330
1E
100
AcDbEntity
  8
0
100
AcDbLine
 10
100.539635
 20
1104.38515
 30
0.0
 11
101.149235
 21
1104.123149999999
 31
0.0
  0
LINE
  5
6BF
330
1E
100
AcDbEntity
  8
0
100
AcDbLine
 10
99.71573499999999
 20
1122.23315
 30
0.0
 11
99.998535
 21
1122.63815
 31
0.0
  0
LINE
  5
6C2
330
1E
100
AcDbEntity
  8
0
100
AcDbLine
 10
100.4494349999999
 20
1127.33915
 30
0.0
 11
100.539635
 21
1127.77315
 31
0.0
  0
LINE
  5
6C3
330
1E
100
AcDbEntity
  8
0
100
AcDbLine
 10
100.4494349999999
 20
1127.33915
 30
0.0
 11
100.905635
 21
1126.989149999999
 31
0.0
  0
LINE
  5
6C6
330
1E
100
AcDbEntity
  8
0
100
AcDbLine
 10
101.662235
 20
1105.22015
 30
0.0
 11
102.271235
 21
1104.95815
 31
0.0
  0
LINE
  5
6C7
330
1E
100
AcDbEntity
  8
0
100
AcDbLine
 10
100.905635
 20
1105.168149999999
 30
0.0
 11
101.662235
 21
1105.22015
 31
0.0
  0
LINE
  5
6C9
330
1E
100
AcDbEntity
  8
0
100
AcDbLine
 10
101.149235
 20
1104.123149999999
 30
0.0
 11
101.905235
 21
1104.17515
 31
0.0
  0
LINE
  5
6CA
330
1E
100
AcDbEntity
  8
0
100
AcDbLine
 10
101.905235
 20
1104.17515
 30
0.0
 11
102.3622349999999
 21
1104.525149999999
 31
0.0
  0
LINE
  5
6CC
330
1E
100
AcDbEntity
  8
0
100
AcDbLine
 10
101.8972349999999
 20
1120.22915
 30
0.0
 11
102.405235
 21
1120.55515
 31
0.0
  0
LINE
  5
6CD
330
1E
100
AcDbEntity
  8
0
100
AcDbLine
 10
101.8972349999999
 20
1120.22915
 30
0.0
 11
101.9212349999999
 21
1119.79315
 31
0.0
  0
LINE
  5
6CF
330
1E
100
AcDbEntity
  8
0
100
AcDbLine
 10
101.662235
 20
1126.938149999999
 30
0.0
 11
102.271235
 21
1127.199149999999
 31
0.0
  0
LINE
  5
6D0
330
1E
100
AcDbEntity
  8
0
100
AcDbLine
 10
100.905635
 20
1126.989149999999
 30
0.0
 11
101.662235
 21
1126.938149999999
 31
0.0
  0
LINE
  5
6D1
330
1E
100
AcDbEntity
  8
0
100
AcDbLine
 10
100.539635
 20
1127.77315
 30
0.0
 11
101.149235
 21
1128.03515
 31
0.0
  0
LINE
  5
6D5
330
1E
100
AcDbEntity
  8
0
100
AcDbLine
 10
101.149235
 20
1128.03515
 30
0.0
 11
101.905235
 21
1127.98315
 31
0.0
  0
LINE
  5
6D7
330
1E
100
AcDbEntity
  8
0
100
AcDbLine
 10
101.9212349999999
 20
1119.79315
 30
0.0
 11
102.489235
 21
1119.50115
 31
0.0
  0
LINE
  5
6D8
330
1E
100
AcDbEntity
  8
0
100
AcDbLine
 10
101.905235
 20
1127.98315
 30
0.0
 11
102.3622349999999
 21
1127.63315
 31
0.0
  0
LINE
  5
6DA
330
1E
100
AcDbEntity
  8
0
100
AcDbLine
 10
98.43253500000001
 20
1133.03115
 30
0.0
 11
98.903435
 21
1133.37415
 31
0.0
  0
LINE
  5
6DB
330
1E
100
AcDbEntity
  8
0
100
AcDbLine
 10
97.678735
 20
1132.969149999999
 30
0.0
 11
98.43253500000001
 21
1133.03115
 31
0.0
  0
LINE
  5
6DC
330
1E
100
AcDbEntity
  8
0
100
AcDbLine
 10
97.08023500000001
 20
1133.239149999999
 30
0.0
 11
97.678735
 21
1132.969149999999
 31
0.0
  0
LINE
  5
6DD
330
1E
100
AcDbEntity
  8
0
100
AcDbLine
 10
96.971535
 20
1133.67115
 30
0.0
 11
97.44253499999999
 21
1134.01415
 31
0.0
  0
LINE
  5
6DE
330
1E
100
AcDbEntity
  8
0
100
AcDbLine
 10
96.971535
 20
1133.67115
 30
0.0
 11
97.08023500000001
 21
1133.239149999999
 31
0.0
  0
LINE
  5
6DF
330
1E
100
AcDbEntity
  8
0
100
AcDbLine
 10
97.44253499999999
 20
1134.01415
 30
0.0
 11
98.196335
 21
1134.07715
 31
0.0
  0
LINE
  5
6E0
330
1E
100
AcDbEntity
  8
0
100
AcDbLine
 10
98.196335
 20
1134.07715
 30
0.0
 11
98.79483499999999
 21
1133.80715
 31
0.0
  0
LINE
  5
6E2
330
1E
100
AcDbEntity
  8
0
100
AcDbLine
 10
98.79483499999999
 20
1133.80715
 30
0.0
 11
98.903435
 21
1133.37415
 31
0.0
  0
LINE
  5
6E4
330
1E
100
AcDbEntity
  8
0
100
AcDbLine
 10
93.25833499999999
 20
1133.62515
 30
0.0
 11
93.61823499999999
 21
1134.01015
 31
0.0
  0
LINE
  5
6EA
330
1E
100
AcDbEntity
  8
0
100
AcDbLine
 10
93.38033499999999
 20
1134.425149999999
 30
0.0
 11
93.61823499999999
 21
1134.01015
 31
0.0
  0
LINE
  5
6EB
330
1E
100
AcDbEntity
  8
0
100
AcDbLine
 10
97.263335
 20
1138.22015
 30
0.0
 11
97.68033500000001
 21
1138.58615
 31
0.0
  0
LINE
  5
6EC
330
1E
100
AcDbEntity
  8
0
100
AcDbLine
 10
96.52183499999999
 20
1138.120149999999
 30
0.0
 11
97.263335
 21
1138.22015
 31
0.0
  0
LINE
  5
6EE
330
1E
100
AcDbEntity
  8
0
100
AcDbLine
 10
95.88463500000001
 20
1138.35915
 30
0.0
 11
96.52183499999999
 21
1138.120149999999
 31
0.0
  0
LINE
  5
6EF
330
1E
100
AcDbEntity
  8
0
100
AcDbLine
 10
95.710735
 20
1138.78515
 30
0.0
 11
96.12773500000001
 21
1139.15015
 31
0.0
  0
LINE
  5
6F0
330
1E
100
AcDbEntity
  8
0
100
AcDbLine
 10
95.710735
 20
1138.78515
 30
0.0
 11
95.88463500000001
 21
1138.35915
 31
0.0
  0
LINE
  5
6F2
330
1E
100
AcDbEntity
  8
0
100
AcDbLine
 10
97.506435
 20
1139.01115
 30
0.0
 11
97.68033500000001
 21
1138.58615
 31
0.0
  0
LINE
  5
6F5
330
1E
100
AcDbEntity
  8
0
100
AcDbLine
 10
92.709135
 20
1134.63215
 30
0.0
 11
93.38033499999999
 21
1134.425149999999
 31
0.0
  0
LINE
  5
6F7
330
1E
100
AcDbEntity
  8
0
100
AcDbLine
 10
91.985635
 20
1134.49515
 30
0.0
 11
92.709135
 21
1134.63215
 31
0.0
  0
LINE
  5
6F9
330
1E
100
AcDbEntity
  8
0
100
AcDbLine
 10
91.625835
 20
1134.11015
 30
0.0
 11
91.985635
 21
1134.49515
 31
0.0
  0
LINE
  5
6FA
330
1E
100
AcDbEntity
  8
0
100
AcDbLine
 10
91.625835
 20
1134.11015
 30
0.0
 11
91.863635
 21
1133.69515
 31
0.0
  0
LINE
  5
6FC
330
1E
100
AcDbEntity
  8
0
100
AcDbLine
 10
96.12773500000001
 20
1139.15015
 30
0.0
 11
96.86913500000001
 21
1139.250149999999
 31
0.0
  0
LINE
  5
703
330
1E
100
AcDbEntity
  8
0
100
AcDbLine
 10
96.86913500000001
 20
1139.250149999999
 30
0.0
 11
97.506435
 21
1139.01115
 31
0.0
  0
LINE
  5
707
330
1E
100
AcDbEntity
  8
0
100
AcDbLine
 10
90.62323499999999
 20
1139.42715
 30
0.0
 11
90.92323499999999
 21
1139.025149999999
 31
0.0
  0
LINE
  5
709
330
1E
100
AcDbEntity
  8
0
100
AcDbLine
 10
101.723235
 20
1163.87715
 30
0.0
 11
112.823235
 21
1161.29615
 31
0.0
  0
LINE
  5
70A
330
1E
100
AcDbEntity
  8
0
100
AcDbLine
 10
89.92323499999999
 20
1155.268149999999
 30
0.0
 11
102.723235
 21
1154.23615
 31
0.0
  0
LINE
  5
70B
330
1E
100
AcDbEntity
  8
0
100
AcDbLine
 10
101.923235
 20
1093.046369512195
 30
0.0
 11
101.923235
 21
1091.10615
 31
0.0
  0
LINE
  5
70C
330
1E
100
AcDbEntity
  8
0
100
AcDbLine
 10
77.92323499999999
 20
1010.74715
 30
0.0
 11
77.92323499999999
 21
996.4851499999999
 31
0.0
  0
LINE
  5
70D
330
1E
100
AcDbEntity
  8
0
100
AcDbLine
 10
77.92323499999999
 20
1010.74715
 30
0.0
 11
77.92323499999999
 21
1024.484149999999
 31
0.0
  0
LINE
  5
70E
330
1E
100
AcDbEntity
  8
0
100
AcDbLine
 10
77.92323499999999
 20
996.4851499999999
 30
0.0
 11
77.92323499999999
 21
992.6751499999999
 31
0.0
  0
LINE
  5
70F
330
1E
100
AcDbEntity
  8
0
100
AcDbLine
 10
77.92323499999999
 20
996.4851499999999
 30
0.0
 11
77.92323499999999
 21
1010.74715
 31
0.0
  0
LINE
  5
710
330
1E
100
AcDbEntity
  8
0
100
AcDbLine
 10
77.123235
 20
1154.23615
 30
0.0
 11
89.92323499999999
 21
1155.268149999999
 31
0.0
  0
LINE
  5
711
330
1E
100
AcDbEntity
  8
0
100
AcDbLine
 10
89.92323499999999
 20
1164.85215
 30
0.0
 11
101.723235
 21
1163.87715
 31
0.0
  0
LINE
  5
712
330
1E
100
AcDbEntity
  8
0
100
AcDbLine
 10
78.12323499999999
 20
1163.87715
 30
0.0
 11
89.92323499999999
 21
1164.85215
 31
0.0
  0
LINE
  5
713
330
1E
100
AcDbEntity
  8
0
100
AcDbLine
 10
102.223235
 20
1093.070149999999
 30
0.0
 11
113.823235
 21
1095.76615
 31
0.0
  0
LINE
  5
714
330
1E
100
AcDbEntity
  8
0
100
AcDbLine
 10
102.079235
 20
1100.52471028169
 30
0.0
 11
102.079235
 21
1100.46515
 31
0.0
  0
LINE
  5
715
330
1E
100
AcDbEntity
  8
0
100
AcDbLine
 10
102.079235
 20
1100.46515
 30
0.0
 11
102.103235
 21
1100.02815
 31
0.0
  0
LINE
  5
716
330
1E
100
AcDbEntity
  8
0
100
AcDbLine
 10
102.079235
 20
1100.46515
 30
0.0
 11
102.5872349999999
 21
1100.79015
 31
0.0
  0
LINE
  5
717
330
1E
100
AcDbEntity
  8
0
100
AcDbLine
 10
102.079235
 20
1100.46515
 30
0.0
 11
102.079235
 21
1100.52471028169
 31
0.0
  0
LINE
  5
718
330
1E
100
AcDbEntity
  8
0
100
AcDbLine
 10
102.103235
 20
1100.02815
 30
0.0
 11
102.6712349999999
 21
1099.737149999999
 31
0.0
  0
LINE
  5
71B
330
1E
100
AcDbEntity
  8
0
100
AcDbLine
 10
102.365235
 20
1095.875149999999
 30
0.0
 11
102.9202349999999
 21
1096.17415
 31
0.0
  0
LINE
  5
71D
330
1E
100
AcDbEntity
  8
0
100
AcDbLine
 10
102.3222349999999
 20
1095.43915
 30
0.0
 11
102.8432349999999
 21
1095.12015
 31
0.0
  0
LINE
  5
71E
330
1E
100
AcDbEntity
  8
0
100
AcDbLine
 10
102.3222349999999
 20
1095.43915
 30
0.0
 11
102.365235
 21
1095.875149999999
 31
0.0
  0
LINE
  5
721
330
1E
100
AcDbEntity
  8
0
100
AcDbLine
 10
102.9202349999999
 20
1096.17415
 30
0.0
 11
103.6802349999999
 21
1096.150149999999
 31
0.0
  0
LINE
  5
723
330
1E
100
AcDbEntity
  8
0
100
AcDbLine
 10
102.8432349999999
 20
1095.12015
 30
0.0
 11
103.604235
 21
1095.096149999999
 31
0.0
  0
LINE
  5
724
330
1E
100
AcDbEntity
  8
0
100
AcDbLine
 10
102.6712349999999
 20
1099.737149999999
 30
0.0
 11
103.4322349999999
 21
1099.75115
 31
0.0
  0
LINE
  5
725
330
1E
100
AcDbEntity
  8
0
100
AcDbLine
 10
103.348235
 20
1100.804149999999
 30
0.0
 11
103.916235
 21
1100.51315
 31
0.0
  0
LINE
  5
726
330
1E
100
AcDbEntity
  8
0
100
AcDbLine
 10
102.5872349999999
 20
1100.79015
 30
0.0
 11
103.348235
 21
1100.804149999999
 31
0.0
  0
LINE
  5
727
330
1E
100
AcDbEntity
  8
0
100
AcDbLine
 10
103.4322349999999
 20
1099.75115
 30
0.0
 11
103.940235
 21
1100.07615
 31
0.0
  0
LINE
  5
728
330
1E
100
AcDbEntity
  8
0
100
AcDbLine
 10
102.271235
 20
1104.95815
 30
0.0
 11
102.3622349999999
 21
1104.525149999999
 31
0.0
  0
LINE
  5
72B
330
1E
100
AcDbEntity
  8
0
100
AcDbLine
 10
102.168235
 20
1112.24515
 30
0.0
 11
102.7362349999999
 21
1112.536149999999
 31
0.0
  0
LINE
  5
72D
330
1E
100
AcDbEntity
  8
0
100
AcDbLine
 10
102.144235
 20
1111.80915
 30
0.0
 11
102.652235
 21
1111.48315
 31
0.0
  0
LINE
  5
72E
330
1E
100
AcDbEntity
  8
0
100
AcDbLine
 10
102.144235
 20
1111.80915
 30
0.0
 11
102.168235
 21
1112.24515
 31
0.0
  0
LINE
  5
732
330
1E
100
AcDbEntity
  8
0
100
AcDbLine
 10
102.7362349999999
 20
1112.536149999999
 30
0.0
 11
103.497235
 21
1112.52315
 31
0.0
  0
LINE
  5
734
330
1E
100
AcDbEntity
  8
0
100
AcDbLine
 10
102.652235
 20
1111.48315
 30
0.0
 11
103.4132349999999
 21
1111.46915
 31
0.0
  0
LINE
  5
735
330
1E
100
AcDbEntity
  8
0
100
AcDbLine
 10
103.4132349999999
 20
1111.46915
 30
0.0
 11
103.981235
 21
1111.76015
 31
0.0
  0
LINE
  5
737
330
1E
100
AcDbEntity
  8
0
100
AcDbLine
 10
103.6802349999999
 20
1096.150149999999
 30
0.0
 11
104.202235
 21
1095.83115
 31
0.0
  0
LINE
  5
739
330
1E
100
AcDbEntity
  8
0
100
AcDbLine
 10
103.604235
 20
1095.096149999999
 30
0.0
 11
104.1592349999999
 21
1095.395149999999
 31
0.0
  0
LINE
  5
73C
330
1E
100
AcDbEntity
  8
0
100
AcDbLine
 10
104.1592349999999
 20
1095.395149999999
 30
0.0
 11
104.202235
 21
1095.83115
 31
0.0
  0
LINE
  5
73D
330
1E
100
AcDbEntity
  8
0
100
AcDbLine
 10
103.916235
 20
1100.51315
 30
0.0
 11
103.940235
 21
1100.07615
 31
0.0
  0
LINE
  5
740
330
1E
100
AcDbEntity
  8
0
100
AcDbLine
 10
103.981235
 20
1111.76015
 30
0.0
 11
104.005235
 21
1112.197149999999
 31
0.0
  0
LINE
  5
741
330
1E
100
AcDbEntity
  8
0
100
AcDbLine
 10
103.497235
 20
1112.52315
 30
0.0
 11
104.005235
 21
1112.197149999999
 31
0.0
  0
LINE
  5
743
330
1E
100
AcDbEntity
  8
0
100
AcDbLine
 10
104.1762349999999
 20
1115.34415
 30
0.0
 11
104.900235
 21
1115.20715
 31
0.0
  0
LINE
  5
744
330
1E
100
AcDbEntity
  8
0
100
AcDbLine
 10
109.167235
 20
1096.735149999999
 30
0.0
 11
109.923235
 21
1096.78615
 31
0.0
  0
LINE
  5
746
330
1E
100
AcDbEntity
  8
0
100
AcDbLine
 10
108.4672349999999
 20
1097.43015
 30
0.0
 11
108.557235
 21
1096.99615
 31
0.0
  0
LINE
  5
747
330
1E
100
AcDbEntity
  8
0
100
AcDbLine
 10
108.4672349999999
 20
1097.43015
 30
0.0
 11
108.923235
 21
1097.780149999999
 31
0.0
  0
LINE
  5
74C
330
1E
100
AcDbEntity
  8
0
100
AcDbLine
 10
109.679235
 20
1097.831149999999
 30
0.0
 11
110.289235
 21
1097.570149999999
 31
0.0
  0
LINE
  5
74E
330
1E
100
AcDbEntity
  8
0
100
AcDbLine
 10
108.923235
 20
1097.780149999999
 30
0.0
 11
109.679235
 21
1097.831149999999
 31
0.0
  0
LINE
  5
750
330
1E
100
AcDbEntity
  8
0
100
AcDbLine
 10
108.557235
 20
1096.99615
 30
0.0
 11
109.167235
 21
1096.735149999999
 31
0.0
  0
LINE
  5
751
330
1E
100
AcDbEntity
  8
0
100
AcDbLine
 10
109.923235
 20
1096.78615
 30
0.0
 11
110.379235
 21
1097.13615
 31
0.0
  0
LINE
  5
752
330
1E
100
AcDbEntity
  8
0
100
AcDbLine
 10
113.823235
 20
1095.76615
 30
0.0
 11
123.823235
 21
1100.18215
 31
0.0
  0
LINE
  5
755
330
1E
100
AcDbEntity
  8
0
100
AcDbLine
 10
110.289235
 20
1097.570149999999
 30
0.0
 11
110.379235
 21
1097.13615
 31
0.0
  0
LINE
  5
757
330
1E
100
AcDbEntity
  8
0
100
AcDbLine
 10
106.709235
 20
1101.91715
 30
0.0
 11
106.864235
 21
1101.489149999999
 31
0.0
  0
LINE
  5
758
330
1E
100
AcDbEntity
  8
0
100
AcDbLine
 10
106.709235
 20
1101.91715
 30
0.0
 11
107.110235
 21
1102.288149999999
 31
0.0
  0
LINE
  5
75B
330
1E
100
AcDbEntity
  8
0
100
AcDbLine
 10
107.856235
 20
1102.37815
 30
0.0
 11
108.503235
 21
1102.14715
 31
0.0
  0
LINE
  5
75D
330
1E
100
AcDbEntity
  8
0
100
AcDbLine
 10
107.110235
 20
1102.288149999999
 30
0.0
 11
107.856235
 21
1102.37815
 31
0.0
  0
LINE
  5
75F
330
1E
100
AcDbEntity
  8
0
100
AcDbLine
 10
106.864235
 20
1101.489149999999
 30
0.0
 11
107.512235
 21
1101.259149999999
 31
0.0
  0
LINE
  5
760
330
1E
100
AcDbEntity
  8
0
100
AcDbLine
 10
107.512235
 20
1101.259149999999
 30
0.0
 11
108.257235
 21
1101.34915
 31
0.0
  0
LINE
  5
761
330
1E
100
AcDbEntity
  8
0
100
AcDbLine
 10
108.257235
 20
1101.34915
 30
0.0
 11
108.659235
 21
1101.72015
 31
0.0
  0
LINE
  5
762
330
1E
100
AcDbEntity
  8
0
100
AcDbLine
 10
106.749235
 20
1107.98115
 30
0.0
 11
107.429235
 21
1108.17815
 31
0.0
  0
LINE
  5
763
330
1E
100
AcDbEntity
  8
0
100
AcDbLine
 10
106.529235
 20
1107.56215
 30
0.0
 11
106.872235
 21
1107.17315
 31
0.0
  0
LINE
  5
764
330
1E
100
AcDbEntity
  8
0
100
AcDbLine
 10
106.529235
 20
1107.56215
 30
0.0
 11
106.749235
 21
1107.98115
 31
0.0
  0
LINE
  5
765
330
1E
100
AcDbEntity
  8
0
100
AcDbLine
 10
106.872235
 20
1107.17315
 30
0.0
 11
107.601235
 21
1107.04615
 31
0.0
  0
LINE
  5
766
330
1E
100
AcDbEntity
  8
0
100
AcDbLine
 10
107.601235
 20
1107.04615
 30
0.0
 11
108.281235
 21
1107.24315
 31
0.0
  0
LINE
  5
768
330
1E
100
AcDbEntity
  8
0
100
AcDbLine
 10
111.111235
 20
1103.40315
 30
0.0
 11
111.818235
 21
1103.241149999999
 31
0.0
  0
LINE
  5
769
330
1E
100
AcDbEntity
  8
0
100
AcDbLine
 10
111.818235
 20
1103.241149999999
 30
0.0
 11
112.526235
 21
1103.40315
 31
0.0
  0
LINE
  5
76D
330
1E
100
AcDbEntity
  8
0
100
AcDbLine
 10
111.818235
 20
1104.37615
 30
0.0
 11
112.526235
 21
1104.21415
 31
0.0
  0
LINE
  5
76F
330
1E
100
AcDbEntity
  8
0
100
AcDbLine
 10
111.111235
 20
1104.21415
 30
0.0
 11
111.818235
 21
1104.37615
 31
0.0
  0
LINE
  5
771
330
1E
100
AcDbEntity
  8
0
100
AcDbLine
 10
110.829235
 20
1103.808149999999
 30
0.0
 11
111.111235
 21
1103.40315
 31
0.0
  0
LINE
  5
772
330
1E
100
AcDbEntity
  8
0
100
AcDbLine
 10
110.829235
 20
1103.808149999999
 30
0.0
 11
111.111235
 21
1104.21415
 31
0.0
  0
LINE
  5
774
330
1E
100
AcDbEntity
  8
0
100
AcDbLine
 10
112.526235
 20
1103.40315
 30
0.0
 11
112.808235
 21
1103.808149999999
 31
0.0
  0
LINE
  5
777
330
1E
100
AcDbEntity
  8
0
100
AcDbLine
 10
112.526235
 20
1104.21415
 30
0.0
 11
112.808235
 21
1103.808149999999
 31
0.0
  0
LINE
  5
77A
330
1E
100
AcDbEntity
  8
0
100
AcDbLine
 10
108.503235
 20
1102.14715
 30
0.0
 11
108.659235
 21
1101.72015
 31
0.0
  0
LINE
  5
77C
330
1E
100
AcDbEntity
  8
0
100
AcDbLine
 10
108.281235
 20
1107.24315
 30
0.0
 11
108.501235
 21
1107.661149999999
 31
0.0
  0
LINE
  5
77D
330
1E
100
AcDbEntity
  8
0
100
AcDbLine
 10
111.161235
 20
1111.03515
 30
0.0
 11
111.921235
 21
1111.059149999999
 31
0.0
  0
LINE
  5
77E
330
1E
100
AcDbEntity
  8
0
100
AcDbLine
 10
110.563235
 20
1111.770149999999
 30
0.0
 11
110.606235
 21
1111.33415
 31
0.0
  0
LINE
  5
77F
330
1E
100
AcDbEntity
  8
0
100
AcDbLine
 10
110.563235
 20
1111.770149999999
 30
0.0
 11
111.084235
 21
1112.08815
 31
0.0
  0
LINE
  5
780
330
1E
100
AcDbEntity
  8
0
100
AcDbLine
 10
111.084235
 20
1112.08815
 30
0.0
 11
111.845235
 21
1112.11315
 31
0.0
  0
LINE
  5
782
330
1E
100
AcDbEntity
  8
0
100
AcDbLine
 10
110.606235
 20
1111.33415
 30
0.0
 11
111.161235
 21
1111.03515
 31
0.0
  0
LINE
  5
783
330
1E
100
AcDbEntity
  8
0
100
AcDbLine
 10
111.921235
 20
1111.059149999999
 30
0.0
 11
112.443235
 21
1111.378149999999
 31
0.0
  0
LINE
  5
784
330
1E
100
AcDbEntity
  8
0
100
AcDbLine
 10
112.400235
 20
1111.81415
 30
0.0
 11
112.443235
 21
1111.378149999999
 31
0.0
  0
LINE
  5
789
330
1E
100
AcDbEntity
  8
0
100
AcDbLine
 10
111.845235
 20
1112.11315
 30
0.0
 11
112.400235
 21
1111.81415
 31
0.0
  0
LINE
  5
78B
330
1E
100
AcDbEntity
  8
0
100
AcDbLine
 10
107.429235
 20
1108.17815
 30
0.0
 11
108.158235
 21
1108.05115
 31
0.0
  0
LINE
  5
78C
330
1E
100
AcDbEntity
  8
0
100
AcDbLine
 10
108.158235
 20
1108.05115
 30
0.0
 11
108.501235
 21
1107.661149999999
 31
0.0
  0
LINE
  5
78E
330
1E
100
AcDbEntity
  8
0
100
AcDbLine
 10
114.005235
 20
1099.56915
 30
0.0
 11
114.2262349999999
 21
1099.15115
 31
0.0
  0
LINE
  5
78F
330
1E
100
AcDbEntity
  8
0
100
AcDbLine
 10
114.005235
 20
1099.56915
 30
0.0
 11
114.349235
 21
1099.95915
 31
0.0
  0
LINE
  5
792
330
1E
100
AcDbEntity
  8
0
100
AcDbLine
 10
114.313235
 20
1106.08115
 30
0.0
 11
114.714235
 21
1105.710149999999
 31
0.0
  0
LINE
  5
793
330
1E
100
AcDbEntity
  8
0
100
AcDbLine
 10
114.313235
 20
1106.08115
 30
0.0
 11
114.469235
 21
1106.509149999999
 31
0.0
  0
LINE
  5
795
330
1E
100
AcDbEntity
  8
0
100
AcDbLine
 10
114.469235
 20
1106.509149999999
 30
0.0
 11
115.116235
 21
1106.739149999999
 31
0.0
  0
LINE
  5
796
330
1E
100
AcDbEntity
  8
0
100
AcDbLine
 10
114.714235
 20
1105.710149999999
 30
0.0
 11
115.460235
 21
1105.621149999999
 31
0.0
  0
LINE
  5
798
330
1E
100
AcDbEntity
  8
0
100
AcDbLine
 10
114.349235
 20
1099.95915
 30
0.0
 11
115.078235
 21
1100.085149999999
 31
0.0
  0
LINE
  5
79A
330
1E
100
AcDbEntity
  8
0
100
AcDbLine
 10
114.2262349999999
 20
1099.15115
 30
0.0
 11
114.905235
 21
1098.954149999999
 31
0.0
  0
LINE
  5
79B
330
1E
100
AcDbEntity
  8
0
100
AcDbLine
 10
105.571235
 20
1115.41415
 30
0.0
 11
105.809235
 21
1115.82915
 31
0.0
  0
LINE
  5
79C
330
1E
100
AcDbEntity
  8
0
100
AcDbLine
 10
104.900235
 20
1115.20715
 30
0.0
 11
105.571235
 21
1115.41415
 31
0.0
  0
LINE
  5
79E
330
1E
100
AcDbEntity
  8
0
100
AcDbLine
 10
103.8162349999999
 20
1115.72915
 30
0.0
 11
104.0542349999999
 21
1116.14415
 31
0.0
  0
LINE
  5
79F
330
1E
100
AcDbEntity
  8
0
100
AcDbLine
 10
103.8162349999999
 20
1115.72915
 30
0.0
 11
104.1762349999999
 21
1115.34415
 31
0.0
  0
LINE
  5
7A1
330
1E
100
AcDbEntity
  8
0
100
AcDbLine
 10
112.188235
 20
1115.67715
 30
0.0
 11
112.888235
 21
1115.505149999999
 31
0.0
  0
LINE
  5
7A2
330
1E
100
AcDbEntity
  8
0
100
AcDbLine
 10
104.0542349999999
 20
1116.14415
 30
0.0
 11
104.7252349999999
 21
1116.35015
 31
0.0
  0
LINE
  5
7A6
330
1E
100
AcDbEntity
  8
0
100
AcDbLine
 10
104.7252349999999
 20
1116.35015
 30
0.0
 11
105.449235
 21
1116.21415
 31
0.0
  0
LINE
  5
7A8
330
1E
100
AcDbEntity
  8
0
100
AcDbLine
 10
105.449235
 20
1116.21415
 30
0.0
 11
105.809235
 21
1115.82915
 31
0.0
  0
LINE
  5
7AA
330
1E
100
AcDbEntity
  8
0
100
AcDbLine
 10
111.888235
 20
1116.07915
 30
0.0
 11
112.188235
 21
1116.480149999999
 31
0.0
  0
LINE
  5
7AB
330
1E
100
AcDbEntity
  8
0
100
AcDbLine
 10
111.888235
 20
1116.07915
 30
0.0
 11
112.188235
 21
1115.67715
 31
0.0
  0
LINE
  5
7AD
330
1E
100
AcDbEntity
  8
0
100
AcDbLine
 10
112.188235
 20
1116.480149999999
 30
0.0
 11
112.888235
 21
1116.652149999999
 31
0.0
  0
LINE
  5
7B2
330
1E
100
AcDbEntity
  8
0
100
AcDbLine
 10
102.489235
 20
1119.50115
 30
0.0
 11
103.250235
 21
1119.51515
 31
0.0
  0
LINE
  5
7B4
330
1E
100
AcDbEntity
  8
0
100
AcDbLine
 10
103.250235
 20
1119.51515
 30
0.0
 11
103.758235
 21
1119.84115
 31
0.0
  0
LINE
  5
7B6
330
1E
100
AcDbEntity
  8
0
100
AcDbLine
 10
103.734235
 20
1120.277149999999
 30
0.0
 11
103.758235
 21
1119.84115
 31
0.0
  0
LINE
  5
7B9
330
1E
100
AcDbEntity
  8
0
100
AcDbLine
 10
102.405235
 20
1120.55515
 30
0.0
 11
103.1662349999999
 21
1120.56915
 31
0.0
  0
LINE
  5
7BD
330
1E
100
AcDbEntity
  8
0
100
AcDbLine
 10
103.1662349999999
 20
1120.56915
 30
0.0
 11
103.734235
 21
1120.277149999999
 31
0.0
  0
LINE
  5
7BF
330
1E
100
AcDbEntity
  8
0
100
AcDbLine
 10
110.563235
 20
1120.388149999999
 30
0.0
 11
110.606235
 21
1120.82415
 31
0.0
  0
LINE
  5
7C0
330
1E
100
AcDbEntity
  8
0
100
AcDbLine
 10
110.563235
 20
1120.388149999999
 30
0.0
 11
111.084235
 21
1120.06915
 31
0.0
  0
LINE
  5
7C1
330
1E
100
AcDbEntity
  8
0
100
AcDbLine
 10
111.084235
 20
1120.06915
 30
0.0
 11
111.845235
 21
1120.045149999999
 31
0.0
  0
LINE
  5
7C2
330
1E
100
AcDbEntity
  8
0
100
AcDbLine
 10
110.606235
 20
1120.82415
 30
0.0
 11
111.161235
 21
1121.123149999999
 31
0.0
  0
LINE
  5
7C4
330
1E
100
AcDbEntity
  8
0
100
AcDbLine
 10
106.749235
 20
1124.17715
 30
0.0
 11
107.429235
 21
1123.980149999999
 31
0.0
  0
LINE
  5
7C5
330
1E
100
AcDbEntity
  8
0
100
AcDbLine
 10
106.529235
 20
1124.59515
 30
0.0
 11
106.872235
 21
1124.98515
 31
0.0
  0
LINE
  5
7C6
330
1E
100
AcDbEntity
  8
0
100
AcDbLine
 10
106.529235
 20
1124.59515
 30
0.0
 11
106.749235
 21
1124.17715
 31
0.0
  0
LINE
  5
7C7
330
1E
100
AcDbEntity
  8
0
100
AcDbLine
 10
107.429235
 20
1123.980149999999
 30
0.0
 11
108.158235
 21
1124.10615
 31
0.0
  0
LINE
  5
7C8
330
1E
100
AcDbEntity
  8
0
100
AcDbLine
 10
106.872235
 20
1124.98515
 30
0.0
 11
107.601235
 21
1125.11115
 31
0.0
  0
LINE
  5
7C9
330
1E
100
AcDbEntity
  8
0
100
AcDbLine
 10
102.271235
 20
1127.199149999999
 30
0.0
 11
102.3622349999999
 21
1127.63315
 31
0.0
  0
LINE
  5
7CA
330
1E
100
AcDbEntity
  8
0
100
AcDbLine
 10
107.110235
 20
1130.44615
 30
0.0
 11
107.856235
 21
1130.35715
 31
0.0
  0
LINE
  5
7CB
330
1E
100
AcDbEntity
  8
0
100
AcDbLine
 10
106.709235
 20
1130.817149999999
 30
0.0
 11
106.864235
 21
1131.24515
 31
0.0
  0
LINE
  5
7CC
330
1E
100
AcDbEntity
  8
0
100
AcDbLine
 10
106.709235
 20
1130.817149999999
 30
0.0
 11
107.110235
 21
1130.44615
 31
0.0
  0
LINE
  5
7CD
330
1E
100
AcDbEntity
  8
0
100
AcDbLine
 10
102.079235
 20
1132.270149999999
 30
0.0
 11
102.103235
 21
1132.706149999999
 31
0.0
  0
LINE
  5
7CE
330
1E
100
AcDbEntity
  8
0
100
AcDbLine
 10
102.079235
 20
1132.270149999999
 30
0.0
 11
102.5872349999999
 21
1131.94415
 31
0.0
  0
LINE
  5
7D0
330
1E
100
AcDbEntity
  8
0
100
AcDbLine
 10
103.348235
 20
1131.93015
 30
0.0
 11
103.916235
 21
1132.221149999999
 31
0.0
  0
LINE
  5
7D1
330
1E
100
AcDbEntity
  8
0
100
AcDbLine
 10
102.5872349999999
 20
1131.94415
 30
0.0
 11
103.348235
 21
1131.93015
 31
0.0
  0
LINE
  5
7D2
330
1E
100
AcDbEntity
  8
0
100
AcDbLine
 10
102.103235
 20
1132.706149999999
 30
0.0
 11
102.6712349999999
 21
1132.99715
 31
0.0
  0
LINE
  5
7D7
330
1E
100
AcDbEntity
  8
0
100
AcDbLine
 10
102.365235
 20
1137.43615
 30
0.0
 11
102.9202349999999
 21
1137.13715
 31
0.0
  0
LINE
  5
7D8
330
1E
100
AcDbEntity
  8
0
100
AcDbLine
 10
102.3222349999999
 20
1137.87215
 30
0.0
 11
102.8432349999999
 21
1138.19115
 31
0.0
  0
LINE
  5
7D9
330
1E
100
AcDbEntity
  8
0
100
AcDbLine
 10
102.3222349999999
 20
1137.87215
 30
0.0
 11
102.365235
 21
1137.43615
 31
0.0
  0
LINE
  5
7DC
330
1E
100
AcDbEntity
  8
0
100
AcDbLine
 10
102.9202349999999
 20
1137.13715
 30
0.0
 11
103.6802349999999
 21
1137.161149999999
 31
0.0
  0
LINE
  5
7DD
330
1E
100
AcDbEntity
  8
0
100
AcDbLine
 10
102.723235
 20
1153.417149999999
 30
0.0
 11
114.823235
 21
1150.60615
 31
0.0
  0
LINE
  5
7E0
330
1E
100
AcDbEntity
  8
0
100
AcDbLine
 10
102.8432349999999
 20
1138.19115
 30
0.0
 11
103.604235
 21
1138.21515
 31
0.0
  0
LINE
  5
7E2
330
1E
100
AcDbEntity
  8
0
100
AcDbLine
 10
103.6802349999999
 20
1137.161149999999
 30
0.0
 11
104.202235
 21
1137.480149999999
 31
0.0
  0
LINE
  5
7E3
330
1E
100
AcDbEntity
  8
0
100
AcDbLine
 10
103.604235
 20
1138.21515
 30
0.0
 11
104.1592349999999
 21
1137.91615
 31
0.0
  0
LINE
  5
7E6
330
1E
100
AcDbEntity
  8
0
100
AcDbLine
 10
102.6712349999999
 20
1132.99715
 30
0.0
 11
103.4322349999999
 21
1132.98415
 31
0.0
  0
LINE
  5
7E8
330
1E
100
AcDbEntity
  8
0
100
AcDbLine
 10
103.4322349999999
 20
1132.98415
 30
0.0
 11
103.940235
 21
1132.658149999999
 31
0.0
  0
LINE
  5
7ED
330
1E
100
AcDbEntity
  8
0
100
AcDbLine
 10
104.1592349999999
 20
1137.91615
 30
0.0
 11
104.202235
 21
1137.480149999999
 31
0.0
  0
LINE
  5
7EF
330
1E
100
AcDbEntity
  8
0
100
AcDbLine
 10
103.916235
 20
1132.221149999999
 30
0.0
 11
103.940235
 21
1132.658149999999
 31
0.0
  0
LINE
  5
7F0
330
1E
100
AcDbEntity
  8
0
100
AcDbLine
 10
106.864235
 20
1131.24515
 30
0.0
 11
107.512235
 21
1131.475149999999
 31
0.0
  0
LINE
  5
7F1
330
1E
100
AcDbEntity
  8
0
100
AcDbLine
 10
107.856235
 20
1130.35715
 30
0.0
 11
108.503235
 21
1130.587149999999
 31
0.0
  0
LINE
  5
7F2
330
1E
100
AcDbEntity
  8
0
100
AcDbLine
 10
107.512235
 20
1131.475149999999
 30
0.0
 11
108.257235
 21
1131.386149999999
 31
0.0
  0
LINE
  5
7F3
330
1E
100
AcDbEntity
  8
0
100
AcDbLine
 10
107.601235
 20
1125.11115
 30
0.0
 11
108.281235
 21
1124.91415
 31
0.0
  0
LINE
  5
7F5
330
1E
100
AcDbEntity
  8
0
100
AcDbLine
 10
111.818235
 20
1128.35815
 30
0.0
 11
112.526235
 21
1128.520149999999
 31
0.0
  0
LINE
  5
7F6
330
1E
100
AcDbEntity
  8
0
100
AcDbLine
 10
111.111235
 20
1128.520149999999
 30
0.0
 11
111.818235
 21
1128.35815
 31
0.0
  0
LINE
  5
7F7
330
1E
100
AcDbEntity
  8
0
100
AcDbLine
 10
110.829235
 20
1128.92615
 30
0.0
 11
111.111235
 21
1129.33115
 31
0.0
  0
LINE
  5
7F8
330
1E
100
AcDbEntity
  8
0
100
AcDbLine
 10
110.829235
 20
1128.92615
 30
0.0
 11
111.111235
 21
1128.520149999999
 31
0.0
  0
LINE
  5
7FA
330
1E
100
AcDbEntity
  8
0
100
AcDbLine
 10
108.4672349999999
 20
1135.88115
 30
0.0
 11
108.557235
 21
1136.315149999999
 31
0.0
  0
LINE
  5
7FB
330
1E
100
AcDbEntity
  8
0
100
AcDbLine
 10
108.4672349999999
 20
1135.88115
 30
0.0
 11
108.923235
 21
1135.53115
 31
0.0
  0
LINE
  5
7FF
330
1E
100
AcDbEntity
  8
0
100
AcDbLine
 10
108.557235
 20
1136.315149999999
 30
0.0
 11
109.167235
 21
1136.57715
 31
0.0
  0
LINE
  5
801
330
1E
100
AcDbEntity
  8
0
100
AcDbLine
 10
109.679235
 20
1135.48015
 30
0.0
 11
110.289235
 21
1135.741149999999
 31
0.0
  0
LINE
  5
802
330
1E
100
AcDbEntity
  8
0
100
AcDbLine
 10
108.923235
 20
1135.53115
 30
0.0
 11
109.679235
 21
1135.48015
 31
0.0
  0
LINE
  5
805
330
1E
100
AcDbEntity
  8
0
100
AcDbLine
 10
109.167235
 20
1136.57715
 30
0.0
 11
109.923235
 21
1136.525149999999
 31
0.0
  0
LINE
  5
809
330
1E
100
AcDbEntity
  8
0
100
AcDbLine
 10
109.923235
 20
1136.525149999999
 30
0.0
 11
110.379235
 21
1136.17515
 31
0.0
  0
LINE
  5
80B
330
1E
100
AcDbEntity
  8
0
100
AcDbLine
 10
110.289235
 20
1135.741149999999
 30
0.0
 11
110.379235
 21
1136.17515
 31
0.0
  0
LINE
  5
80C
330
1E
100
AcDbEntity
  8
0
100
AcDbLine
 10
108.659235
 20
1131.147815325444
 30
0.0
 11
108.659235
 21
1131.01415
 31
0.0
  0
LINE
  5
80D
330
1E
100
AcDbEntity
  8
0
100
AcDbLine
 10
108.659235
 20
1131.01415
 30
0.0
 11
108.659235
 21
1131.147815325444
 31
0.0
  0
LINE
  5
80E
330
1E
100
AcDbEntity
  8
0
100
AcDbLine
 10
108.257235
 20
1131.386149999999
 30
0.0
 11
108.659235
 21
1131.01415
 31
0.0
  0
LINE
  5
80F
330
1E
100
AcDbEntity
  8
0
100
AcDbLine
 10
108.503235
 20
1130.587149999999
 30
0.0
 11
108.659235
 21
1131.01415
 31
0.0
  0
LINE
  5
811
330
1E
100
AcDbEntity
  8
0
100
AcDbLine
 10
111.111235
 20
1129.33115
 30
0.0
 11
111.818235
 21
1129.494149999999
 31
0.0
  0
LINE
  5
812
330
1E
100
AcDbEntity
  8
0
100
AcDbLine
 10
111.818235
 20
1129.494149999999
 30
0.0
 11
112.526235
 21
1129.33115
 31
0.0
  0
LINE
  5
814
330
1E
100
AcDbEntity
  8
0
100
AcDbLine
 10
108.281235
 20
1124.91415
 30
0.0
 11
108.501235
 21
1124.49615
 31
0.0
  0
LINE
  5
815
330
1E
100
AcDbEntity
  8
0
100
AcDbLine
 10
108.158235
 20
1124.10615
 30
0.0
 11
108.501235
 21
1124.49615
 31
0.0
  0
LINE
  5
816
330
1E
100
AcDbEntity
  8
0
100
AcDbLine
 10
111.161235
 20
1121.123149999999
 30
0.0
 11
111.921235
 21
1121.09915
 31
0.0
  0
LINE
  5
817
330
1E
100
AcDbEntity
  8
0
100
AcDbLine
 10
111.921235
 20
1121.09915
 30
0.0
 11
112.443235
 21
1120.78015
 31
0.0
  0
LINE
  5
818
330
1E
100
AcDbEntity
  8
0
100
AcDbLine
 10
111.845235
 20
1120.045149999999
 30
0.0
 11
112.400235
 21
1120.344149999999
 31
0.0
  0
LINE
  5
81A
330
1E
100
AcDbEntity
  8
0
100
AcDbLine
 10
112.526235
 20
1129.33115
 30
0.0
 11
112.808235
 21
1128.92615
 31
0.0
  0
LINE
  5
81E
330
1E
100
AcDbEntity
  8
0
100
AcDbLine
 10
112.526235
 20
1128.520149999999
 30
0.0
 11
112.808235
 21
1128.92615
 31
0.0
  0
LINE
  5
81F
330
1E
100
AcDbEntity
  8
0
100
AcDbLine
 10
112.400235
 20
1120.344149999999
 30
0.0
 11
112.443235
 21
1120.78015
 31
0.0
  0
LINE
  5
823
330
1E
100
AcDbEntity
  8
0
100
AcDbLine
 10
112.888235
 20
1116.652149999999
 30
0.0
 11
113.588235
 21
1116.480149999999
 31
0.0
  0
LINE
  5
825
330
1E
100
AcDbEntity
  8
0
100
AcDbLine
 10
113.588235
 20
1116.480149999999
 30
0.0
 11
113.888235
 21
1116.07915
 31
0.0
  0
LINE
  5
827
330
1E
100
AcDbEntity
  8
0
100
AcDbLine
 10
114.469235
 20
1126.22515
 30
0.0
 11
115.116235
 21
1125.99515
 31
0.0
  0
LINE
  5
82A
330
1E
100
AcDbEntity
  8
0
100
AcDbLine
 10
114.313235
 20
1126.65315
 30
0.0
 11
114.714235
 21
1127.02415
 31
0.0
  0
LINE
  5
82B
330
1E
100
AcDbEntity
  8
0
100
AcDbLine
 10
114.313235
 20
1126.65315
 30
0.0
 11
114.469235
 21
1126.22515
 31
0.0
  0
LINE
  5
82D
330
1E
100
AcDbEntity
  8
0
100
AcDbLine
 10
114.714235
 20
1127.02415
 30
0.0
 11
115.460235
 21
1127.11315
 31
0.0
  0
LINE
  5
82F
330
1E
100
AcDbEntity
  8
0
100
AcDbLine
 10
114.349235
 20
1133.35215
 30
0.0
 11
115.078235
 21
1133.22615
 31
0.0
  0
LINE
  5
830
330
1E
100
AcDbEntity
  8
0
100
AcDbLine
 10
114.005235
 20
1133.74215
 30
0.0
 11
114.2262349999999
 21
1134.16015
 31
0.0
  0
LINE
  5
831
330
1E
100
AcDbEntity
  8
0
100
AcDbLine
 10
114.005235
 20
1133.74215
 30
0.0
 11
114.349235
 21
1133.35215
 31
0.0
  0
LINE
  5
834
330
1E
100
AcDbEntity
  8
0
100
AcDbLine
 10
114.823235
 20
1150.60615
 30
0.0
 11
125.223235
 21
1146.018149999999
 31
0.0
  0
LINE
  5
836
330
1E
100
AcDbEntity
  8
0
100
AcDbLine
 10
114.2262349999999
 20
1134.16015
 30
0.0
 11
114.905235
 21
1134.35715
 31
0.0
  0
LINE
  5
83A
330
1E
100
AcDbEntity
  8
0
100
AcDbLine
 10
113.588235
 20
1115.67715
 30
0.0
 11
113.888235
 21
1116.07915
 31
0.0
  0
LINE
  5
83B
330
1E
100
AcDbEntity
  8
0
100
AcDbLine
 10
112.888235
 20
1115.505149999999
 30
0.0
 11
113.588235
 21
1115.67715
 31
0.0
  0
LINE
  5
83C
330
1E
100
AcDbEntity
  8
0
100
AcDbLine
 10
114.905235
 20
1098.954149999999
 30
0.0
 11
115.635235
 21
1099.08015
 31
0.0
  0
LINE
  5
83E
330
1E
100
AcDbEntity
  8
0
100
AcDbLine
 10
115.116235
 20
1106.739149999999
 30
0.0
 11
115.861235
 21
1106.650149999999
 31
0.0
  0
LINE
  5
83F
330
1E
100
AcDbEntity
  8
0
100
AcDbLine
 10
115.460235
 20
1105.621149999999
 30
0.0
 11
116.1072349999999
 21
1105.85115
 31
0.0
  0
LINE
  5
841
330
1E
100
AcDbEntity
  8
0
100
AcDbLine
 10
115.078235
 20
1100.085149999999
 30
0.0
 11
115.758235
 21
1099.888149999999
 31
0.0
  0
LINE
  5
843
330
1E
100
AcDbEntity
  8
0
100
AcDbLine
 10
115.635235
 20
1099.08015
 30
0.0
 11
115.978235
 21
1099.47015
 31
0.0
  0
LINE
  5
844
330
1E
100
AcDbEntity
  8
0
100
AcDbLine
 10
115.861235
 20
1106.650149999999
 30
0.0
 11
116.263235
 21
1106.279149999999
 31
0.0
  0
LINE
  5
848
330
1E
100
AcDbEntity
  8
0
100
AcDbLine
 10
119.712235
 20
1102.84215
 30
0.0
 11
120.442235
 21
1102.71615
 31
0.0
  0
LINE
  5
84A
330
1E
100
AcDbEntity
  8
0
100
AcDbLine
 10
119.033235
 20
1102.645149999999
 30
0.0
 11
119.712235
 21
1102.84215
 31
0.0
  0
LINE
  5
84C
330
1E
100
AcDbEntity
  8
0
100
AcDbLine
 10
118.813235
 20
1102.22715
 30
0.0
 11
119.156235
 21
1101.837149999999
 31
0.0
  0
LINE
  5
84D
330
1E
100
AcDbEntity
  8
0
100
AcDbLine
 10
118.813235
 20
1102.22715
 30
0.0
 11
119.033235
 21
1102.645149999999
 31
0.0
  0
LINE
  5
84F
330
1E
100
AcDbEntity
  8
0
100
AcDbLine
 10
119.156235
 20
1101.837149999999
 30
0.0
 11
119.885235
 21
1101.71115
 31
0.0
  0
LINE
  5
850
330
1E
100
AcDbEntity
  8
0
100
AcDbLine
 10
119.885235
 20
1101.71115
 30
0.0
 11
120.565235
 21
1101.90815
 31
0.0
  0
LINE
  5
852
330
1E
100
AcDbEntity
  8
0
100
AcDbLine
 10
117.080235
 20
1109.10415
 30
0.0
 11
117.648235
 21
1109.395149999999
 31
0.0
  0
LINE
  5
854
330
1E
100
AcDbEntity
  8
0
100
AcDbLine
 10
117.056235
 20
1108.66715
 30
0.0
 11
117.564235
 21
1108.341149999999
 31
0.0
  0
LINE
  5
855
330
1E
100
AcDbEntity
  8
0
100
AcDbLine
 10
117.056235
 20
1108.66715
 30
0.0
 11
117.080235
 21
1109.10415
 31
0.0
  0
LINE
  5
858
330
1E
100
AcDbEntity
  8
0
100
AcDbLine
 10
117.648235
 20
1109.395149999999
 30
0.0
 11
118.409235
 21
1109.38115
 31
0.0
  0
LINE
  5
85A
330
1E
100
AcDbEntity
  8
0
100
AcDbLine
 10
117.564235
 20
1108.341149999999
 30
0.0
 11
118.325235
 21
1108.328149999999
 31
0.0
  0
LINE
  5
85B
330
1E
100
AcDbEntity
  8
0
100
AcDbLine
 10
118.325235
 20
1108.328149999999
 30
0.0
 11
118.8932349999999
 21
1108.619149999999
 31
0.0
  0
LINE
  5
85D
330
1E
100
AcDbEntity
  8
0
100
AcDbLine
 10
118.867235
 20
1111.91915
 30
0.0
 11
118.975235
 21
1111.486149999999
 31
0.0
  0
LINE
  5
85E
330
1E
100
AcDbEntity
  8
0
100
AcDbLine
 10
118.867235
 20
1111.91915
 30
0.0
 11
119.338235
 21
1112.26215
 31
0.0
  0
LINE
  5
862
330
1E
100
AcDbEntity
  8
0
100
AcDbLine
 10
119.338235
 20
1112.26215
 30
0.0
 11
120.092235
 21
1112.324149999999
 31
0.0
  0
LINE
  5
864
330
1E
100
AcDbEntity
  8
0
100
AcDbLine
 10
118.975235
 20
1111.486149999999
 30
0.0
 11
119.574235
 21
1111.216149999999
 31
0.0
  0
LINE
  5
865
330
1E
100
AcDbEntity
  8
0
100
AcDbLine
 10
119.574235
 20
1111.216149999999
 30
0.0
 11
120.328235
 21
1111.279149999999
 31
0.0
  0
LINE
  5
867
330
1E
100
AcDbEntity
  8
0
100
AcDbLine
 10
118.8932349999999
 20
1108.619149999999
 30
0.0
 11
118.9172349999999
 21
1109.05515
 31
0.0
  0
LINE
  5
868
330
1E
100
AcDbEntity
  8
0
100
AcDbLine
 10
118.409235
 20
1109.38115
 30
0.0
 11
118.9172349999999
 21
1109.05515
 31
0.0
  0
LINE
  5
86A
330
1E
100
AcDbEntity
  8
0
100
AcDbLine
 10
116.1072349999999
 20
1105.85115
 30
0.0
 11
116.263235
 21
1106.279149999999
 31
0.0
  0
LINE
  5
86D
330
1E
100
AcDbEntity
  8
0
100
AcDbLine
 10
115.758235
 20
1099.888149999999
 30
0.0
 11
115.978235
 21
1099.47015
 31
0.0
  0
LINE
  5
86F
330
1E
100
AcDbEntity
  8
0
100
AcDbLine
 10
119.774235
 20
1114.86915
 30
0.0
 11
120.012235
 21
1114.45415
 31
0.0
  0
LINE
  5
870
330
1E
100
AcDbEntity
  8
0
100
AcDbLine
 10
119.774235
 20
1114.86915
 30
0.0
 11
120.134235
 21
1115.254149999999
 31
0.0
  0
LINE
  5
871
330
1E
100
AcDbEntity
  8
0
100
AcDbLine
 10
120.012235
 20
1114.45415
 30
0.0
 11
120.683235
 21
1114.248149999999
 31
0.0
  0
LINE
  5
872
330
1E
100
AcDbEntity
  8
0
100
AcDbLine
 10
119.774235
 20
1117.86515
 30
0.0
 11
120.012235
 21
1118.28015
 31
0.0
  0
LINE
  5
873
330
1E
100
AcDbEntity
  8
0
100
AcDbLine
 10
119.774235
 20
1117.86515
 30
0.0
 11
120.134235
 21
1117.48015
 31
0.0
  0
LINE
  5
878
330
1E
100
AcDbEntity
  8
0
100
AcDbLine
 10
120.565235
 20
1101.90815
 30
0.0
 11
120.785235
 21
1102.326149999999
 31
0.0
  0
LINE
  5
879
330
1E
100
AcDbEntity
  8
0
100
AcDbLine
 10
120.442235
 20
1102.71615
 30
0.0
 11
120.785235
 21
1102.326149999999
 31
0.0
  0
LINE
  5
87C
330
1E
100
AcDbEntity
  8
0
100
AcDbLine
 10
120.328235
 20
1111.279149999999
 30
0.0
 11
120.799235
 21
1111.62215
 31
0.0
  0
LINE
  5
87F
330
1E
100
AcDbEntity
  8
0
100
AcDbLine
 10
120.690235
 20
1112.05415
 30
0.0
 11
120.799235
 21
1111.62215
 31
0.0
  0
LINE
  5
881
330
1E
100
AcDbEntity
  8
0
100
AcDbLine
 10
120.092235
 20
1112.324149999999
 30
0.0
 11
120.690235
 21
1112.05415
 31
0.0
  0
LINE
  5
883
330
1E
100
AcDbEntity
  8
0
100
AcDbLine
 10
120.134235
 20
1115.254149999999
 30
0.0
 11
120.857235
 21
1115.391149999999
 31
0.0
  0
LINE
  5
884
330
1E
100
AcDbEntity
  8
0
100
AcDbLine
 10
120.683235
 20
1114.248149999999
 30
0.0
 11
121.406235
 21
1114.38415
 31
0.0
  0
LINE
  5
885
330
1E
100
AcDbEntity
  8
0
100
AcDbLine
 10
120.857235
 20
1115.391149999999
 30
0.0
 11
121.528235
 21
1115.18415
 31
0.0
  0
LINE
  5
886
330
1E
100
AcDbEntity
  8
0
100
AcDbLine
 10
120.134235
 20
1117.48015
 30
0.0
 11
120.857235
 21
1117.344149999999
 31
0.0
  0
LINE
  5
887
330
1E
100
AcDbEntity
  8
0
100
AcDbLine
 10
120.012235
 20
1118.28015
 30
0.0
 11
120.683235
 21
1118.487149999999
 31
0.0
  0
LINE
  5
88B
330
1E
100
AcDbEntity
  8
0
100
AcDbLine
 10
120.683235
 20
1118.487149999999
 30
0.0
 11
121.406235
 21
1118.35015
 31
0.0
  0
LINE
  5
88D
330
1E
100
AcDbEntity
  8
0
100
AcDbLine
 10
123.823235
 20
1100.18215
 30
0.0
 11
131.523235
 21
1105.918149999999
 31
0.0
  0
LINE
  5
890
330
1E
100
AcDbEntity
  8
0
100
AcDbLine
 10
122.832235
 20
1105.75815
 30
0.0
 11
123.442235
 21
1106.01915
 31
0.0
  0
LINE
  5
892
330
1E
100
AcDbEntity
  8
0
100
AcDbLine
 10
122.742235
 20
1105.324149999999
 30
0.0
 11
123.198235
 21
1104.97415
 31
0.0
  0
LINE
  5
893
330
1E
100
AcDbEntity
  8
0
100
AcDbLine
 10
122.742235
 20
1105.324149999999
 30
0.0
 11
122.832235
 21
1105.75815
 31
0.0
  0
LINE
  5
897
330
1E
100
AcDbEntity
  8
0
100
AcDbLine
 10
123.442235
 20
1106.01915
 30
0.0
 11
124.198235
 21
1105.96815
 31
0.0
  0
LINE
  5
899
330
1E
100
AcDbEntity
  8
0
100
AcDbLine
 10
123.198235
 20
1104.97415
 30
0.0
 11
123.954235
 21
1104.922149999999
 31
0.0
  0
LINE
  5
89A
330
1E
100
AcDbEntity
  8
0
100
AcDbLine
 10
123.954235
 20
1104.922149999999
 30
0.0
 11
124.564235
 21
1105.18415
 31
0.0
  0
LINE
  5
89D
330
1E
100
AcDbEntity
  8
0
100
AcDbLine
 10
124.564235
 20
1105.18415
 30
0.0
 11
124.654235
 21
1105.61815
 31
0.0
  0
LINE
  5
89E
330
1E
100
AcDbEntity
  8
0
100
AcDbLine
 10
124.198235
 20
1105.96815
 30
0.0
 11
124.654235
 21
1105.61815
 31
0.0
  0
LINE
  5
8A1
330
1E
100
AcDbEntity
  8
0
100
AcDbLine
 10
125.6312349999999
 20
1109.201149999999
 30
0.0
 11
125.674235
 21
1108.765149999999
 31
0.0
  0
LINE
  5
8A2
330
1E
100
AcDbEntity
  8
0
100
AcDbLine
 10
125.6312349999999
 20
1109.201149999999
 30
0.0
 11
126.153235
 21
1109.51915
 31
0.0
  0
LINE
  5
8A6
330
1E
100
AcDbEntity
  8
0
100
AcDbLine
 10
126.153235
 20
1109.51915
 30
0.0
 11
126.913235
 21
1109.54415
 31
0.0
  0
LINE
  5
8A8
330
1E
100
AcDbEntity
  8
0
100
AcDbLine
 10
125.674235
 20
1108.765149999999
 30
0.0
 11
126.229235
 21
1108.466149999999
 31
0.0
  0
LINE
  5
8A9
330
1E
100
AcDbEntity
  8
0
100
AcDbLine
 10
126.229235
 20
1108.466149999999
 30
0.0
 11
126.989235
 21
1108.49015
 31
0.0
  0
LINE
  5
8AB
330
1E
100
AcDbEntity
  8
0
100
AcDbLine
 10
126.989235
 20
1108.49015
 30
0.0
 11
127.511235
 21
1108.80915
 31
0.0
  0
LINE
  5
8AE
330
1E
100
AcDbEntity
  8
0
100
AcDbLine
 10
127.468235
 20
1109.24515
 30
0.0
 11
127.511235
 21
1108.80915
 31
0.0
  0
LINE
  5
8B0
330
1E
100
AcDbEntity
  8
0
100
AcDbLine
 10
126.913235
 20
1109.54415
 30
0.0
 11
127.468235
 21
1109.24515
 31
0.0
  0
LINE
  5
8B4
330
1E
100
AcDbEntity
  8
0
100
AcDbLine
 10
121.406235
 20
1114.38415
 30
0.0
 11
121.766235
 21
1114.76915
 31
0.0
  0
LINE
  5
8B5
330
1E
100
AcDbEntity
  8
0
100
AcDbLine
 10
121.528235
 20
1115.18415
 30
0.0
 11
121.766235
 21
1114.76915
 31
0.0
  0
LINE
  5
8B7
330
1E
100
AcDbEntity
  8
0
100
AcDbLine
 10
127.346235
 20
1112.871149999999
 30
0.0
 11
127.520235
 21
1112.44515
 31
0.0
  0
LINE
  5
8B8
330
1E
100
AcDbEntity
  8
0
100
AcDbLine
 10
127.346235
 20
1112.871149999999
 30
0.0
 11
127.763235
 21
1113.23615
 31
0.0
  0
LINE
  5
8BB
330
1E
100
AcDbEntity
  8
0
100
AcDbLine
 10
127.763235
 20
1113.23615
 30
0.0
 11
128.504235
 21
1113.33615
 31
0.0
  0
LINE
  5
8BD
330
1E
100
AcDbEntity
  8
0
100
AcDbLine
 10
127.520235
 20
1112.44515
 30
0.0
 11
128.157235
 21
1112.20615
 31
0.0
  0
LINE
  5
8BE
330
1E
100
AcDbEntity
  8
0
100
AcDbLine
 10
128.157235
 20
1112.20615
 30
0.0
 11
128.8982349999999
 21
1112.306149999999
 31
0.0
  0
LINE
  5
8BF
330
1E
100
AcDbEntity
  8
0
100
AcDbLine
 10
128.223235
 20
1116.25415
 30
0.0
 11
128.923235
 21
1116.082149999999
 31
0.0
  0
LINE
  5
8C0
330
1E
100
AcDbEntity
  8
0
100
AcDbLine
 10
127.923235
 20
1116.65615
 30
0.0
 11
128.223235
 21
1117.05715
 31
0.0
  0
LINE
  5
8C1
330
1E
100
AcDbEntity
  8
0
100
AcDbLine
 10
127.923235
 20
1116.65615
 30
0.0
 11
128.223235
 21
1116.25415
 31
0.0
  0
LINE
  5
8C3
330
1E
100
AcDbEntity
  8
0
100
AcDbLine
 10
128.8982349999999
 20
1112.306149999999
 30
0.0
 11
129.3152349999999
 21
1112.672149999999
 31
0.0
  0
LINE
  5
8C5
330
1E
100
AcDbEntity
  8
0
100
AcDbLine
 10
128.504235
 20
1113.33615
 30
0.0
 11
129.141235
 21
1113.09715
 31
0.0
  0
LINE
  5
8C7
330
1E
100
AcDbEntity
  8
0
100
AcDbLine
 10
128.223235
 20
1117.05715
 30
0.0
 11
128.923235
 21
1117.22915
 31
0.0
  0
LINE
  5
8CA
330
1E
100
AcDbEntity
  8
0
100
AcDbLine
 10
128.923235
 20
1117.22915
 30
0.0
 11
129.623235
 21
1117.05715
 31
0.0
  0
LINE
  5
8CD
330
1E
100
AcDbEntity
  8
0
100
AcDbLine
 10
131.523235
 20
1105.918149999999
 30
0.0
 11
132.823235
 21
1107.565149999999
 31
0.0
  0
LINE
  5
8CE
330
1E
100
AcDbEntity
  8
0
100
AcDbLine
 10
132.823235
 20
1107.565149999999
 30
0.0
 11
137.623235
 21
1114.390149999999
 31
0.0
  0
LINE
  5
8CF
330
1E
100
AcDbEntity
  8
0
100
AcDbLine
 10
137.623235
 20
1114.390149999999
 30
0.0
 11
138.123235
 21
1116.38115
 31
0.0
  0
LINE
  5
8D2
330
1E
100
AcDbEntity
  8
0
100
AcDbLine
 10
129.141235
 20
1113.09715
 30
0.0
 11
129.3152349999999
 21
1112.672149999999
 31
0.0
  0
LINE
  5
8D4
330
1E
100
AcDbEntity
  8
0
100
AcDbLine
 10
138.123235
 20
1116.38115
 30
0.0
 11
139.1714492857169
 21
1120.656117261914
 31
0.0
  0
LINE
  5
8D7
330
1E
100
AcDbEntity
  8
0
100
AcDbLine
 10
129.623235
 20
1117.05715
 30
0.0
 11
129.923235
 21
1116.65615
 31
0.0
  0
LINE
  5
8D9
330
1E
100
AcDbEntity
  8
0
100
AcDbLine
 10
129.623235
 20
1116.25415
 30
0.0
 11
129.923235
 21
1116.65615
 31
0.0
  0
LINE
  5
8DA
330
1E
100
AcDbEntity
  8
0
100
AcDbLine
 10
128.923235
 20
1116.082149999999
 30
0.0
 11
129.623235
 21
1116.25415
 31
0.0
  0
LINE
  5
8E1
330
1E
100
AcDbEntity
  8
0
100
AcDbLine
 10
121.406235
 20
1118.35015
 30
0.0
 11
121.766235
 21
1117.96515
 31
0.0
  0
LINE
  5
8E3
330
1E
100
AcDbEntity
  8
0
100
AcDbLine
 10
121.528235
 20
1117.55015
 30
0.0
 11
121.766235
 21
1117.96515
 31
0.0
  0
LINE
  5
8E4
330
1E
100
AcDbEntity
  8
0
100
AcDbLine
 10
120.857235
 20
1117.344149999999
 30
0.0
 11
121.528235
 21
1117.55015
 31
0.0
  0
LINE
  5
8E5
330
1E
100
AcDbEntity
  8
0
100
AcDbLine
 10
120.092235
 20
1120.41015
 30
0.0
 11
120.690235
 21
1120.68015
 31
0.0
  0
LINE
  5
8E6
330
1E
100
AcDbEntity
  8
0
100
AcDbLine
 10
119.338235
 20
1120.47215
 30
0.0
 11
120.092235
 21
1120.41015
 31
0.0
  0
LINE
  5
8E7
330
1E
100
AcDbEntity
  8
0
100
AcDbLine
 10
118.867235
 20
1120.81615
 30
0.0
 11
118.975235
 21
1121.248149999999
 31
0.0
  0
LINE
  5
8E8
330
1E
100
AcDbEntity
  8
0
100
AcDbLine
 10
118.867235
 20
1120.81615
 30
0.0
 11
119.338235
 21
1120.47215
 31
0.0
  0
LINE
  5
8EA
330
1E
100
AcDbEntity
  8
0
100
AcDbLine
 10
120.690235
 20
1120.68015
 30
0.0
 11
120.799235
 21
1121.112149999999
 31
0.0
  0
LINE
  5
8EB
330
1E
100
AcDbEntity
  8
0
100
AcDbLine
 10
127.346235
 20
1120.44015
 30
0.0
 11
127.520235
 21
1120.866149999999
 31
0.0
  0
LINE
  5
8EC
330
1E
100
AcDbEntity
  8
0
100
AcDbLine
 10
127.346235
 20
1120.44015
 30
0.0
 11
127.763235
 21
1120.07515
 31
0.0
  0
LINE
  5
8EE
330
1E
100
AcDbEntity
  8
0
100
AcDbLine
 10
127.763235
 20
1120.07515
 30
0.0
 11
128.504235
 21
1119.975149999999
 31
0.0
  0
LINE
  5
8EF
330
1E
100
AcDbEntity
  8
0
100
AcDbLine
 10
127.520235
 20
1120.866149999999
 30
0.0
 11
128.157235
 21
1121.105149999999
 31
0.0
  0
LINE
  5
8F3
330
1E
100
AcDbEntity
  8
0
100
AcDbLine
 10
118.975235
 20
1121.248149999999
 30
0.0
 11
119.574235
 21
1121.518149999999
 31
0.0
  0
LINE
  5
8F7
330
1E
100
AcDbEntity
  8
0
100
AcDbLine
 10
119.574235
 20
1121.518149999999
 30
0.0
 11
120.328235
 21
1121.456149999999
 31
0.0
  0
LINE
  5
8FB
330
1E
100
AcDbEntity
  8
0
100
AcDbLine
 10
120.328235
 20
1121.456149999999
 30
0.0
 11
120.799235
 21
1121.112149999999
 31
0.0
  0
LINE
  5
8FF
330
1E
100
AcDbEntity
  8
0
100
AcDbLine
 10
117.648235
 20
1123.340149999999
 30
0.0
 11
118.409235
 21
1123.35315
 31
0.0
  0
LINE
  5
900
330
1E
100
AcDbEntity
  8
0
100
AcDbLine
 10
117.080235
 20
1123.63115
 30
0.0
 11
117.648235
 21
1123.340149999999
 31
0.0
  0
LINE
  5
901
330
1E
100
AcDbEntity
  8
0
100
AcDbLine
 10
117.056235
 20
1124.067149999999
 30
0.0
 11
117.564235
 21
1124.393149999999
 31
0.0
  0
LINE
  5
902
330
1E
100
AcDbEntity
  8
0
100
AcDbLine
 10
117.056235
 20
1124.067149999999
 30
0.0
 11
117.080235
 21
1123.63115
 31
0.0
  0
LINE
  5
903
330
1E
100
AcDbEntity
  8
0
100
AcDbLine
 10
118.9172349999999
 20
1123.809971639344
 30
0.0
 11
118.9172349999999
 21
1123.679149999999
 31
0.0
  0
LINE
  5
904
330
1E
100
AcDbEntity
  8
0
100
AcDbLine
 10
118.9172349999999
 20
1123.679149999999
 30
0.0
 11
118.9172349999999
 21
1123.809971639344
 31
0.0
  0
LINE
  5
905
330
1E
100
AcDbEntity
  8
0
100
AcDbLine
 10
118.409235
 20
1123.35315
 30
0.0
 11
118.9172349999999
 21
1123.679149999999
 31
0.0
  0
LINE
  5
906
330
1E
100
AcDbEntity
  8
0
100
AcDbLine
 10
117.564235
 20
1124.393149999999
 30
0.0
 11
118.325235
 21
1124.40715
 31
0.0
  0
LINE
  5
907
330
1E
100
AcDbEntity
  8
0
100
AcDbLine
 10
118.325235
 20
1124.40715
 30
0.0
 11
118.8932349999999
 21
1124.116149999999
 31
0.0
  0
LINE
  5
908
330
1E
100
AcDbEntity
  8
0
100
AcDbLine
 10
118.8932349999999
 20
1124.116149999999
 30
0.0
 11
118.9172349999999
 21
1123.679149999999
 31
0.0
  0
LINE
  5
909
330
1E
100
AcDbEntity
  8
0
100
AcDbLine
 10
125.6312349999999
 20
1124.110149999999
 30
0.0
 11
125.674235
 21
1124.54615
 31
0.0
  0
LINE
  5
90A
330
1E
100
AcDbEntity
  8
0
100
AcDbLine
 10
125.6312349999999
 20
1124.110149999999
 30
0.0
 11
126.153235
 21
1123.79215
 31
0.0
  0
LINE
  5
90C
330
1E
100
AcDbEntity
  8
0
100
AcDbLine
 10
126.153235
 20
1123.79215
 30
0.0
 11
126.913235
 21
1123.76715
 31
0.0
  0
LINE
  5
90D
330
1E
100
AcDbEntity
  8
0
100
AcDbLine
 10
125.674235
 20
1124.54615
 30
0.0
 11
126.229235
 21
1124.84515
 31
0.0
  0
LINE
  5
90F
330
1E
100
AcDbEntity
  8
0
100
AcDbLine
 10
115.116235
 20
1125.99515
 30
0.0
 11
115.861235
 21
1126.08415
 31
0.0
  0
LINE
  5
910
330
1E
100
AcDbEntity
  8
0
100
AcDbLine
 10
115.861235
 20
1126.08415
 30
0.0
 11
116.263235
 21
1126.456149999999
 31
0.0
  0
LINE
  5
913
330
1E
100
AcDbEntity
  8
0
100
AcDbLine
 10
115.460235
 20
1127.11315
 30
0.0
 11
116.1072349999999
 21
1126.88315
 31
0.0
  0
LINE
  5
915
330
1E
100
AcDbEntity
  8
0
100
AcDbLine
 10
116.1072349999999
 20
1126.88315
 30
0.0
 11
116.263235
 21
1126.456149999999
 31
0.0
  0
LINE
  5
917
330
1E
100
AcDbEntity
  8
0
100
AcDbLine
 10
122.832235
 20
1127.55315
 30
0.0
 11
123.442235
 21
1127.29215
 31
0.0
  0
LINE
  5
919
330
1E
100
AcDbEntity
  8
0
100
AcDbLine
 10
122.742235
 20
1127.987149999999
 30
0.0
 11
123.198235
 21
1128.337149999999
 31
0.0
  0
LINE
  5
91A
330
1E
100
AcDbEntity
  8
0
100
AcDbLine
 10
122.742235
 20
1127.987149999999
 30
0.0
 11
122.832235
 21
1127.55315
 31
0.0
  0
LINE
  5
91C
330
1E
100
AcDbEntity
  8
0
100
AcDbLine
 10
123.442235
 20
1127.29215
 30
0.0
 11
124.198235
 21
1127.344149999999
 31
0.0
  0
LINE
  5
91D
330
1E
100
AcDbEntity
  8
0
100
AcDbLine
 10
123.198235
 20
1128.337149999999
 30
0.0
 11
123.954235
 21
1128.38915
 31
0.0
  0
LINE
  5
920
330
1E
100
AcDbEntity
  8
0
100
AcDbLine
 10
115.078235
 20
1133.22615
 30
0.0
 11
115.758235
 21
1133.42315
 31
0.0
  0
LINE
  5
921
330
1E
100
AcDbEntity
  8
0
100
AcDbLine
 10
119.033235
 20
1130.66615
 30
0.0
 11
119.712235
 21
1130.469149999999
 31
0.0
  0
LINE
  5
922
330
1E
100
AcDbEntity
  8
0
100
AcDbLine
 10
118.813235
 20
1131.08415
 30
0.0
 11
119.156235
 21
1131.47415
 31
0.0
  0
LINE
  5
923
330
1E
100
AcDbEntity
  8
0
100
AcDbLine
 10
118.813235
 20
1131.08415
 30
0.0
 11
119.033235
 21
1130.66615
 31
0.0
  0
LINE
  5
925
330
1E
100
AcDbEntity
  8
0
100
AcDbLine
 10
119.712235
 20
1130.469149999999
 30
0.0
 11
120.442235
 21
1130.59515
 31
0.0
  0
LINE
  5
926
330
1E
100
AcDbEntity
  8
0
100
AcDbLine
 10
119.156235
 20
1131.47415
 30
0.0
 11
119.885235
 21
1131.60015
 31
0.0
  0
LINE
  5
92B
330
1E
100
AcDbEntity
  8
0
100
AcDbLine
 10
119.885235
 20
1131.60015
 30
0.0
 11
120.565235
 21
1131.40315
 31
0.0
  0
LINE
  5
930
330
1E
100
AcDbEntity
  8
0
100
AcDbLine
 10
120.565235
 20
1131.40315
 30
0.0
 11
120.785235
 21
1130.98515
 31
0.0
  0
LINE
  5
932
330
1E
100
AcDbEntity
  8
0
100
AcDbLine
 10
120.442235
 20
1130.59515
 30
0.0
 11
120.785235
 21
1130.98515
 31
0.0
  0
LINE
  5
934
330
1E
100
AcDbEntity
  8
0
100
AcDbLine
 10
115.758235
 20
1133.42315
 30
0.0
 11
115.978235
 21
1133.84115
 31
0.0
  0
LINE
  5
937
330
1E
100
AcDbEntity
  8
0
100
AcDbLine
 10
123.954235
 20
1128.38915
 30
0.0
 11
124.564235
 21
1128.12715
 31
0.0
  0
LINE
  5
93C
330
1E
100
AcDbEntity
  8
0
100
AcDbLine
 10
124.564235
 20
1128.12715
 30
0.0
 11
124.654235
 21
1127.69315
 31
0.0
  0
LINE
  5
93E
330
1E
100
AcDbEntity
  8
0
100
AcDbLine
 10
124.198235
 20
1127.344149999999
 30
0.0
 11
124.654235
 21
1127.69315
 31
0.0
  0
LINE
  5
941
330
1E
100
AcDbEntity
  8
0
100
AcDbLine
 10
126.229235
 20
1124.84515
 30
0.0
 11
126.989235
 21
1124.82115
 31
0.0
  0
LINE
  5
946
330
1E
100
AcDbEntity
  8
0
100
AcDbLine
 10
126.989235
 20
1124.82115
 30
0.0
 11
127.511235
 21
1124.50315
 31
0.0
  0
LINE
  5
948
330
1E
100
AcDbEntity
  8
0
100
AcDbLine
 10
127.468235
 20
1124.06615
 30
0.0
 11
127.511235
 21
1124.50315
 31
0.0
  0
LINE
  5
949
330
1E
100
AcDbEntity
  8
0
100
AcDbLine
 10
126.913235
 20
1123.76715
 30
0.0
 11
127.468235
 21
1124.06615
 31
0.0
  0
LINE
  5
94C
330
1E
100
AcDbEntity
  8
0
100
AcDbLine
 10
128.157235
 20
1121.105149999999
 30
0.0
 11
128.8982349999999
 21
1121.00515
 31
0.0
  0
LINE
  5
94E
330
1E
100
AcDbEntity
  8
0
100
AcDbLine
 10
128.8982349999999
 20
1121.00515
 30
0.0
 11
129.3152349999999
 21
1120.64015
 31
0.0
  0
LINE
  5
950
330
1E
100
AcDbEntity
  8
0
100
AcDbLine
 10
138.123235
 20
1133.11215
 30
0.0
 11
139.923235
 21
1125.770149999999
 31
0.0
  0
LINE
  5
953
330
1E
100
AcDbEntity
  8
0
100
AcDbLine
 10
129.141235
 20
1120.21415
 30
0.0
 11
129.3152349999999
 21
1120.64015
 31
0.0
  0
LINE
  5
954
330
1E
100
AcDbEntity
  8
0
100
AcDbLine
 10
128.504235
 20
1119.975149999999
 30
0.0
 11
129.141235
 21
1120.21415
 31
0.0
  0
LINE
  5
955
330
1E
100
AcDbEntity
  8
0
100
AcDbLine
 10
139.923235
 20
1123.72215
 30
0.0
 11
139.923235
 21
1125.770149999999
 31
0.0
  0
LINE
  5
956
330
1E
100
AcDbEntity
  8
0
100
AcDbLine
 10
139.923235
 20
1125.770149999999
 30
0.0
 11
139.923235
 21
1123.72215
 31
0.0
  0
LINE
  5
957
330
1E
100
AcDbEntity
  8
0
100
AcDbLine
 10
139.82283317476
 20
1126.179677889396
 30
0.0
 11
139.923235
 21
1126.58915
 31
0.0
  0
LINE
  5
959
330
1E
100
AcDbEntity
  8
0
100
AcDbLine
 10
133.223235
 20
1140.05215
 30
0.0
 11
138.123235
 21
1133.11215
 31
0.0
  0
LINE
  5
95C
330
1E
100
AcDbEntity
  8
0
100
AcDbLine
 10
114.905235
 20
1134.35715
 30
0.0
 11
115.635235
 21
1134.23115
 31
0.0
  0
LINE
  5
95E
330
1E
100
AcDbEntity
  8
0
100
AcDbLine
 10
115.635235
 20
1134.23115
 30
0.0
 11
115.978235
 21
1133.84115
 31
0.0
  0
LINE
  5
960
330
1E
100
AcDbEntity
  8
0
100
AcDbLine
 10
139.923235
 20
1135.19115
 30
0.0
 11
139.923235
 21
1126.58915
 31
0.0
  0
LINE
  5
961
330
1E
100
AcDbEntity
  8
0
100
AcDbLine
 10
133.223235
 20
1140.87215
 30
0.0
 11
138.123235
 21
1133.931149999999
 31
0.0
  0
LINE
  5
962
330
1E
100
AcDbEntity
  8
0
100
AcDbLine
 10
138.123235
 20
1133.931149999999
 30
0.0
 11
139.923235
 21
1126.58915
 31
0.0
  0
LINE
  5
963
330
1E
100
AcDbEntity
  8
0
100
AcDbLine
 10
139.923235
 20
1126.58915
 30
0.0
 11
139.923235
 21
1135.19115
 31
0.0
  0
LINE
  5
964
330
1E
100
AcDbEntity
  8
0
100
AcDbLine
 10
125.223235
 20
1146.018149999999
 30
0.0
 11
133.223235
 21
1140.05215
 31
0.0
  0
LINE
  5
965
330
1E
100
AcDbEntity
  8
0
100
AcDbLine
 10
125.223235
 20
1146.837149999999
 30
0.0
 11
133.223235
 21
1140.87215
 31
0.0
  0
LINE
  5
966
330
1E
100
AcDbEntity
  8
0
100
AcDbLine
 10
132.823235
 20
1150.12015
 30
0.0
 11
137.623235
 21
1143.29415
 31
0.0
  0
LINE
  5
967
330
1E
100
AcDbEntity
  8
0
100
AcDbLine
 10
137.623235
 20
1143.29415
 30
0.0
 11
138.123235
 21
1142.53215
 31
0.0
  0
LINE
  5
968
330
1E
100
AcDbEntity
  8
0
100
AcDbLine
 10
138.123235
 20
1142.53215
 30
0.0
 11
139.923235
 21
1135.19115
 31
0.0
  0
LINE
  5
969
330
1E
100
AcDbEntity
  8
0
100
AcDbLine
 10
114.823235
 20
1151.42515
 30
0.0
 11
125.223235
 21
1146.837149999999
 31
0.0
  0
LINE
  5
96A
330
1E
100
AcDbEntity
  8
0
100
AcDbLine
 10
112.823235
 20
1161.29615
 30
0.0
 11
114.523235
 21
1160.616149999999
 31
0.0
  0
LINE
  5
96B
330
1E
100
AcDbEntity
  8
0
100
AcDbLine
 10
114.523235
 20
1160.616149999999
 30
0.0
 11
124.9232349999999
 21
1156.085149999999
 31
0.0
  0
LINE
  5
96C
330
1E
100
AcDbEntity
  8
0
100
AcDbLine
 10
124.9232349999999
 20
1156.085149999999
 30
0.0
 11
132.823235
 21
1150.12015
 31
0.0
  0
LINE
  5
96D
330
1E
100
AcDbEntity
  8
0
100
AcDbLine
 10
102.723235
 20
1154.23615
 30
0.0
 11
114.823235
 21
1151.42515
 31
0.0
  0
LINE
  5
96E
330
1E
100
AcDbEntity
  8
0
100
AcDbLine
 10
101.923235
 20
995.797289285714
 30
0.0
 11
102.0752349999999
 21
995.6981500000001
 31
0.0
  0
LINE
  5
96F
330
1E
100
AcDbEntity
  8
0
100
AcDbLine
 10
77.771235
 20
995.6981500000001
 30
0.0
 11
77.92323499999999
 21
995.797289285714
 31
0.0
  0
LINE
  5
970
330
1E
100
AcDbEntity
  8
0
100
AcDbLine
 10
77.771235
 20
995.6981500000001
 30
0.0
 11
77.92323499999999
 21
995.6554218894009
 31
0.0
  0
LINE
  5
971
330
1E
100
AcDbEntity
  8
0
100
AcDbLine
 10
76.42723499999999
 20
994.04415
 30
0.0
 11
77.771235
 21
995.6981500000001
 31
0.0
  0
LINE
  5
973
330
1E
100
AcDbEntity
  8
0
100
AcDbLine
 10
76.42723499999999
 20
990.5171499999999
 30
0.0
 11
77.771235
 21
988.86315
 31
0.0
  0
LINE
  5
976
330
1E
100
AcDbEntity
  8
0
100
AcDbLine
 10
75.92323499999999
 20
954.17515
 30
0.0
 11
76.42723499999999
 21
952.4121499999999
 31
0.0
  0
LINE
  5
977
330
1E
100
AcDbEntity
  8
0
100
AcDbLine
 10
75.92323499999999
 20
954.17515
 30
0.0
 11
75.92323499999999
 21
992.2811499999999
 31
0.0
  0
LINE
  5
978
330
1E
100
AcDbEntity
  8
0
100
AcDbLine
 10
75.92323499999999
 20
954.17515
 30
0.0
 11
75.92323499999999
 21
952.44315
 31
0.0
  0
LINE
  5
979
330
1E
100
AcDbEntity
  8
0
100
AcDbLine
 10
48.723235
 20
351.85515
 30
0.0
 11
55.923235
 21
351.85515
 31
0.0
  0
LINE
  5
97A
330
1E
100
AcDbEntity
  8
0
100
AcDbLine
 10
12.323235
 20
351.85515
 30
0.0
 11
17.123235
 21
351.85515
 31
0.0
  0
LINE
  5
97B
330
1E
100
AcDbEntity
  8
0
100
AcDbLine
 10
2.923235000000009
 20
351.85515
 30
0.0
 11
5.223235000000009
 21
351.85515
 31
0.0
  0
LINE
  5
97C
330
1E
100
AcDbEntity
  8
0
100
AcDbLine
 10
1.52323500000001
 20
351.85515
 30
0.0
 11
2.923235000000009
 21
351.85515
 31
0.0
  0
LINE
  5
97D
330
1E
100
AcDbEntity
  8
0
100
AcDbLine
 10
1.52323500000001
 20
328.85515
 30
0.0
 11
2.923235000000009
 21
328.85515
 31
0.0
  0
LINE
  5
97E
330
1E
100
AcDbEntity
  8
0
100
AcDbLine
 10
0.9232350000000078
 20
328.85515
 30
0.0
 11
1.52323500000001
 21
328.85515
 31
0.0
  0
LINE
  5
97F
330
1E
100
AcDbEntity
  8
0
100
AcDbLine
 10
0.9232350000000078
 20
328.85515
 30
0.0
 11
0.9232350000000078
 21
351.85515
 31
0.0
  0
LINE
  5
984
330
1E
100
AcDbEntity
  8
0
  6
Continuous
100
AcDbLine
 10
78.55491900099541
 20
990.7952497760639
 30
0.0
 11
79.6963067023204
 21
989.4050384630569
 31
0.0
  0
LINE
  5
985
330
1E
100
AcDbEntity
  8
0
  6
Continuous
100
AcDbLine
 10
79.6963067023204
 20
989.4050384630569
 30
0.0
 11
81.50769818710969
 21
988.2930446881509
 31
0.0
  0
LINE
  5
986
330
1E
100
AcDbEntity
  8
0
  6
Continuous
100
AcDbLine
 10
81.50769818710969
 20
988.2930446881509
 30
0.0
 11
81.92323499999998
 21
987.9292676470591
 31
0.0
  0
LINE
  5
987
330
1E
100
AcDbEntity
  8
0
  6
Continuous
100
AcDbLine
 10
101.2915509990049
 20
990.7952497760639
 30
0.0
 11
100.15016329768
 21
989.4050384630569
 31
0.0
  0
LINE
  5
988
330
1E
100
AcDbEntity
  8
0
  6
Continuous
100
AcDbLine
 10
100.15016329768
 20
989.4050384630569
 30
0.0
 11
98.33877181289031
 21
988.2930446881509
 31
0.0
  0
LINE
  5
989
330
1E
100
AcDbEntity
  8
0
  6
Continuous
100
AcDbLine
 10
98.33877181289031
 20
988.2930446881509
 30
0.0
 11
97.923235
 21
987.9292676470591
 31
0.0
  0
LINE
  5
98A
330
1E
100
AcDbEntity
  8
0
  6
Continuous
100
AcDbLine
 10
97.923235
 20
952.1713849336061
 30
0.0
 11
97.923235
 21
963.718775
 31
0.0
  0
LINE
  5
98B
330
1E
100
AcDbEntity
  8
0
  6
Continuous
100
AcDbLine
 10
97.923235
 20
963.718775
 30
0.0
 11
97.923235
 21
986.6701500000001
 31
0.0
  0
LINE
  5
98C
330
1E
100
AcDbEntity
  8
0
  6
Continuous
100
AcDbLine
 10
97.923235
 20
986.6701500000001
 30
0.0
 11
97.923235
 21
987.9292676470591
 31
0.0
  0
LINE
  5
98D
330
1E
100
AcDbEntity
  8
0
  6
Continuous
100
AcDbLine
 10
66.92323499999999
 20
1186.355149999999
 30
0.0
 11
67.023235
 21
1161.29615
 31
0.0
  0
LINE
  5
98E
330
1E
100
AcDbEntity
  8
0
  6
Continuous
100
AcDbLine
 10
40.67502071428321
 20
1120.656117261914
 30
0.0
 11
39.92323499999999
 21
1123.72215
 31
0.0
  0
LINE
  5
98F
330
1E
100
AcDbEntity
  8
0
  6
Continuous
100
AcDbLine
 10
139.1714492857169
 20
1120.656117261914
 30
0.0
 11
139.923235
 21
1123.72215
 31
0.0
  0
ENDSEC
  0
SECTION
  2
OBJECTS
  0
DICTIONARY
  5
C
330
0
100
AcDbDictionary
281
     1
  3
ACAD_GROUP
350
D
  3
ACAD_LAYOUT
350
19
  3
ACAD_MLINESTYLE
350
16
  3
ACAD_PLOTSETTINGS
350
18
  3
ACAD_PLOTSTYLENAME
350
E
  3
AcDbVariableDictionary
350
990
  0
DICTIONARY
  5
D
102
{ACAD_REACTORS
330
C
102
}
330
C
100
AcDbDictionary
281
     1
  0
DICTIONARY
  5
19
102
{ACAD_REACTORS
330
C
102
}
330
C
100
AcDbDictionary
281
     1
  3
Layout1
350
1D
  3
Model
350
21
  0
DICTIONARY
  5
16
102
{ACAD_REACTORS
330
C
102
}
330
C
100
AcDbDictionary
281
     1
  3
Standard
350
17
  0
DICTIONARY
  5
18
102
{ACAD_REACTORS
330
C
102
}
330
C
100
AcDbDictionary
281
     1
  0
ACDBDICTIONARYWDFLT
  5
E
102
{ACAD_REACTORS
330
C
102
}
330
C
100
AcDbDictionary
281
     1
  3
Normal
350
F
100
AcDbDictionaryWithDefault
340
F
  0
DICTIONARY
  5
990
102
{ACAD_REACTORS
330
C
102
}
330
C
100
AcDbDictionary
281
     1
  3
DIMASSOC
350
991
  0
LAYOUT
  5
1D
102
{ACAD_REACTORS
330
19
102
}
330
19
100
AcDbPlotSettings
  1

  2
hp deskjet 980c series
  4

  6

 40
0.0
 41
0.0
 42
0.0
 43
0.0
 44
0.0
 45
0.0
 46
0.0
 47
0.0
 48
0.0
 49
0.0
140
0.0
141
0.0
142
1.0
143
1.0
 70
   688
 72
     0
 73
     0
 74
     5
  7

 75
    16
147
1.0
148
0.0
149
0.0
100
AcDbLayout
  1
Layout1
 70
     1
 71
     1
 10
0.0
 20
0.0
 11
12.0
 21
9.0
 12
0.0
 22
0.0
 32
0.0
 14
1.000000000000000E+20
 24
1.000000000000000E+20
 34
1.000000000000000E+20
 15
-1.000000000000000E+20
 25
-1.000000000000000E+20
 35
-1.000000000000000E+20
146
0.0
 13
0.0
 23
0.0
 33
0.0
 16
1.0
 26
0.0
 36
0.0
 17
0.0
 27
1.0
 37
0.0
 76
     0
330
1A
  0
LAYOUT
  5
21
102
{ACAD_REACTORS
330
19
102
}
330
19
100
AcDbPlotSettings
  1

  2
hp deskjet 980c series
  4

  6

 40
0.0
 41
0.0
 42
0.0
 43
0.0
 44
0.0
 45
0.0
 46
0.0
 47
0.0
 48
0.0
 49
0.0
140
0.0
141
0.0
142
1.0
143
1.0
 70
  1712
 72
     0
 73
     0
 74
     0
  7

 75
     0
147
1.0
148
0.0
149
0.0
100
AcDbLayout
  1
Model
 70
     1
 71
     0
 10
0.0
 20
0.0
 11
12.0
 21
9.0
 12
0.0
 22
0.0
 32
0.0
 14
0.0
 24
0.0
 34
0.0
 15
0.0
 25
0.0
 35
0.0
146
0.0
 13
0.0
 23
0.0
 33
0.0
 16
1.0
 26
0.0
 36
0.0
 17
0.0
 27
1.0
 37
0.0
 76
     0
330
1E
  0
MLINESTYLE
  5
17
102
{ACAD_REACTORS
330
16
102
}
330
16
100
AcDbMlineStyle
  2
STANDARD
 70
     0
  3

 62
   256
 51
90.0
 52
90.0
 71
     2
 49
0.5
 62
   256
  6
BYLAYER
 49
-0.5
 62
   256
  6
BYLAYER
  0
ACDBPLACEHOLDER
  5
F
102
{ACAD_REACTORS
330
E
102
}
330
E
  0
DICTIONARYVAR
  5
991
102
{ACAD_REACTORS
330
990
102
}
330
990
100
DictionaryVariables
280
     0
  1
1
  0
ENDSEC
  0
EOF
