  0
SECTION
  2
HEADER
  9
$ACADVER
  1
AC1015
  9
$ACADMAINTVER
 70
    13
  9
$DWGCODEPAGE
  3
ANSI_1252
  9
$INSBASE
 10
0.0
 20
0.0
 30
0.0
  9
$EXTMIN
 10
-0.20314000000002
 20
0.14484999999997
 30
0.0
  9
$EXTMAX
 10
260.20314
 20
896.85515
 30
0.0
  9
$LIMMIN
 10
0.0
 20
0.0
  9
$LIMMAX
 10
12.0
 20
9.0
  9
$ORTHOMODE
 70
     0
  9
$REGENMODE
 70
     1
  9
$FILLMODE
 70
     1
  9
$QTEXTMODE
 70
     0
  9
$MIRRTEXT
 70
     1
  9
$LTSCALE
 40
1.0
  9
$ATTMODE
 70
     1
  9
$TEXTSIZE
 40
0.2
  9
$TRACEWID
 40
0.05
  9
$TEXTSTYLE
  7
Standard
  9
$CLAYER
  8
0
  9
$CELTYPE
  6
Continuous
  9
$CECOLOR
 62
   256
  9
$CELTSCALE
 40
1.0
  9
$DISPSILH
 70
     0
  9
$DIMSCALE
 40
1.0
  9
$DIMASZ
 40
0.18
  9
$DIMEXO
 40
0.0625
  9
$DIMDLI
 40
0.38
  9
$DIMRND
 40
0.0
  9
$DIMDLE
 40
0.0
  9
$DIMEXE
 40
0.18
  9
$DIMTP
 40
0.0
  9
$DIMTM
 40
0.0
  9
$DIMTXT
 40
0.18
  9
$DIMCEN
 40
0.09
  9
$DIMTSZ
 40
0.0
  9
$DIMTOL
 70
     0
  9
$DIMLIM
 70
     0
  9
$DIMTIH
 70
     1
  9
$DIMTOH
 70
     1
  9
$DIMSE1
 70
     0
  9
$DIMSE2
 70
     0
  9
$DIMTAD
 70
     0
  9
$DIMZIN
 70
     0
  9
$DIMBLK
  1

  9
$DIMASO
 70
     1
  9
$DIMSHO
 70
     1
  9
$DIMPOST
  1

  9
$DIMAPOST
  1

  9
$DIMALT
 70
     0
  9
$DIMALTD
 70
     2
  9
$DIMALTF
 40
25.4
  9
$DIMLFAC
 40
1.0
  9
$DIMTOFL
 70
     0
  9
$DIMTVP
 40
0.0
  9
$DIMTIX
 70
     0
  9
$DIMSOXD
 70
     0
  9
$DIMSAH
 70
     0
  9
$DIMBLK1
  1

  9
$DIMBLK2
  1

  9
$DIMSTYLE
  2
Standard
  9
$DIMCLRD
 70
     0
  9
$DIMCLRE
 70
     0
  9
$DIMCLRT
 70
     0
  9
$DIMTFAC
 40
1.0
  9
$DIMGAP
 40
0.09
  9
$DIMJUST
 70
     0
  9
$DIMSD1
 70
     0
  9
$DIMSD2
 70
     0
  9
$DIMTOLJ
 70
     1
  9
$DIMTZIN
 70
     0
  9
$DIMALTZ
 70
     0
  9
$DIMALTTZ
 70
     0
  9
$DIMUPT
 70
     0
  9
$DIMDEC
 70
     4
  9
$DIMTDEC
 70
     4
  9
$DIMALTU
 70
     2
  9
$DIMALTTD
 70
     2
  9
$DIMTXSTY
  7
Standard
  9
$DIMAUNIT
 70
     0
  9
$DIMADEC
 70
     0
  9
$DIMALTRND
 40
0.0
  9
$DIMAZIN
 70
     0
  9
$DIMDSEP
 70
    46
  9
$DIMATFIT
 70
     3
  9
$DIMFRAC
 70
     0
  9
$DIMLDRBLK
  1

  9
$DIMLUNIT
 70
     2
  9
$DIMLWD
 70
    -2
  9
$DIMLWE
 70
    -2
  9
$DIMTMOVE
 70
     0
  9
$LUNITS
 70
     2
  9
$LUPREC
 70
     4
  9
$SKETCHINC
 40
0.1
  9
$FILLETRAD
 40
0.0
  9
$AUNITS
 70
     0
  9
$AUPREC
 70
     0
  9
$MENU
  1
.
  9
$ELEVATION
 40
0.0
  9
$PELEVATION
 40
0.0
  9
$THICKNESS
 40
0.0
  9
$LIMCHECK
 70
     0
  9
$CHAMFERA
 40
0.0
  9
$CHAMFERB
 40
0.0
  9
$CHAMFERC
 40
0.0
  9
$CHAMFERD
 40
0.0
  9
$SKPOLY
 70
     0
  9
$TDCREATE
 40
2454738.877932939
  9
$TDUCREATE
 40
2454738.794599606
  9
$TDUPDATE
 40
2454738.880504375
  9
$TDUUPDATE
 40
2454738.797171041
  9
$TDINDWG
 40
0.0025714352
  9
$TDUSRTIMER
 40
0.0025714352
  9
$USRTIMER
 70
     1
  9
$ANGBASE
 50
0.0
  9
$ANGDIR
 70
     0
  9
$PDMODE
 70
     0
  9
$PDSIZE
 40
0.0
  9
$PLINEWID
 40
0.0
  9
$SPLFRAME
 70
     0
  9
$SPLINETYPE
 70
     6
  9
$SPLINESEGS
 70
     8
  9
$HANDSEED
  5
4DC
  9
$SURFTAB1
 70
     6
  9
$SURFTAB2
 70
     6
  9
$SURFTYPE
 70
     6
  9
$SURFU
 70
     6
  9
$SURFV
 70
     6
  9
$UCSBASE
  2

  9
$UCSNAME
  2

  9
$UCSORG
 10
0.0
 20
0.0
 30
0.0
  9
$UCSXDIR
 10
1.0
 20
0.0
 30
0.0
  9
$UCSYDIR
 10
0.0
 20
1.0
 30
0.0
  9
$UCSORTHOREF
  2

  9
$UCSORTHOVIEW
 70
     1
  9
$UCSORGTOP
 10
0.0
 20
0.0
 30
0.0
  9
$UCSORGBOTTOM
 10
0.0
 20
0.0
 30
0.0
  9
$UCSORGLEFT
 10
0.0
 20
0.0
 30
0.0
  9
$UCSORGRIGHT
 10
0.0
 20
0.0
 30
0.0
  9
$UCSORGFRONT
 10
0.0
 20
0.0
 30
0.0
  9
$UCSORGBACK
 10
0.0
 20
0.0
 30
0.0
  9
$PUCSBASE
  2

  9
$PUCSNAME
  2

  9
$PUCSORG
 10
0.0
 20
0.0
 30
0.0
  9
$PUCSXDIR
 10
1.0
 20
0.0
 30
0.0
  9
$PUCSYDIR
 10
0.0
 20
1.0
 30
0.0
  9
$PUCSORTHOREF
  2

  9
$PUCSORTHOVIEW
 70
     0
  9
$PUCSORGTOP
 10
0.0
 20
0.0
 30
0.0
  9
$PUCSORGBOTTOM
 10
0.0
 20
0.0
 30
0.0
  9
$PUCSORGLEFT
 10
0.0
 20
0.0
 30
0.0
  9
$PUCSORGRIGHT
 10
0.0
 20
0.0
 30
0.0
  9
$PUCSORGFRONT
 10
0.0
 20
0.0
 30
0.0
  9
$PUCSORGBACK
 10
0.0
 20
0.0
 30
0.0
  9
$USERI1
 70
     0
  9
$USERI2
 70
     0
  9
$USERI3
 70
     0
  9
$USERI4
 70
     0
  9
$USERI5
 70
     0
  9
$USERR1
 40
0.0
  9
$USERR2
 40
0.0
  9
$USERR3
 40
0.0
  9
$USERR4
 40
0.0
  9
$USERR5
 40
0.0
  9
$WORLDVIEW
 70
     1
  9
$SHADEDGE
 70
     3
  9
$SHADEDIF
 70
    70
  9
$TILEMODE
 70
     1
  9
$MAXACTVP
 70
    64
  9
$PINSBASE
 10
0.0
 20
0.0
 30
0.0
  9
$PLIMCHECK
 70
     0
  9
$PEXTMIN
 10
1.000000000000000E+20
 20
1.000000000000000E+20
 30
1.000000000000000E+20
  9
$PEXTMAX
 10
-1.000000000000000E+20
 20
-1.000000000000000E+20
 30
-1.000000000000000E+20
  9
$PLIMMIN
 10
0.0
 20
0.0
  9
$PLIMMAX
 10
12.0
 20
9.0
  9
$UNITMODE
 70
     0
  9
$VISRETAIN
 70
     1
  9
$PLINEGEN
 70
     0
  9
$PSLTSCALE
 70
     1
  9
$TREEDEPTH
 70
  3020
  9
$CMLSTYLE
  2
Standard
  9
$CMLJUST
 70
     0
  9
$CMLSCALE
 40
1.0
  9
$PROXYGRAPHICS
 70
     1
  9
$MEASUREMENT
 70
     0
  9
$CELWEIGHT
370
    -1
  9
$ENDCAPS
280
     0
  9
$JOINSTYLE
280
     0
  9
$LWDISPLAY
290
     0
  9
$INSUNITS
 70
     0
  9
$HYPERLINKBASE
  1

  9
$STYLESHEET
  1

  9
$XEDIT
290
     1
  9
$CEPSNTYPE
380
     0
  9
$PSTYLEMODE
290
     1
  9
$FINGERPRINTGUID
  2
{846E6368-4D76-464C-B55F-C82464817B57}
  9
$VERSIONGUID
  2
{A05AB137-118C-433A-8E16-C7644EF2B570}
  9
$EXTNAMES
290
     1
  9
$PSVPSCALE
 40
0.0
  9
$OLESTARTUP
290
     0
  0
ENDSEC
  0
SECTION
  2
CLASSES
  0
CLASS
  1
ACDBDICTIONARYWDFLT
  2
AcDbDictionaryWithDefault
  3
AutoCAD 2000
 90
        0
280
     0
281
     0
  0
CLASS
  1
ACDBPLACEHOLDER
  2
AcDbPlaceHolder
  3
AutoCAD 2000
 90
        0
280
     0
281
     0
  0
CLASS
  1
LAYOUT
  2
AcDbLayout
  3
AutoCAD 2000
 90
        0
280
     0
281
     0
  0
CLASS
  1
DICTIONARYVAR
  2
AcDbDictionaryVar
  3
AutoCAD 2000
 90
        0
280
     0
281
     0
  0
ENDSEC
  0
SECTION
  2
TABLES
  0
TABLE
  2
VPORT
  5
8
330
0
100
AcDbSymbolTable
 70
     2
  0
VPORT
  5
4DB
330
8
100
AcDbSymbolTableRecord
100
AcDbViewportTableRecord
  2
*Active
 70
     0
 10
0.0
 20
0.0
 11
1.0
 21
1.0
 12
130.0
 22
448.4999999999999
 13
0.0
 23
0.0
 14
1.0
 24
1.0
 15
0.0
 25
0.0
 16
0.0
 26
0.0
 36
1.0
 17
0.0
 27
0.0
 37
0.0
 40
903.590430179028
 41
2.078104993597951
 42
50.0
 43
0.0
 44
0.0
 50
0.0
 51
0.0
 71
     0
 72
   100
 73
     1
 74
     3
 75
     0
 76
     0
 77
     0
 78
     0
281
     0
 65
     1
110
0.0
120
0.0
130
0.0
111
1.0
121
0.0
131
0.0
112
0.0
122
1.0
132
0.0
 79
     1
146
0.0
  0
ENDTAB
  0
TABLE
  2
LTYPE
  5
5
330
0
100
AcDbSymbolTable
 70
     1
  0
LTYPE
  5
13
330
5
100
AcDbSymbolTableRecord
100
AcDbLinetypeTableRecord
  2
ByBlock
 70
     0
  3

 72
    65
 73
     0
 40
0.0
  0
LTYPE
  5
14
330
5
100
AcDbSymbolTableRecord
100
AcDbLinetypeTableRecord
  2
ByLayer
 70
     0
  3

 72
    65
 73
     0
 40
0.0
  0
LTYPE
  5
15
330
5
100
AcDbSymbolTableRecord
100
AcDbLinetypeTableRecord
  2
Continuous
 70
     0
  3
Solid line
 72
    65
 73
     0
 40
0.0
  0
ENDTAB
  0
TABLE
  2
LAYER
  5
2
330
0
100
AcDbSymbolTable
 70
     1
  0
LAYER
  5
10
330
2
100
AcDbSymbolTableRecord
100
AcDbLayerTableRecord
  2
0
 70
     0
 62
     7
  6
Continuous
370
    -3
390
F
  0
ENDTAB
  0
TABLE
  2
STYLE
  5
3
330
0
100
AcDbSymbolTable
 70
     1
  0
STYLE
  5
11
330
3
100
AcDbSymbolTableRecord
100
AcDbTextStyleTableRecord
  2
Standard
 70
     0
 40
0.0
 41
1.0
 50
0.0
 71
     0
 42
0.2
  3
txt
  4

  0
ENDTAB
  0
TABLE
  2
VIEW
  5
6
330
0
100
AcDbSymbolTable
 70
     0
  0
ENDTAB
  0
TABLE
  2
UCS
  5
7
330
0
100
AcDbSymbolTable
 70
     0
  0
ENDTAB
  0
TABLE
  2
APPID
  5
9
330
0
100
AcDbSymbolTable
 70
     1
  0
APPID
  5
12
330
9
100
AcDbSymbolTableRecord
100
AcDbRegAppTableRecord
  2
ACAD
 70
     0
  0
ENDTAB
  0
TABLE
  2
DIMSTYLE
  5
A
330
0
100
AcDbSymbolTable
 70
     1
100
AcDbDimStyleTable
 71
     0
  0
DIMSTYLE
105
4D1
330
A
100
AcDbSymbolTableRecord
100
AcDbDimStyleTableRecord
  2
Standard
 70
     0
340
11
  0
ENDTAB
  0
TABLE
  2
BLOCK_RECORD
  5
1
330
0
100
AcDbSymbolTable
 70
     0
  0
BLOCK_RECORD
  5
1E
330
1
100
AcDbSymbolTableRecord
100
AcDbBlockTableRecord
  2
*Model_Space
340
21
  0
BLOCK_RECORD
  5
1A
330
1
100
AcDbSymbolTableRecord
100
AcDbBlockTableRecord
  2
*Paper_Space
340
1D
  0
ENDTAB
  0
ENDSEC
  0
SECTION
  2
BLOCKS
  0
BLOCK
  5
1F
330
1E
100
AcDbEntity
  8
0
100
AcDbBlockBegin
  2
*Model_Space
 70
     0
 10
0.0
 20
0.0
 30
0.0
  3
*Model_Space
  1

  0
ENDBLK
  5
20
330
1E
100
AcDbEntity
  8
0
100
AcDbBlockEnd
  0
BLOCK
  5
1B
330
1A
100
AcDbEntity
 67
     1
  8
0
100
AcDbBlockBegin
  2
*Paper_Space
 70
     0
 10
0.0
 20
0.0
 30
0.0
  3
*Paper_Space
  1

  0
ENDBLK
  5
1C
330
1A
100
AcDbEntity
 67
     1
  8
0
100
AcDbBlockEnd
  0
ENDSEC
  0
SECTION
  2
ENTITIES
  0
LINE
  5
22
330
1E
100
AcDbEntity
  8
0
100
AcDbLine
 10
100.6031399999999
 20
328.85515
 30
0.0
 11
105.4031399999999
 21
328.85515
 31
0.0
  0
LINE
  5
23
330
1E
100
AcDbEntity
  8
0
100
AcDbLine
 10
96.60313999999999
 20
328.85515
 30
0.0
 11
100.6031399999999
 21
328.85515
 31
0.0
  0
LINE
  5
24
330
1E
100
AcDbEntity
  8
0
100
AcDbLine
 10
93.50314
 20
328.85515
 30
0.0
 11
96.60313999999999
 21
328.85515
 31
0.0
  0
LINE
  5
25
330
1E
100
AcDbEntity
  8
0
100
AcDbLine
 10
91.20314
 20
328.85515
 30
0.0
 11
93.50314
 21
328.85515
 31
0.0
  0
LINE
  5
26
330
1E
100
AcDbEntity
  8
0
100
AcDbLine
 10
89.80313999999991
 20
328.85515
 30
0.0
 11
91.20314
 21
328.85515
 31
0.0
  0
LINE
  5
27
330
1E
100
AcDbEntity
  8
0
100
AcDbLine
 10
89.2031399999999
 20
328.85515
 30
0.0
 11
89.80313999999991
 21
328.85515
 31
0.0
  0
LINE
  5
28
330
1E
100
AcDbEntity
  8
0
100
AcDbLine
 10
89.2031399999999
 20
328.85515
 30
0.0
 11
89.2031399999999
 21
351.85515
 31
0.0
  0
LINE
  5
29
330
1E
100
AcDbEntity
  8
0
100
AcDbLine
 10
105.4031399999999
 20
328.85515
 30
0.0
 11
110.8031399999999
 21
328.85515
 31
0.0
  0
LINE
  5
2A
330
1E
100
AcDbEntity
  8
0
100
AcDbLine
 10
110.8031399999999
 20
328.85515
 30
0.0
 11
116.8031399999999
 21
328.85515
 31
0.0
  0
LINE
  5
2B
330
1E
100
AcDbEntity
  8
0
100
AcDbLine
 10
116.8031399999999
 20
328.85515
 30
0.0
 11
123.2031399999999
 21
328.85515
 31
0.0
  0
LINE
  5
2C
330
1E
100
AcDbEntity
  8
0
100
AcDbLine
 10
123.2031399999999
 20
328.85515
 30
0.0
 11
130.0031399999999
 21
328.85515
 31
0.0
  0
LINE
  5
58
330
1E
100
AcDbEntity
  8
0
100
AcDbLine
 10
87.01674
 20
796.17915
 30
0.0
 11
89.92704000000001
 21
796.21815
 31
0.0
  0
LINE
  5
59
330
1E
100
AcDbEntity
  8
0
100
AcDbLine
 10
83.86343999999999
 20
797.10415
 30
0.0
 11
87.01674
 21
796.17915
 31
0.0
  0
LINE
  5
5A
330
1E
100
AcDbEntity
  8
0
100
AcDbLine
 10
81.05743999999999
 20
798.4231499999999
 30
0.0
 11
83.86343999999999
 21
797.10415
 31
0.0
  0
LINE
  5
5B
330
1E
100
AcDbEntity
  8
0
100
AcDbLine
 10
78.46313999999999
 20
799.73715
 30
0.0
 11
81.05743999999999
 21
798.4231499999999
 31
0.0
  0
LINE
  5
5C
330
1E
100
AcDbEntity
  8
0
100
AcDbLine
 10
3.687399999999982
 20
851.38215
 30
0.0
 11
78.46313999999999
 21
799.73715
 31
0.0
  0
LINE
  5
5E
330
1E
100
AcDbEntity
  8
0
100
AcDbLine
 10
88.89694
 20
803.9851499999999
 30
0.0
 11
91.20704000000001
 21
802.36815
 31
0.0
  0
LINE
  5
5F
330
1E
100
AcDbEntity
  8
0
100
AcDbLine
 10
85.92244
 20
805.7811499999999
 30
0.0
 11
88.89694
 21
803.9851499999999
 31
0.0
  0
LINE
  5
60
330
1E
100
AcDbEntity
  8
0
100
AcDbLine
 10
84.2289049541463
 20
806.8818174531958
 30
0.0
 11
84.37554
 21
807.0911499999999
 31
0.0
  0
LINE
  5
61
330
1E
100
AcDbEntity
  8
0
100
AcDbLine
 10
84.2289049541463
 20
806.8818174531958
 30
0.0
 11
85.92244
 21
805.7811499999999
 31
0.0
  0
LINE
  5
14E
330
1E
100
AcDbEntity
  8
0
100
AcDbLine
 10
32.93283999999999
 20
843.1121499999999
 30
0.0
 11
43.41794
 21
835.7701499999999
 31
0.0
  0
LINE
  5
19F
330
1E
100
AcDbEntity
  8
0
100
AcDbLine
 10
33.38344
 20
843.4071499999999
 30
0.0
 11
43.70474
 21
836.18015
 31
0.0
  0
LINE
  5
296
330
1E
100
AcDbEntity
  8
0
100
AcDbLine
 10
53.90314
 20
828.42915
 30
0.0
 11
63.81484
 21
821.48815
 31
0.0
  0
LINE
  5
297
330
1E
100
AcDbEntity
  8
0
100
AcDbLine
 10
43.41794
 20
835.7701499999999
 30
0.0
 11
53.90314
 21
828.42915
 31
0.0
  0
LINE
  5
2AA
330
1E
100
AcDbEntity
  8
0
100
AcDbLine
 10
54.02604
 20
828.95315
 30
0.0
 11
63.69204
 21
822.1851499999999
 31
0.0
  0
LINE
  5
2AB
330
1E
100
AcDbEntity
  8
0
100
AcDbLine
 10
43.70474
 20
836.18015
 30
0.0
 11
54.02604
 21
828.95315
 31
0.0
  0
LINE
  5
30C
330
1E
100
AcDbEntity
  8
0
100
AcDbLine
 10
63.81484
 20
821.48815
 30
0.0
 11
72.33404
 21
815.5231499999999
 31
0.0
  0
LINE
  5
30D
330
1E
100
AcDbEntity
  8
0
100
AcDbLine
 10
63.69204
 20
822.1851499999999
 30
0.0
 11
72.04744000000001
 21
816.3341499999999
 31
0.0
  0
LINE
  5
30E
330
1E
100
AcDbEntity
  8
0
100
AcDbLine
 10
64.38844
 20
822.3071499999999
 30
0.0
 11
72.90764
 21
816.34215
 31
0.0
  0
LINE
  5
30F
330
1E
100
AcDbEntity
  8
0
100
AcDbLine
 10
54.47674
 20
829.24815
 30
0.0
 11
64.38844
 21
822.3071499999999
 31
0.0
  0
LINE
  5
310
330
1E
100
AcDbEntity
  8
0
100
AcDbLine
 10
43.99154
 20
836.58915
 30
0.0
 11
54.47674
 21
829.24815
 31
0.0
  0
LINE
  5
311
330
1E
100
AcDbEntity
  8
0
100
AcDbLine
 10
33.50644
 20
843.93115
 30
0.0
 11
43.99154
 21
836.58915
 31
0.0
  0
LINE
  5
31B
330
1E
100
AcDbEntity
  8
0
100
AcDbLine
 10
23.02113999999999
 20
850.0521499999999
 30
0.0
 11
32.93283999999999
 21
843.1121499999999
 31
0.0
  0
LINE
  5
31F
330
1E
100
AcDbEntity
  8
0
100
AcDbLine
 10
23.71744
 20
850.1751500000001
 30
0.0
 11
33.38344
 21
843.4071499999999
 31
0.0
  0
LINE
  5
321
330
1E
100
AcDbEntity
  8
0
100
AcDbLine
 10
78.88724
 20
810.9341500000001
 30
0.0
 11
82.90114
 21
808.12415
 31
0.0
  0
LINE
  5
322
330
1E
100
AcDbEntity
  8
0
100
AcDbLine
 10
72.33404
 20
815.5231499999999
 30
0.0
 11
78.88724
 21
810.9341500000001
 31
0.0
  0
LINE
  5
323
330
1E
100
AcDbEntity
  8
0
100
AcDbLine
 10
72.04744000000001
 20
816.3341499999999
 30
0.0
 11
78.43684
 21
811.86015
 31
0.0
  0
LINE
  5
324
330
1E
100
AcDbEntity
  8
0
100
AcDbLine
 10
78.43684
 20
811.86015
 30
0.0
 11
82.36874
 21
809.1071499999999
 31
0.0
  0
LINE
  5
325
330
1E
100
AcDbEntity
  8
0
100
AcDbLine
 10
72.90764
 20
816.34215
 30
0.0
 11
79.46084
 21
811.7541499999999
 31
0.0
  0
LINE
  5
326
330
1E
100
AcDbEntity
  8
0
100
AcDbLine
 10
79.46084
 20
811.7541499999999
 30
0.0
 11
83.47464
 21
808.9431499999999
 31
0.0
  0
LINE
  5
327
330
1E
100
AcDbEntity
  8
0
100
AcDbLine
 10
82.90114
 20
808.12415
 30
0.0
 11
84.37554
 21
807.0911499999999
 31
0.0
  0
LINE
  5
328
330
1E
100
AcDbEntity
  8
0
100
AcDbLine
 10
82.36874
 20
809.1071499999999
 30
0.0
 11
83.84324000000001
 21
808.0751499999999
 31
0.0
  0
LINE
  5
329
330
1E
100
AcDbEntity
  8
0
100
AcDbLine
 10
83.47464
 20
808.9431499999999
 30
0.0
 11
84.94913999999999
 21
807.9111499999999
 31
0.0
  0
LINE
  5
32B
330
1E
100
AcDbEntity
  8
0
100
AcDbLine
 10
77.46984000000001
 20
841.9911499999999
 30
0.0
 11
89.02214
 21
832.13115
 31
0.0
  0
LINE
  5
32E
330
1E
100
AcDbEntity
  8
0
100
AcDbLine
 10
0.9843699999999808
 20
854.4961499999999
 30
0.0
 11
2.745459999999979
 21
852.6521499999999
 31
0.0
  0
LINE
  5
32F
330
1E
100
AcDbEntity
  8
0
100
AcDbLine
 10
0.9843699999999808
 20
854.4961499999999
 30
0.0
 11
2.745459999999979
 21
852.6521499999999
 31
0.0
  0
LINE
  5
330
330
1E
100
AcDbEntity
  8
0
100
AcDbLine
 10
2.745459999999979
 20
852.6521499999999
 30
0.0
 11
3.687399999999979
 21
851.38215
 31
0.0
  0
LINE
  5
331
330
1E
100
AcDbEntity
  8
0
100
AcDbLine
 10
14.50193999999999
 20
856.01815
 30
0.0
 11
23.02113999999999
 21
850.0521499999999
 31
0.0
  0
LINE
  5
334
330
1E
100
AcDbEntity
  8
0
100
AcDbLine
 10
15.36214
 20
856.0261500000001
 30
0.0
 11
23.71744
 21
850.1751500000001
 31
0.0
  0
LINE
  5
335
330
1E
100
AcDbEntity
  8
0
100
AcDbLine
 10
23.59464
 20
850.87215
 30
0.0
 11
33.50644
 21
843.93115
 31
0.0
  0
LINE
  5
336
330
1E
100
AcDbEntity
  8
0
100
AcDbLine
 10
-0.20314000000002
 20
857.15815
 30
0.0
 11
0.0020699999999808
 21
860.06715
 31
0.0
  0
LINE
  5
337
330
1E
100
AcDbEntity
  8
0
100
AcDbLine
 10
-0.20314000000002
 20
857.15815
 30
0.0
 11
0.9843699999999808
 21
854.4961499999999
 31
0.0
  0
LINE
  5
338
330
1E
100
AcDbEntity
  8
0
100
AcDbLine
 10
-0.20314000000002
 20
857.15815
 30
0.0
 11
0.0020699999999808
 21
860.06715
 31
0.0
  0
LINE
  5
339
330
1E
100
AcDbEntity
  8
0
100
AcDbLine
 10
0.0020699999999808
 20
860.06715
 30
0.0
 11
1.026429999999979
 21
862.4011499999999
 31
0.0
  0
LINE
  5
33A
330
1E
100
AcDbEntity
  8
0
100
AcDbLine
 10
3.934849999999979
 20
863.41715
 30
0.0
 11
7.948739999999981
 21
860.6061499999999
 31
0.0
  0
LINE
  5
33B
330
1E
100
AcDbEntity
  8
0
100
AcDbLine
 10
1.026429999999979
 20
862.4011499999999
 30
0.0
 11
2.46037999999998
 21
864.44915
 31
0.0
  0
LINE
  5
33C
330
1E
100
AcDbEntity
  8
0
100
AcDbLine
 10
0.0020699999999808
 20
860.06715
 30
0.0
 11
1.026429999999979
 21
862.4011499999999
 31
0.0
  0
LINE
  5
33D
330
1E
100
AcDbEntity
  8
0
100
AcDbLine
 10
-0.20314000000002
 20
857.15815
 30
0.0
 11
0.9843699999999808
 21
854.4961499999999
 31
0.0
  0
LINE
  5
33E
330
1E
100
AcDbEntity
  8
0
100
AcDbLine
 10
2.46037999999998
 20
864.44915
 30
0.0
 11
3.566319999999979
 21
864.28515
 31
0.0
  0
LINE
  5
33F
330
1E
100
AcDbEntity
  8
0
100
AcDbLine
 10
2.46037999999998
 20
864.44915
 30
0.0
 11
3.934849999999979
 21
863.41715
 31
0.0
  0
LINE
  5
340
330
1E
100
AcDbEntity
  8
0
100
AcDbLine
 10
3.566319999999979
 20
864.28515
 30
0.0
 11
5.040789999999979
 21
863.25315
 31
0.0
  0
LINE
  5
341
330
1E
100
AcDbEntity
  8
0
100
AcDbLine
 10
7.948739999999981
 20
860.6061499999999
 30
0.0
 11
14.50193999999999
 21
856.01815
 31
0.0
  0
LINE
  5
342
330
1E
100
AcDbEntity
  8
0
100
AcDbLine
 10
8.97273999999998
 20
860.50015
 30
0.0
 11
15.36214
 21
856.0261500000001
 31
0.0
  0
LINE
  5
343
330
1E
100
AcDbEntity
  8
0
100
AcDbLine
 10
5.040789999999979
 20
863.25315
 30
0.0
 11
8.97273999999998
 21
860.50015
 31
0.0
  0
LINE
  5
344
330
1E
100
AcDbEntity
  8
0
100
AcDbLine
 10
8.52223999999998
 20
861.4251499999999
 30
0.0
 11
15.07544
 21
856.8371499999999
 31
0.0
  0
LINE
  5
345
330
1E
100
AcDbEntity
  8
0
100
AcDbLine
 10
4.50842999999998
 20
864.2361499999999
 30
0.0
 11
8.52223999999998
 21
861.4251499999999
 31
0.0
  0
LINE
  5
346
330
1E
100
AcDbEntity
  8
0
100
AcDbLine
 10
3.033949999999979
 20
865.2681499999999
 30
0.0
 11
9.056539999999991
 21
873.8691499999999
 31
0.0
  0
LINE
  5
347
330
1E
100
AcDbEntity
  8
0
100
AcDbLine
 10
3.033949999999979
 20
865.2681499999999
 30
0.0
 11
3.566319999999979
 21
864.28515
 31
0.0
  0
LINE
  5
348
330
1E
100
AcDbEntity
  8
0
100
AcDbLine
 10
3.033949999999979
 20
865.2681499999999
 30
0.0
 11
4.50842999999998
 21
864.2361499999999
 31
0.0
  0
LINE
  5
349
330
1E
100
AcDbEntity
  8
0
100
AcDbLine
 10
15.07544
 20
856.8371499999999
 30
0.0
 11
23.59464
 21
850.87215
 31
0.0
  0
LINE
  5
34A
330
1E
100
AcDbEntity
  8
0
100
AcDbLine
 10
53.89104
 20
859.4451499999999
 30
0.0
 11
58.04414000000001
 21
856.6591499999999
 31
0.0
  0
LINE
  5
34B
330
1E
100
AcDbEntity
  8
0
100
AcDbLine
 10
49.68054
 20
862.1491499999999
 30
0.0
 11
53.89104
 21
859.4451499999999
 31
0.0
  0
LINE
  5
34C
330
1E
100
AcDbEntity
  8
0
100
AcDbLine
 10
43.54504
 20
865.59015
 30
0.0
 11
49.68054
 21
862.1491499999999
 31
0.0
  0
LINE
  5
34D
330
1E
100
AcDbEntity
  8
0
100
AcDbLine
 10
38.05654
 20
868.21315
 30
0.0
 11
43.54504
 21
865.59015
 31
0.0
  0
LINE
  5
34E
330
1E
100
AcDbEntity
  8
0
100
AcDbLine
 10
33.38714
 20
870.2611500000001
 30
0.0
 11
38.05654
 21
868.21315
 31
0.0
  0
LINE
  5
34F
330
1E
100
AcDbEntity
  8
0
100
AcDbLine
 10
26.50594
 20
872.63815
 30
0.0
 11
33.38714
 21
870.2611500000001
 31
0.0
  0
LINE
  5
350
330
1E
100
AcDbEntity
  8
0
100
AcDbLine
 10
19.74754
 20
874.31815
 30
0.0
 11
26.50594
 21
872.63815
 31
0.0
  0
LINE
  5
351
330
1E
100
AcDbEntity
  8
0
100
AcDbLine
 10
14.62743999999999
 20
874.85215
 30
0.0
 11
19.74754
 21
874.31815
 31
0.0
  0
LINE
  5
352
330
1E
100
AcDbEntity
  8
0
100
AcDbLine
 10
10.03963999999999
 20
874.40215
 30
0.0
 11
14.62743999999999
 21
874.85215
 31
0.0
  0
LINE
  5
353
330
1E
100
AcDbEntity
  8
0
100
AcDbLine
 10
9.056539999999991
 20
873.8691499999999
 30
0.0
 11
10.03963999999999
 21
874.40215
 31
0.0
  0
LINE
  5
354
330
1E
100
AcDbEntity
  8
0
100
AcDbLine
 10
58.04414000000001
 20
856.6591499999999
 30
0.0
 11
62.08254
 21
853.70915
 31
0.0
  0
LINE
  5
35B
330
1E
100
AcDbEntity
  8
0
100
AcDbLine
 10
85.1790563657712
 20
808.358508067435
 30
0.0
 11
85.69884
 21
807.97415
 31
0.0
  0
LINE
  5
35C
330
1E
100
AcDbEntity
  8
0
100
AcDbLine
 10
85.69884
 20
807.97415
 30
0.0
 11
94.55984
 21
800.0961499999998
 31
0.0
  0
LINE
  5
35D
330
1E
100
AcDbEntity
  8
0
100
AcDbLine
 10
83.84324000000001
 20
808.0751499999999
 30
0.0
 11
84.94913999999999
 21
807.9111499999999
 31
0.0
  0
LINE
  5
35E
330
1E
100
AcDbEntity
  8
0
100
AcDbLine
 10
83.84324000000001
 20
808.0751499999999
 30
0.0
 11
84.37554
 21
807.0911499999999
 31
0.0
  0
LINE
  5
35F
330
1E
100
AcDbEntity
  8
0
100
AcDbLine
 10
84.94913999999999
 20
807.9111499999999
 30
0.0
 11
85.22819689101408
 21
808.322170722295
 31
0.0
  0
LINE
  5
360
330
1E
100
AcDbEntity
  8
0
100
AcDbLine
 10
116.8031399999999
 20
351.85515
 30
0.0
 11
123.2031399999999
 21
351.85515
 31
0.0
  0
LINE
  5
361
330
1E
100
AcDbEntity
  8
0
100
AcDbLine
 10
123.2031399999999
 20
351.85515
 30
0.0
 11
130.0031399999999
 21
351.85515
 31
0.0
  0
LINE
  5
362
330
1E
100
AcDbEntity
  8
0
100
AcDbLine
 10
105.4031399999999
 20
351.85515
 30
0.0
 11
110.8031399999999
 21
351.85515
 31
0.0
  0
LINE
  5
363
330
1E
100
AcDbEntity
  8
0
100
AcDbLine
 10
110.8031399999999
 20
351.85515
 30
0.0
 11
116.8031399999999
 21
351.85515
 31
0.0
  0
LINE
  5
364
330
1E
100
AcDbEntity
  8
0
100
AcDbLine
 10
110.8031399999999
 20
351.85515
 30
0.0
 11
112.00314
 21
351.85515
 31
0.0
  0
LINE
  5
365
330
1E
100
AcDbEntity
  8
0
100
AcDbLine
 10
130.0031399999999
 20
351.85515
 30
0.0
 11
137.00314
 21
351.85515
 31
0.0
  0
LINE
  5
366
330
1E
100
AcDbEntity
  8
0
100
AcDbLine
 10
137.00314
 20
351.85515
 30
0.0
 11
144.2031399999999
 21
351.85515
 31
0.0
  0
LINE
  5
367
330
1E
100
AcDbEntity
  8
0
100
AcDbLine
 10
100.6031399999999
 20
351.85515
 30
0.0
 11
105.4031399999999
 21
351.85515
 31
0.0
  0
LINE
  5
368
330
1E
100
AcDbEntity
  8
0
100
AcDbLine
 10
96.60313999999999
 20
351.85515
 30
0.0
 11
100.6031399999999
 21
351.85515
 31
0.0
  0
LINE
  5
369
330
1E
100
AcDbEntity
  8
0
100
AcDbLine
 10
93.50314
 20
351.85515
 30
0.0
 11
96.60313999999999
 21
351.85515
 31
0.0
  0
LINE
  5
36A
330
1E
100
AcDbEntity
  8
0
100
AcDbLine
 10
91.20314
 20
351.85515
 30
0.0
 11
93.50314
 21
351.85515
 31
0.0
  0
LINE
  5
36B
330
1E
100
AcDbEntity
  8
0
100
AcDbLine
 10
94.04583999999999
 20
798.64215
 30
0.0
 11
94.35923999999999
 21
799.80215
 31
0.0
  0
LINE
  5
36C
330
1E
100
AcDbEntity
  8
0
100
AcDbLine
 10
92.98773999999999
 20
801.1211499999999
 30
0.0
 11
94.35923999999999
 21
799.80215
 31
0.0
  0
LINE
  5
36D
330
1E
100
AcDbEntity
  8
0
100
AcDbLine
 10
92.43524
 20
797.00115
 30
0.0
 11
94.04583999999999
 21
798.64215
 31
0.0
  0
LINE
  5
36E
330
1E
100
AcDbEntity
  8
0
100
AcDbLine
 10
91.20704000000001
 20
802.36815
 30
0.0
 11
92.98773999999999
 21
801.1211499999999
 31
0.0
  0
LINE
  5
36F
330
1E
100
AcDbEntity
  8
0
100
AcDbLine
 10
89.92704000000001
 20
796.21815
 30
0.0
 11
92.43524
 21
797.00115
 31
0.0
  0
LINE
  5
373
330
1E
100
AcDbEntity
  8
0
100
AcDbLine
 10
107.2321399999999
 20
816.1001499999999
 30
0.0
 11
116.32914
 21
807.57215
 31
0.0
  0
LINE
  5
374
330
1E
100
AcDbEntity
  8
0
100
AcDbLine
 10
94.55984
 20
800.0961499999998
 30
0.0
 11
103.02814
 21
792.0871499999999
 31
0.0
  0
LINE
  5
375
330
1E
100
AcDbEntity
  8
0
100
AcDbLine
 10
103.02814
 20
792.0871499999999
 30
0.0
 11
111.3701399999999
 21
783.48315
 31
0.0
  0
LINE
  5
376
330
1E
100
AcDbEntity
  8
0
100
AcDbLine
 10
116.32914
 20
807.57215
 30
0.0
 11
125.9391399999999
 21
798.3711499999999
 31
0.0
  0
LINE
  5
377
330
1E
100
AcDbEntity
  8
0
100
AcDbLine
 10
111.3701399999999
 20
783.48315
 30
0.0
 11
121.7411399999999
 21
771.83915
 31
0.0
  0
LINE
  5
378
330
1E
100
AcDbEntity
  8
0
100
AcDbLine
 10
125.9391399999999
 20
798.3711499999999
 30
0.0
 11
138.1901399999999
 21
786.1441499999999
 31
0.0
  0
LINE
  5
379
330
1E
100
AcDbEntity
  8
0
100
AcDbLine
 10
121.7411399999999
 20
771.83915
 30
0.0
 11
132.14014
 21
758.91115
 31
0.0
  0
LINE
  5
37A
330
1E
100
AcDbEntity
  8
0
100
AcDbLine
 10
132.14014
 20
758.91115
 30
0.0
 11
142.3971399999999
 21
744.79315
 31
0.0
  0
LINE
  5
37B
330
1E
100
AcDbEntity
  8
0
100
AcDbLine
 10
89.80313999999991
 20
351.85515
 30
0.0
 11
91.20314
 21
351.85515
 31
0.0
  0
LINE
  5
37C
330
1E
100
AcDbEntity
  8
0
100
AcDbLine
 10
89.2031399999999
 20
351.85515
 30
0.0
 11
89.2031399999999
 21
328.85515
 31
0.0
  0
LINE
  5
37D
330
1E
100
AcDbEntity
  8
0
100
AcDbLine
 10
89.2031399999999
 20
351.85515
 30
0.0
 11
89.80313999999991
 21
351.85515
 31
0.0
  0
LINE
  5
37E
330
1E
100
AcDbEntity
  8
0
100
AcDbLine
 10
130.0031399999999
 20
328.85515
 30
0.0
 11
137.00314
 21
328.85515
 31
0.0
  0
LINE
  5
37F
330
1E
100
AcDbEntity
  8
0
100
AcDbLine
 10
183.00314
 20
328.85515
 30
0.0
 11
187.8031399999999
 21
328.85515
 31
0.0
  0
LINE
  5
380
330
1E
100
AcDbEntity
  8
0
100
AcDbLine
 10
187.8031399999999
 20
328.85515
 30
0.0
 11
191.8031399999999
 21
328.85515
 31
0.0
  0
LINE
  5
381
330
1E
100
AcDbEntity
  8
0
100
AcDbLine
 10
191.8031399999999
 20
328.85515
 30
0.0
 11
194.9031399999999
 21
328.85515
 31
0.0
  0
LINE
  5
382
330
1E
100
AcDbEntity
  8
0
100
AcDbLine
 10
194.9031399999999
 20
328.85515
 30
0.0
 11
198.4031399999999
 21
328.85515
 31
0.0
  0
LINE
  5
383
330
1E
100
AcDbEntity
  8
0
100
AcDbLine
 10
205.70314
 20
228.85515
 30
0.0
 11
206.10314
 21
228.85515
 31
0.0
  0
LINE
  5
384
330
1E
100
AcDbEntity
  8
0
100
AcDbLine
 10
206.10314
 20
228.85515
 30
0.0
 11
207.1031399999999
 21
228.85515
 31
0.0
  0
LINE
  5
385
330
1E
100
AcDbEntity
  8
0
100
AcDbLine
 10
207.1031399999999
 20
228.85515
 30
0.0
 11
208.8031399999999
 21
228.85515
 31
0.0
  0
LINE
  5
386
330
1E
100
AcDbEntity
  8
0
100
AcDbLine
 10
208.8031399999999
 20
228.85515
 30
0.0
 11
211.00314
 21
228.85515
 31
0.0
  0
LINE
  5
387
330
1E
100
AcDbEntity
  8
0
100
AcDbLine
 10
211.00314
 20
228.85515
 30
0.0
 11
213.5031399999999
 21
228.85515
 31
0.0
  0
LINE
  5
388
330
1E
100
AcDbEntity
  8
0
100
AcDbLine
 10
236.5921399999999
 20
0.6531499999999721
 30
0.0
 11
238.9841399999999
 21
1.604149999999969
 31
0.0
  0
LINE
  5
389
330
1E
100
AcDbEntity
  8
0
100
AcDbLine
 10
233.68614
 20
0.14484999999997
 30
0.0
 11
236.5921399999999
 21
0.6531499999999721
 31
0.0
  0
LINE
  5
38A
330
1E
100
AcDbEntity
  8
0
100
AcDbLine
 10
230.5431399999999
 20
0.273749999999972
 30
0.0
 11
233.68614
 21
0.14484999999997
 31
0.0
  0
LINE
  5
38B
330
1E
100
AcDbEntity
  8
0
100
AcDbLine
 10
240.41314
 20
2.977949999999979
 30
0.0
 11
240.67614
 21
4.519749999999969
 31
0.0
  0
LINE
  5
38C
330
1E
100
AcDbEntity
  8
0
100
AcDbLine
 10
238.9841399999999
 20
1.604149999999969
 30
0.0
 11
240.41314
 21
2.977949999999979
 31
0.0
  0
LINE
  5
38D
330
1E
100
AcDbEntity
  8
0
100
AcDbLine
 10
227.7441399999999
 20
0.976449999999976
 30
0.0
 11
230.5431399999999
 21
0.273749999999972
 31
0.0
  0
LINE
  5
38E
330
1E
100
AcDbEntity
  8
0
100
AcDbLine
 10
225.8041399999999
 20
2.152649999999969
 30
0.0
 11
227.7441399999999
 21
0.976449999999976
 31
0.0
  0
LINE
  5
38F
330
1E
100
AcDbEntity
  8
0
100
AcDbLine
 10
239.64614
 20
5.947349999999969
 30
0.0
 11
240.67614
 21
4.519749999999969
 31
0.0
  0
LINE
  5
390
330
1E
100
AcDbEntity
  8
0
100
AcDbLine
 10
237.7101399999999
 20
7.123449999999969
 30
0.0
 11
239.64614
 21
5.947349999999969
 31
0.0
  0
LINE
  5
391
330
1E
100
AcDbEntity
  8
0
100
AcDbLine
 10
234.9161399999999
 20
7.82724999999997
 30
0.0
 11
237.7101399999999
 21
7.123449999999969
 31
0.0
  0
LINE
  5
392
330
1E
100
AcDbEntity
  8
0
100
AcDbLine
 10
231.7731399999999
 20
7.95834999999997
 30
0.0
 11
234.9161399999999
 21
7.82724999999997
 31
0.0
  0
LINE
  5
393
330
1E
100
AcDbEntity
  8
0
100
AcDbLine
 10
228.8631399999999
 20
7.45314999999997
 30
0.0
 11
231.7731399999999
 21
7.95834999999997
 31
0.0
  0
LINE
  5
394
330
1E
100
AcDbEntity
  8
0
100
AcDbLine
 10
226.4681399999999
 20
6.50104999999998
 30
0.0
 11
228.8631399999999
 21
7.45314999999997
 31
0.0
  0
LINE
  5
395
330
1E
100
AcDbEntity
  8
0
100
AcDbLine
 10
225.03514
 20
5.127349999999969
 30
0.0
 11
226.4681399999999
 21
6.50104999999998
 31
0.0
  0
LINE
  5
396
330
1E
100
AcDbEntity
  8
0
100
AcDbLine
 10
224.7701399999999
 20
3.58234999999997
 30
0.0
 11
225.8041399999999
 21
2.152649999999969
 31
0.0
  0
LINE
  5
397
330
1E
100
AcDbEntity
  8
0
100
AcDbLine
 10
224.7701399999999
 20
3.58234999999997
 30
0.0
 11
225.03514
 21
5.127349999999969
 31
0.0
  0
LINE
  5
398
330
1E
100
AcDbEntity
  8
0
100
AcDbLine
 10
213.5031399999999
 20
228.85515
 30
0.0
 11
216.20314
 21
228.85515
 31
0.0
  0
LINE
  5
399
330
1E
100
AcDbEntity
  8
0
100
AcDbLine
 10
216.20314
 20
228.85515
 30
0.0
 11
224.59662240522
 21
228.85515
 31
0.0
  0
LINE
  5
39A
330
1E
100
AcDbEntity
  8
0
100
AcDbLine
 10
240.5435121759009
 20
228.85515
 30
0.0
 11
259.70314
 21
228.85515
 31
0.0
  0
LINE
  5
39B
330
1E
100
AcDbEntity
  8
0
100
AcDbLine
 10
205.60314
 20
229.3551499999999
 30
0.0
 11
206.7031399999999
 21
229.3551499999999
 31
0.0
  0
LINE
  5
39C
330
1E
100
AcDbEntity
  8
0
100
AcDbLine
 10
206.7031399999999
 20
229.3551499999999
 30
0.0
 11
208.4031399999999
 21
229.3551499999999
 31
0.0
  0
LINE
  5
39D
330
1E
100
AcDbEntity
  8
0
100
AcDbLine
 10
205.60314
 20
280.3551499999999
 30
0.0
 11
206.7031399999999
 21
280.3551499999999
 31
0.0
  0
LINE
  5
39E
330
1E
100
AcDbEntity
  8
0
100
AcDbLine
 10
208.4031399999999
 20
229.3551499999999
 30
0.0
 11
210.7031399999999
 21
229.3551499999999
 31
0.0
  0
LINE
  5
39F
330
1E
100
AcDbEntity
  8
0
100
AcDbLine
 10
210.7031399999999
 20
229.3551499999999
 30
0.0
 11
213.40314
 21
229.3551499999999
 31
0.0
  0
LINE
  5
3A0
330
1E
100
AcDbEntity
  8
0
100
AcDbLine
 10
206.7031399999999
 20
280.3551499999999
 30
0.0
 11
208.4031399999999
 21
280.3551499999999
 31
0.0
  0
LINE
  5
3A1
330
1E
100
AcDbEntity
  8
0
100
AcDbLine
 10
208.4031399999999
 20
280.3551499999999
 30
0.0
 11
210.7031399999999
 21
280.3551499999999
 31
0.0
  0
LINE
  5
3A2
330
1E
100
AcDbEntity
  8
0
100
AcDbLine
 10
213.40314
 20
229.3551499999999
 30
0.0
 11
216.20314
 21
229.3551499999999
 31
0.0
  0
LINE
  5
3A3
330
1E
100
AcDbEntity
  8
0
100
AcDbLine
 10
216.20314
 20
229.3551499999999
 30
0.0
 11
224.5962372775109
 21
229.3551499999999
 31
0.0
  0
LINE
  5
3A4
330
1E
100
AcDbEntity
  8
0
100
AcDbLine
 10
216.20314
 20
229.3551499999999
 30
0.0
 11
224.5962372775109
 21
229.3551499999999
 31
0.0
  0
LINE
  5
3A5
330
1E
100
AcDbEntity
  8
0
100
AcDbLine
 10
210.7031399999999
 20
280.3551499999999
 30
0.0
 11
213.40314
 21
280.3551499999999
 31
0.0
  0
LINE
  5
3A6
330
1E
100
AcDbEntity
  8
0
100
AcDbLine
 10
213.40314
 20
280.3551499999999
 30
0.0
 11
216.20314
 21
280.3551499999999
 31
0.0
  0
LINE
  5
3A7
330
1E
100
AcDbEntity
  8
0
100
AcDbLine
 10
240.543216574261
 20
229.3551499999999
 30
0.0
 11
260.20314
 21
229.3551499999999
 31
0.0
  0
LINE
  5
3A8
330
1E
100
AcDbEntity
  8
0
100
AcDbLine
 10
260.20314
 20
229.3551499999999
 30
0.0
 11
260.20314
 21
280.3551499999999
 31
0.0
  0
LINE
  5
3A9
330
1E
100
AcDbEntity
  8
0
100
AcDbLine
 10
240.543216574261
 20
229.3551499999999
 30
0.0
 11
260.20314
 21
229.3551499999999
 31
0.0
  0
LINE
  5
3AA
330
1E
100
AcDbEntity
  8
0
100
AcDbLine
 10
260.20314
 20
280.3551499999999
 30
0.0
 11
260.20314
 21
229.3551499999999
 31
0.0
  0
LINE
  5
3AB
330
1E
100
AcDbEntity
  8
0
100
AcDbLine
 10
240.5130652070269
 20
280.3551499999999
 30
0.0
 11
260.20314
 21
280.3551499999999
 31
0.0
  0
LINE
  5
3AC
330
1E
100
AcDbEntity
  8
0
100
AcDbLine
 10
216.20314
 20
280.3551499999999
 30
0.0
 11
224.5569542511809
 21
280.3551499999999
 31
0.0
  0
LINE
  5
3AD
330
1E
100
AcDbEntity
  8
0
100
AcDbLine
 10
259.70314
 20
228.85515
 30
0.0
 11
260.20314
 21
229.3551499999999
 31
0.0
  0
LINE
  5
3AE
330
1E
100
AcDbEntity
  8
0
100
AcDbLine
 10
205.2031399999999
 20
229.3551499999999
 30
0.0
 11
205.2031399999999
 21
280.3551499999999
 31
0.0
  0
LINE
  5
3AF
330
1E
100
AcDbEntity
  8
0
100
AcDbLine
 10
205.2031399999999
 20
229.3551499999999
 30
0.0
 11
205.70314
 21
228.85515
 31
0.0
  0
LINE
  5
3B0
330
1E
100
AcDbEntity
  8
0
100
AcDbLine
 10
205.2031399999999
 20
229.3551499999999
 30
0.0
 11
205.60314
 21
229.3551499999999
 31
0.0
  0
LINE
  5
3B1
330
1E
100
AcDbEntity
  8
0
100
AcDbLine
 10
205.70314
 20
280.8551499999999
 30
0.0
 11
206.10314
 21
280.8551499999999
 31
0.0
  0
LINE
  5
3B2
330
1E
100
AcDbEntity
  8
0
100
AcDbLine
 10
206.10314
 20
280.8551499999999
 30
0.0
 11
207.1031399999999
 21
280.8551499999999
 31
0.0
  0
LINE
  5
3B3
330
1E
100
AcDbEntity
  8
0
100
AcDbLine
 10
207.1031399999999
 20
280.8551499999999
 30
0.0
 11
208.8031399999999
 21
280.8551499999999
 31
0.0
  0
LINE
  5
3B4
330
1E
100
AcDbEntity
  8
0
100
AcDbLine
 10
208.8031399999999
 20
280.8551499999999
 30
0.0
 11
211.00314
 21
280.8551499999999
 31
0.0
  0
LINE
  5
3B5
330
1E
100
AcDbEntity
  8
0
100
AcDbLine
 10
211.00314
 20
280.8551499999999
 30
0.0
 11
213.5031399999999
 21
280.8551499999999
 31
0.0
  0
LINE
  5
3B6
330
1E
100
AcDbEntity
  8
0
100
AcDbLine
 10
205.2031399999999
 20
328.85515
 30
0.0
 11
205.2031399999999
 21
351.85515
 31
0.0
  0
LINE
  5
3B7
330
1E
100
AcDbEntity
  8
0
100
AcDbLine
 10
205.2031399999999
 20
328.85515
 30
0.0
 11
211.2031399999999
 21
328.85515
 31
0.0
  0
LINE
  5
3B8
330
1E
100
AcDbEntity
  8
0
100
AcDbLine
 10
205.2031399999999
 20
281.3551499999999
 30
0.0
 11
205.2031399999999
 21
632.802455840995
 31
0.0
  0
LINE
  5
3B9
330
1E
100
AcDbEntity
  8
0
100
AcDbLine
 10
205.60314
 20
281.3551499999999
 30
0.0
 11
206.7031399999999
 21
281.3551499999999
 31
0.0
  0
LINE
  5
3BA
330
1E
100
AcDbEntity
  8
0
100
AcDbLine
 10
206.7031399999999
 20
281.3551499999999
 30
0.0
 11
208.4031399999999
 21
281.3551499999999
 31
0.0
  0
LINE
  5
3BB
330
1E
100
AcDbEntity
  8
0
100
AcDbLine
 10
208.4031399999999
 20
281.3551499999999
 30
0.0
 11
210.7031399999999
 21
281.3551499999999
 31
0.0
  0
LINE
  5
3BC
330
1E
100
AcDbEntity
  8
0
100
AcDbLine
 10
216.20314
 20
281.3551499999999
 30
0.0
 11
219.00314
 21
281.3551499999999
 31
0.0
  0
LINE
  5
3BD
330
1E
100
AcDbEntity
  8
0
100
AcDbLine
 10
210.7031399999999
 20
281.3551499999999
 30
0.0
 11
213.40314
 21
281.3551499999999
 31
0.0
  0
LINE
  5
3BE
330
1E
100
AcDbEntity
  8
0
100
AcDbLine
 10
216.20314
 20
328.85515
 30
0.0
 11
219.53114
 21
328.85515
 31
0.0
  0
LINE
  5
3BF
330
1E
100
AcDbEntity
  8
0
100
AcDbLine
 10
216.20314
 20
328.85515
 30
0.0
 11
219.0191399999999
 21
328.85515
 31
0.0
  0
LINE
  5
3C0
330
1E
100
AcDbEntity
  8
0
100
AcDbLine
 10
211.2031399999999
 20
328.85515
 30
0.0
 11
216.20314
 21
328.85515
 31
0.0
  0
LINE
  5
3C1
330
1E
100
AcDbEntity
  8
0
100
AcDbLine
 10
213.40314
 20
281.3551499999999
 30
0.0
 11
216.20314
 21
281.3551499999999
 31
0.0
  0
LINE
  5
3C2
330
1E
100
AcDbEntity
  8
0
100
AcDbLine
 10
205.2031399999999
 20
281.3551499999999
 30
0.0
 11
205.70314
 21
280.8551499999999
 31
0.0
  0
LINE
  5
3C3
330
1E
100
AcDbEntity
  8
0
100
AcDbLine
 10
205.2031399999999
 20
281.3551499999999
 30
0.0
 11
205.60314
 21
281.3551499999999
 31
0.0
  0
LINE
  5
3C4
330
1E
100
AcDbEntity
  8
0
100
AcDbLine
 10
205.2031399999999
 20
281.3551499999999
 30
0.0
 11
205.2031399999999
 21
632.802455840995
 31
0.0
  0
LINE
  5
3C5
330
1E
100
AcDbEntity
  8
0
100
AcDbLine
 10
213.5031399999999
 20
280.8551499999999
 30
0.0
 11
216.20314
 21
280.8551499999999
 31
0.0
  0
LINE
  5
3C6
330
1E
100
AcDbEntity
  8
0
100
AcDbLine
 10
259.70314
 20
280.8551499999999
 30
0.0
 11
260.20314
 21
280.3551499999999
 31
0.0
  0
LINE
  5
3C7
330
1E
100
AcDbEntity
  8
0
100
AcDbLine
 10
224.0031399999999
 20
281.3551499999999
 30
0.0
 11
224.556183995763
 21
281.3551499999999
 31
0.0
  0
LINE
  5
3C8
330
1E
100
AcDbEntity
  8
0
100
AcDbLine
 10
219.0191399999999
 20
328.85515
 30
0.0
 11
221.6591399999999
 21
328.85515
 31
0.0
  0
LINE
  5
3C9
330
1E
100
AcDbEntity
  8
0
100
AcDbLine
 10
224.0031399999999
 20
328.85515
 30
0.0
 11
224.519596863397
 21
328.85515
 31
0.0
  0
LINE
  5
3CA
330
1E
100
AcDbEntity
  8
0
100
AcDbLine
 10
221.6591399999999
 20
328.85515
 30
0.0
 11
223.9911399999999
 21
328.85515
 31
0.0
  0
LINE
  5
3CB
330
1E
100
AcDbEntity
  8
0
100
AcDbLine
 10
222.65114
 20
328.85515
 30
0.0
 11
224.519596863397
 21
328.85515
 31
0.0
  0
LINE
  5
3CC
330
1E
100
AcDbEntity
  8
0
100
AcDbLine
 10
219.53114
 20
328.85515
 30
0.0
 11
222.65114
 21
328.85515
 31
0.0
  0
LINE
  5
3CD
330
1E
100
AcDbEntity
  8
0
100
AcDbLine
 10
221.7031399999999
 20
281.3551499999999
 30
0.0
 11
224.0031399999999
 21
281.3551499999999
 31
0.0
  0
LINE
  5
3CE
330
1E
100
AcDbEntity
  8
0
100
AcDbLine
 10
219.00314
 20
281.3551499999999
 30
0.0
 11
221.7031399999999
 21
281.3551499999999
 31
0.0
  0
LINE
  5
3CF
330
1E
100
AcDbEntity
  8
0
100
AcDbLine
 10
240.512769605387
 20
280.8551499999999
 30
0.0
 11
259.70314
 21
280.8551499999999
 31
0.0
  0
LINE
  5
3D0
330
1E
100
AcDbEntity
  8
0
100
AcDbLine
 10
216.20314
 20
280.8551499999999
 30
0.0
 11
224.5565691234719
 21
280.8551499999999
 31
0.0
  0
LINE
  5
3D1
330
1E
100
AcDbEntity
  8
0
100
AcDbLine
 10
205.2031399999999
 20
280.3551499999999
 30
0.0
 11
205.70314
 21
280.8551499999999
 31
0.0
  0
LINE
  5
3D2
330
1E
100
AcDbEntity
  8
0
100
AcDbLine
 10
205.2031399999999
 20
280.3551499999999
 30
0.0
 11
205.60314
 21
280.3551499999999
 31
0.0
  0
LINE
  5
3D3
330
1E
100
AcDbEntity
  8
0
100
AcDbLine
 10
205.2031399999999
 20
280.3551499999999
 30
0.0
 11
205.2031399999999
 21
229.3551499999999
 31
0.0
  0
LINE
  5
3D4
330
1E
100
AcDbEntity
  8
0
100
AcDbLine
 10
198.4031399999999
 20
328.85515
 30
0.0
 11
202.2031399999999
 21
328.85515
 31
0.0
  0
LINE
  5
3D5
330
1E
100
AcDbEntity
  8
0
100
AcDbLine
 10
202.2031399999999
 20
328.85515
 30
0.0
 11
202.2031399999999
 21
351.85515
 31
0.0
  0
LINE
  5
3D6
330
1E
100
AcDbEntity
  8
0
100
AcDbLine
 10
202.2031399999999
 20
328.85515
 30
0.0
 11
205.2031399999999
 21
328.85515
 31
0.0
  0
LINE
  5
3D7
330
1E
100
AcDbEntity
  8
0
100
AcDbLine
 10
202.2031399999999
 20
328.85515
 30
0.0
 11
216.20314
 21
328.85515
 31
0.0
  0
LINE
  5
3D8
330
1E
100
AcDbEntity
  8
0
100
AcDbLine
 10
177.6031399999999
 20
328.85515
 30
0.0
 11
183.00314
 21
328.85515
 31
0.0
  0
LINE
  5
3D9
330
1E
100
AcDbEntity
  8
0
100
AcDbLine
 10
171.60314
 20
328.85515
 30
0.0
 11
177.6031399999999
 21
328.85515
 31
0.0
  0
LINE
  5
3DA
330
1E
100
AcDbEntity
  8
0
100
AcDbLine
 10
165.20314
 20
328.85515
 30
0.0
 11
171.60314
 21
328.85515
 31
0.0
  0
LINE
  5
3DB
330
1E
100
AcDbEntity
  8
0
100
AcDbLine
 10
158.4031399999999
 20
328.85515
 30
0.0
 11
165.20314
 21
328.85515
 31
0.0
  0
LINE
  5
3DC
330
1E
100
AcDbEntity
  8
0
100
AcDbLine
 10
151.4031399999999
 20
328.85515
 30
0.0
 11
158.4031399999999
 21
328.85515
 31
0.0
  0
LINE
  5
3DD
330
1E
100
AcDbEntity
  8
0
100
AcDbLine
 10
177.6031399999999
 20
351.85515
 30
0.0
 11
183.00314
 21
351.85515
 31
0.0
  0
LINE
  5
3DE
330
1E
100
AcDbEntity
  8
0
100
AcDbLine
 10
171.60314
 20
351.85515
 30
0.0
 11
177.6031399999999
 21
351.85515
 31
0.0
  0
LINE
  5
3DF
330
1E
100
AcDbEntity
  8
0
100
AcDbLine
 10
165.20314
 20
351.85515
 30
0.0
 11
171.60314
 21
351.85515
 31
0.0
  0
LINE
  5
3E0
330
1E
100
AcDbEntity
  8
0
100
AcDbLine
 10
158.4031399999999
 20
351.85515
 30
0.0
 11
165.20314
 21
351.85515
 31
0.0
  0
LINE
  5
3E1
330
1E
100
AcDbEntity
  8
0
100
AcDbLine
 10
151.4031399999999
 20
351.85515
 30
0.0
 11
158.4031399999999
 21
351.85515
 31
0.0
  0
LINE
  5
3E2
330
1E
100
AcDbEntity
  8
0
100
AcDbLine
 10
144.2031399999999
 20
351.85515
 30
0.0
 11
151.4031399999999
 21
351.85515
 31
0.0
  0
LINE
  5
3E3
330
1E
100
AcDbEntity
  8
0
100
AcDbLine
 10
183.00314
 20
351.85515
 30
0.0
 11
187.8031399999999
 21
351.85515
 31
0.0
  0
LINE
  5
3E4
330
1E
100
AcDbEntity
  8
0
100
AcDbLine
 10
187.8031399999999
 20
351.85515
 30
0.0
 11
191.8031399999999
 21
351.85515
 31
0.0
  0
LINE
  5
3E5
330
1E
100
AcDbEntity
  8
0
100
AcDbLine
 10
191.8031399999999
 20
351.85515
 30
0.0
 11
194.9031399999999
 21
351.85515
 31
0.0
  0
LINE
  5
3E6
330
1E
100
AcDbEntity
  8
0
100
AcDbLine
 10
194.9031399999999
 20
351.85515
 30
0.0
 11
198.4031399999999
 21
351.85515
 31
0.0
  0
LINE
  5
3E7
330
1E
100
AcDbEntity
  8
0
100
AcDbLine
 10
174.19214
 20
696.2991500000001
 30
0.0
 11
174.5671399999999
 21
696.5151499999999
 31
0.0
  0
LINE
  5
3EA
330
1E
100
AcDbEntity
  8
0
100
AcDbLine
 10
173.6431399999999
 20
696.67515
 30
0.0
 11
174.19214
 21
696.2991500000001
 31
0.0
  0
LINE
  5
3ED
330
1E
100
AcDbEntity
  8
0
100
AcDbLine
 10
138.1901399999999
 20
786.1441499999999
 30
0.0
 11
150.14414
 21
773.28515
 31
0.0
  0
LINE
  5
3EE
330
1E
100
AcDbEntity
  8
0
100
AcDbLine
 10
150.14414
 20
773.28515
 30
0.0
 11
162.6021399999999
 21
758.6381499999999
 31
0.0
  0
LINE
  5
3EF
330
1E
100
AcDbEntity
  8
0
100
AcDbLine
 10
142.3971399999999
 20
744.79315
 30
0.0
 11
153.7311399999999
 21
727.5681499999999
 31
0.0
  0
LINE
  5
3F0
330
1E
100
AcDbEntity
  8
0
100
AcDbLine
 10
162.6021399999999
 20
758.6381499999999
 30
0.0
 11
174.97914
 21
742.5531499999999
 31
0.0
  0
LINE
  5
3F1
330
1E
100
AcDbEntity
  8
0
100
AcDbLine
 10
153.7311399999999
 20
727.5681499999999
 30
0.0
 11
162.54914
 21
714.04015
 31
0.0
  0
LINE
  5
3F2
330
1E
100
AcDbEntity
  8
0
100
AcDbLine
 10
162.54914
 20
714.04015
 30
0.0
 11
171.44314
 21
700.48515
 31
0.0
  0
LINE
  5
3F3
330
1E
100
AcDbEntity
  8
0
100
AcDbLine
 10
174.97914
 20
742.5531499999999
 30
0.0
 11
184.10914
 21
728.57215
 31
0.0
  0
LINE
  5
3F4
330
1E
100
AcDbEntity
  8
0
100
AcDbLine
 10
171.44314
 20
700.48515
 30
0.0
 11
173.6431399999999
 21
696.67515
 31
0.0
  0
LINE
  5
3F8
330
1E
100
AcDbEntity
  8
0
100
AcDbLine
 10
184.10914
 20
728.57215
 30
0.0
 11
193.9601399999999
 21
713.4851499999999
 31
0.0
  0
LINE
  5
3FF
330
1E
100
AcDbEntity
  8
0
100
AcDbLine
 10
196.1481399999999
 20
708.97515
 30
0.0
 11
196.33514
 21
709.08315
 31
0.0
  0
LINE
  5
400
330
1E
100
AcDbEntity
  8
0
100
AcDbLine
 10
195.6491399999999
 20
708.6871499999999
 30
0.0
 11
196.1481399999999
 21
708.97515
 31
0.0
  0
LINE
  5
401
330
1E
100
AcDbEntity
  8
0
100
AcDbLine
 10
194.8381399999999
 20
708.21915
 30
0.0
 11
195.6491399999999
 21
708.6871499999999
 31
0.0
  0
LINE
  5
402
330
1E
100
AcDbEntity
  8
0
100
AcDbLine
 10
174.5671399999999
 20
696.5151499999999
 30
0.0
 11
194.8381399999999
 21
708.21915
 31
0.0
  0
LINE
  5
405
330
1E
100
AcDbEntity
  8
0
100
AcDbLine
 10
196.1601399999999
 20
709.67515
 30
0.0
 11
196.33514
 21
709.08315
 31
0.0
  0
LINE
  5
406
330
1E
100
AcDbEntity
  8
0
100
AcDbLine
 10
193.9601399999999
 20
713.4851499999999
 30
0.0
 11
196.1601399999999
 21
709.67515
 31
0.0
  0
LINE
  5
40D
330
1E
100
AcDbEntity
  8
0
100
AcDbLine
 10
174.5671399999999
 20
696.5151499999999
 30
0.0
 11
196.4861399999999
 21
658.5651499999999
 31
0.0
  0
LINE
  5
40F
330
1E
100
AcDbEntity
  8
0
100
AcDbLine
 10
196.4861399999999
 20
658.5651499999999
 30
0.0
 11
197.7541399999999
 21
659.2981499999999
 31
0.0
  0
LINE
  5
410
330
1E
100
AcDbEntity
  8
0
100
AcDbLine
 10
196.4861399999999
 20
658.5651499999999
 30
0.0
 11
207.56714
 21
639.37215
 31
0.0
  0
LINE
  5
411
330
1E
100
AcDbEntity
  8
0
100
AcDbLine
 10
200.6141399999999
 20
637.85515
 30
0.0
 11
203.43814
 21
634.1641499999999
 31
0.0
  0
LINE
  5
412
330
1E
100
AcDbEntity
  8
0
100
AcDbLine
 10
200.9681399999999
 20
650.18515
 30
0.0
 11
208.86914
 21
627.3891499999999
 31
0.0
  0
LINE
  5
413
330
1E
100
AcDbEntity
  8
0
100
AcDbLine
 10
200.006333080213
 20
652.467950668845
 30
0.0
 11
200.9681399999999
 21
650.18515
 31
0.0
  0
LINE
  5
414
330
1E
100
AcDbEntity
  8
0
100
AcDbLine
 10
199.939639157756
 20
652.583468803825
 30
0.0
 11
200.9681399999999
 21
650.18515
 31
0.0
  0
LINE
  5
415
330
1E
100
AcDbEntity
  8
0
100
AcDbLine
 10
198.78914
 20
651.51715
 30
0.0
 11
199.537136816519
 21
653.28062857599
 31
0.0
  0
LINE
  5
417
330
1E
100
AcDbEntity
  8
0
100
AcDbLine
 10
198.20814
 20
646.77515
 30
0.0
 11
198.83014
 21
642.14615
 31
0.0
  0
LINE
  5
418
330
1E
100
AcDbEntity
  8
0
100
AcDbLine
 10
198.20814
 20
646.77515
 30
0.0
 11
198.78914
 21
651.51715
 31
0.0
  0
LINE
  5
41A
330
1E
100
AcDbEntity
  8
0
100
AcDbLine
 10
198.83014
 20
642.14615
 30
0.0
 11
200.6141399999999
 21
637.85515
 31
0.0
  0
LINE
  5
41C
330
1E
100
AcDbEntity
  8
0
100
AcDbLine
 10
197.7541399999999
 20
659.2981499999999
 30
0.0
 11
200.2841399999999
 21
660.75815
 31
0.0
  0
LINE
  5
41E
330
1E
100
AcDbEntity
  8
0
100
AcDbLine
 10
200.2841399999999
 20
660.75815
 30
0.0
 11
203.1481399999999
 21
662.41215
 31
0.0
  0
LINE
  5
420
330
1E
100
AcDbEntity
  8
0
100
AcDbLine
 10
196.223571478898
 20
709.01871470439
 30
0.0
 11
218.1361399999999
 21
671.0651499999999
 31
0.0
  0
LINE
  5
421
330
1E
100
AcDbEntity
  8
0
100
AcDbLine
 10
196.223571478898
 20
709.01871470439
 30
0.0
 11
196.33514
 21
709.08315
 31
0.0
  0
LINE
  5
422
330
1E
100
AcDbEntity
  8
0
100
AcDbLine
 10
198.4031399999999
 20
351.85515
 30
0.0
 11
202.2031399999999
 21
351.85515
 31
0.0
  0
LINE
  5
423
330
1E
100
AcDbEntity
  8
0
100
AcDbLine
 10
211.2031399999999
 20
351.85515
 30
0.0
 11
216.20314
 21
351.85515
 31
0.0
  0
LINE
  5
424
330
1E
100
AcDbEntity
  8
0
100
AcDbLine
 10
205.2031399999999
 20
351.85515
 30
0.0
 11
205.2031399999999
 21
328.85515
 31
0.0
  0
LINE
  5
425
330
1E
100
AcDbEntity
  8
0
100
AcDbLine
 10
205.2031399999999
 20
351.85515
 30
0.0
 11
211.2031399999999
 21
351.85515
 31
0.0
  0
LINE
  5
426
330
1E
100
AcDbEntity
  8
0
100
AcDbLine
 10
219.0191399999999
 20
351.85515
 30
0.0
 11
221.6591399999999
 21
351.85515
 31
0.0
  0
LINE
  5
427
330
1E
100
AcDbEntity
  8
0
100
AcDbLine
 10
221.6591399999999
 20
351.85515
 30
0.0
 11
223.9911399999999
 21
351.85515
 31
0.0
  0
LINE
  5
428
330
1E
100
AcDbEntity
  8
0
100
AcDbLine
 10
219.53114
 20
351.85515
 30
0.0
 11
222.65114
 21
351.85515
 31
0.0
  0
LINE
  5
429
330
1E
100
AcDbEntity
  8
0
100
AcDbLine
 10
216.20314
 20
351.85515
 30
0.0
 11
219.53114
 21
351.85515
 31
0.0
  0
LINE
  5
42A
330
1E
100
AcDbEntity
  8
0
100
AcDbLine
 10
216.20314
 20
351.85515
 30
0.0
 11
219.0191399999999
 21
351.85515
 31
0.0
  0
LINE
  5
42B
330
1E
100
AcDbEntity
  8
0
100
AcDbLine
 10
222.65114
 20
351.85515
 30
0.0
 11
224.5018809887779
 21
351.85515
 31
0.0
  0
LINE
  5
42C
330
1E
100
AcDbEntity
  8
0
100
AcDbLine
 10
222.5671399999999
 20
557.08815
 30
0.0
 11
224.3681399999999
 21
525.48715
 31
0.0
  0
LINE
  5
42D
330
1E
100
AcDbEntity
  8
0
100
AcDbLine
 10
219.66814
 20
578.78515
 30
0.0
 11
222.5671399999999
 21
557.08815
 31
0.0
  0
LINE
  5
42E
330
1E
100
AcDbEntity
  8
0
100
AcDbLine
 10
215.0691399999999
 20
602.99215
 30
0.0
 11
219.66814
 21
578.78515
 31
0.0
  0
LINE
  5
42F
330
1E
100
AcDbEntity
  8
0
100
AcDbLine
 10
208.86914
 20
627.3891499999999
 30
0.0
 11
215.0691399999999
 21
602.99215
 31
0.0
  0
LINE
  5
430
330
1E
100
AcDbEntity
  8
0
100
AcDbLine
 10
224.0031399999999
 20
351.85515
 30
0.0
 11
224.5018809887779
 21
351.85515
 31
0.0
  0
LINE
  5
431
330
1E
100
AcDbEntity
  8
0
100
AcDbLine
 10
227.2031399999999
 20
618.628241176471
 30
0.0
 11
227.2031399999999
 21
632.8297352195249
 31
0.0
  0
LINE
  5
432
330
1E
100
AcDbEntity
  8
0
100
AcDbLine
 10
224.3681399999999
 20
525.48715
 30
0.0
 11
224.7701399999999
 21
3.58234999999997
 31
0.0
  0
LINE
  5
433
330
1E
100
AcDbEntity
  8
0
100
AcDbLine
 10
224.3681399999999
 20
525.48715
 30
0.0
 11
224.7701399999999
 21
3.582350000000009
 31
0.0
  0
LINE
  5
434
330
1E
100
AcDbEntity
  8
0
100
AcDbLine
 10
223.989685967248
 20
630.77698768735
 30
0.0
 11
225.2031399999999
 21
631.26715
 31
0.0
  0
LINE
  5
435
330
1E
100
AcDbEntity
  8
0
100
AcDbLine
 10
207.1361399999999
 20
631.3111499999999
 30
0.0
 11
207.574309683527
 21
631.125000132174
 31
0.0
  0
LINE
  5
437
330
1E
100
AcDbEntity
  8
0
100
AcDbLine
 10
203.43814
 20
634.1641499999999
 30
0.0
 11
207.1361399999999
 21
631.3111499999999
 31
0.0
  0
LINE
  5
438
330
1E
100
AcDbEntity
  8
0
100
AcDbLine
 10
222.7681399999999
 20
635.3951499999999
 30
0.0
 11
229.5681399999999
 21
609.6871499999999
 31
0.0
  0
LINE
  5
43A
330
1E
100
AcDbEntity
  8
0
100
AcDbLine
 10
225.2031399999999
 20
631.26715
 30
0.0
 11
228.8701399999999
 21
634.13215
 31
0.0
  0
LINE
  5
43B
330
1E
100
AcDbEntity
  8
0
100
AcDbLine
 10
228.8701399999999
 20
634.13215
 30
0.0
 11
231.74714
 21
637.7881499999999
 31
0.0
  0
LINE
  5
43C
330
1E
100
AcDbEntity
  8
0
100
AcDbLine
 10
210.7841399999999
 20
641.28115
 30
0.0
 11
212.1651399999999
 21
643.1091499999999
 31
0.0
  0
LINE
  5
43D
330
1E
100
AcDbEntity
  8
0
100
AcDbLine
 10
212.1651399999999
 20
643.1091499999999
 30
0.0
 11
214.09714
 21
644.95915
 31
0.0
  0
LINE
  5
43E
330
1E
100
AcDbEntity
  8
0
100
AcDbLine
 10
208.2831399999999
 20
641.06015
 30
0.0
 11
210.0191399999999
 21
643.89715
 31
0.0
  0
LINE
  5
440
330
1E
100
AcDbEntity
  8
0
100
AcDbLine
 10
210.0191399999999
 20
643.89715
 30
0.0
 11
212.3911399999999
 21
646.40215
 31
0.0
  0
LINE
  5
444
330
1E
100
AcDbEntity
  8
0
100
AcDbLine
 10
218.421737528942
 20
647.548931216247
 30
0.0
 11
222.7681399999999
 21
635.3951499999999
 31
0.0
  0
LINE
  5
446
330
1E
100
AcDbEntity
  8
0
100
AcDbLine
 10
221.4931399999999
 20
648.43215
 30
0.0
 11
224.02014
 21
648.64615
 31
0.0
  0
LINE
  5
448
330
1E
100
AcDbEntity
  8
0
100
AcDbLine
 10
218.88414
 20
647.7551499999999
 30
0.0
 11
221.4931399999999
 21
648.43215
 31
0.0
  0
LINE
  5
449
330
1E
100
AcDbEntity
  8
0
100
AcDbLine
 10
216.33914
 20
646.6201499999999
 30
0.0
 11
218.88414
 21
647.7551499999999
 31
0.0
  0
LINE
  5
44A
330
1E
100
AcDbEntity
  8
0
100
AcDbLine
 10
214.09714
 20
644.95915
 30
0.0
 11
216.33914
 21
646.6201499999999
 31
0.0
  0
LINE
  5
44B
330
1E
100
AcDbEntity
  8
0
100
AcDbLine
 10
221.7511399999999
 20
650.9141499999999
 30
0.0
 11
225.15714
 21
650.85815
 31
0.0
  0
LINE
  5
44C
330
1E
100
AcDbEntity
  8
0
100
AcDbLine
 10
218.4631399999999
 20
649.9961499999999
 30
0.0
 11
221.7511399999999
 21
650.9141499999999
 31
0.0
  0
LINE
  5
44E
330
1E
100
AcDbEntity
  8
0
100
AcDbLine
 10
215.2031399999999
 20
648.58715
 30
0.0
 11
218.4631399999999
 21
649.9961499999999
 31
0.0
  0
LINE
  5
450
330
1E
100
AcDbEntity
  8
0
100
AcDbLine
 10
212.3911399999999
 20
646.40215
 30
0.0
 11
215.2031399999999
 21
648.58715
 31
0.0
  0
LINE
  5
452
330
1E
100
AcDbEntity
  8
0
100
AcDbLine
 10
207.56714
 20
639.37215
 30
0.0
 11
210.7841399999999
 21
641.28115
 31
0.0
  0
LINE
  5
453
330
1E
100
AcDbEntity
  8
0
100
AcDbLine
 10
207.56714
 20
639.37215
 30
0.0
 11
208.2831399999999
 21
641.06015
 31
0.0
  0
LINE
  5
457
330
1E
100
AcDbEntity
  8
0
100
AcDbLine
 10
226.1711399999999
 20
648.38515
 30
0.0
 11
227.72314
 21
647.77715
 31
0.0
  0
LINE
  5
459
330
1E
100
AcDbEntity
  8
0
100
AcDbLine
 10
224.02014
 20
648.64615
 30
0.0
 11
226.1711399999999
 21
648.38515
 31
0.0
  0
LINE
  5
45D
330
1E
100
AcDbEntity
  8
0
100
AcDbLine
 10
227.2031399999999
 20
660.878022811816
 30
0.0
 11
228.92614
 21
659.52215
 31
0.0
  0
LINE
  5
45E
330
1E
100
AcDbEntity
  8
0
100
AcDbLine
 10
227.2031399999999
 20
660.878022811816
 30
0.0
 11
227.2031399999999
 21
844.3551499999999
 31
0.0
  0
LINE
  5
460
330
1E
100
AcDbEntity
  8
0
100
AcDbLine
 10
225.15714
 20
650.85815
 30
0.0
 11
227.96414
 21
650.40515
 31
0.0
  0
LINE
  5
462
330
1E
100
AcDbEntity
  8
0
100
AcDbLine
 10
227.72314
 20
647.77715
 30
0.0
 11
228.7561399999999
 21
646.76615
 31
0.0
  0
LINE
  5
465
330
1E
100
AcDbEntity
  8
0
100
AcDbLine
 10
227.96414
 20
650.40515
 30
0.0
 11
229.9631399999999
 21
649.5891499999999
 31
0.0
  0
LINE
  5
467
330
1E
100
AcDbEntity
  8
0
100
AcDbLine
 10
228.92614
 20
659.52215
 30
0.0
 11
231.7921399999999
 21
655.85515
 31
0.0
  0
LINE
  5
468
330
1E
100
AcDbEntity
  8
0
100
AcDbLine
 10
228.7561399999999
 20
646.76615
 30
0.0
 11
228.9801399999999
 21
645.59915
 31
0.0
  0
LINE
  5
46A
330
1E
100
AcDbEntity
  8
0
100
AcDbLine
 10
228.55114
 20
644.26315
 30
0.0
 11
228.9801399999999
 21
645.59915
 31
0.0
  0
LINE
  5
46C
330
1E
100
AcDbEntity
  8
0
100
AcDbLine
 10
227.34814
 20
642.88215
 30
0.0
 11
228.55114
 21
644.26315
 31
0.0
  0
LINE
  5
46E
330
1E
100
AcDbEntity
  8
0
100
AcDbLine
 10
225.6301399999999
 20
641.26715
 30
0.0
 11
227.34814
 21
642.88215
 31
0.0
  0
LINE
  5
46F
330
1E
100
AcDbEntity
  8
0
100
AcDbLine
 10
225.6301399999999
 20
641.26715
 30
0.0
 11
227.1221399999999
 21
641.61215
 31
0.0
  0
LINE
  5
470
330
1E
100
AcDbEntity
  8
0
100
AcDbLine
 10
223.5401399999999
 20
639.69015
 30
0.0
 11
225.6301399999999
 21
641.26715
 31
0.0
  0
LINE
  5
471
330
1E
100
AcDbEntity
  8
0
100
AcDbLine
 10
221.661867900228
 20
638.488602379478
 30
0.0
 11
223.5401399999999
 21
639.69015
 31
0.0
  0
LINE
  5
472
330
1E
100
AcDbEntity
  8
0
100
AcDbLine
 10
229.5681399999999
 20
609.6871499999999
 30
0.0
 11
234.66814
 21
584.29015
 31
0.0
  0
LINE
  5
473
330
1E
100
AcDbEntity
  8
0
100
AcDbLine
 10
231.74714
 20
637.7881499999999
 30
0.0
 11
233.6121399999999
 21
642.19015
 31
0.0
  0
LINE
  5
474
330
1E
100
AcDbEntity
  8
0
100
AcDbLine
 10
240.3681399999999
 20
525.4911499999999
 30
0.0
 11
240.67614
 21
4.51974999999998
 31
0.0
  0
LINE
  5
475
330
1E
100
AcDbEntity
  8
0
100
AcDbLine
 10
240.3681399999999
 20
525.4911499999999
 30
0.0
 11
240.67614
 21
4.519749999999969
 31
0.0
  0
LINE
  5
476
330
1E
100
AcDbEntity
  8
0
100
AcDbLine
 10
238.3681399999999
 20
559.89215
 30
0.0
 11
240.3681399999999
 21
525.4911499999999
 31
0.0
  0
LINE
  5
477
330
1E
100
AcDbEntity
  8
0
100
AcDbLine
 10
234.66814
 20
584.29015
 30
0.0
 11
238.3681399999999
 21
559.89215
 31
0.0
  0
LINE
  5
478
330
1E
100
AcDbEntity
  8
0
100
AcDbLine
 10
233.6121399999999
 20
642.19015
 30
0.0
 11
234.1981399999999
 21
646.93515
 31
0.0
  0
LINE
  5
47A
330
1E
100
AcDbEntity
  8
0
100
AcDbLine
 10
229.9631399999999
 20
649.5891499999999
 30
0.0
 11
231.2681399999999
 21
648.3201499999999
 31
0.0
  0
LINE
  5
47C
330
1E
100
AcDbEntity
  8
0
100
AcDbLine
 10
233.5341399999999
 20
651.54015
 30
0.0
 11
234.1981399999999
 21
646.93515
 31
0.0
  0
LINE
  5
47D
330
1E
100
AcDbEntity
  8
0
100
AcDbLine
 10
231.7921399999999
 20
655.85515
 30
0.0
 11
233.5341399999999
 21
651.54015
 31
0.0
  0
LINE
  5
47E
330
1E
100
AcDbEntity
  8
0
100
AcDbLine
 10
231.2681399999999
 20
648.3201499999999
 30
0.0
 11
231.62414
 21
646.7111499999999
 31
0.0
  0
LINE
  5
47F
330
1E
100
AcDbEntity
  8
0
100
AcDbLine
 10
231.0401399999999
 20
645.07815
 30
0.0
 11
231.62414
 21
646.7111499999999
 31
0.0
  0
LINE
  5
480
330
1E
100
AcDbEntity
  8
0
100
AcDbLine
 10
229.4991399999999
 20
643.33815
 30
0.0
 11
231.0401399999999
 21
645.07815
 31
0.0
  0
LINE
  5
481
330
1E
100
AcDbEntity
  8
0
100
AcDbLine
 10
229.453006773146
 20
643.304651493668
 30
0.0
 11
229.4991399999999
 21
643.33815
 31
0.0
  0
LINE
  5
483
330
1E
100
AcDbEntity
  8
0
100
AcDbLine
 10
205.60314
 20
844.3551499999999
 30
0.0
 11
206.7031399999999
 21
844.3551499999999
 31
0.0
  0
LINE
  5
484
330
1E
100
AcDbEntity
  8
0
100
AcDbLine
 10
205.2031399999999
 20
844.3551499999999
 30
0.0
 11
205.70314
 21
844.85515
 31
0.0
  0
LINE
  5
485
330
1E
100
AcDbEntity
  8
0
100
AcDbLine
 10
205.2031399999999
 20
844.3551499999999
 30
0.0
 11
205.60314
 21
844.3551499999999
 31
0.0
  0
LINE
  5
486
330
1E
100
AcDbEntity
  8
0
100
AcDbLine
 10
205.2031399999999
 20
693.465693863636
 30
0.0
 11
205.2031399999999
 21
844.3551499999999
 31
0.0
  0
LINE
  5
487
330
1E
100
AcDbEntity
  8
0
100
AcDbLine
 10
206.7031399999999
 20
844.3551499999999
 30
0.0
 11
208.4031399999999
 21
844.3551499999999
 31
0.0
  0
LINE
  5
488
330
1E
100
AcDbEntity
  8
0
100
AcDbLine
 10
205.70314
 20
844.85515
 30
0.0
 11
206.10314
 21
844.85515
 31
0.0
  0
LINE
  5
489
330
1E
100
AcDbEntity
  8
0
100
AcDbLine
 10
206.10314
 20
844.85515
 30
0.0
 11
207.1031399999999
 21
844.85515
 31
0.0
  0
LINE
  5
48A
330
1E
100
AcDbEntity
  8
0
100
AcDbLine
 10
208.4031399999999
 20
844.3551499999999
 30
0.0
 11
210.7031399999999
 21
844.3551499999999
 31
0.0
  0
LINE
  5
48B
330
1E
100
AcDbEntity
  8
0
100
AcDbLine
 10
207.1031399999999
 20
844.85515
 30
0.0
 11
208.8031399999999
 21
844.85515
 31
0.0
  0
LINE
  5
48C
330
1E
100
AcDbEntity
  8
0
100
AcDbLine
 10
205.2031399999999
 20
845.3551499999999
 30
0.0
 11
205.60314
 21
845.3551499999999
 31
0.0
  0
LINE
  5
48D
330
1E
100
AcDbEntity
  8
0
100
AcDbLine
 10
205.2031399999999
 20
845.3551499999999
 30
0.0
 11
205.70314
 21
844.85515
 31
0.0
  0
LINE
  5
48E
330
1E
100
AcDbEntity
  8
0
100
AcDbLine
 10
205.2031399999999
 20
845.3551499999999
 30
0.0
 11
205.2031399999999
 21
896.3551499999999
 31
0.0
  0
LINE
  5
48F
330
1E
100
AcDbEntity
  8
0
100
AcDbLine
 10
205.60314
 20
845.3551499999999
 30
0.0
 11
206.7031399999999
 21
845.3551499999999
 31
0.0
  0
LINE
  5
490
330
1E
100
AcDbEntity
  8
0
100
AcDbLine
 10
205.2031399999999
 20
896.3551499999999
 30
0.0
 11
205.60314
 21
896.3551499999999
 31
0.0
  0
LINE
  5
491
330
1E
100
AcDbEntity
  8
0
100
AcDbLine
 10
205.2031399999999
 20
896.3551499999999
 30
0.0
 11
205.70314
 21
896.85515
 31
0.0
  0
LINE
  5
492
330
1E
100
AcDbEntity
  8
0
100
AcDbLine
 10
205.2031399999999
 20
896.3551499999999
 30
0.0
 11
205.2031399999999
 21
845.3551499999999
 31
0.0
  0
LINE
  5
493
330
1E
100
AcDbEntity
  8
0
100
AcDbLine
 10
205.60314
 20
896.3551499999999
 30
0.0
 11
206.7031399999999
 21
896.3551499999999
 31
0.0
  0
LINE
  5
494
330
1E
100
AcDbEntity
  8
0
100
AcDbLine
 10
205.70314
 20
896.85515
 30
0.0
 11
206.10314
 21
896.85515
 31
0.0
  0
LINE
  5
495
330
1E
100
AcDbEntity
  8
0
100
AcDbLine
 10
206.10314
 20
896.85515
 30
0.0
 11
207.1031399999999
 21
896.85515
 31
0.0
  0
LINE
  5
496
330
1E
100
AcDbEntity
  8
0
100
AcDbLine
 10
207.1031399999999
 20
896.85515
 30
0.0
 11
208.8031399999999
 21
896.85515
 31
0.0
  0
LINE
  5
497
330
1E
100
AcDbEntity
  8
0
100
AcDbLine
 10
206.7031399999999
 20
896.3551499999999
 30
0.0
 11
208.4031399999999
 21
896.3551499999999
 31
0.0
  0
LINE
  5
498
330
1E
100
AcDbEntity
  8
0
100
AcDbLine
 10
208.4031399999999
 20
896.3551499999999
 30
0.0
 11
210.7031399999999
 21
896.3551499999999
 31
0.0
  0
LINE
  5
499
330
1E
100
AcDbEntity
  8
0
100
AcDbLine
 10
206.7031399999999
 20
845.3551499999999
 30
0.0
 11
208.4031399999999
 21
845.3551499999999
 31
0.0
  0
LINE
  5
49A
330
1E
100
AcDbEntity
  8
0
100
AcDbLine
 10
208.8031399999999
 20
896.85515
 30
0.0
 11
211.00314
 21
896.85515
 31
0.0
  0
LINE
  5
49B
330
1E
100
AcDbEntity
  8
0
100
AcDbLine
 10
208.4031399999999
 20
845.3551499999999
 30
0.0
 11
210.7031399999999
 21
845.3551499999999
 31
0.0
  0
LINE
  5
49C
330
1E
100
AcDbEntity
  8
0
100
AcDbLine
 10
208.8031399999999
 20
844.85515
 30
0.0
 11
211.00314
 21
844.85515
 31
0.0
  0
LINE
  5
49D
330
1E
100
AcDbEntity
  8
0
100
AcDbLine
 10
222.4495867068899
 20
663.594136799557
 30
0.0
 11
225.2701399999999
 21
662.3991499999999
 31
0.0
  0
LINE
  5
49E
330
1E
100
AcDbEntity
  8
0
100
AcDbLine
 10
210.7031399999999
 20
844.3551499999999
 30
0.0
 11
213.40314
 21
844.3551499999999
 31
0.0
  0
LINE
  5
49F
330
1E
100
AcDbEntity
  8
0
100
AcDbLine
 10
213.40314
 20
844.3551499999999
 30
0.0
 11
216.20314
 21
844.3551499999999
 31
0.0
  0
LINE
  5
4A0
330
1E
100
AcDbEntity
  8
0
100
AcDbLine
 10
211.00314
 20
844.85515
 30
0.0
 11
213.5031399999999
 21
844.85515
 31
0.0
  0
LINE
  5
4A1
330
1E
100
AcDbEntity
  8
0
100
AcDbLine
 10
211.00314
 20
896.85515
 30
0.0
 11
213.5031399999999
 21
896.85515
 31
0.0
  0
LINE
  5
4A2
330
1E
100
AcDbEntity
  8
0
100
AcDbLine
 10
210.7031399999999
 20
896.3551499999999
 30
0.0
 11
213.40314
 21
896.3551499999999
 31
0.0
  0
LINE
  5
4A3
330
1E
100
AcDbEntity
  8
0
100
AcDbLine
 10
213.40314
 20
896.3551499999999
 30
0.0
 11
216.20314
 21
896.3551499999999
 31
0.0
  0
LINE
  5
4A4
330
1E
100
AcDbEntity
  8
0
100
AcDbLine
 10
210.7031399999999
 20
845.3551499999999
 30
0.0
 11
213.40314
 21
845.3551499999999
 31
0.0
  0
LINE
  5
4A5
330
1E
100
AcDbEntity
  8
0
100
AcDbLine
 10
213.5031399999999
 20
896.85515
 30
0.0
 11
216.20314
 21
896.85515
 31
0.0
  0
LINE
  5
4A6
330
1E
100
AcDbEntity
  8
0
100
AcDbLine
 10
213.40314
 20
845.3551499999999
 30
0.0
 11
216.20314
 21
845.3551499999999
 31
0.0
  0
LINE
  5
4A7
330
1E
100
AcDbEntity
  8
0
100
AcDbLine
 10
213.5031399999999
 20
844.85515
 30
0.0
 11
216.20314
 21
844.85515
 31
0.0
  0
LINE
  5
4A8
330
1E
100
AcDbEntity
  8
0
100
AcDbLine
 10
216.20314
 20
844.3551499999999
 30
0.0
 11
219.00314
 21
844.3551499999999
 31
0.0
  0
LINE
  5
4A9
330
1E
100
AcDbEntity
  8
0
100
AcDbLine
 10
216.20314
 20
896.85515
 30
0.0
 11
259.70314
 21
896.85515
 31
0.0
  0
LINE
  5
4AA
330
1E
100
AcDbEntity
  8
0
100
AcDbLine
 10
216.20314
 20
896.3551499999999
 30
0.0
 11
260.20314
 21
896.3551499999999
 31
0.0
  0
LINE
  5
4AB
330
1E
100
AcDbEntity
  8
0
100
AcDbLine
 10
216.20314
 20
845.3551499999999
 30
0.0
 11
260.20314
 21
845.3551499999999
 31
0.0
  0
LINE
  5
4AC
330
1E
100
AcDbEntity
  8
0
100
AcDbLine
 10
216.20314
 20
844.85515
 30
0.0
 11
259.70314
 21
844.85515
 31
0.0
  0
LINE
  5
4AD
330
1E
100
AcDbEntity
  8
0
100
AcDbLine
 10
216.20314
 20
844.85515
 30
0.0
 11
218.9031399999999
 21
844.85515
 31
0.0
  0
LINE
  5
4AE
330
1E
100
AcDbEntity
  8
0
100
AcDbLine
 10
225.7031399999999
 20
844.3551499999999
 30
0.0
 11
226.8031399999999
 21
844.3551499999999
 31
0.0
  0
LINE
  5
4AF
330
1E
100
AcDbEntity
  8
0
100
AcDbLine
 10
224.0031399999999
 20
844.3551499999999
 30
0.0
 11
225.7031399999999
 21
844.3551499999999
 31
0.0
  0
LINE
  5
4B0
330
1E
100
AcDbEntity
  8
0
100
AcDbLine
 10
221.7031399999999
 20
844.3551499999999
 30
0.0
 11
224.0031399999999
 21
844.3551499999999
 31
0.0
  0
LINE
  5
4B1
330
1E
100
AcDbEntity
  8
0
100
AcDbLine
 10
226.30314
 20
844.85515
 30
0.0
 11
226.70314
 21
844.85515
 31
0.0
  0
LINE
  5
4B2
330
1E
100
AcDbEntity
  8
0
100
AcDbLine
 10
225.3031399999999
 20
844.85515
 30
0.0
 11
226.30314
 21
844.85515
 31
0.0
  0
LINE
  5
4B3
330
1E
100
AcDbEntity
  8
0
100
AcDbLine
 10
223.6031399999999
 20
844.85515
 30
0.0
 11
225.3031399999999
 21
844.85515
 31
0.0
  0
LINE
  5
4B4
330
1E
100
AcDbEntity
  8
0
100
AcDbLine
 10
221.4031399999999
 20
844.85515
 30
0.0
 11
223.6031399999999
 21
844.85515
 31
0.0
  0
LINE
  5
4B5
330
1E
100
AcDbEntity
  8
0
100
AcDbLine
 10
218.9031399999999
 20
844.85515
 30
0.0
 11
221.4031399999999
 21
844.85515
 31
0.0
  0
LINE
  5
4B6
330
1E
100
AcDbEntity
  8
0
100
AcDbLine
 10
219.00314
 20
844.3551499999999
 30
0.0
 11
221.7031399999999
 21
844.3551499999999
 31
0.0
  0
LINE
  5
4B7
330
1E
100
AcDbEntity
  8
0
100
AcDbLine
 10
226.8031399999999
 20
844.3551499999999
 30
0.0
 11
227.2031399999999
 21
844.3551499999999
 31
0.0
  0
LINE
  5
4B8
330
1E
100
AcDbEntity
  8
0
100
AcDbLine
 10
226.70314
 20
844.85515
 30
0.0
 11
259.70314
 21
844.85515
 31
0.0
  0
LINE
  5
4B9
330
1E
100
AcDbEntity
  8
0
100
AcDbLine
 10
226.70314
 20
844.85515
 30
0.0
 11
227.2031399999999
 21
844.3551499999999
 31
0.0
  0
LINE
  5
4BA
330
1E
100
AcDbEntity
  8
0
100
AcDbLine
 10
259.70314
 20
896.85515
 30
0.0
 11
260.20314
 21
896.3551499999999
 31
0.0
  0
LINE
  5
4BB
330
1E
100
AcDbEntity
  8
0
100
AcDbLine
 10
260.20314
 20
896.3551499999999
 30
0.0
 11
260.20314
 21
845.3551499999999
 31
0.0
  0
LINE
  5
4BC
330
1E
100
AcDbEntity
  8
0
100
AcDbLine
 10
260.20314
 20
845.3551499999999
 30
0.0
 11
260.20314
 21
896.3551499999999
 31
0.0
  0
LINE
  5
4BD
330
1E
100
AcDbEntity
  8
0
100
AcDbLine
 10
259.70314
 20
844.85515
 30
0.0
 11
260.20314
 21
845.3551499999999
 31
0.0
  0
LINE
  5
4BE
330
1E
100
AcDbEntity
  8
0
100
AcDbLine
 10
218.1361399999999
 20
671.0651499999999
 30
0.0
 11
231.2681399999999
 21
648.3201499999999
 31
0.0
  0
LINE
  5
4BF
330
1E
100
AcDbEntity
  8
0
100
AcDbLine
 10
217.7071399999999
 20
670.8171499999999
 30
0.0
 11
218.1361399999999
 21
671.0651499999999
 31
0.0
  0
LINE
  5
4C1
330
1E
100
AcDbEntity
  8
0
100
AcDbLine
 10
216.5611399999999
 20
670.15615
 30
0.0
 11
217.7071399999999
 21
670.8171499999999
 31
0.0
  0
LINE
  5
4C3
330
1E
100
AcDbEntity
  8
0
100
AcDbLine
 10
214.65214
 20
669.0531499999999
 30
0.0
 11
216.5611399999999
 21
670.15615
 31
0.0
  0
LINE
  5
4C5
330
1E
100
AcDbEntity
  8
0
100
AcDbLine
 10
212.12214
 20
667.59315
 30
0.0
 11
214.65214
 21
669.0531499999999
 31
0.0
  0
LINE
  5
4C8
330
1E
100
AcDbEntity
  8
0
100
AcDbLine
 10
203.1481399999999
 20
662.41215
 30
0.0
 11
212.12214
 21
667.59315
 31
0.0
  0
LINE
  5
4CC
330
1E
100
AcDbEntity
  8
0
100
AcDbLine
 10
202.2031399999999
 20
351.85515
 30
0.0
 11
202.2031399999999
 21
328.85515
 31
0.0
  0
LINE
  5
4CD
330
1E
100
AcDbEntity
  8
0
100
AcDbLine
 10
202.2031399999999
 20
351.85515
 30
0.0
 11
205.2031399999999
 21
351.85515
 31
0.0
  0
LINE
  5
4CE
330
1E
100
AcDbEntity
  8
0
100
AcDbLine
 10
202.2031399999999
 20
351.85515
 30
0.0
 11
216.20314
 21
351.85515
 31
0.0
  0
LINE
  5
4CF
330
1E
100
AcDbEntity
  8
0
100
AcDbLine
 10
144.2031399999999
 20
328.85515
 30
0.0
 11
151.4031399999999
 21
328.85515
 31
0.0
  0
LINE
  5
4D0
330
1E
100
AcDbEntity
  8
0
100
AcDbLine
 10
137.00314
 20
328.85515
 30
0.0
 11
144.2031399999999
 21
328.85515
 31
0.0
  0
LINE
  5
4D5
330
1E
100
AcDbEntity
  8
0
100
AcDbLine
 10
89.02214
 20
832.13115
 30
0.0
 11
107.2321399999999
 21
816.1001499999999
 31
0.0
  0
LINE
  5
4D6
330
1E
100
AcDbEntity
  8
0
100
AcDbLine
 10
62.08254
 20
853.70915
 30
0.0
 11
77.46984000000001
 21
841.9911499999999
 31
0.0
  0
LINE
  5
4D7
330
1E
100
AcDbEntity
  8
0
100
AcDbLine
 10
229.453006773146
 20
643.304651493668
 30
0.0
 11
227.1221399999999
 21
641.61215
 31
0.0
  0
LINE
  5
4D8
330
1E
100
AcDbEntity
  8
0
100
AcDbLine
 10
225.2701399999999
 20
662.3991499999999
 30
0.0
 11
227.2031399999999
 21
660.878022811816
 31
0.0
  0
ENDSEC
  0
SECTION
  2
OBJECTS
  0
DICTIONARY
  5
C
330
0
100
AcDbDictionary
281
     1
  3
ACAD_GROUP
350
D
  3
ACAD_LAYOUT
350
19
  3
ACAD_MLINESTYLE
350
16
  3
ACAD_PLOTSETTINGS
350
18
  3
ACAD_PLOTSTYLENAME
350
E
  3
AcDbVariableDictionary
350
4D9
  0
DICTIONARY
  5
D
102
{ACAD_REACTORS
330
C
102
}
330
C
100
AcDbDictionary
281
     1
  0
DICTIONARY
  5
19
102
{ACAD_REACTORS
330
C
102
}
330
C
100
AcDbDictionary
281
     1
  3
Layout1
350
1D
  3
Model
350
21
  0
DICTIONARY
  5
16
102
{ACAD_REACTORS
330
C
102
}
330
C
100
AcDbDictionary
281
     1
  3
Standard
350
17
  0
DICTIONARY
  5
18
102
{ACAD_REACTORS
330
C
102
}
330
C
100
AcDbDictionary
281
     1
  0
ACDBDICTIONARYWDFLT
  5
E
102
{ACAD_REACTORS
330
C
102
}
330
C
100
AcDbDictionary
281
     1
  3
Normal
350
F
100
AcDbDictionaryWithDefault
340
F
  0
DICTIONARY
  5
4D9
102
{ACAD_REACTORS
330
C
102
}
330
C
100
AcDbDictionary
281
     1
  3
DIMASSOC
350
4DA
  0
LAYOUT
  5
1D
102
{ACAD_REACTORS
330
19
102
}
330
19
100
AcDbPlotSettings
  1

  2
hp deskjet 980c series
  4

  6

 40
0.0
 41
0.0
 42
0.0
 43
0.0
 44
0.0
 45
0.0
 46
0.0
 47
0.0
 48
0.0
 49
0.0
140
0.0
141
0.0
142
1.0
143
1.0
 70
   688
 72
     0
 73
     0
 74
     5
  7

 75
    16
147
1.0
148
0.0
149
0.0
100
AcDbLayout
  1
Layout1
 70
     1
 71
     1
 10
0.0
 20
0.0
 11
12.0
 21
9.0
 12
0.0
 22
0.0
 32
0.0
 14
1.000000000000000E+20
 24
1.000000000000000E+20
 34
1.000000000000000E+20
 15
-1.000000000000000E+20
 25
-1.000000000000000E+20
 35
-1.000000000000000E+20
146
0.0
 13
0.0
 23
0.0
 33
0.0
 16
1.0
 26
0.0
 36
0.0
 17
0.0
 27
1.0
 37
0.0
 76
     0
330
1A
  0
LAYOUT
  5
21
102
{ACAD_REACTORS
330
19
102
}
330
19
100
AcDbPlotSettings
  1

  2
hp deskjet 980c series
  4

  6

 40
0.0
 41
0.0
 42
0.0
 43
0.0
 44
0.0
 45
0.0
 46
0.0
 47
0.0
 48
0.0
 49
0.0
140
0.0
141
0.0
142
1.0
143
1.0
 70
  1712
 72
     0
 73
     0
 74
     0
  7

 75
     0
147
1.0
148
0.0
149
0.0
100
AcDbLayout
  1
Model
 70
     1
 71
     0
 10
0.0
 20
0.0
 11
12.0
 21
9.0
 12
0.0
 22
0.0
 32
0.0
 14
0.0
 24
0.0
 34
0.0
 15
0.0
 25
0.0
 35
0.0
146
0.0
 13
0.0
 23
0.0
 33
0.0
 16
1.0
 26
0.0
 36
0.0
 17
0.0
 27
1.0
 37
0.0
 76
     0
330
1E
  0
MLINESTYLE
  5
17
102
{ACAD_REACTORS
330
16
102
}
330
16
100
AcDbMlineStyle
  2
STANDARD
 70
     0
  3

 62
   256
 51
90.0
 52
90.0
 71
     2
 49
0.5
 62
   256
  6
BYLAYER
 49
-0.5
 62
   256
  6
BYLAYER
  0
ACDBPLACEHOLDER
  5
F
102
{ACAD_REACTORS
330
E
102
}
330
E
  0
DICTIONARYVAR
  5
4DA
102
{ACAD_REACTORS
330
4D9
102
}
330
4D9
100
DictionaryVariables
280
     0
  1
1
  0
ENDSEC
  0
EOF
