  0
SECTION
  2
HEADER
  9
$ACADVER
  1
AC1015
  9
$ACADMAINTVER
 70
    13
  9
$DWGCODEPAGE
  3
ANSI_1252
  9
$INSBASE
 10
0.0
 20
0.0
 30
0.0
  9
$EXTMIN
 10
0.0767650000000075
 20
-0.20314000000002
 30
0.0
  9
$EXTMAX
 10
139.923235
 20
260.20314
 30
0.0
  9
$LIMMIN
 10
0.0
 20
0.0
  9
$LIMMAX
 10
12.0
 20
9.0
  9
$ORTHOMODE
 70
     0
  9
$REGENMODE
 70
     1
  9
$FILLMODE
 70
     1
  9
$QTEXTMODE
 70
     0
  9
$MIRRTEXT
 70
     1
  9
$LTSCALE
 40
1.0
  9
$ATTMODE
 70
     1
  9
$TEXTSIZE
 40
0.2
  9
$TRACEWID
 40
0.05
  9
$TEXTSTYLE
  7
Standard
  9
$CLAYER
  8
0
  9
$CELTYPE
  6
Continuous
  9
$CECOLOR
 62
   256
  9
$CELTSCALE
 40
1.0
  9
$DISPSILH
 70
     0
  9
$DIMSCALE
 40
1.0
  9
$DIMASZ
 40
0.18
  9
$DIMEXO
 40
0.0625
  9
$DIMDLI
 40
0.38
  9
$DIMRND
 40
0.0
  9
$DIMDLE
 40
0.0
  9
$DIMEXE
 40
0.18
  9
$DIMTP
 40
0.0
  9
$DIMTM
 40
0.0
  9
$DIMTXT
 40
0.18
  9
$DIMCEN
 40
0.09
  9
$DIMTSZ
 40
0.0
  9
$DIMTOL
 70
     0
  9
$DIMLIM
 70
     0
  9
$DIMTIH
 70
     1
  9
$DIMTOH
 70
     1
  9
$DIMSE1
 70
     0
  9
$DIMSE2
 70
     0
  9
$DIMTAD
 70
     0
  9
$DIMZIN
 70
     0
  9
$DIMBLK
  1

  9
$DIMASO
 70
     1
  9
$DIMSHO
 70
     1
  9
$DIMPOST
  1

  9
$DIMAPOST
  1

  9
$DIMALT
 70
     0
  9
$DIMALTD
 70
     2
  9
$DIMALTF
 40
25.4
  9
$DIMLFAC
 40
1.0
  9
$DIMTOFL
 70
     0
  9
$DIMTVP
 40
0.0
  9
$DIMTIX
 70
     0
  9
$DIMSOXD
 70
     0
  9
$DIMSAH
 70
     0
  9
$DIMBLK1
  1

  9
$DIMBLK2
  1

  9
$DIMSTYLE
  2
Standard
  9
$DIMCLRD
 70
     0
  9
$DIMCLRE
 70
     0
  9
$DIMCLRT
 70
     0
  9
$DIMTFAC
 40
1.0
  9
$DIMGAP
 40
0.09
  9
$DIMJUST
 70
     0
  9
$DIMSD1
 70
     0
  9
$DIMSD2
 70
     0
  9
$DIMTOLJ
 70
     1
  9
$DIMTZIN
 70
     0
  9
$DIMALTZ
 70
     0
  9
$DIMALTTZ
 70
     0
  9
$DIMUPT
 70
     0
  9
$DIMDEC
 70
     4
  9
$DIMTDEC
 70
     4
  9
$DIMALTU
 70
     2
  9
$DIMALTTD
 70
     2
  9
$DIMTXSTY
  7
Standard
  9
$DIMAUNIT
 70
     0
  9
$DIMADEC
 70
     0
  9
$DIMALTRND
 40
0.0
  9
$DIMAZIN
 70
     0
  9
$DIMDSEP
 70
    46
  9
$DIMATFIT
 70
     3
  9
$DIMFRAC
 70
     0
  9
$DIMLDRBLK
  1

  9
$DIMLUNIT
 70
     2
  9
$DIMLWD
 70
    -2
  9
$DIMLWE
 70
    -2
  9
$DIMTMOVE
 70
     0
  9
$LUNITS
 70
     2
  9
$LUPREC
 70
     4
  9
$SKETCHINC
 40
0.1
  9
$FILLETRAD
 40
0.0
  9
$AUNITS
 70
     0
  9
$AUPREC
 70
     0
  9
$MENU
  1
.
  9
$ELEVATION
 40
0.0
  9
$PELEVATION
 40
0.0
  9
$THICKNESS
 40
0.0
  9
$LIMCHECK
 70
     0
  9
$CHAMFERA
 40
0.0
  9
$CHAMFERB
 40
0.0
  9
$CHAMFERC
 40
0.0
  9
$CHAMFERD
 40
0.0
  9
$SKPOLY
 70
     0
  9
$TDCREATE
 40
2454738.877927870
  9
$TDUCREATE
 40
2454738.794594537
  9
$TDUPDATE
 40
2454738.889513889
  9
$TDUUPDATE
 40
2454738.806180555
  9
$TDINDWG
 40
0.0115860185
  9
$TDUSRTIMER
 40
0.0115860185
  9
$USRTIMER
 70
     1
  9
$ANGBASE
 50
0.0
  9
$ANGDIR
 70
     0
  9
$PDMODE
 70
     0
  9
$PDSIZE
 40
0.0
  9
$PLINEWID
 40
0.0
  9
$SPLFRAME
 70
     0
  9
$SPLINETYPE
 70
     6
  9
$SPLINESEGS
 70
     8
  9
$HANDSEED
  5
213
  9
$SURFTAB1
 70
     6
  9
$SURFTAB2
 70
     6
  9
$SURFTYPE
 70
     6
  9
$SURFU
 70
     6
  9
$SURFV
 70
     6
  9
$UCSBASE
  2

  9
$UCSNAME
  2

  9
$UCSORG
 10
0.0
 20
0.0
 30
0.0
  9
$UCSXDIR
 10
1.0
 20
0.0
 30
0.0
  9
$UCSYDIR
 10
0.0
 20
1.0
 30
0.0
  9
$UCSORTHOREF
  2

  9
$UCSORTHOVIEW
 70
     1
  9
$UCSORGTOP
 10
0.0
 20
0.0
 30
0.0
  9
$UCSORGBOTTOM
 10
0.0
 20
0.0
 30
0.0
  9
$UCSORGLEFT
 10
0.0
 20
0.0
 30
0.0
  9
$UCSORGRIGHT
 10
0.0
 20
0.0
 30
0.0
  9
$UCSORGFRONT
 10
0.0
 20
0.0
 30
0.0
  9
$UCSORGBACK
 10
0.0
 20
0.0
 30
0.0
  9
$PUCSBASE
  2

  9
$PUCSNAME
  2

  9
$PUCSORG
 10
0.0
 20
0.0
 30
0.0
  9
$PUCSXDIR
 10
1.0
 20
0.0
 30
0.0
  9
$PUCSYDIR
 10
0.0
 20
1.0
 30
0.0
  9
$PUCSORTHOREF
  2

  9
$PUCSORTHOVIEW
 70
     0
  9
$PUCSORGTOP
 10
0.0
 20
0.0
 30
0.0
  9
$PUCSORGBOTTOM
 10
0.0
 20
0.0
 30
0.0
  9
$PUCSORGLEFT
 10
0.0
 20
0.0
 30
0.0
  9
$PUCSORGRIGHT
 10
0.0
 20
0.0
 30
0.0
  9
$PUCSORGFRONT
 10
0.0
 20
0.0
 30
0.0
  9
$PUCSORGBACK
 10
0.0
 20
0.0
 30
0.0
  9
$USERI1
 70
     0
  9
$USERI2
 70
     0
  9
$USERI3
 70
     0
  9
$USERI4
 70
     0
  9
$USERI5
 70
     0
  9
$USERR1
 40
0.0
  9
$USERR2
 40
0.0
  9
$USERR3
 40
0.0
  9
$USERR4
 40
0.0
  9
$USERR5
 40
0.0
  9
$WORLDVIEW
 70
     1
  9
$SHADEDGE
 70
     3
  9
$SHADEDIF
 70
    70
  9
$TILEMODE
 70
     1
  9
$MAXACTVP
 70
    64
  9
$PINSBASE
 10
0.0
 20
0.0
 30
0.0
  9
$PLIMCHECK
 70
     0
  9
$PEXTMIN
 10
1.000000000000000E+20
 20
1.000000000000000E+20
 30
1.000000000000000E+20
  9
$PEXTMAX
 10
-1.000000000000000E+20
 20
-1.000000000000000E+20
 30
-1.000000000000000E+20
  9
$PLIMMIN
 10
0.0
 20
0.0
  9
$PLIMMAX
 10
12.0
 20
9.0
  9
$UNITMODE
 70
     0
  9
$VISRETAIN
 70
     1
  9
$PLINEGEN
 70
     0
  9
$PSLTSCALE
 70
     1
  9
$TREEDEPTH
 70
  3020
  9
$CMLSTYLE
  2
Standard
  9
$CMLJUST
 70
     0
  9
$CMLSCALE
 40
1.0
  9
$PROXYGRAPHICS
 70
     1
  9
$MEASUREMENT
 70
     0
  9
$CELWEIGHT
370
    -1
  9
$ENDCAPS
280
     0
  9
$JOINSTYLE
280
     0
  9
$LWDISPLAY
290
     0
  9
$INSUNITS
 70
     0
  9
$HYPERLINKBASE
  1

  9
$STYLESHEET
  1

  9
$XEDIT
290
     1
  9
$CEPSNTYPE
380
     0
  9
$PSTYLEMODE
290
     1
  9
$FINGERPRINTGUID
  2
{5FBC5B70-B440-4467-9114-A00C3B03B5ED}
  9
$VERSIONGUID
  2
{8C5D5630-3CAF-4DED-81A9-48CB79FBB852}
  9
$EXTNAMES
290
     1
  9
$PSVPSCALE
 40
0.0
  9
$OLESTARTUP
290
     0
  0
ENDSEC
  0
SECTION
  2
CLASSES
  0
CLASS
  1
ACDBDICTIONARYWDFLT
  2
AcDbDictionaryWithDefault
  3
AutoCAD 2000
 90
        0
280
     0
281
     0
  0
CLASS
  1
ACDBPLACEHOLDER
  2
AcDbPlaceHolder
  3
AutoCAD 2000
 90
        0
280
     0
281
     0
  0
CLASS
  1
LAYOUT
  2
AcDbLayout
  3
AutoCAD 2000
 90
        0
280
     0
281
     0
  0
CLASS
  1
DICTIONARYVAR
  2
AcDbDictionaryVar
  3
AutoCAD 2000
 90
        0
280
     0
281
     0
  0
ENDSEC
  0
SECTION
  2
TABLES
  0
TABLE
  2
VPORT
  5
8
330
0
100
AcDbSymbolTable
 70
     5
  0
VPORT
  5
212
330
8
100
AcDbSymbolTableRecord
100
AcDbViewportTableRecord
  2
*Active
 70
     0
 10
0.0
 20
0.0
 11
1.0
 21
1.0
 12
70.00000000000001
 22
130.0
 13
0.0
 23
0.0
 14
1.0
 24
1.0
 15
0.0
 25
0.0
 16
0.0
 26
0.0
 36
1.0
 17
0.0
 27
0.0
 37
0.0
 40
262.4042821483376
 41
2.078104993597951
 42
50.0
 43
0.0
 44
0.0
 50
0.0
 51
0.0
 71
     0
 72
   100
 73
     1
 74
     3
 75
     0
 76
     0
 77
     0
 78
     0
281
     0
 65
     1
110
0.0
120
0.0
130
0.0
111
1.0
121
0.0
131
0.0
112
0.0
122
1.0
132
0.0
 79
     1
146
0.0
  0
ENDTAB
  0
TABLE
  2
LTYPE
  5
5
330
0
100
AcDbSymbolTable
 70
     1
  0
LTYPE
  5
13
330
5
100
AcDbSymbolTableRecord
100
AcDbLinetypeTableRecord
  2
ByBlock
 70
     0
  3

 72
    65
 73
     0
 40
0.0
  0
LTYPE
  5
14
330
5
100
AcDbSymbolTableRecord
100
AcDbLinetypeTableRecord
  2
ByLayer
 70
     0
  3

 72
    65
 73
     0
 40
0.0
  0
LTYPE
  5
15
330
5
100
AcDbSymbolTableRecord
100
AcDbLinetypeTableRecord
  2
Continuous
 70
     0
  3
Solid line
 72
    65
 73
     0
 40
0.0
  0
ENDTAB
  0
TABLE
  2
LAYER
  5
2
330
0
100
AcDbSymbolTable
 70
     1
  0
LAYER
  5
10
330
2
100
AcDbSymbolTableRecord
100
AcDbLayerTableRecord
  2
0
 70
     0
 62
     7
  6
Continuous
370
    -3
390
F
  0
ENDTAB
  0
TABLE
  2
STYLE
  5
3
330
0
100
AcDbSymbolTable
 70
     1
  0
STYLE
  5
11
330
3
100
AcDbSymbolTableRecord
100
AcDbTextStyleTableRecord
  2
Standard
 70
     0
 40
0.0
 41
1.0
 50
0.0
 71
     0
 42
0.2
  3
txt
  4

  0
ENDTAB
  0
TABLE
  2
VIEW
  5
6
330
0
100
AcDbSymbolTable
 70
     0
  0
ENDTAB
  0
TABLE
  2
UCS
  5
7
330
0
100
AcDbSymbolTable
 70
     0
  0
ENDTAB
  0
TABLE
  2
APPID
  5
9
330
0
100
AcDbSymbolTable
 70
     1
  0
APPID
  5
12
330
9
100
AcDbSymbolTableRecord
100
AcDbRegAppTableRecord
  2
ACAD
 70
     0
  0
ENDTAB
  0
TABLE
  2
DIMSTYLE
  5
A
330
0
100
AcDbSymbolTable
 70
     1
100
AcDbDimStyleTable
 71
     0
  0
DIMSTYLE
105
209
330
A
100
AcDbSymbolTableRecord
100
AcDbDimStyleTableRecord
  2
Standard
 70
     0
340
11
  0
ENDTAB
  0
TABLE
  2
BLOCK_RECORD
  5
1
330
0
100
AcDbSymbolTable
 70
     0
  0
BLOCK_RECORD
  5
1E
330
1
100
AcDbSymbolTableRecord
100
AcDbBlockTableRecord
  2
*Model_Space
340
21
  0
BLOCK_RECORD
  5
1A
330
1
100
AcDbSymbolTableRecord
100
AcDbBlockTableRecord
  2
*Paper_Space
340
1D
  0
ENDTAB
  0
ENDSEC
  0
SECTION
  2
BLOCKS
  0
BLOCK
  5
1F
330
1E
100
AcDbEntity
  8
0
100
AcDbBlockBegin
  2
*Model_Space
 70
     0
 10
0.0
 20
0.0
 30
0.0
  3
*Model_Space
  1

  0
ENDBLK
  5
20
330
1E
100
AcDbEntity
  8
0
100
AcDbBlockEnd
  0
BLOCK
  5
1B
330
1A
100
AcDbEntity
 67
     1
  8
0
100
AcDbBlockBegin
  2
*Paper_Space
 70
     0
 10
0.0
 20
0.0
 30
0.0
  3
*Paper_Space
  1

  0
ENDBLK
  5
1C
330
1A
100
AcDbEntity
 67
     1
  8
0
100
AcDbBlockEnd
  0
ENDSEC
  0
SECTION
  2
ENTITIES
  0
LINE
  5
22
330
1E
100
AcDbEntity
  8
0
100
AcDbLine
 10
2.923235000000009
 20
144.2031399999999
 30
0.0
 11
3.423235000000009
 21
137.3031399999999
 31
0.0
  0
LINE
  5
23
330
1E
100
AcDbEntity
  8
0
100
AcDbLine
 10
2.923235000000009
 20
144.2031399999999
 30
0.0
 11
3.423235000000009
 21
151.10314
 31
0.0
  0
LINE
  5
24
330
1E
100
AcDbEntity
  8
0
100
AcDbLine
 10
1.52323500000001
 20
137.00314
 30
0.0
 11
2.923235000000009
 21
130.0031399999999
 31
0.0
  0
LINE
  5
25
330
1E
100
AcDbEntity
  8
0
100
AcDbLine
 10
1.46374500000001
 20
213.6711399999999
 30
0.0
 11
2.11777500000001
 21
213.38314
 31
0.0
  0
LINE
  5
26
330
1E
100
AcDbEntity
  8
0
100
AcDbLine
 10
0.8886550000000077
 20
214.1391399999999
 30
0.0
 11
1.46374500000001
 21
213.6711399999999
 31
0.0
  0
LINE
  5
27
330
1E
100
AcDbEntity
  8
0
100
AcDbLine
 10
0.4488750000000071
 20
214.7511399999999
 30
0.0
 11
0.8886550000000077
 21
214.1391399999999
 31
0.0
  0
LINE
  5
28
330
1E
100
AcDbEntity
  8
0
100
AcDbLine
 10
0.178245000000007
 20
215.4471399999999
 30
0.0
 11
0.4488750000000071
 21
214.7511399999999
 31
0.0
  0
LINE
  5
29
330
1E
100
AcDbEntity
  8
0
100
AcDbLine
 10
1.46374500000001
 20
218.73514
 30
0.0
 11
2.11777500000001
 21
219.02314
 31
0.0
  0
LINE
  5
2A
330
1E
100
AcDbEntity
  8
0
100
AcDbLine
 10
0.8886550000000077
 20
218.2671399999999
 30
0.0
 11
1.46374500000001
 21
218.73514
 31
0.0
  0
LINE
  5
2B
330
1E
100
AcDbEntity
  8
0
100
AcDbLine
 10
0.4488750000000071
 20
217.65514
 30
0.0
 11
0.8886550000000077
 21
218.2671399999999
 31
0.0
  0
LINE
  5
2C
330
1E
100
AcDbEntity
  8
0
100
AcDbLine
 10
0.178245000000007
 20
216.9591399999999
 30
0.0
 11
0.4488750000000071
 21
217.65514
 31
0.0
  0
LINE
  5
2D
330
1E
100
AcDbEntity
  8
0
100
AcDbLine
 10
0.0767650000000075
 20
216.20314
 30
0.0
 11
0.178245000000007
 21
216.9591399999999
 31
0.0
  0
LINE
  5
2E
330
1E
100
AcDbEntity
  8
0
100
AcDbLine
 10
0.0767650000000075
 20
216.20314
 30
0.0
 11
0.178245000000007
 21
215.4471399999999
 31
0.0
  0
LINE
  5
2F
330
1E
100
AcDbEntity
  8
0
100
AcDbLine
 10
2.11777500000001
 20
213.38314
 30
0.0
 11
2.311705000000009
 21
213.3111399999999
 31
0.0
  0
LINE
  5
30
330
1E
100
AcDbEntity
  8
0
100
AcDbLine
 10
2.11777500000001
 20
213.38314
 30
0.0
 11
2.828185000000009
 21
213.27514
 31
0.0
  0
LINE
  5
31
330
1E
100
AcDbEntity
  8
0
100
AcDbLine
 10
2.311705000000009
 20
213.3111399999999
 30
0.0
 11
3.033395000000009
 21
213.2031399999999
 31
0.0
  0
LINE
  5
32
330
1E
100
AcDbEntity
  8
0
100
AcDbLine
 10
2.828185000000009
 20
213.27514
 30
0.0
 11
3.538595000000009
 21
213.38314
 31
0.0
  0
LINE
  5
33
330
1E
100
AcDbEntity
  8
0
100
AcDbLine
 10
2.11777500000001
 20
219.02314
 30
0.0
 11
2.311705000000009
 21
219.0951399999999
 31
0.0
  0
LINE
  5
34
330
1E
100
AcDbEntity
  8
0
100
AcDbLine
 10
2.11777500000001
 20
219.02314
 30
0.0
 11
2.828185000000009
 21
219.13114
 31
0.0
  0
LINE
  5
35
330
1E
100
AcDbEntity
  8
0
100
AcDbLine
 10
2.311705000000009
 20
219.0951399999999
 30
0.0
 11
3.033395000000009
 21
219.2031399999999
 31
0.0
  0
LINE
  5
36
330
1E
100
AcDbEntity
  8
0
100
AcDbLine
 10
2.828185000000009
 20
219.13114
 30
0.0
 11
3.538595000000009
 21
219.02314
 31
0.0
  0
LINE
  5
37
330
1E
100
AcDbEntity
  8
0
100
AcDbLine
 10
2.923235000000009
 20
158.4031399999999
 30
0.0
 11
5.223235000000009
 21
165.20314
 31
0.0
  0
LINE
  5
38
330
1E
100
AcDbEntity
  8
0
100
AcDbLine
 10
1.52323500000001
 20
151.4031399999999
 30
0.0
 11
2.923235000000009
 21
158.4031399999999
 31
0.0
  0
LINE
  5
39
330
1E
100
AcDbEntity
  8
0
100
AcDbLine
 10
0.9232350000000078
 20
144.2031399999999
 30
0.0
 11
1.52323500000001
 21
137.00314
 31
0.0
  0
LINE
  5
3A
330
1E
100
AcDbEntity
  8
0
100
AcDbLine
 10
0.9232350000000078
 20
144.2031399999999
 30
0.0
 11
1.52323500000001
 21
151.4031399999999
 31
0.0
  0
LINE
  5
3B
330
1E
100
AcDbEntity
  8
0
100
AcDbLine
 10
41.723235
 20
32.93283999999999
 30
0.0
 11
46.623235
 21
23.02113999999999
 31
0.0
  0
LINE
  5
3C
330
1E
100
AcDbEntity
  8
0
100
AcDbLine
 10
41.723235
 20
31.49894
 30
0.0
 11
42.22323499999999
 21
30.14684
 31
0.0
  0
LINE
  5
3D
330
1E
100
AcDbEntity
  8
0
100
AcDbLine
 10
39.92323499999999
 20
43.41794
 30
0.0
 11
39.9724703471338
 21
43.70474136764849
 31
0.0
  0
LINE
  5
3E
330
1E
100
AcDbEntity
  8
0
100
AcDbLine
 10
39.92323499999999
 20
43.41794
 30
0.0
 11
39.92323499999999
 21
41.98404
 31
0.0
  0
LINE
  5
3F
330
1E
100
AcDbEntity
  8
0
100
AcDbLine
 10
39.92323499999999
 20
43.41794
 30
0.0
 11
41.723235
 21
32.93283999999999
 31
0.0
  0
LINE
  5
40
330
1E
100
AcDbEntity
  8
0
100
AcDbLine
 10
39.92323499999999
 20
41.98404
 30
0.0
 11
39.92323499999999
 21
43.41794
 31
0.0
  0
LINE
  5
41
330
1E
100
AcDbEntity
  8
0
100
AcDbLine
 10
39.92323499999999
 20
41.98404
 30
0.0
 11
41.723235
 21
31.49894
 31
0.0
  0
LINE
  5
42
330
1E
100
AcDbEntity
  8
0
100
AcDbLine
 10
41.723235
 20
33.50644
 30
0.0
 11
46.623235
 21
23.59464
 31
0.0
  0
LINE
  5
43
330
1E
100
AcDbEntity
  8
0
100
AcDbLine
 10
41.723235
 20
60.49924
 30
0.0
 11
46.623235
 21
70.69084000000001
 31
0.0
  0
LINE
  5
44
330
1E
100
AcDbEntity
  8
0
100
AcDbLine
 10
39.92323499999999
 20
50.01414
 30
0.0
 11
41.723235
 21
60.49924
 31
0.0
  0
LINE
  5
45
330
1E
100
AcDbEntity
  8
0
100
AcDbLine
 10
39.92323499999999
 20
50.01414
 30
0.0
 11
39.92323499999999
 21
43.99154
 31
0.0
  0
LINE
  5
46
330
1E
100
AcDbEntity
  8
0
100
AcDbLine
 10
39.92323499999999
 20
43.99154
 30
0.0
 11
39.92323499999999
 21
50.01414
 31
0.0
  0
LINE
  5
47
330
1E
100
AcDbEntity
  8
0
100
AcDbLine
 10
39.92323499999999
 20
43.99154
 30
0.0
 11
41.723235
 21
33.50644
 31
0.0
  0
LINE
  5
48
330
1E
100
AcDbEntity
  8
0
100
AcDbLine
 10
46.623235
 20
23.02113999999999
 30
0.0
 11
54.623235
 21
14.50193999999999
 31
0.0
  0
LINE
  5
49
330
1E
100
AcDbEntity
  8
0
100
AcDbLine
 10
42.22323499999999
 20
30.14684
 30
0.0
 11
47.023235
 21
20.39893999999999
 31
0.0
  0
LINE
  5
4A
330
1E
100
AcDbEntity
  8
0
100
AcDbLine
 10
46.623235
 20
23.59464
 30
0.0
 11
54.623235
 21
15.07544
 31
0.0
  0
LINE
  5
4B
330
1E
100
AcDbEntity
  8
0
100
AcDbLine
 10
47.023235
 20
20.39893999999999
 30
0.0
 11
54.923235
 21
11.87974
 31
0.0
  0
LINE
  5
4C
330
1E
100
AcDbEntity
  8
0
100
AcDbLine
 10
46.623235
 20
70.69084000000001
 30
0.0
 11
54.623235
 21
79.76654
 31
0.0
  0
LINE
  5
4D
330
1E
100
AcDbEntity
  8
0
100
AcDbLine
 10
42.22323499999999
 20
93.10313999999999
 30
0.0
 11
49.023235
 21
91.70314000000001
 31
0.0
  0
LINE
  5
4E
330
1E
100
AcDbEntity
  8
0
100
AcDbLine
 10
41.723235
 20
91.20314
 30
0.0
 11
48.723235
 21
89.80313999999991
 31
0.0
  0
LINE
  5
4F
330
1E
100
AcDbEntity
  8
0
100
AcDbLine
 10
18.52323499999999
 20
106.8031399999999
 30
0.0
 11
23.72323499999999
 21
102.20314
 31
0.0
  0
LINE
  5
50
330
1E
100
AcDbEntity
  8
0
100
AcDbLine
 10
23.72323499999999
 20
102.20314
 30
0.0
 11
29.52323499999999
 21
98.3031399999999
 31
0.0
  0
LINE
  5
51
330
1E
100
AcDbEntity
  8
0
100
AcDbLine
 10
17.123235
 20
105.4031399999999
 30
0.0
 11
22.523235
 21
100.6031399999999
 31
0.0
  0
LINE
  5
52
330
1E
100
AcDbEntity
  8
0
100
AcDbLine
 10
22.523235
 20
100.6031399999999
 30
0.0
 11
28.52323499999999
 21
96.60313999999999
 31
0.0
  0
LINE
  5
53
330
1E
100
AcDbEntity
  8
0
100
AcDbLine
 10
29.52323499999999
 20
98.3031399999999
 30
0.0
 11
35.72323499999999
 21
95.30314
 31
0.0
  0
LINE
  5
54
330
1E
100
AcDbEntity
  8
0
100
AcDbLine
 10
35.72323499999999
 20
95.30314
 30
0.0
 11
42.22323499999999
 21
93.10313999999999
 31
0.0
  0
LINE
  5
55
330
1E
100
AcDbEntity
  8
0
100
AcDbLine
 10
28.52323499999999
 20
96.60313999999999
 30
0.0
 11
34.92323499999999
 21
93.50314
 31
0.0
  0
LINE
  5
56
330
1E
100
AcDbEntity
  8
0
100
AcDbLine
 10
34.92323499999999
 20
93.50314
 30
0.0
 11
41.723235
 21
91.20314
 31
0.0
  0
LINE
  5
57
330
1E
100
AcDbEntity
  8
0
100
AcDbLine
 10
54.623235
 20
14.50193999999999
 30
0.0
 11
65.023235
 21
7.948739999999981
 31
0.0
  0
LINE
  5
58
330
1E
100
AcDbEntity
  8
0
100
AcDbLine
 10
54.923235
 20
11.87974
 30
0.0
 11
65.323235
 21
5.40846999999998
 31
0.0
  0
LINE
  5
59
330
1E
100
AcDbEntity
  8
0
100
AcDbLine
 10
54.623235
 20
15.07544
 30
0.0
 11
65.023235
 21
8.52223999999998
 31
0.0
  0
LINE
  5
5A
330
1E
100
AcDbEntity
  8
0
100
AcDbLine
 10
54.623235
 20
79.76654
 30
0.0
 11
54.923235
 21
80.05964
 31
0.0
  0
LINE
  5
5B
330
1E
100
AcDbEntity
  8
0
100
AcDbLine
 10
54.923235
 20
80.05964
 30
0.0
 11
65.323235
 21
86.93554
 31
0.0
  0
LINE
  5
5C
330
1E
100
AcDbEntity
  8
0
100
AcDbLine
 10
55.923235
 20
91.20314
 30
0.0
 11
62.823235
 21
91.70314000000001
 31
0.0
  0
LINE
  5
5D
330
1E
100
AcDbEntity
  8
0
100
AcDbLine
 10
65.023235
 20
7.948739999999981
 30
0.0
 11
77.123235
 21
3.934849999999979
 31
0.0
  0
LINE
  5
5E
330
1E
100
AcDbEntity
  8
0
100
AcDbLine
 10
65.323235
 20
5.40846999999998
 30
0.0
 11
66.023235
 21
5.03942999999998
 31
0.0
  0
LINE
  5
5F
330
1E
100
AcDbEntity
  8
0
100
AcDbLine
 10
65.023235
 20
8.52223999999998
 30
0.0
 11
77.123235
 21
4.50842999999998
 31
0.0
  0
LINE
  5
60
330
1E
100
AcDbEntity
  8
0
100
AcDbLine
 10
89.92323499999999
 20
-0.20314000000002
 30
0.0
 11
102.223235
 21
1.18940999999998
 31
0.0
  0
LINE
  5
61
330
1E
100
AcDbEntity
  8
0
100
AcDbLine
 10
89.92323499999999
 20
-0.20314000000002
 30
0.0
 11
102.223235
 21
1.18940999999998
 31
0.0
  0
LINE
  5
62
330
1E
100
AcDbEntity
  8
0
100
AcDbLine
 10
89.92323499999999
 20
2.46037999999998
 30
0.0
 11
102.723235
 21
3.934849999999979
 31
0.0
  0
LINE
  5
63
330
1E
100
AcDbEntity
  8
0
100
AcDbLine
 10
77.123235
 20
3.934849999999979
 30
0.0
 11
89.92323499999999
 21
2.46037999999998
 31
0.0
  0
LINE
  5
64
330
1E
100
AcDbEntity
  8
0
100
AcDbLine
 10
77.62323499999999
 20
1.18940999999998
 30
0.0
 11
89.92323499999999
 21
-0.20314000000002
 31
0.0
  0
LINE
  5
65
330
1E
100
AcDbEntity
  8
0
100
AcDbLine
 10
77.62323499999999
 20
1.18940999999998
 30
0.0
 11
89.92323499999999
 21
-0.20314000000002
 31
0.0
  0
LINE
  5
66
330
1E
100
AcDbEntity
  8
0
100
AcDbLine
 10
102.223235
 20
1.18940999999998
 30
0.0
 11
113.823235
 21
5.03942999999998
 31
0.0
  0
LINE
  5
67
330
1E
100
AcDbEntity
  8
0
100
AcDbLine
 10
102.723235
 20
3.934849999999979
 30
0.0
 11
114.823235
 21
7.948739999999981
 31
0.0
  0
LINE
  5
68
330
1E
100
AcDbEntity
  8
0
100
AcDbLine
 10
102.223235
 20
1.18940999999998
 30
0.0
 11
113.823235
 21
5.03942999999998
 31
0.0
  0
LINE
  5
69
330
1E
100
AcDbEntity
  8
0
100
AcDbLine
 10
102.723235
 20
4.50842999999998
 30
0.0
 11
114.823235
 21
8.52223999999998
 31
0.0
  0
LINE
  5
6A
330
1E
100
AcDbEntity
  8
0
100
AcDbLine
 10
89.92323499999999
 20
3.033949999999979
 30
0.0
 11
102.723235
 21
4.50842999999998
 31
0.0
  0
LINE
  5
6B
330
1E
100
AcDbEntity
  8
0
100
AcDbLine
 10
66.023235
 20
5.03942999999998
 30
0.0
 11
77.62323499999999
 21
1.18940999999998
 31
0.0
  0
LINE
  5
6C
330
1E
100
AcDbEntity
  8
0
100
AcDbLine
 10
66.023235
 20
5.03942999999998
 30
0.0
 11
77.62323499999999
 21
1.18940999999998
 31
0.0
  0
LINE
  5
6E
330
1E
100
AcDbEntity
  8
0
100
AcDbLine
 10
114.823235
 20
7.948739999999981
 30
0.0
 11
125.223235
 21
14.50193999999999
 31
0.0
  0
LINE
  5
6F
330
1E
100
AcDbEntity
  8
0
100
AcDbLine
 10
114.523235
 20
5.40846999999998
 30
0.0
 11
124.9232349999999
 21
11.87974
 31
0.0
  0
LINE
  5
70
330
1E
100
AcDbEntity
  8
0
100
AcDbLine
 10
113.823235
 20
5.03942999999998
 30
0.0
 11
114.523235
 21
5.40846999999998
 31
0.0
  0
LINE
  5
71
330
1E
100
AcDbEntity
  8
0
100
AcDbLine
 10
114.523235
 20
86.93554
 30
0.0
 11
124.9232349999999
 21
80.05964
 31
0.0
  0
LINE
  5
72
330
1E
100
AcDbEntity
  8
0
100
AcDbLine
 10
125.223235
 20
14.50193999999999
 30
0.0
 11
133.223235
 21
23.02113999999999
 31
0.0
  0
LINE
  5
73
330
1E
100
AcDbEntity
  8
0
100
AcDbLine
 10
124.9232349999999
 20
11.87974
 30
0.0
 11
132.823235
 21
20.39893999999999
 31
0.0
  0
LINE
  5
74
330
1E
100
AcDbEntity
  8
0
100
AcDbLine
 10
133.223235
 20
23.02113999999999
 30
0.0
 11
138.123235
 21
32.93283999999999
 31
0.0
  0
LINE
  5
75
330
1E
100
AcDbEntity
  8
0
100
AcDbLine
 10
132.823235
 20
20.39893999999999
 30
0.0
 11
137.623235
 21
30.14684
 31
0.0
  0
LINE
  5
76
330
1E
100
AcDbEntity
  8
0
100
AcDbLine
 10
125.223235
 20
15.07544
 30
0.0
 11
133.223235
 21
23.59464
 31
0.0
  0
LINE
  5
77
330
1E
100
AcDbEntity
  8
0
100
AcDbLine
 10
138.123235
 20
32.93283999999999
 30
0.0
 11
139.923235
 21
43.41794
 31
0.0
  0
LINE
  5
78
330
1E
100
AcDbEntity
  8
0
100
AcDbLine
 10
138.123235
 20
31.49894
 30
0.0
 11
139.923235
 21
41.98404
 31
0.0
  0
LINE
  5
79
330
1E
100
AcDbEntity
  8
0
100
AcDbLine
 10
137.623235
 20
30.14684
 30
0.0
 11
138.123235
 21
31.49894
 31
0.0
  0
LINE
  5
7A
330
1E
100
AcDbEntity
  8
0
100
AcDbLine
 10
133.223235
 20
23.59464
 30
0.0
 11
138.123235
 21
33.50644
 31
0.0
  0
LINE
  5
7B
330
1E
100
AcDbEntity
  8
0
100
AcDbLine
 10
139.923235
 20
41.98404
 30
0.0
 11
139.923235
 21
43.41794
 31
0.0
  0
LINE
  5
7C
330
1E
100
AcDbEntity
  8
0
100
AcDbLine
 10
139.8739996528659
 20
43.70474136764849
 30
0.0
 11
139.923235
 21
43.41794
 31
0.0
  0
LINE
  5
7D
330
1E
100
AcDbEntity
  8
0
100
AcDbLine
 10
139.923235
 20
43.41794
 30
0.0
 11
139.923235
 21
41.98404
 31
0.0
  0
LINE
  5
7E
330
1E
100
AcDbEntity
  8
0
100
AcDbLine
 10
139.923235
 20
50.01414
 30
0.0
 11
139.923235
 21
43.99154
 31
0.0
  0
LINE
  5
7F
330
1E
100
AcDbEntity
  8
0
100
AcDbLine
 10
139.923235
 20
43.99154
 30
0.0
 11
139.923235
 21
50.01414
 31
0.0
  0
LINE
  5
80
330
1E
100
AcDbEntity
  8
0
100
AcDbLine
 10
138.123235
 20
33.50644
 30
0.0
 11
139.923235
 21
43.99154
 31
0.0
  0
LINE
  5
81
330
1E
100
AcDbEntity
  8
0
100
AcDbLine
 10
125.223235
 20
79.76654
 30
0.0
 11
133.223235
 21
70.69084000000001
 31
0.0
  0
LINE
  5
82
330
1E
100
AcDbEntity
  8
0
100
AcDbLine
 10
124.9232349999999
 20
80.05964
 30
0.0
 11
125.223235
 21
79.76654
 31
0.0
  0
LINE
  5
83
330
1E
100
AcDbEntity
  8
0
100
AcDbLine
 10
133.223235
 20
70.69084000000001
 30
0.0
 11
138.123235
 21
60.49924
 31
0.0
  0
LINE
  5
84
330
1E
100
AcDbEntity
  8
0
100
AcDbLine
 10
138.123235
 20
60.49924
 30
0.0
 11
139.923235
 21
50.01414
 31
0.0
  0
LINE
  5
85
330
1E
100
AcDbEntity
  8
0
100
AcDbLine
 10
114.823235
 20
8.52223999999998
 30
0.0
 11
125.223235
 21
15.07544
 31
0.0
  0
LINE
  5
86
330
1E
100
AcDbEntity
  8
0
100
AcDbLine
 10
110.5266188065819
 20
88.30762199971351
 30
0.0
 11
114.523235
 21
86.93554
 31
0.0
  0
LINE
  5
88
330
1E
100
AcDbEntity
  8
0
100
AcDbLine
 10
69.3192815784178
 20
88.3074264446612
 30
0.0
 11
73.551435
 21
92.44314000000001
 31
0.0
  0
LINE
  5
89
330
1E
100
AcDbEntity
  8
0
100
AcDbLine
 10
77.123235
 20
4.50842999999998
 30
0.0
 11
89.92323499999999
 21
3.033949999999979
 31
0.0
  0
LINE
  5
8A
330
1E
100
AcDbEntity
  8
0
100
AcDbLine
 10
65.323235
 20
86.93554
 30
0.0
 11
69.3192815784178
 21
88.3074264446612
 31
0.0
  0
LINE
  5
8B
330
1E
100
AcDbEntity
  8
0
100
AcDbLine
 10
62.823235
 20
91.70314000000001
 30
0.0
 11
69.623235
 21
93.10313999999999
 31
0.0
  0
LINE
  5
8C
330
1E
100
AcDbEntity
  8
0
100
AcDbLine
 10
70.12323499999999
 20
91.20314
 30
0.0
 11
73.4255122688746
 21
92.3200867232958
 31
0.0
  0
LINE
  5
8D
330
1E
100
AcDbEntity
  8
0
100
AcDbLine
 10
63.123235
 20
89.80313999999991
 30
0.0
 11
70.12323499999999
 21
91.20314
 31
0.0
  0
LINE
  5
8E
330
1E
100
AcDbEntity
  8
0
100
AcDbLine
 10
55.923235
 20
89.2031399999999
 30
0.0
 11
63.123235
 21
89.80313999999991
 31
0.0
  0
LINE
  5
8F
330
1E
100
AcDbEntity
  8
0
100
AcDbLine
 10
73.551435
 20
92.44314000000001
 30
0.0
 11
76.180035
 21
96.51814000000001
 31
0.0
  0
LINE
  5
90
330
1E
100
AcDbEntity
  8
0
100
AcDbLine
 10
106.2952349999999
 20
92.44314000000001
 30
0.0
 11
110.5266188065819
 21
88.30762199971351
 31
0.0
  0
LINE
  5
91
330
1E
100
AcDbEntity
  8
0
100
AcDbLine
 10
103.666235
 20
96.51814000000001
 30
0.0
 11
106.2952349999999
 21
92.44314000000001
 31
0.0
  0
LINE
  5
92
330
1E
100
AcDbEntity
  8
0
100
AcDbLine
 10
101.923235
 20
103.33114
 30
0.0
 11
101.923235
 21
112.3711399999999
 31
0.0
  0
LINE
  5
93
330
1E
100
AcDbEntity
  8
0
100
AcDbLine
 10
101.923235
 20
103.33114
 30
0.0
 11
103.666235
 21
96.51814000000001
 31
0.0
  0
LINE
  5
94
330
1E
100
AcDbEntity
  8
0
100
AcDbLine
 10
76.180035
 20
96.51814000000001
 30
0.0
 11
77.92323499999999
 21
103.33114
 31
0.0
  0
LINE
  5
95
330
1E
100
AcDbEntity
  8
0
100
AcDbLine
 10
77.92323499999999
 20
103.33114
 30
0.0
 11
77.92323499999999
 21
110.9441399999999
 31
0.0
  0
LINE
  5
96
330
1E
100
AcDbEntity
  8
0
100
AcDbLine
 10
69.623235
 20
93.10313999999999
 30
0.0
 11
75.1932533968957
 21
94.98837699587239
 31
0.0
  0
LINE
  5
97
330
1E
100
AcDbEntity
  8
0
100
AcDbLine
 10
49.023235
 20
91.70314000000001
 30
0.0
 11
55.923235
 21
91.20314
 31
0.0
  0
LINE
  5
98
330
1E
100
AcDbEntity
  8
0
100
AcDbLine
 10
48.723235
 20
89.80313999999991
 30
0.0
 11
55.923235
 21
89.2031399999999
 31
0.0
  0
LINE
  5
99
330
1E
100
AcDbEntity
  8
0
100
AcDbLine
 10
77.92323499999999
 20
110.9441399999999
 30
0.0
 11
77.92323499999999
 21
119.8051399999999
 31
0.0
  0
LINE
  5
9A
330
1E
100
AcDbEntity
  8
0
100
AcDbLine
 10
77.92323499999999
 20
110.9441399999999
 30
0.0
 11
77.92323499999999
 21
103.33114
 31
0.0
  0
LINE
  5
9B
330
1E
100
AcDbEntity
  8
0
100
AcDbLine
 10
101.923235
 20
112.3711399999999
 30
0.0
 11
101.923235
 21
103.33114
 31
0.0
  0
LINE
  5
9C
330
1E
100
AcDbEntity
  8
0
100
AcDbLine
 10
101.923235
 20
112.3711399999999
 30
0.0
 11
101.923235
 21
170.0761399999999
 31
0.0
  0
LINE
  5
9D
330
1E
100
AcDbEntity
  8
0
100
AcDbLine
 10
77.92323499999999
 20
119.8051399999999
 30
0.0
 11
77.92323499999999
 21
130.87214
 31
0.0
  0
LINE
  5
9E
330
1E
100
AcDbEntity
  8
0
100
AcDbLine
 10
77.92323499999999
 20
119.8051399999999
 30
0.0
 11
77.92323499999999
 21
110.9441399999999
 31
0.0
  0
LINE
  5
9F
330
1E
100
AcDbEntity
  8
0
100
AcDbLine
 10
101.923235
 20
118.009806666667
 30
0.0
 11
104.8232349999999
 21
124.0031399999999
 31
0.0
  0
LINE
  5
A0
330
1E
100
AcDbEntity
  8
0
100
AcDbLine
 10
101.923235
 20
114.40314
 30
0.0
 11
103.523235
 21
116.8031399999999
 31
0.0
  0
LINE
  5
A1
330
1E
100
AcDbEntity
  8
0
100
AcDbLine
 10
106.623235
 20
123.2031399999999
 30
0.0
 11
108.923235
 21
130.0031399999999
 31
0.0
  0
LINE
  5
A2
330
1E
100
AcDbEntity
  8
0
100
AcDbLine
 10
103.523235
 20
116.8031399999999
 30
0.0
 11
106.623235
 21
123.2031399999999
 31
0.0
  0
LINE
  5
A3
330
1E
100
AcDbEntity
  8
0
100
AcDbLine
 10
13.923235
 20
112.00314
 30
0.0
 11
18.52323499999999
 21
106.8031399999999
 31
0.0
  0
LINE
  5
A4
330
1E
100
AcDbEntity
  8
0
100
AcDbLine
 10
10.023235
 20
117.8031399999999
 30
0.0
 11
13.923235
 21
112.00314
 31
0.0
  0
LINE
  5
A5
330
1E
100
AcDbEntity
  8
0
100
AcDbLine
 10
12.323235
 20
110.8031399999999
 30
0.0
 11
17.123235
 21
105.4031399999999
 31
0.0
  0
LINE
  5
A6
330
1E
100
AcDbEntity
  8
0
100
AcDbLine
 10
8.323235000000009
 20
116.8031399999999
 30
0.0
 11
12.323235
 21
110.8031399999999
 31
0.0
  0
LINE
  5
A7
330
1E
100
AcDbEntity
  8
0
100
AcDbLine
 10
3.033395000000009
 20
213.2031399999999
 30
0.0
 11
6.677085000000009
 21
213.2031399999999
 31
0.0
  0
LINE
  5
A8
330
1E
100
AcDbEntity
  8
0
100
AcDbLine
 10
3.033395000000009
 20
219.2031399999999
 30
0.0
 11
6.677085000000009
 21
219.2031399999999
 31
0.0
  0
LINE
  5
A9
330
1E
100
AcDbEntity
  8
0
100
AcDbLine
 10
3.423235000000009
 20
151.10314
 30
0.0
 11
4.823235000000009
 21
157.9031399999999
 31
0.0
  0
LINE
  5
AA
330
1E
100
AcDbEntity
  8
0
100
AcDbLine
 10
104.8232349999999
 20
124.0031399999999
 30
0.0
 11
107.023235
 21
130.50314
 31
0.0
  0
LINE
  5
AB
330
1E
100
AcDbEntity
  8
0
100
AcDbLine
 10
107.023235
 20
130.50314
 30
0.0
 11
108.423235
 21
137.3031399999999
 31
0.0
  0
LINE
  5
AC
330
1E
100
AcDbEntity
  8
0
100
AcDbLine
 10
108.923235
 20
130.0031399999999
 30
0.0
 11
110.323235
 21
137.00314
 31
0.0
  0
LINE
  5
AD
330
1E
100
AcDbEntity
  8
0
100
AcDbLine
 10
7.023235000000009
 20
124.0031399999999
 30
0.0
 11
10.023235
 21
117.8031399999999
 31
0.0
  0
LINE
  5
AE
330
1E
100
AcDbEntity
  8
0
100
AcDbLine
 10
3.538595000000009
 20
213.38314
 30
0.0
 11
4.192615000000009
 21
213.6711399999999
 31
0.0
  0
LINE
  5
AF
330
1E
100
AcDbEntity
  8
0
100
AcDbLine
 10
4.192615000000009
 20
213.6711399999999
 30
0.0
 11
4.767705000000009
 21
214.1391399999999
 31
0.0
  0
LINE
  5
B0
330
1E
100
AcDbEntity
  8
0
100
AcDbLine
 10
4.767705000000009
 20
214.1391399999999
 30
0.0
 11
5.207485000000009
 21
214.7511399999999
 31
0.0
  0
LINE
  5
B1
330
1E
100
AcDbEntity
  8
0
100
AcDbLine
 10
5.207485000000009
 20
214.7511399999999
 30
0.0
 11
5.478115000000009
 21
215.4471399999999
 31
0.0
  0
LINE
  5
B2
330
1E
100
AcDbEntity
  8
0
100
AcDbLine
 10
3.538595000000009
 20
219.02314
 30
0.0
 11
4.192615000000009
 21
218.73514
 31
0.0
  0
LINE
  5
B3
330
1E
100
AcDbEntity
  8
0
100
AcDbLine
 10
4.192615000000009
 20
218.73514
 30
0.0
 11
4.767705000000009
 21
218.2671399999999
 31
0.0
  0
LINE
  5
B4
330
1E
100
AcDbEntity
  8
0
100
AcDbLine
 10
4.767705000000009
 20
218.2671399999999
 30
0.0
 11
5.207485000000009
 21
217.65514
 31
0.0
  0
LINE
  5
B5
330
1E
100
AcDbEntity
  8
0
100
AcDbLine
 10
5.207485000000009
 20
217.65514
 30
0.0
 11
5.478115000000009
 21
216.9591399999999
 31
0.0
  0
LINE
  5
B6
330
1E
100
AcDbEntity
  8
0
100
AcDbLine
 10
4.823235000000009
 20
157.9031399999999
 30
0.0
 11
7.023235000000009
 21
164.4031399999999
 31
0.0
  0
LINE
  5
B7
330
1E
100
AcDbEntity
  8
0
100
AcDbLine
 10
77.92323499999999
 20
130.87214
 30
0.0
 11
77.92323499999999
 21
119.8051399999999
 31
0.0
  0
LINE
  5
B8
330
1E
100
AcDbEntity
  8
0
100
AcDbLine
 10
101.923235
 20
170.0761399999999
 30
0.0
 11
101.923235
 21
112.3711399999999
 31
0.0
  0
LINE
  5
B9
330
1E
100
AcDbEntity
  8
0
100
AcDbLine
 10
77.92323499999999
 20
130.87214
 30
0.0
 11
77.92323499999999
 21
145.4341399999999
 31
0.0
  0
LINE
  5
BA
330
1E
100
AcDbEntity
  8
0
100
AcDbLine
 10
77.92323499999999
 20
145.4341399999999
 30
0.0
 11
77.92323499999999
 21
157.6491399999999
 31
0.0
  0
LINE
  5
BB
330
1E
100
AcDbEntity
  8
0
100
AcDbLine
 10
77.92323499999999
 20
145.4341399999999
 30
0.0
 11
77.92323499999999
 21
130.87214
 31
0.0
  0
LINE
  5
BC
330
1E
100
AcDbEntity
  8
0
100
AcDbLine
 10
77.92323499999999
 20
157.6491399999999
 30
0.0
 11
77.92323499999999
 21
145.4341399999999
 31
0.0
  0
LINE
  5
BD
330
1E
100
AcDbEntity
  8
0
100
AcDbLine
 10
77.92323499999999
 20
152.3051399999999
 30
0.0
 11
77.92323499999999
 21
163.5381399999999
 31
0.0
  0
LINE
  5
BE
330
1E
100
AcDbEntity
  8
0
100
AcDbLine
 10
107.023235
 20
157.9031399999999
 30
0.0
 11
108.423235
 21
151.10314
 31
0.0
  0
LINE
  5
BF
330
1E
100
AcDbEntity
  8
0
100
AcDbLine
 10
108.423235
 20
151.10314
 30
0.0
 11
108.923235
 21
144.2031399999999
 31
0.0
  0
LINE
  5
C0
330
1E
100
AcDbEntity
  8
0
100
AcDbLine
 10
77.92323499999999
 20
163.5381399999999
 30
0.0
 11
77.92323499999999
 21
179.1331399999999
 31
0.0
  0
LINE
  5
C1
330
1E
100
AcDbEntity
  8
0
100
AcDbLine
 10
77.92323499999999
 20
163.5381399999999
 30
0.0
 11
77.92323499999999
 21
152.3051399999999
 31
0.0
  0
LINE
  5
C2
330
1E
100
AcDbEntity
  8
0
100
AcDbLine
 10
101.923235
 20
170.0761399999999
 30
0.0
 11
101.923235
 21
179.1331399999999
 31
0.0
  0
LINE
  5
C3
330
1E
100
AcDbEntity
  8
0
100
AcDbLine
 10
101.923235
 20
170.396473333333
 30
0.0
 11
104.8232349999999
 21
164.4031399999999
 31
0.0
  0
LINE
  5
C4
330
1E
100
AcDbEntity
  8
0
100
AcDbLine
 10
101.923235
 20
170.396473333333
 30
0.0
 11
104.8232349999999
 21
164.4031399999999
 31
0.0
  0
LINE
  5
C5
330
1E
100
AcDbEntity
  8
0
100
AcDbLine
 10
104.8232349999999
 20
164.4031399999999
 30
0.0
 11
107.023235
 21
157.9031399999999
 31
0.0
  0
LINE
  5
C6
330
1E
100
AcDbEntity
  8
0
100
AcDbLine
 10
106.623235
 20
165.20314
 30
0.0
 11
108.923235
 21
158.4031399999999
 31
0.0
  0
LINE
  5
C7
330
1E
100
AcDbEntity
  8
0
100
AcDbLine
 10
108.923235
 20
158.4031399999999
 30
0.0
 11
110.323235
 21
151.4031399999999
 31
0.0
  0
LINE
  5
C8
330
1E
100
AcDbEntity
  8
0
100
AcDbLine
 10
110.323235
 20
151.4031399999999
 30
0.0
 11
110.923235
 21
144.2031399999999
 31
0.0
  0
LINE
  5
C9
330
1E
100
AcDbEntity
  8
0
100
AcDbLine
 10
108.423235
 20
137.3031399999999
 30
0.0
 11
108.923235
 21
144.2031399999999
 31
0.0
  0
LINE
  5
CA
330
1E
100
AcDbEntity
  8
0
100
AcDbLine
 10
110.323235
 20
137.00314
 30
0.0
 11
110.923235
 21
144.2031399999999
 31
0.0
  0
LINE
  5
CB
330
1E
100
AcDbEntity
  8
0
100
AcDbLine
 10
103.523235
 20
171.60314
 30
0.0
 11
106.623235
 21
165.20314
 31
0.0
  0
LINE
  5
CC
330
1E
100
AcDbEntity
  8
0
100
AcDbLine
 10
10.023235
 20
170.60314
 30
0.0
 11
13.923235
 21
176.4031399999999
 31
0.0
  0
LINE
  5
CD
330
1E
100
AcDbEntity
  8
0
100
AcDbLine
 10
7.023235000000009
 20
164.4031399999999
 30
0.0
 11
10.023235
 21
170.60314
 31
0.0
  0
LINE
  5
CE
330
1E
100
AcDbEntity
  8
0
100
AcDbLine
 10
5.923235000000009
 20
199.28214
 30
0.0
 11
5.923235000000009
 21
198.6901399999999
 31
0.0
  0
LINE
  5
CF
330
1E
100
AcDbEntity
  8
0
100
AcDbLine
 10
5.923235000000009
 20
199.28214
 30
0.0
 11
5.923235000000009
 21
200.9891399999999
 31
0.0
  0
LINE
  5
D0
330
1E
100
AcDbEntity
  8
0
100
AcDbLine
 10
5.923235000000009
 20
198.6901399999999
 30
0.0
 11
5.923235000000009
 21
199.2861399999999
 31
0.0
  0
LINE
  5
D1
330
1E
100
AcDbEntity
  8
0
100
AcDbLine
 10
5.923235000000009
 20
198.6901399999999
 30
0.0
 11
6.677085000000009
 21
198.20814
 31
0.0
  0
LINE
  5
D2
330
1E
100
AcDbEntity
  8
0
100
AcDbLine
 10
5.923235000000009
 20
198.6901399999999
 30
0.0
 11
5.923235000000009
 21
199.28214
 31
0.0
  0
LINE
  5
D3
330
1E
100
AcDbEntity
  8
0
100
AcDbLine
 10
5.923235000000009
 20
199.2861399999999
 30
0.0
 11
5.923235000000009
 21
201.06214
 31
0.0
  0
LINE
  5
D4
330
1E
100
AcDbEntity
  8
0
100
AcDbLine
 10
5.923235000000009
 20
199.2861399999999
 30
0.0
 11
5.923235000000009
 21
198.6901399999999
 31
0.0
  0
LINE
  5
D5
330
1E
100
AcDbEntity
  8
0
100
AcDbLine
 10
5.923235000000009
 20
201.06214
 30
0.0
 11
5.923235000000009
 21
203.8151399999999
 31
0.0
  0
LINE
  5
D6
330
1E
100
AcDbEntity
  8
0
100
AcDbLine
 10
5.923235000000009
 20
201.06214
 30
0.0
 11
5.923235000000009
 21
199.2861399999999
 31
0.0
  0
LINE
  5
D7
330
1E
100
AcDbEntity
  8
0
100
AcDbLine
 10
5.923235000000009
 20
203.8151399999999
 30
0.0
 11
5.923235000000009
 21
207.41914
 31
0.0
  0
LINE
  5
D8
330
1E
100
AcDbEntity
  8
0
100
AcDbLine
 10
5.923235000000009
 20
203.8151399999999
 30
0.0
 11
5.923235000000009
 21
201.06214
 31
0.0
  0
LINE
  5
D9
330
1E
100
AcDbEntity
  8
0
100
AcDbLine
 10
5.923235000000009
 20
200.9891399999999
 30
0.0
 11
5.923235000000009
 21
203.81814
 31
0.0
  0
LINE
  5
DA
330
1E
100
AcDbEntity
  8
0
100
AcDbLine
 10
5.923235000000009
 20
200.9891399999999
 30
0.0
 11
5.923235000000009
 21
199.28214
 31
0.0
  0
LINE
  5
DB
330
1E
100
AcDbEntity
  8
0
100
AcDbLine
 10
5.923235000000009
 20
203.81814
 30
0.0
 11
5.923235000000009
 21
200.9891399999999
 31
0.0
  0
LINE
  5
DC
330
1E
100
AcDbEntity
  8
0
100
AcDbLine
 10
5.923235000000009
 20
203.81814
 30
0.0
 11
5.923235000000009
 21
207.4021399999999
 31
0.0
  0
LINE
  5
DD
330
1E
100
AcDbEntity
  8
0
100
AcDbLine
 10
5.923235000000009
 20
211.6711399999999
 30
0.0
 11
5.923235000000009
 21
213.2031399999999
 31
0.0
  0
LINE
  5
DE
330
1E
100
AcDbEntity
  8
0
100
AcDbLine
 10
5.923235000000009
 20
211.6711399999999
 30
0.0
 11
5.923235000000009
 21
207.41914
 31
0.0
  0
LINE
  5
DF
330
1E
100
AcDbEntity
  8
0
100
AcDbLine
 10
5.923235000000009
 20
207.41914
 30
0.0
 11
5.923235000000009
 21
203.8151399999999
 31
0.0
  0
LINE
  5
E0
330
1E
100
AcDbEntity
  8
0
100
AcDbLine
 10
5.923235000000009
 20
207.41914
 30
0.0
 11
5.923235000000009
 21
211.6711399999999
 31
0.0
  0
LINE
  5
E1
330
1E
100
AcDbEntity
  8
0
100
AcDbLine
 10
5.923235000000009
 20
207.4021399999999
 30
0.0
 11
5.923235000000009
 21
203.81814
 31
0.0
  0
LINE
  5
E2
330
1E
100
AcDbEntity
  8
0
100
AcDbLine
 10
5.923235000000009
 20
207.4021399999999
 30
0.0
 11
5.923235000000009
 21
211.67014
 31
0.0
  0
LINE
  5
E3
330
1E
100
AcDbEntity
  8
0
100
AcDbLine
 10
5.923235000000009
 20
211.67014
 30
0.0
 11
5.923235000000009
 21
207.4021399999999
 31
0.0
  0
LINE
  5
E4
330
1E
100
AcDbEntity
  8
0
100
AcDbLine
 10
5.923235000000009
 20
211.67014
 30
0.0
 11
5.923235000000009
 21
213.2031399999999
 31
0.0
  0
LINE
  5
E5
330
1E
100
AcDbEntity
  8
0
100
AcDbLine
 10
5.478115000000009
 20
215.4471399999999
 30
0.0
 11
5.579605000000009
 21
216.20314
 31
0.0
  0
LINE
  5
E6
330
1E
100
AcDbEntity
  8
0
100
AcDbLine
 10
5.478115000000009
 20
216.9591399999999
 30
0.0
 11
5.579605000000009
 21
216.20314
 31
0.0
  0
LINE
  5
E7
330
1E
100
AcDbEntity
  8
0
100
AcDbLine
 10
5.923235000000009
 20
220.7361399999999
 30
0.0
 11
5.923235000000009
 21
225.0041399999999
 31
0.0
  0
LINE
  5
E8
330
1E
100
AcDbEntity
  8
0
100
AcDbLine
 10
5.923235000000009
 20
220.7361399999999
 30
0.0
 11
5.923235000000009
 21
219.2031399999999
 31
0.0
  0
LINE
  5
E9
330
1E
100
AcDbEntity
  8
0
100
AcDbLine
 10
5.923235000000009
 20
219.2031399999999
 30
0.0
 11
5.923235000000009
 21
220.7351399999999
 31
0.0
  0
LINE
  5
EA
330
1E
100
AcDbEntity
  8
0
100
AcDbLine
 10
5.923235000000009
 20
219.2031399999999
 30
0.0
 11
5.923235000000009
 21
220.7361399999999
 31
0.0
  0
LINE
  5
EB
330
1E
100
AcDbEntity
  8
0
100
AcDbLine
 10
5.923235000000009
 20
213.2031399999999
 30
0.0
 11
5.923235000000009
 21
211.67014
 31
0.0
  0
LINE
  5
EC
330
1E
100
AcDbEntity
  8
0
100
AcDbLine
 10
5.923235000000009
 20
213.2031399999999
 30
0.0
 11
5.923235000000009
 21
211.6711399999999
 31
0.0
  0
LINE
  5
ED
330
1E
100
AcDbEntity
  8
0
100
AcDbLine
 10
6.677085000000009
 20
198.20814
 30
0.0
 11
37.83603499999999
 21
198.20814
 31
0.0
  0
LINE
  5
EE
330
1E
100
AcDbEntity
  8
0
100
AcDbLine
 10
6.677085000000009
 20
198.20814
 30
0.0
 11
37.83603499999999
 21
198.20814
 31
0.0
  0
LINE
  5
EF
330
1E
100
AcDbEntity
  8
0
100
AcDbLine
 10
5.923235000000009
 20
220.7351399999999
 30
0.0
 11
5.923235000000009
 21
219.2031399999999
 31
0.0
  0
LINE
  5
F0
330
1E
100
AcDbEntity
  8
0
100
AcDbLine
 10
5.923235000000009
 20
220.7351399999999
 30
0.0
 11
5.923235000000009
 21
224.9871399999999
 31
0.0
  0
LINE
  5
F1
330
1E
100
AcDbEntity
  8
0
100
AcDbLine
 10
5.923235000000009
 20
228.58814
 30
0.0
 11
5.923235000000009
 21
231.4171399999999
 31
0.0
  0
LINE
  5
F2
330
1E
100
AcDbEntity
  8
0
100
AcDbLine
 10
5.923235000000009
 20
228.58814
 30
0.0
 11
5.923235000000009
 21
225.0041399999999
 31
0.0
  0
LINE
  5
F3
330
1E
100
AcDbEntity
  8
0
100
AcDbLine
 10
5.923235000000009
 20
225.0041399999999
 30
0.0
 11
5.923235000000009
 21
228.58814
 31
0.0
  0
LINE
  5
F4
330
1E
100
AcDbEntity
  8
0
100
AcDbLine
 10
5.923235000000009
 20
225.0041399999999
 30
0.0
 11
5.923235000000009
 21
220.7361399999999
 31
0.0
  0
LINE
  5
F5
330
1E
100
AcDbEntity
  8
0
100
AcDbLine
 10
5.923235000000009
 20
231.4171399999999
 30
0.0
 11
5.923235000000009
 21
233.1241399999999
 31
0.0
  0
LINE
  5
F6
330
1E
100
AcDbEntity
  8
0
100
AcDbLine
 10
5.923235000000009
 20
231.4171399999999
 30
0.0
 11
5.923235000000009
 21
228.58814
 31
0.0
  0
LINE
  5
F7
330
1E
100
AcDbEntity
  8
0
100
AcDbLine
 10
5.923235000000009
 20
233.1241399999999
 30
0.0
 11
5.923235000000009
 21
233.7161399999999
 31
0.0
  0
LINE
  5
F8
330
1E
100
AcDbEntity
  8
0
100
AcDbLine
 10
5.923235000000009
 20
233.1241399999999
 30
0.0
 11
5.923235000000009
 21
231.4171399999999
 31
0.0
  0
LINE
  5
F9
330
1E
100
AcDbEntity
  8
0
100
AcDbLine
 10
5.923235000000009
 20
233.7161399999999
 30
0.0
 11
6.677085000000009
 21
234.1981399999999
 31
0.0
  0
LINE
  5
FA
330
1E
100
AcDbEntity
  8
0
100
AcDbLine
 10
5.923235000000009
 20
233.7161399999999
 30
0.0
 11
5.923235000000009
 21
233.1201399999999
 31
0.0
  0
LINE
  5
FB
330
1E
100
AcDbEntity
  8
0
100
AcDbLine
 10
5.923235000000009
 20
233.7161399999999
 30
0.0
 11
5.923235000000009
 21
233.1241399999999
 31
0.0
  0
LINE
  5
FC
330
1E
100
AcDbEntity
  8
0
100
AcDbLine
 10
5.923235000000009
 20
233.1201399999999
 30
0.0
 11
5.923235000000009
 21
231.3441399999999
 31
0.0
  0
LINE
  5
FD
330
1E
100
AcDbEntity
  8
0
100
AcDbLine
 10
5.923235000000009
 20
233.1201399999999
 30
0.0
 11
5.923235000000009
 21
233.7161399999999
 31
0.0
  0
LINE
  5
FE
330
1E
100
AcDbEntity
  8
0
100
AcDbLine
 10
5.923235000000009
 20
231.3441399999999
 30
0.0
 11
5.923235000000009
 21
228.5911399999999
 31
0.0
  0
LINE
  5
FF
330
1E
100
AcDbEntity
  8
0
100
AcDbLine
 10
5.923235000000009
 20
231.3441399999999
 30
0.0
 11
5.923235000000009
 21
233.1201399999999
 31
0.0
  0
LINE
  5
100
330
1E
100
AcDbEntity
  8
0
100
AcDbLine
 10
5.923235000000009
 20
228.5911399999999
 30
0.0
 11
5.923235000000009
 21
224.9871399999999
 31
0.0
  0
LINE
  5
101
330
1E
100
AcDbEntity
  8
0
100
AcDbLine
 10
5.923235000000009
 20
228.5911399999999
 30
0.0
 11
5.923235000000009
 21
231.3441399999999
 31
0.0
  0
LINE
  5
102
330
1E
100
AcDbEntity
  8
0
100
AcDbLine
 10
6.677085000000009
 20
234.1981399999999
 30
0.0
 11
37.83603499999999
 21
234.1981399999999
 31
0.0
  0
LINE
  5
103
330
1E
100
AcDbEntity
  8
0
100
AcDbLine
 10
6.677085000000009
 20
234.1981399999999
 30
0.0
 11
37.83603499999999
 21
234.1981399999999
 31
0.0
  0
LINE
  5
104
330
1E
100
AcDbEntity
  8
0
100
AcDbLine
 10
5.923235000000009
 20
224.9871399999999
 30
0.0
 11
5.923235000000009
 21
220.7351399999999
 31
0.0
  0
LINE
  5
105
330
1E
100
AcDbEntity
  8
0
100
AcDbLine
 10
5.923235000000009
 20
224.9871399999999
 30
0.0
 11
5.923235000000009
 21
228.5911399999999
 31
0.0
  0
LINE
  5
106
330
1E
100
AcDbEntity
  8
0
100
AcDbLine
 10
77.92323499999999
 20
179.1331399999999
 30
0.0
 11
77.92323499999999
 21
163.5381399999999
 31
0.0
  0
LINE
  5
107
330
1E
100
AcDbEntity
  8
0
100
AcDbLine
 10
101.923235
 20
174.00314
 30
0.0
 11
103.523235
 21
171.60314
 31
0.0
  0
LINE
  5
108
330
1E
100
AcDbEntity
  8
0
100
AcDbLine
 10
18.52323499999999
 20
181.6031399999999
 30
0.0
 11
23.72323499999999
 21
186.20314
 31
0.0
  0
LINE
  5
109
330
1E
100
AcDbEntity
  8
0
100
AcDbLine
 10
17.123235
 20
183.00314
 30
0.0
 11
22.523235
 21
187.8031399999999
 31
0.0
  0
LINE
  5
10A
330
1E
100
AcDbEntity
  8
0
100
AcDbLine
 10
23.72323499999999
 20
186.20314
 30
0.0
 11
29.52323499999999
 21
190.1031399999999
 31
0.0
  0
LINE
  5
10B
330
1E
100
AcDbEntity
  8
0
100
AcDbLine
 10
29.52323499999999
 20
190.1031399999999
 30
0.0
 11
35.72323499999999
 21
193.1031399999999
 31
0.0
  0
LINE
  5
10C
330
1E
100
AcDbEntity
  8
0
100
AcDbLine
 10
22.523235
 20
187.8031399999999
 30
0.0
 11
28.52323499999999
 21
191.8031399999999
 31
0.0
  0
LINE
  5
10D
330
1E
100
AcDbEntity
  8
0
100
AcDbLine
 10
28.52323499999999
 20
191.8031399999999
 30
0.0
 11
34.92323499999999
 21
194.9031399999999
 31
0.0
  0
LINE
  5
10E
330
1E
100
AcDbEntity
  8
0
100
AcDbLine
 10
35.72323499999999
 20
193.1031399999999
 30
0.0
 11
42.39443499999999
 21
196.0891399999999
 31
0.0
  0
LINE
  5
10F
330
1E
100
AcDbEntity
  8
0
100
AcDbLine
 10
101.923235
 20
178.358155360983
 30
0.0
 11
102.0752349999999
 21
178.2841399999999
 31
0.0
  0
LINE
  5
110
330
1E
100
AcDbEntity
  8
0
100
AcDbLine
 10
101.923235
 20
179.1331399999999
 30
0.0
 11
101.923235
 21
170.0761399999999
 31
0.0
  0
LINE
  5
111
330
1E
100
AcDbEntity
  8
0
100
AcDbLine
 10
101.923235
 20
179.1331399999999
 30
0.0
 11
101.923235
 21
188.7641399999999
 31
0.0
  0
LINE
  5
112
330
1E
100
AcDbEntity
  8
0
100
AcDbLine
 10
77.92323499999999
 20
179.1331399999999
 30
0.0
 11
77.92323499999999
 21
188.7641399999999
 31
0.0
  0
LINE
  5
113
330
1E
100
AcDbEntity
  8
0
100
AcDbLine
 10
101.923235
 20
178.112461428571
 30
0.0
 11
102.0752349999999
 21
178.2841399999999
 31
0.0
  0
LINE
  5
114
330
1E
100
AcDbEntity
  8
0
100
AcDbLine
 10
102.0752349999999
 20
178.2841399999999
 30
0.0
 11
103.419235
 21
181.1481399999999
 31
0.0
  0
LINE
  5
115
330
1E
100
AcDbEntity
  8
0
100
AcDbLine
 10
103.419235
 20
181.1481399999999
 30
0.0
 11
103.923235
 21
184.2031399999999
 31
0.0
  0
LINE
  5
116
330
1E
100
AcDbEntity
  8
0
100
AcDbLine
 10
77.771235
 20
178.2841399999999
 30
0.0
 11
77.92323499999999
 21
178.112461428571
 31
0.0
  0
LINE
  5
117
330
1E
100
AcDbEntity
  8
0
100
AcDbLine
 10
77.771235
 20
178.2841399999999
 30
0.0
 11
77.92323499999999
 21
178.358155360983
 31
0.0
  0
LINE
  5
11B
330
1E
100
AcDbEntity
  8
0
100
AcDbLine
 10
101.923235
 20
190.9641399999999
 30
0.0
 11
101.923235
 21
179.1331399999999
 31
0.0
  0
LINE
  5
11C
330
1E
100
AcDbEntity
  8
0
100
AcDbLine
 10
101.923235
 20
190.048124639017
 30
0.0
 11
102.0752349999999
 21
190.12214
 31
0.0
  0
LINE
  5
11D
330
1E
100
AcDbEntity
  8
0
100
AcDbLine
 10
77.92323499999999
 20
188.7641399999999
 30
0.0
 11
77.92323499999999
 21
179.1331399999999
 31
0.0
  0
LINE
  5
11E
330
1E
100
AcDbEntity
  8
0
100
AcDbLine
 10
77.92323499999999
 20
188.7641399999999
 30
0.0
 11
77.92323499999999
 21
190.9641399999999
 31
0.0
  0
LINE
  5
11F
330
1E
100
AcDbEntity
  8
0
100
AcDbLine
 10
102.0752349999999
 20
190.12214
 30
0.0
 11
103.419235
 21
187.2581399999999
 31
0.0
  0
LINE
  5
121
330
1E
100
AcDbEntity
  8
0
100
AcDbLine
 10
103.419235
 20
187.2581399999999
 30
0.0
 11
103.923235
 21
184.2031399999999
 31
0.0
  0
LINE
  5
123
330
1E
100
AcDbEntity
  8
0
100
AcDbLine
 10
103.923235
 20
184.2031399999999
 30
0.0
 11
103.923235
 21
215.2031399999999
 31
0.0
  0
LINE
  5
124
330
1E
100
AcDbEntity
  8
0
100
AcDbLine
 10
100.3392349999999
 20
193.5411399999999
 30
0.0
 11
101.491235
 21
192.29414
 31
0.0
  0
LINE
  5
125
330
1E
100
AcDbEntity
  8
0
100
AcDbLine
 10
101.491235
 20
192.29414
 30
0.0
 11
101.923235
 21
190.9641399999999
 31
0.0
  0
LINE
  5
128
330
1E
100
AcDbEntity
  8
0
100
AcDbLine
 10
98.17923499999999
 20
194.8381399999999
 30
0.0
 11
100.0512349999999
 21
193.7781399999999
 31
0.0
  0
LINE
  5
129
330
1E
100
AcDbEntity
  8
0
100
AcDbLine
 10
100.0512349999999
 20
193.7781399999999
 30
0.0
 11
100.3392349999999
 21
193.5411399999999
 31
0.0
  0
LINE
  5
12E
330
1E
100
AcDbEntity
  8
0
100
AcDbLine
 10
95.73123499999999
 20
195.6491399999999
 30
0.0
 11
98.17923499999999
 21
194.8381399999999
 31
0.0
  0
LINE
  5
12F
330
1E
100
AcDbEntity
  8
0
100
AcDbLine
 10
84.11523499999999
 20
195.6491399999999
 30
0.0
 11
86.899235
 21
196.1481399999999
 31
0.0
  0
LINE
  5
130
330
1E
100
AcDbEntity
  8
0
100
AcDbLine
 10
81.66723499999999
 20
194.8381399999999
 30
0.0
 11
84.11523499999999
 21
195.6491399999999
 31
0.0
  0
LINE
  5
131
330
1E
100
AcDbEntity
  8
0
100
AcDbLine
 10
79.79523499999999
 20
193.7781399999999
 30
0.0
 11
81.66723499999999
 21
194.8381399999999
 31
0.0
  0
LINE
  5
132
330
1E
100
AcDbEntity
  8
0
100
AcDbLine
 10
79.50723499999999
 20
193.5411399999999
 30
0.0
 11
79.79523499999999
 21
193.7781399999999
 31
0.0
  0
LINE
  5
133
330
1E
100
AcDbEntity
  8
0
100
AcDbLine
 10
78.35523499999999
 20
192.29414
 30
0.0
 11
79.50723499999999
 21
193.5411399999999
 31
0.0
  0
LINE
  5
134
330
1E
100
AcDbEntity
  8
0
100
AcDbLine
 10
77.92323499999999
 20
190.9641399999999
 30
0.0
 11
77.92323499999999
 21
188.7641399999999
 31
0.0
  0
LINE
  5
135
330
1E
100
AcDbEntity
  8
0
100
AcDbLine
 10
77.92323499999999
 20
190.9641399999999
 30
0.0
 11
78.35523499999999
 21
192.29414
 31
0.0
  0
LINE
  5
136
330
1E
100
AcDbEntity
  8
0
100
AcDbLine
 10
101.923235
 20
190.2938185714289
 30
0.0
 11
102.0752349999999
 21
190.12214
 31
0.0
  0
LINE
  5
137
330
1E
100
AcDbEntity
  8
0
100
AcDbLine
 10
77.771235
 20
190.12214
 30
0.0
 11
77.92323499999999
 21
190.2938185714289
 31
0.0
  0
LINE
  5
139
330
1E
100
AcDbEntity
  8
0
100
AcDbLine
 10
77.771235
 20
190.12214
 30
0.0
 11
77.92323499999999
 21
190.048124639017
 31
0.0
  0
LINE
  5
13A
330
1E
100
AcDbEntity
  8
0
100
AcDbLine
 10
76.42723499999999
 20
187.2581399999999
 30
0.0
 11
77.771235
 21
190.12214
 31
0.0
  0
LINE
  5
13D
330
1E
100
AcDbEntity
  8
0
100
AcDbLine
 10
76.42723499999999
 20
181.1481399999999
 30
0.0
 11
77.771235
 21
178.2841399999999
 31
0.0
  0
LINE
  5
13F
330
1E
100
AcDbEntity
  8
0
100
AcDbLine
 10
75.92323499999999
 20
184.2031399999999
 30
0.0
 11
76.42723499999999
 21
181.1481399999999
 31
0.0
  0
LINE
  5
140
330
1E
100
AcDbEntity
  8
0
100
AcDbLine
 10
75.92323499999999
 20
184.2031399999999
 30
0.0
 11
75.92323499999999
 21
206.2031399999999
 31
0.0
  0
LINE
  5
141
330
1E
100
AcDbEntity
  8
0
100
AcDbLine
 10
75.92323499999999
 20
184.2031399999999
 30
0.0
 11
76.42723499999999
 21
187.2581399999999
 31
0.0
  0
LINE
  5
143
330
1E
100
AcDbEntity
  8
0
100
AcDbLine
 10
89.92323499999999
 20
196.33514
 30
0.0
 11
92.94723499999999
 21
196.1481399999999
 31
0.0
  0
LINE
  5
145
330
1E
100
AcDbEntity
  8
0
100
AcDbLine
 10
92.94723499999999
 20
196.1481399999999
 30
0.0
 11
95.73123499999999
 21
195.6491399999999
 31
0.0
  0
LINE
  5
146
330
1E
100
AcDbEntity
  8
0
100
AcDbLine
 10
86.899235
 20
196.1481399999999
 30
0.0
 11
89.92323499999999
 21
196.33514
 31
0.0
  0
LINE
  5
147
330
1E
100
AcDbEntity
  8
0
100
AcDbLine
 10
69.45203499999999
 20
196.0891399999999
 30
0.0
 11
75.92323499999999
 21
193.192659126994
 31
0.0
  0
LINE
  5
148
330
1E
100
AcDbEntity
  8
0
100
AcDbLine
 10
65.42323499999999
 20
197.2031399999999
 30
0.0
 11
69.45203499999999
 21
196.0891399999999
 31
0.0
  0
LINE
  5
149
330
1E
100
AcDbEntity
  8
0
100
AcDbLine
 10
55.923235
 20
197.2031399999999
 30
0.0
 11
65.42323499999999
 21
197.2031399999999
 31
0.0
  0
LINE
  5
14A
330
1E
100
AcDbEntity
  8
0
100
AcDbLine
 10
42.39443499999999
 20
196.0891399999999
 30
0.0
 11
46.42323499999999
 21
197.2031399999999
 31
0.0
  0
LINE
  5
14B
330
1E
100
AcDbEntity
  8
0
100
AcDbLine
 10
38.589935
 20
198.6901399999999
 30
0.0
 11
38.589935
 21
199.2861399999999
 31
0.0
  0
LINE
  5
14C
330
1E
100
AcDbEntity
  8
0
100
AcDbLine
 10
38.589935
 20
198.6901399999999
 30
0.0
 11
39.34373499999999
 21
198.20814
 31
0.0
  0
LINE
  5
14D
330
1E
100
AcDbEntity
  8
0
100
AcDbLine
 10
38.589935
 20
199.2861399999999
 30
0.0
 11
38.589935
 21
198.6901399999999
 31
0.0
  0
LINE
  5
14E
330
1E
100
AcDbEntity
  8
0
100
AcDbLine
 10
38.589935
 20
199.2861399999999
 30
0.0
 11
38.589935
 21
201.06214
 31
0.0
  0
LINE
  5
14F
330
1E
100
AcDbEntity
  8
0
100
AcDbLine
 10
37.83603499999999
 20
198.20814
 30
0.0
 11
38.589935
 21
198.6901399999999
 31
0.0
  0
LINE
  5
150
330
1E
100
AcDbEntity
  8
0
100
AcDbLine
 10
38.589935
 20
201.06214
 30
0.0
 11
38.589935
 21
199.2861399999999
 31
0.0
  0
LINE
  5
151
330
1E
100
AcDbEntity
  8
0
100
AcDbLine
 10
38.589935
 20
201.06214
 30
0.0
 11
38.589935
 21
203.8151399999999
 31
0.0
  0
LINE
  5
152
330
1E
100
AcDbEntity
  8
0
100
AcDbLine
 10
38.589935
 20
216.15214
 30
0.0
 11
38.589935
 21
211.6711399999999
 31
0.0
  0
LINE
  5
153
330
1E
100
AcDbEntity
  8
0
100
AcDbLine
 10
38.589935
 20
216.15214
 30
0.0
 11
38.589935
 21
220.7361399999999
 31
0.0
  0
LINE
  5
154
330
1E
100
AcDbEntity
  8
0
100
AcDbLine
 10
38.589935
 20
211.6711399999999
 30
0.0
 11
38.589935
 21
207.41914
 31
0.0
  0
LINE
  5
155
330
1E
100
AcDbEntity
  8
0
100
AcDbLine
 10
38.589935
 20
211.6711399999999
 30
0.0
 11
38.589935
 21
216.15214
 31
0.0
  0
LINE
  5
156
330
1E
100
AcDbEntity
  8
0
100
AcDbLine
 10
38.589935
 20
203.8151399999999
 30
0.0
 11
38.589935
 21
201.06214
 31
0.0
  0
LINE
  5
157
330
1E
100
AcDbEntity
  8
0
100
AcDbLine
 10
38.589935
 20
203.8151399999999
 30
0.0
 11
38.589935
 21
207.41914
 31
0.0
  0
LINE
  5
158
330
1E
100
AcDbEntity
  8
0
100
AcDbLine
 10
39.34373499999999
 20
198.20814
 30
0.0
 11
75.92323499999999
 21
198.20814
 31
0.0
  0
LINE
  5
159
330
1E
100
AcDbEntity
  8
0
100
AcDbLine
 10
38.589935
 20
207.41914
 30
0.0
 11
38.589935
 21
203.8151399999999
 31
0.0
  0
LINE
  5
15A
330
1E
100
AcDbEntity
  8
0
100
AcDbLine
 10
38.589935
 20
207.41914
 30
0.0
 11
38.589935
 21
211.6711399999999
 31
0.0
  0
LINE
  5
15B
330
1E
100
AcDbEntity
  8
0
100
AcDbLine
 10
38.589935
 20
231.4171399999999
 30
0.0
 11
38.589935
 21
228.58814
 31
0.0
  0
LINE
  5
15C
330
1E
100
AcDbEntity
  8
0
100
AcDbLine
 10
38.589935
 20
231.4171399999999
 30
0.0
 11
38.589935
 21
233.1241399999999
 31
0.0
  0
LINE
  5
15D
330
1E
100
AcDbEntity
  8
0
100
AcDbLine
 10
38.589935
 20
228.58814
 30
0.0
 11
38.589935
 21
225.0041399999999
 31
0.0
  0
LINE
  5
15E
330
1E
100
AcDbEntity
  8
0
100
AcDbLine
 10
38.589935
 20
228.58814
 30
0.0
 11
38.589935
 21
231.4171399999999
 31
0.0
  0
LINE
  5
15F
330
1E
100
AcDbEntity
  8
0
100
AcDbLine
 10
38.589935
 20
225.0041399999999
 30
0.0
 11
38.589935
 21
220.7361399999999
 31
0.0
  0
LINE
  5
160
330
1E
100
AcDbEntity
  8
0
100
AcDbLine
 10
38.589935
 20
225.0041399999999
 30
0.0
 11
38.589935
 21
228.58814
 31
0.0
  0
LINE
  5
161
330
1E
100
AcDbEntity
  8
0
100
AcDbLine
 10
38.589935
 20
220.7361399999999
 30
0.0
 11
38.589935
 21
216.15214
 31
0.0
  0
LINE
  5
162
330
1E
100
AcDbEntity
  8
0
100
AcDbLine
 10
38.589935
 20
220.7361399999999
 30
0.0
 11
38.589935
 21
225.0041399999999
 31
0.0
  0
LINE
  5
163
330
1E
100
AcDbEntity
  8
0
100
AcDbLine
 10
38.589935
 20
233.1241399999999
 30
0.0
 11
38.589935
 21
231.4171399999999
 31
0.0
  0
LINE
  5
164
330
1E
100
AcDbEntity
  8
0
100
AcDbLine
 10
38.589935
 20
233.1241399999999
 30
0.0
 11
38.589935
 21
233.7161399999999
 31
0.0
  0
LINE
  5
165
330
1E
100
AcDbEntity
  8
0
100
AcDbLine
 10
39.34373499999999
 20
234.1981399999999
 30
0.0
 11
44.923235
 21
234.1981399999999
 31
0.0
  0
LINE
  5
166
330
1E
100
AcDbEntity
  8
0
100
AcDbLine
 10
38.589935
 20
233.7161399999999
 30
0.0
 11
38.589935
 21
233.1241399999999
 31
0.0
  0
LINE
  5
167
330
1E
100
AcDbEntity
  8
0
100
AcDbLine
 10
38.589935
 20
233.7161399999999
 30
0.0
 11
39.34373499999999
 21
234.1981399999999
 31
0.0
  0
LINE
  5
168
330
1E
100
AcDbEntity
  8
0
100
AcDbLine
 10
37.83603499999999
 20
234.1981399999999
 30
0.0
 11
38.589935
 21
233.7161399999999
 31
0.0
  0
LINE
  5
169
330
1E
100
AcDbEntity
  8
0
100
AcDbLine
 10
44.923235
 20
216.20314
 30
0.0
 11
45.32323499999999
 21
213.40314
 31
0.0
  0
LINE
  5
16A
330
1E
100
AcDbEntity
  8
0
100
AcDbLine
 10
44.923235
 20
216.20314
 30
0.0
 11
44.923235
 21
260.20314
 31
0.0
  0
LINE
  5
16B
330
1E
100
AcDbEntity
  8
0
100
AcDbLine
 10
53.123235
 20
205.60314
 30
0.0
 11
55.923235
 21
205.2031399999999
 31
0.0
  0
LINE
  5
16C
330
1E
100
AcDbEntity
  8
0
100
AcDbLine
 10
53.22323499999999
 20
206.10314
 30
0.0
 11
55.923235
 21
205.70314
 31
0.0
  0
LINE
  5
16D
330
1E
100
AcDbEntity
  8
0
100
AcDbLine
 10
50.423235
 20
206.7031399999999
 30
0.0
 11
53.123235
 21
205.60314
 31
0.0
  0
LINE
  5
16E
330
1E
100
AcDbEntity
  8
0
100
AcDbLine
 10
55.923235
 20
205.70314
 30
0.0
 11
58.623235
 21
206.10314
 31
0.0
  0
LINE
  5
16F
330
1E
100
AcDbEntity
  8
0
100
AcDbLine
 10
58.623235
 20
206.10314
 30
0.0
 11
61.123235
 21
207.1031399999999
 31
0.0
  0
LINE
  5
170
330
1E
100
AcDbEntity
  8
0
100
AcDbLine
 10
55.923235
 20
205.2031399999999
 30
0.0
 11
58.723235
 21
205.60314
 31
0.0
  0
LINE
  5
171
330
1E
100
AcDbEntity
  8
0
100
AcDbLine
 10
58.723235
 20
205.60314
 30
0.0
 11
61.42323499999999
 21
206.7031399999999
 31
0.0
  0
LINE
  5
172
330
1E
100
AcDbEntity
  8
0
100
AcDbLine
 10
50.72323499999999
 20
207.1031399999999
 30
0.0
 11
53.22323499999999
 21
206.10314
 31
0.0
  0
LINE
  5
173
330
1E
100
AcDbEntity
  8
0
100
AcDbLine
 10
48.523235
 20
208.8031399999999
 30
0.0
 11
50.72323499999999
 21
207.1031399999999
 31
0.0
  0
LINE
  5
174
330
1E
100
AcDbEntity
  8
0
100
AcDbLine
 10
48.123235
 20
208.4031399999999
 30
0.0
 11
50.423235
 21
206.7031399999999
 31
0.0
  0
LINE
  5
175
330
1E
100
AcDbEntity
  8
0
100
AcDbLine
 10
46.42323499999999
 20
210.7031399999999
 30
0.0
 11
48.123235
 21
208.4031399999999
 31
0.0
  0
LINE
  5
176
330
1E
100
AcDbEntity
  8
0
100
AcDbLine
 10
61.123235
 20
207.1031399999999
 30
0.0
 11
63.323235
 21
208.8031399999999
 31
0.0
  0
LINE
  5
177
330
1E
100
AcDbEntity
  8
0
100
AcDbLine
 10
63.323235
 20
208.8031399999999
 30
0.0
 11
65.023235
 21
211.00314
 31
0.0
  0
LINE
  5
178
330
1E
100
AcDbEntity
  8
0
100
AcDbLine
 10
61.42323499999999
 20
206.7031399999999
 30
0.0
 11
63.723235
 21
208.4031399999999
 31
0.0
  0
LINE
  5
179
330
1E
100
AcDbEntity
  8
0
100
AcDbLine
 10
63.723235
 20
208.4031399999999
 30
0.0
 11
65.42323499999999
 21
210.7031399999999
 31
0.0
  0
LINE
  5
17A
330
1E
100
AcDbEntity
  8
0
100
AcDbLine
 10
46.82323499999999
 20
211.00314
 30
0.0
 11
48.523235
 21
208.8031399999999
 31
0.0
  0
LINE
  5
17B
330
1E
100
AcDbEntity
  8
0
100
AcDbLine
 10
45.32323499999999
 20
213.40314
 30
0.0
 11
46.42323499999999
 21
210.7031399999999
 31
0.0
  0
LINE
  5
17C
330
1E
100
AcDbEntity
  8
0
100
AcDbLine
 10
65.023235
 20
211.00314
 30
0.0
 11
66.023235
 21
213.5031399999999
 31
0.0
  0
LINE
  5
17D
330
1E
100
AcDbEntity
  8
0
100
AcDbLine
 10
45.823235
 20
213.5031399999999
 30
0.0
 11
46.82323499999999
 21
211.00314
 31
0.0
  0
LINE
  5
17E
330
1E
100
AcDbEntity
  8
0
100
AcDbLine
 10
45.423235
 20
216.20314
 30
0.0
 11
45.823235
 21
213.5031399999999
 31
0.0
  0
LINE
  5
17F
330
1E
100
AcDbEntity
  8
0
100
AcDbLine
 10
45.423235
 20
216.20314
 30
0.0
 11
45.423235
 21
259.70314
 31
0.0
  0
LINE
  5
180
330
1E
100
AcDbEntity
  8
0
100
AcDbLine
 10
66.023235
 20
213.5031399999999
 30
0.0
 11
66.42323499999999
 21
216.20314
 31
0.0
  0
LINE
  5
181
330
1E
100
AcDbEntity
  8
0
100
AcDbLine
 10
66.92323499999999
 20
234.1981399999999
 30
0.0
 11
75.92323499999999
 21
234.1981399999999
 31
0.0
  0
LINE
  5
182
330
1E
100
AcDbEntity
  8
0
100
AcDbLine
 10
66.42323499999999
 20
216.20314
 30
0.0
 11
66.42323499999999
 21
259.70314
 31
0.0
  0
LINE
  5
183
330
1E
100
AcDbEntity
  8
0
100
AcDbLine
 10
66.523235
 20
213.40314
 30
0.0
 11
66.92323499999999
 21
216.20314
 31
0.0
  0
LINE
  5
184
330
1E
100
AcDbEntity
  8
0
100
AcDbLine
 10
66.92323499999999
 20
216.20314
 30
0.0
 11
66.92323499999999
 21
260.20314
 31
0.0
  0
LINE
  5
185
330
1E
100
AcDbEntity
  8
0
100
AcDbLine
 10
65.42323499999999
 20
210.7031399999999
 30
0.0
 11
66.523235
 21
213.40314
 31
0.0
  0
LINE
  5
186
330
1E
100
AcDbEntity
  8
0
100
AcDbLine
 10
44.923235
 20
234.1981399999999
 30
0.0
 11
44.923235
 21
260.20314
 31
0.0
  0
LINE
  5
187
330
1E
100
AcDbEntity
  8
0
100
AcDbLine
 10
44.923235
 20
260.20314
 30
0.0
 11
44.923235
 21
216.20314
 31
0.0
  0
LINE
  5
188
330
1E
100
AcDbEntity
  8
0
100
AcDbLine
 10
44.923235
 20
260.20314
 30
0.0
 11
55.923235
 21
260.20314
 31
0.0
  0
LINE
  5
189
330
1E
100
AcDbEntity
  8
0
100
AcDbLine
 10
44.923235
 20
260.20314
 30
0.0
 11
45.423235
 21
259.70314
 31
0.0
  0
LINE
  5
18A
330
1E
100
AcDbEntity
  8
0
100
AcDbLine
 10
45.423235
 20
259.70314
 30
0.0
 11
55.923235
 21
259.70314
 31
0.0
  0
LINE
  5
18B
330
1E
100
AcDbEntity
  8
0
100
AcDbLine
 10
45.423235
 20
259.70314
 30
0.0
 11
45.423235
 21
216.20314
 31
0.0
  0
LINE
  5
18C
330
1E
100
AcDbEntity
  8
0
100
AcDbLine
 10
66.92323499999999
 20
260.20314
 30
0.0
 11
66.92323499999999
 21
216.20314
 31
0.0
  0
LINE
  5
18D
330
1E
100
AcDbEntity
  8
0
100
AcDbLine
 10
66.42323499999999
 20
259.70314
 30
0.0
 11
66.92323499999999
 21
260.20314
 31
0.0
  0
LINE
  5
18E
330
1E
100
AcDbEntity
  8
0
100
AcDbLine
 10
66.42323499999999
 20
259.70314
 30
0.0
 11
66.42323499999999
 21
216.20314
 31
0.0
  0
LINE
  5
18F
330
1E
100
AcDbEntity
  8
0
100
AcDbLine
 10
55.923235
 20
259.70314
 30
0.0
 11
66.42323499999999
 21
259.70314
 31
0.0
  0
LINE
  5
190
330
1E
100
AcDbEntity
  8
0
100
AcDbLine
 10
55.923235
 20
260.20314
 30
0.0
 11
66.92323499999999
 21
260.20314
 31
0.0
  0
LINE
  5
191
330
1E
100
AcDbEntity
  8
0
100
AcDbLine
 10
44.923235
 20
260.20314
 30
0.0
 11
44.923235
 21
234.1981399999999
 31
0.0
  0
LINE
  5
192
330
1E
100
AcDbEntity
  8
0
100
AcDbLine
 10
75.92323499999999
 20
203.5361399999999
 30
0.0
 11
75.92323499999999
 21
207.2031399999999
 31
0.0
  0
LINE
  5
193
330
1E
100
AcDbEntity
  8
0
100
AcDbLine
 10
75.92323499999999
 20
203.5361399999999
 30
0.0
 11
75.92323499999999
 21
200.65914
 31
0.0
  0
LINE
  5
194
330
1E
100
AcDbEntity
  8
0
100
AcDbLine
 10
75.92323499999999
 20
200.65914
 30
0.0
 11
75.92323499999999
 21
203.5361399999999
 31
0.0
  0
LINE
  5
195
330
1E
100
AcDbEntity
  8
0
100
AcDbLine
 10
75.92323499999999
 20
200.65914
 30
0.0
 11
75.92323499999999
 21
198.79414
 31
0.0
  0
LINE
  5
196
330
1E
100
AcDbEntity
  8
0
100
AcDbLine
 10
75.92323499999999
 20
198.79414
 30
0.0
 11
75.92323499999999
 21
200.65914
 31
0.0
  0
LINE
  5
197
330
1E
100
AcDbEntity
  8
0
100
AcDbLine
 10
75.92323499999999
 20
198.79414
 30
0.0
 11
75.92323499999999
 21
198.20814
 31
0.0
  0
LINE
  5
198
330
1E
100
AcDbEntity
  8
0
100
AcDbLine
 10
75.92323499999999
 20
198.20814
 30
0.0
 11
75.92323499999999
 21
198.79414
 31
0.0
  0
LINE
  5
199
330
1E
100
AcDbEntity
  8
0
100
AcDbLine
 10
75.92323499999999
 20
211.5181399999999
 30
0.0
 11
75.92323499999999
 21
216.1231399999999
 31
0.0
  0
LINE
  5
19A
330
1E
100
AcDbEntity
  8
0
100
AcDbLine
 10
75.92323499999999
 20
211.5181399999999
 30
0.0
 11
75.92323499999999
 21
207.2031399999999
 31
0.0
  0
LINE
  5
19C
330
1E
100
AcDbEntity
  8
0
100
AcDbLine
 10
75.92323499999999
 20
216.1231399999999
 30
0.0
 11
75.92323499999999
 21
220.8681399999999
 31
0.0
  0
LINE
  5
19D
330
1E
100
AcDbEntity
  8
0
100
AcDbLine
 10
75.92323499999999
 20
216.1231399999999
 30
0.0
 11
75.92323499999999
 21
211.5181399999999
 31
0.0
  0
LINE
  5
19E
330
1E
100
AcDbEntity
  8
0
100
AcDbLine
 10
75.92323499999999
 20
216.1231399999999
 30
0.0
 11
78.92323499999999
 21
216.1231399999999
 31
0.0
  0
LINE
  5
19F
330
1E
100
AcDbEntity
  8
0
100
AcDbLine
 10
75.92323499999999
 20
220.8681399999999
 30
0.0
 11
75.92323499999999
 21
225.2701399999999
 31
0.0
  0
LINE
  5
1A0
330
1E
100
AcDbEntity
  8
0
100
AcDbLine
 10
75.92323499999999
 20
220.8681399999999
 30
0.0
 11
75.92323499999999
 21
216.1231399999999
 31
0.0
  0
LINE
  5
1A2
330
1E
100
AcDbEntity
  8
0
100
AcDbLine
 10
75.92323499999999
 20
234.1981399999999
 30
0.0
 11
75.92323499999999
 21
233.5341399999999
 31
0.0
  0
LINE
  5
1A3
330
1E
100
AcDbEntity
  8
0
100
AcDbLine
 10
75.92323499999999
 20
234.1981399999999
 30
0.0
 11
78.92323499999999
 21
234.1981399999999
 31
0.0
  0
LINE
  5
1A4
330
1E
100
AcDbEntity
  8
0
100
AcDbLine
 10
75.92323499999999
 20
233.5341399999999
 30
0.0
 11
75.92323499999999
 21
234.1981399999999
 31
0.0
  0
LINE
  5
1A5
330
1E
100
AcDbEntity
  8
0
100
AcDbLine
 10
75.92323499999999
 20
233.5341399999999
 30
0.0
 11
75.92323499999999
 21
231.7921399999999
 31
0.0
  0
LINE
  5
1A7
330
1E
100
AcDbEntity
  8
0
100
AcDbLine
 10
75.92323499999999
 20
231.7921399999999
 30
0.0
 11
75.92323499999999
 21
228.92614
 31
0.0
  0
LINE
  5
1A8
330
1E
100
AcDbEntity
  8
0
100
AcDbLine
 10
75.92323499999999
 20
231.7921399999999
 30
0.0
 11
75.92323499999999
 21
233.5341399999999
 31
0.0
  0
LINE
  5
1AA
330
1E
100
AcDbEntity
  8
0
100
AcDbLine
 10
75.92323499999999
 20
225.2701399999999
 30
0.0
 11
75.92323499999999
 21
228.92614
 31
0.0
  0
LINE
  5
1AB
330
1E
100
AcDbEntity
  8
0
100
AcDbLine
 10
75.92323499999999
 20
225.2701399999999
 30
0.0
 11
75.92323499999999
 21
220.8681399999999
 31
0.0
  0
LINE
  5
1AE
330
1E
100
AcDbEntity
  8
0
100
AcDbLine
 10
75.92323499999999
 20
228.92614
 30
0.0
 11
75.92323499999999
 21
231.7921399999999
 31
0.0
  0
LINE
  5
1AF
330
1E
100
AcDbEntity
  8
0
100
AcDbLine
 10
75.92323499999999
 20
228.92614
 30
0.0
 11
75.92323499999999
 21
225.2701399999999
 31
0.0
  0
LINE
  5
1B1
330
1E
100
AcDbEntity
  8
0
100
AcDbLine
 10
75.92323499999999
 20
207.2031399999999
 30
0.0
 11
75.92323499999999
 21
206.2031399999999
 31
0.0
  0
LINE
  5
1B2
330
1E
100
AcDbEntity
  8
0
100
AcDbLine
 10
75.92323499999999
 20
207.2031399999999
 30
0.0
 11
75.92323499999999
 21
211.5181399999999
 31
0.0
  0
LINE
  5
1B3
330
1E
100
AcDbEntity
  8
0
100
AcDbLine
 10
75.92323499999999
 20
207.2031399999999
 30
0.0
 11
75.92323499999999
 21
203.5361399999999
 31
0.0
  0
LINE
  5
1B4
330
1E
100
AcDbEntity
  8
0
100
AcDbLine
 10
102.0752349999999
 20
212.12214
 30
0.0
 11
103.419235
 21
209.2581399999999
 31
0.0
  0
LINE
  5
1BB
330
1E
100
AcDbEntity
  8
0
100
AcDbLine
 10
78.92323499999999
 20
216.1231399999999
 30
0.0
 11
78.92323499999999
 21
220.8681399999999
 31
0.0
  0
LINE
  5
1BC
330
1E
100
AcDbEntity
  8
0
100
AcDbLine
 10
78.92323499999999
 20
220.8681399999999
 30
0.0
 11
78.92323499999999
 21
225.2701399999999
 31
0.0
  0
LINE
  5
1BD
330
1E
100
AcDbEntity
  8
0
100
AcDbLine
 10
78.92323499999999
 20
220.8681399999999
 30
0.0
 11
78.92323499999999
 21
216.1231399999999
 31
0.0
  0
LINE
  5
1BE
330
1E
100
AcDbEntity
  8
0
100
AcDbLine
 10
78.92323499999999
 20
225.2701399999999
 30
0.0
 11
78.92323499999999
 21
228.92614
 31
0.0
  0
LINE
  5
1BF
330
1E
100
AcDbEntity
  8
0
100
AcDbLine
 10
78.92323499999999
 20
225.2701399999999
 30
0.0
 11
78.92323499999999
 21
220.8681399999999
 31
0.0
  0
LINE
  5
1C0
330
1E
100
AcDbEntity
  8
0
100
AcDbLine
 10
78.92323499999999
 20
234.1981399999999
 30
0.0
 11
78.92323499999999
 21
233.5341399999999
 31
0.0
  0
LINE
  5
1C1
330
1E
100
AcDbEntity
  8
0
100
AcDbLine
 10
78.92323499999999
 20
233.5341399999999
 30
0.0
 11
78.92323499999999
 21
234.1981399999999
 31
0.0
  0
LINE
  5
1C2
330
1E
100
AcDbEntity
  8
0
100
AcDbLine
 10
78.92323499999999
 20
233.5341399999999
 30
0.0
 11
78.92323499999999
 21
231.7921399999999
 31
0.0
  0
LINE
  5
1C3
330
1E
100
AcDbEntity
  8
0
100
AcDbLine
 10
78.92323499999999
 20
231.7921399999999
 30
0.0
 11
78.92323499999999
 21
228.92614
 31
0.0
  0
LINE
  5
1C4
330
1E
100
AcDbEntity
  8
0
100
AcDbLine
 10
78.92323499999999
 20
231.7921399999999
 30
0.0
 11
78.92323499999999
 21
233.5341399999999
 31
0.0
  0
LINE
  5
1C5
330
1E
100
AcDbEntity
  8
0
100
AcDbLine
 10
78.92323499999999
 20
228.92614
 30
0.0
 11
78.92323499999999
 21
231.7921399999999
 31
0.0
  0
LINE
  5
1C6
330
1E
100
AcDbEntity
  8
0
100
AcDbLine
 10
78.92323499999999
 20
228.92614
 30
0.0
 11
78.92323499999999
 21
225.2701399999999
 31
0.0
  0
LINE
  5
1C7
330
1E
100
AcDbEntity
  8
0
100
AcDbLine
 10
79.977035
 20
229.4991399999999
 30
0.0
 11
82.931535
 21
231.0401399999999
 31
0.0
  0
LINE
  5
1C9
330
1E
100
AcDbEntity
  8
0
100
AcDbLine
 10
78.92323499999999
 20
228.363550826004
 30
0.0
 11
79.977035
 21
229.4991399999999
 31
0.0
  0
LINE
  5
1CA
330
1E
100
AcDbEntity
  8
0
100
AcDbLine
 10
96.86723499999999
 20
216.5611399999999
 30
0.0
 11
99.835235
 21
214.65214
 31
0.0
  0
LINE
  5
1CD
330
1E
100
AcDbEntity
  8
0
100
AcDbLine
 10
99.835235
 20
214.65214
 30
0.0
 11
102.0752349999999
 21
212.12214
 31
0.0
  0
LINE
  5
1D0
330
1E
100
AcDbEntity
  8
0
100
AcDbLine
 10
103.923235
 20
215.2031399999999
 30
0.0
 11
103.923235
 21
184.2031399999999
 31
0.0
  0
LINE
  5
1D1
330
1E
100
AcDbEntity
  8
0
100
AcDbLine
 10
81.37613499999998
 20
230.5431399999999
 30
0.0
 11
81.50297845276119
 21
230.295037397429
 31
0.0
  0
LINE
  5
1D3
330
1E
100
AcDbEntity
  8
0
100
AcDbLine
 10
84.086935
 20
238.9841399999999
 30
0.0
 11
86.88473499999998
 21
240.41314
 31
0.0
  0
LINE
  5
1D4
330
1E
100
AcDbEntity
  8
0
100
AcDbLine
 10
82.149035
 20
236.5921399999999
 30
0.0
 11
84.086935
 21
238.9841399999999
 31
0.0
  0
LINE
  5
1D5
330
1E
100
AcDbEntity
  8
0
100
AcDbLine
 10
81.11303499999999
 20
233.68614
 30
0.0
 11
81.37613499999998
 21
230.5431399999999
 31
0.0
  0
LINE
  5
1D6
330
1E
100
AcDbEntity
  8
0
100
AcDbLine
 10
81.11303499999999
 20
233.68614
 30
0.0
 11
82.149035
 21
236.5921399999999
 31
0.0
  0
LINE
  5
1D7
330
1E
100
AcDbEntity
  8
0
100
AcDbLine
 10
86.256035
 20
231.62414
 30
0.0
 11
90.164535
 21
231.2681399999999
 31
0.0
  0
LINE
  5
1D9
330
1E
100
AcDbEntity
  8
0
100
AcDbLine
 10
82.931535
 20
231.0401399999999
 30
0.0
 11
86.256035
 21
231.62414
 31
0.0
  0
LINE
  5
1DB
330
1E
100
AcDbEntity
  8
0
100
AcDbLine
 10
86.88473499999998
 20
240.41314
 30
0.0
 11
90.02853499999998
 21
240.67614
 31
0.0
  0
LINE
  5
1DC
330
1E
100
AcDbEntity
  8
0
100
AcDbLine
 10
90.02853499999998
 20
240.67614
 30
0.0
 11
93.162035
 21
239.74114
 31
0.0
  0
LINE
  5
1DD
330
1E
100
AcDbEntity
  8
0
100
AcDbLine
 10
93.162035
 20
239.74114
 30
0.0
 11
95.64593499999999
 21
237.9201399999999
 31
0.0
  0
LINE
  5
1DE
330
1E
100
AcDbEntity
  8
0
100
AcDbLine
 10
95.64593499999999
 20
237.9201399999999
 30
0.0
 11
97.424835
 21
235.4041399999999
 31
0.0
  0
LINE
  5
1DF
330
1E
100
AcDbEntity
  8
0
100
AcDbLine
 10
90.164535
 20
231.2681399999999
 30
0.0
 11
93.668735
 21
229.9631399999999
 31
0.0
  0
LINE
  5
1E0
330
1E
100
AcDbEntity
  8
0
100
AcDbLine
 10
93.668735
 20
229.9631399999999
 30
0.0
 11
96.993135
 21
227.96414
 31
0.0
  0
LINE
  5
1E1
330
1E
100
AcDbEntity
  8
0
100
AcDbLine
 10
97.424835
 20
235.4041399999999
 30
0.0
 11
97.99903499999999
 21
232.3001399999999
 31
0.0
  0
LINE
  5
1E2
330
1E
100
AcDbEntity
  8
0
100
AcDbLine
 10
97.982835
 20
230.39914
 30
0.0
 11
97.99903499999999
 21
232.3001399999999
 31
0.0
  0
LINE
  5
1E3
330
1E
100
AcDbEntity
  8
0
100
AcDbLine
 10
97.95383499999999
 20
227.1001399999999
 30
0.0
 11
97.982835
 21
230.39914
 31
0.0
  0
LINE
  5
1E4
330
1E
100
AcDbEntity
  8
0
100
AcDbLine
 10
97.95322183337439
 20
227.026859110603
 30
0.0
 11
97.95383499999999
 21
227.1001399999999
 31
0.0
  0
LINE
  5
1E5
330
1E
100
AcDbEntity
  8
0
100
AcDbLine
 10
96.993135
 20
227.96414
 30
0.0
 11
99.86843499999999
 21
225.15714
 31
0.0
  0
LINE
  5
1E6
330
1E
100
AcDbEntity
  8
0
100
AcDbLine
 10
99.86843499999999
 20
225.15714
 30
0.0
 11
102.384235
 21
221.7511399999999
 31
0.0
  0
LINE
  5
1E7
330
1E
100
AcDbEntity
  8
0
100
AcDbLine
 10
102.384235
 20
221.7511399999999
 30
0.0
 11
103.5532349999999
 21
218.4631399999999
 31
0.0
  0
LINE
  5
1E8
330
1E
100
AcDbEntity
  8
0
100
AcDbLine
 10
103.5532349999999
 20
218.4631399999999
 30
0.0
 11
103.923235
 21
215.2031399999999
 31
0.0
  0
LINE
  5
1E9
330
1E
100
AcDbEntity
  8
0
100
AcDbLine
 10
89.92323499999999
 20
218.1361399999999
 30
0.0
 11
93.50723499999999
 21
217.7071399999999
 31
0.0
  0
LINE
  5
1EC
330
1E
100
AcDbEntity
  8
0
100
AcDbLine
 10
93.50723499999999
 20
217.7071399999999
 30
0.0
 11
96.86723499999999
 21
216.5611399999999
 31
0.0
  0
LINE
  5
1EF
330
1E
100
AcDbEntity
  8
0
100
AcDbLine
 10
86.33923499999999
 20
217.7071399999999
 30
0.0
 11
89.92323499999999
 21
218.1361399999999
 31
0.0
  0
LINE
  5
1F1
330
1E
100
AcDbEntity
  8
0
100
AcDbLine
 10
82.97923500000001
 20
216.5611399999999
 30
0.0
 11
86.33923499999999
 21
217.7071399999999
 31
0.0
  0
LINE
  5
1F3
330
1E
100
AcDbEntity
  8
0
100
AcDbLine
 10
80.011235
 20
214.65214
 30
0.0
 11
82.97923500000001
 21
216.5611399999999
 31
0.0
  0
LINE
  5
1F5
330
1E
100
AcDbEntity
  8
0
100
AcDbLine
 10
77.771235
 20
212.12214
 30
0.0
 11
80.011235
 21
214.65214
 31
0.0
  0
LINE
  5
1F8
330
1E
100
AcDbEntity
  8
0
100
AcDbLine
 10
76.42723499999999
 20
209.2581399999999
 30
0.0
 11
77.771235
 21
212.12214
 31
0.0
  0
LINE
  5
1FB
330
1E
100
AcDbEntity
  8
0
100
AcDbLine
 10
75.92323499999999
 20
206.2031399999999
 30
0.0
 11
75.92323499999999
 21
184.2031399999999
 31
0.0
  0
LINE
  5
1FC
330
1E
100
AcDbEntity
  8
0
100
AcDbLine
 10
75.92323499999999
 20
206.2031399999999
 30
0.0
 11
76.42723499999999
 21
209.2581399999999
 31
0.0
  0
LINE
  5
1FD
330
1E
100
AcDbEntity
  8
0
100
AcDbLine
 10
75.92323499999999
 20
206.2031399999999
 30
0.0
 11
75.92323499999999
 21
207.2031399999999
 31
0.0
  0
LINE
  5
1FF
330
1E
100
AcDbEntity
  8
0
100
AcDbLine
 10
46.42323499999999
 20
197.2031399999999
 30
0.0
 11
55.923235
 21
197.2031399999999
 31
0.0
  0
LINE
  5
200
330
1E
100
AcDbEntity
  8
0
100
AcDbLine
 10
34.92323499999999
 20
194.9031399999999
 30
0.0
 11
40.21123499999999
 21
198.20814
 31
0.0
  0
LINE
  5
201
330
1E
100
AcDbEntity
  8
0
100
AcDbLine
 10
13.923235
 20
176.4031399999999
 30
0.0
 11
18.52323499999999
 21
181.6031399999999
 31
0.0
  0
LINE
  5
202
330
1E
100
AcDbEntity
  8
0
100
AcDbLine
 10
12.323235
 20
177.6031399999999
 30
0.0
 11
17.123235
 21
183.00314
 31
0.0
  0
LINE
  5
203
330
1E
100
AcDbEntity
  8
0
100
AcDbLine
 10
8.323235000000009
 20
171.60314
 30
0.0
 11
12.323235
 21
177.6031399999999
 31
0.0
  0
LINE
  5
204
330
1E
100
AcDbEntity
  8
0
100
AcDbLine
 10
5.223235000000009
 20
165.20314
 30
0.0
 11
8.323235000000009
 21
171.60314
 31
0.0
  0
LINE
  5
205
330
1E
100
AcDbEntity
  8
0
100
AcDbLine
 10
4.823235000000009
 20
130.50314
 30
0.0
 11
7.023235000000009
 21
124.0031399999999
 31
0.0
  0
LINE
  5
206
330
1E
100
AcDbEntity
  8
0
100
AcDbLine
 10
3.423235000000009
 20
137.3031399999999
 30
0.0
 11
4.823235000000009
 21
130.50314
 31
0.0
  0
LINE
  5
207
330
1E
100
AcDbEntity
  8
0
100
AcDbLine
 10
5.223235000000009
 20
123.2031399999999
 30
0.0
 11
8.323235000000009
 21
116.8031399999999
 31
0.0
  0
LINE
  5
208
330
1E
100
AcDbEntity
  8
0
100
AcDbLine
 10
2.923235000000009
 20
130.0031399999999
 30
0.0
 11
5.223235000000009
 21
123.2031399999999
 31
0.0
  0
ENDSEC
  0
SECTION
  2
OBJECTS
  0
DICTIONARY
  5
C
330
0
100
AcDbDictionary
281
     1
  3
ACAD_GROUP
350
D
  3
ACAD_LAYOUT
350
19
  3
ACAD_MLINESTYLE
350
16
  3
ACAD_PLOTSETTINGS
350
18
  3
ACAD_PLOTSTYLENAME
350
E
  3
AcDbVariableDictionary
350
20D
  0
DICTIONARY
  5
D
102
{ACAD_REACTORS
330
C
102
}
330
C
100
AcDbDictionary
281
     1
  0
DICTIONARY
  5
19
102
{ACAD_REACTORS
330
C
102
}
330
C
100
AcDbDictionary
281
     1
  3
Layout1
350
1D
  3
Model
350
21
  0
DICTIONARY
  5
16
102
{ACAD_REACTORS
330
C
102
}
330
C
100
AcDbDictionary
281
     1
  3
Standard
350
17
  0
DICTIONARY
  5
18
102
{ACAD_REACTORS
330
C
102
}
330
C
100
AcDbDictionary
281
     1
  0
ACDBDICTIONARYWDFLT
  5
E
102
{ACAD_REACTORS
330
C
102
}
330
C
100
AcDbDictionary
281
     1
  3
Normal
350
F
100
AcDbDictionaryWithDefault
340
F
  0
DICTIONARY
  5
20D
102
{ACAD_REACTORS
330
C
102
}
330
C
100
AcDbDictionary
281
     1
  3
DIMASSOC
350
20E
  0
LAYOUT
  5
1D
102
{ACAD_REACTORS
330
19
102
}
330
19
100
AcDbPlotSettings
  1

  2
hp deskjet 980c series
  4

  6

 40
0.0
 41
0.0
 42
0.0
 43
0.0
 44
0.0
 45
0.0
 46
0.0
 47
0.0
 48
0.0
 49
0.0
140
0.0
141
0.0
142
1.0
143
1.0
 70
   688
 72
     0
 73
     0
 74
     5
  7

 75
    16
147
1.0
148
0.0
149
0.0
100
AcDbLayout
  1
Layout1
 70
     1
 71
     1
 10
0.0
 20
0.0
 11
12.0
 21
9.0
 12
0.0
 22
0.0
 32
0.0
 14
1.000000000000000E+20
 24
1.000000000000000E+20
 34
1.000000000000000E+20
 15
-1.000000000000000E+20
 25
-1.000000000000000E+20
 35
-1.000000000000000E+20
146
0.0
 13
0.0
 23
0.0
 33
0.0
 16
1.0
 26
0.0
 36
0.0
 17
0.0
 27
1.0
 37
0.0
 76
     0
330
1A
  0
LAYOUT
  5
21
102
{ACAD_REACTORS
330
19
102
}
330
19
100
AcDbPlotSettings
  1

  2
hp deskjet 980c series
  4

  6

 40
0.0
 41
0.0
 42
0.0
 43
0.0
 44
0.0
 45
0.0
 46
0.0
 47
0.0
 48
0.0
 49
0.0
140
0.0
141
0.0
142
1.0
143
1.0
 70
  1712
 72
     0
 73
     0
 74
     0
  7

 75
     0
147
1.0
148
0.0
149
0.0
100
AcDbLayout
  1
Model
 70
     1
 71
     0
 10
0.0
 20
0.0
 11
12.0
 21
9.0
 12
0.0
 22
0.0
 32
0.0
 14
0.0
 24
0.0
 34
0.0
 15
0.0
 25
0.0
 35
0.0
146
0.0
 13
0.0
 23
0.0
 33
0.0
 16
1.0
 26
0.0
 36
0.0
 17
0.0
 27
1.0
 37
0.0
 76
     0
330
1E
  0
MLINESTYLE
  5
17
102
{ACAD_REACTORS
330
16
102
}
330
16
100
AcDbMlineStyle
  2
STANDARD
 70
     0
  3

 62
   256
 51
90.0
 52
90.0
 71
     2
 49
0.5
 62
   256
  6
BYLAYER
 49
-0.5
 62
   256
  6
BYLAYER
  0
ACDBPLACEHOLDER
  5
F
102
{ACAD_REACTORS
330
E
102
}
330
E
  0
DICTIONARYVAR
  5
20E
102
{ACAD_REACTORS
330
20D
102
}
330
20D
100
DictionaryVariables
280
     0
  1
1
  0
ENDSEC
  0
EOF
