  0
SECTION
  2
HEADER
  9
$ACADVER
  1
AC1015
  9
$ACADMAINTVER
 70
    13
  9
$DWGCODEPAGE
  3
ANSI_1252
  9
$INSBASE
 10
0.0
 20
0.0
 30
0.0
  9
$EXTMIN
 10
-0.20314000000002
 20
228.85515
 30
0.0
  9
$EXTMAX
 10
260.20314
 20
1186.855149999999
 30
0.0
  9
$LIMMIN
 10
0.0
 20
0.0
  9
$LIMMAX
 10
12.0
 20
9.0
  9
$ORTHOMODE
 70
     0
  9
$REGENMODE
 70
     1
  9
$FILLMODE
 70
     1
  9
$QTEXTMODE
 70
     0
  9
$MIRRTEXT
 70
     1
  9
$LTSCALE
 40
1.0
  9
$ATTMODE
 70
     1
  9
$TEXTSIZE
 40
0.2
  9
$TRACEWID
 40
0.05
  9
$TEXTSTYLE
  7
Standard
  9
$CLAYER
  8
0
  9
$CELTYPE
  6
Continuous
  9
$CECOLOR
 62
   256
  9
$CELTSCALE
 40
1.0
  9
$DISPSILH
 70
     0
  9
$DIMSCALE
 40
1.0
  9
$DIMASZ
 40
0.18
  9
$DIMEXO
 40
0.0625
  9
$DIMDLI
 40
0.38
  9
$DIMRND
 40
0.0
  9
$DIMDLE
 40
0.0
  9
$DIMEXE
 40
0.18
  9
$DIMTP
 40
0.0
  9
$DIMTM
 40
0.0
  9
$DIMTXT
 40
0.18
  9
$DIMCEN
 40
0.09
  9
$DIMTSZ
 40
0.0
  9
$DIMTOL
 70
     0
  9
$DIMLIM
 70
     0
  9
$DIMTIH
 70
     1
  9
$DIMTOH
 70
     1
  9
$DIMSE1
 70
     0
  9
$DIMSE2
 70
     0
  9
$DIMTAD
 70
     0
  9
$DIMZIN
 70
     0
  9
$DIMBLK
  1

  9
$DIMASO
 70
     1
  9
$DIMSHO
 70
     1
  9
$DIMPOST
  1

  9
$DIMAPOST
  1

  9
$DIMALT
 70
     0
  9
$DIMALTD
 70
     2
  9
$DIMALTF
 40
25.4
  9
$DIMLFAC
 40
1.0
  9
$DIMTOFL
 70
     0
  9
$DIMTVP
 40
0.0
  9
$DIMTIX
 70
     0
  9
$DIMSOXD
 70
     0
  9
$DIMSAH
 70
     0
  9
$DIMBLK1
  1

  9
$DIMBLK2
  1

  9
$DIMSTYLE
  2
Standard
  9
$DIMCLRD
 70
     0
  9
$DIMCLRE
 70
     0
  9
$DIMCLRT
 70
     0
  9
$DIMTFAC
 40
1.0
  9
$DIMGAP
 40
0.09
  9
$DIMJUST
 70
     0
  9
$DIMSD1
 70
     0
  9
$DIMSD2
 70
     0
  9
$DIMTOLJ
 70
     1
  9
$DIMTZIN
 70
     0
  9
$DIMALTZ
 70
     0
  9
$DIMALTTZ
 70
     0
  9
$DIMUPT
 70
     0
  9
$DIMDEC
 70
     4
  9
$DIMTDEC
 70
     4
  9
$DIMALTU
 70
     2
  9
$DIMALTTD
 70
     2
  9
$DIMTXSTY
  7
Standard
  9
$DIMAUNIT
 70
     0
  9
$DIMADEC
 70
     0
  9
$DIMALTRND
 40
0.0
  9
$DIMAZIN
 70
     0
  9
$DIMDSEP
 70
    46
  9
$DIMATFIT
 70
     3
  9
$DIMFRAC
 70
     0
  9
$DIMLDRBLK
  1

  9
$DIMLUNIT
 70
     2
  9
$DIMLWD
 70
    -2
  9
$DIMLWE
 70
    -2
  9
$DIMTMOVE
 70
     0
  9
$LUNITS
 70
     2
  9
$LUPREC
 70
     4
  9
$SKETCHINC
 40
0.1
  9
$FILLETRAD
 40
0.0
  9
$AUNITS
 70
     0
  9
$AUPREC
 70
     0
  9
$MENU
  1
.
  9
$ELEVATION
 40
0.0
  9
$PELEVATION
 40
0.0
  9
$THICKNESS
 40
0.0
  9
$LIMCHECK
 70
     0
  9
$CHAMFERA
 40
0.0
  9
$CHAMFERB
 40
0.0
  9
$CHAMFERC
 40
0.0
  9
$CHAMFERD
 40
0.0
  9
$SKPOLY
 70
     0
  9
$TDCREATE
 40
2454738.877932939
  9
$TDUCREATE
 40
2454738.794599606
  9
$TDUPDATE
 40
2454738.882407222
  9
$TDUUPDATE
 40
2454738.799073889
  9
$TDINDWG
 40
0.0044742824
  9
$TDUSRTIMER
 40
0.0044742824
  9
$USRTIMER
 70
     1
  9
$ANGBASE
 50
0.0
  9
$ANGDIR
 70
     0
  9
$PDMODE
 70
     0
  9
$PDSIZE
 40
0.0
  9
$PLINEWID
 40
0.0
  9
$SPLFRAME
 70
     0
  9
$SPLINETYPE
 70
     6
  9
$SPLINESEGS
 70
     8
  9
$HANDSEED
  5
4DF
  9
$SURFTAB1
 70
     6
  9
$SURFTAB2
 70
     6
  9
$SURFTYPE
 70
     6
  9
$SURFU
 70
     6
  9
$SURFV
 70
     6
  9
$UCSBASE
  2

  9
$UCSNAME
  2

  9
$UCSORG
 10
0.0
 20
0.0
 30
0.0
  9
$UCSXDIR
 10
1.0
 20
0.0
 30
0.0
  9
$UCSYDIR
 10
0.0
 20
1.0
 30
0.0
  9
$UCSORTHOREF
  2

  9
$UCSORTHOVIEW
 70
     1
  9
$UCSORGTOP
 10
0.0
 20
0.0
 30
0.0
  9
$UCSORGBOTTOM
 10
0.0
 20
0.0
 30
0.0
  9
$UCSORGLEFT
 10
0.0
 20
0.0
 30
0.0
  9
$UCSORGRIGHT
 10
0.0
 20
0.0
 30
0.0
  9
$UCSORGFRONT
 10
0.0
 20
0.0
 30
0.0
  9
$UCSORGBACK
 10
0.0
 20
0.0
 30
0.0
  9
$PUCSBASE
  2

  9
$PUCSNAME
  2

  9
$PUCSORG
 10
0.0
 20
0.0
 30
0.0
  9
$PUCSXDIR
 10
1.0
 20
0.0
 30
0.0
  9
$PUCSYDIR
 10
0.0
 20
1.0
 30
0.0
  9
$PUCSORTHOREF
  2

  9
$PUCSORTHOVIEW
 70
     0
  9
$PUCSORGTOP
 10
0.0
 20
0.0
 30
0.0
  9
$PUCSORGBOTTOM
 10
0.0
 20
0.0
 30
0.0
  9
$PUCSORGLEFT
 10
0.0
 20
0.0
 30
0.0
  9
$PUCSORGRIGHT
 10
0.0
 20
0.0
 30
0.0
  9
$PUCSORGFRONT
 10
0.0
 20
0.0
 30
0.0
  9
$PUCSORGBACK
 10
0.0
 20
0.0
 30
0.0
  9
$USERI1
 70
     0
  9
$USERI2
 70
     0
  9
$USERI3
 70
     0
  9
$USERI4
 70
     0
  9
$USERI5
 70
     0
  9
$USERR1
 40
0.0
  9
$USERR2
 40
0.0
  9
$USERR3
 40
0.0
  9
$USERR4
 40
0.0
  9
$USERR5
 40
0.0
  9
$WORLDVIEW
 70
     1
  9
$SHADEDGE
 70
     3
  9
$SHADEDIF
 70
    70
  9
$TILEMODE
 70
     1
  9
$MAXACTVP
 70
    64
  9
$PINSBASE
 10
0.0
 20
0.0
 30
0.0
  9
$PLIMCHECK
 70
     0
  9
$PEXTMIN
 10
1.000000000000000E+20
 20
1.000000000000000E+20
 30
1.000000000000000E+20
  9
$PEXTMAX
 10
-1.000000000000000E+20
 20
-1.000000000000000E+20
 30
-1.000000000000000E+20
  9
$PLIMMIN
 10
0.0
 20
0.0
  9
$PLIMMAX
 10
12.0
 20
9.0
  9
$UNITMODE
 70
     0
  9
$VISRETAIN
 70
     1
  9
$PLINEGEN
 70
     0
  9
$PSLTSCALE
 70
     1
  9
$TREEDEPTH
 70
  3020
  9
$CMLSTYLE
  2
Standard
  9
$CMLJUST
 70
     0
  9
$CMLSCALE
 40
1.0
  9
$PROXYGRAPHICS
 70
     1
  9
$MEASUREMENT
 70
     0
  9
$CELWEIGHT
370
    -1
  9
$ENDCAPS
280
     0
  9
$JOINSTYLE
280
     0
  9
$LWDISPLAY
290
     0
  9
$INSUNITS
 70
     0
  9
$HYPERLINKBASE
  1

  9
$STYLESHEET
  1

  9
$XEDIT
290
     1
  9
$CEPSNTYPE
380
     0
  9
$PSTYLEMODE
290
     1
  9
$FINGERPRINTGUID
  2
{846E6368-4D76-464C-B55F-C82464817B57}
  9
$VERSIONGUID
  2
{4A631A6B-BB8A-42FB-AFA5-BD3ABCF564A5}
  9
$EXTNAMES
290
     1
  9
$PSVPSCALE
 40
0.0
  9
$OLESTARTUP
290
     0
  0
ENDSEC
  0
SECTION
  2
CLASSES
  0
CLASS
  1
ACDBDICTIONARYWDFLT
  2
AcDbDictionaryWithDefault
  3
AutoCAD 2000
 90
        0
280
     0
281
     0
  0
CLASS
  1
ACDBPLACEHOLDER
  2
AcDbPlaceHolder
  3
AutoCAD 2000
 90
        0
280
     0
281
     0
  0
CLASS
  1
LAYOUT
  2
AcDbLayout
  3
AutoCAD 2000
 90
        0
280
     0
281
     0
  0
CLASS
  1
DICTIONARYVAR
  2
AcDbDictionaryVar
  3
AutoCAD 2000
 90
        0
280
     0
281
     0
  0
ENDSEC
  0
SECTION
  2
TABLES
  0
TABLE
  2
VPORT
  5
8
330
0
100
AcDbSymbolTable
 70
     5
  0
VPORT
  5
4DE
330
8
100
AcDbSymbolTableRecord
100
AcDbViewportTableRecord
  2
*Active
 70
     0
 10
0.0
 20
0.0
 11
1.0
 21
1.0
 12
130.0
 22
707.8551499999999
 13
0.0
 23
0.0
 14
1.0
 24
1.0
 15
0.0
 25
0.0
 16
0.0
 26
0.0
 36
1.0
 17
0.0
 27
0.0
 37
0.0
 40
965.3503836317133
 41
2.078104993597951
 42
50.0
 43
0.0
 44
0.0
 50
0.0
 51
0.0
 71
     0
 72
   100
 73
     1
 74
     3
 75
     0
 76
     0
 77
     0
 78
     0
281
     0
 65
     1
110
0.0
120
0.0
130
0.0
111
1.0
121
0.0
131
0.0
112
0.0
122
1.0
132
0.0
 79
     1
146
0.0
  0
ENDTAB
  0
TABLE
  2
LTYPE
  5
5
330
0
100
AcDbSymbolTable
 70
     1
  0
LTYPE
  5
13
330
5
100
AcDbSymbolTableRecord
100
AcDbLinetypeTableRecord
  2
ByBlock
 70
     0
  3

 72
    65
 73
     0
 40
0.0
  0
LTYPE
  5
14
330
5
100
AcDbSymbolTableRecord
100
AcDbLinetypeTableRecord
  2
ByLayer
 70
     0
  3

 72
    65
 73
     0
 40
0.0
  0
LTYPE
  5
15
330
5
100
AcDbSymbolTableRecord
100
AcDbLinetypeTableRecord
  2
Continuous
 70
     0
  3
Solid line
 72
    65
 73
     0
 40
0.0
  0
ENDTAB
  0
TABLE
  2
LAYER
  5
2
330
0
100
AcDbSymbolTable
 70
     1
  0
LAYER
  5
10
330
2
100
AcDbSymbolTableRecord
100
AcDbLayerTableRecord
  2
0
 70
     0
 62
     7
  6
Continuous
370
    -3
390
F
  0
ENDTAB
  0
TABLE
  2
STYLE
  5
3
330
0
100
AcDbSymbolTable
 70
     1
  0
STYLE
  5
11
330
3
100
AcDbSymbolTableRecord
100
AcDbTextStyleTableRecord
  2
Standard
 70
     0
 40
0.0
 41
1.0
 50
0.0
 71
     0
 42
0.2
  3
txt
  4

  0
ENDTAB
  0
TABLE
  2
VIEW
  5
6
330
0
100
AcDbSymbolTable
 70
     0
  0
ENDTAB
  0
TABLE
  2
UCS
  5
7
330
0
100
AcDbSymbolTable
 70
     0
  0
ENDTAB
  0
TABLE
  2
APPID
  5
9
330
0
100
AcDbSymbolTable
 70
     1
  0
APPID
  5
12
330
9
100
AcDbSymbolTableRecord
100
AcDbRegAppTableRecord
  2
ACAD
 70
     0
  0
ENDTAB
  0
TABLE
  2
DIMSTYLE
  5
A
330
0
100
AcDbSymbolTable
 70
     1
100
AcDbDimStyleTable
 71
     0
  0
DIMSTYLE
105
4D1
330
A
100
AcDbSymbolTableRecord
100
AcDbDimStyleTableRecord
  2
Standard
 70
     0
340
11
  0
ENDTAB
  0
TABLE
  2
BLOCK_RECORD
  5
1
330
0
100
AcDbSymbolTable
 70
     0
  0
BLOCK_RECORD
  5
1E
330
1
100
AcDbSymbolTableRecord
100
AcDbBlockTableRecord
  2
*Model_Space
340
21
  0
BLOCK_RECORD
  5
1A
330
1
100
AcDbSymbolTableRecord
100
AcDbBlockTableRecord
  2
*Paper_Space
340
1D
  0
ENDTAB
  0
ENDSEC
  0
SECTION
  2
BLOCKS
  0
BLOCK
  5
1F
330
1E
100
AcDbEntity
  8
0
100
AcDbBlockBegin
  2
*Model_Space
 70
     0
 10
0.0
 20
0.0
 30
0.0
  3
*Model_Space
  1

  0
ENDBLK
  5
20
330
1E
100
AcDbEntity
  8
0
100
AcDbBlockEnd
  0
BLOCK
  5
1B
330
1A
100
AcDbEntity
 67
     1
  8
0
100
AcDbBlockBegin
  2
*Paper_Space
 70
     0
 10
0.0
 20
0.0
 30
0.0
  3
*Paper_Space
  1

  0
ENDBLK
  5
1C
330
1A
100
AcDbEntity
 67
     1
  8
0
100
AcDbBlockEnd
  0
ENDSEC
  0
SECTION
  2
ENTITIES
  0
LINE
  5
22
330
1E
100
AcDbEntity
  8
0
100
AcDbLine
 10
100.6031399999999
 20
328.85515
 30
0.0
 11
105.4031399999999
 21
328.85515
 31
0.0
  0
LINE
  5
23
330
1E
100
AcDbEntity
  8
0
100
AcDbLine
 10
96.60313999999999
 20
328.85515
 30
0.0
 11
100.6031399999999
 21
328.85515
 31
0.0
  0
LINE
  5
24
330
1E
100
AcDbEntity
  8
0
100
AcDbLine
 10
93.50314
 20
328.85515
 30
0.0
 11
96.60313999999999
 21
328.85515
 31
0.0
  0
LINE
  5
25
330
1E
100
AcDbEntity
  8
0
100
AcDbLine
 10
91.20314
 20
328.85515
 30
0.0
 11
93.50314
 21
328.85515
 31
0.0
  0
LINE
  5
26
330
1E
100
AcDbEntity
  8
0
100
AcDbLine
 10
89.80313999999991
 20
328.85515
 30
0.0
 11
91.20314
 21
328.85515
 31
0.0
  0
LINE
  5
27
330
1E
100
AcDbEntity
  8
0
100
AcDbLine
 10
89.2031399999999
 20
328.85515
 30
0.0
 11
89.80313999999991
 21
328.85515
 31
0.0
  0
LINE
  5
28
330
1E
100
AcDbEntity
  8
0
100
AcDbLine
 10
89.2031399999999
 20
328.85515
 30
0.0
 11
89.2031399999999
 21
351.85515
 31
0.0
  0
LINE
  5
29
330
1E
100
AcDbEntity
  8
0
100
AcDbLine
 10
105.4031399999999
 20
328.85515
 30
0.0
 11
110.8031399999999
 21
328.85515
 31
0.0
  0
LINE
  5
2A
330
1E
100
AcDbEntity
  8
0
100
AcDbLine
 10
110.8031399999999
 20
328.85515
 30
0.0
 11
116.8031399999999
 21
328.85515
 31
0.0
  0
LINE
  5
2B
330
1E
100
AcDbEntity
  8
0
100
AcDbLine
 10
116.8031399999999
 20
328.85515
 30
0.0
 11
123.2031399999999
 21
328.85515
 31
0.0
  0
LINE
  5
2C
330
1E
100
AcDbEntity
  8
0
100
AcDbLine
 10
123.2031399999999
 20
328.85515
 30
0.0
 11
130.0031399999999
 21
328.85515
 31
0.0
  0
LINE
  5
58
330
1E
100
AcDbEntity
  8
0
100
AcDbLine
 10
87.01674
 20
1086.179149999999
 30
0.0
 11
89.92704000000001
 21
1086.21815
 31
0.0
  0
LINE
  5
59
330
1E
100
AcDbEntity
  8
0
100
AcDbLine
 10
83.86343999999999
 20
1087.10415
 30
0.0
 11
87.01674
 21
1086.179149999999
 31
0.0
  0
LINE
  5
5A
330
1E
100
AcDbEntity
  8
0
100
AcDbLine
 10
81.05743999999999
 20
1088.42315
 30
0.0
 11
83.86343999999999
 21
1087.10415
 31
0.0
  0
LINE
  5
5B
330
1E
100
AcDbEntity
  8
0
100
AcDbLine
 10
78.46313999999999
 20
1089.73715
 30
0.0
 11
81.05743999999999
 21
1088.42315
 31
0.0
  0
LINE
  5
5C
330
1E
100
AcDbEntity
  8
0
100
AcDbLine
 10
3.687399999999982
 20
1141.382149999999
 30
0.0
 11
78.46313999999999
 21
1089.73715
 31
0.0
  0
LINE
  5
5E
330
1E
100
AcDbEntity
  8
0
100
AcDbLine
 10
88.89694
 20
1093.985149999999
 30
0.0
 11
91.20704000000001
 21
1092.36815
 31
0.0
  0
LINE
  5
5F
330
1E
100
AcDbEntity
  8
0
100
AcDbLine
 10
85.92244
 20
1095.78115
 30
0.0
 11
88.89694
 21
1093.985149999999
 31
0.0
  0
LINE
  5
60
330
1E
100
AcDbEntity
  8
0
100
AcDbLine
 10
84.2289049541463
 20
1096.881817453196
 30
0.0
 11
84.37554
 21
1097.09115
 31
0.0
  0
LINE
  5
61
330
1E
100
AcDbEntity
  8
0
100
AcDbLine
 10
84.2289049541463
 20
1096.881817453196
 30
0.0
 11
85.92244
 21
1095.78115
 31
0.0
  0
LINE
  5
14E
330
1E
100
AcDbEntity
  8
0
100
AcDbLine
 10
32.93283999999999
 20
1133.11215
 30
0.0
 11
43.41794
 21
1125.770149999999
 31
0.0
  0
LINE
  5
19F
330
1E
100
AcDbEntity
  8
0
100
AcDbLine
 10
33.38344
 20
1133.40715
 30
0.0
 11
43.70474
 21
1126.18015
 31
0.0
  0
LINE
  5
296
330
1E
100
AcDbEntity
  8
0
100
AcDbLine
 10
53.90314
 20
1118.429149999999
 30
0.0
 11
63.81484
 21
1111.48815
 31
0.0
  0
LINE
  5
297
330
1E
100
AcDbEntity
  8
0
100
AcDbLine
 10
43.41794
 20
1125.770149999999
 30
0.0
 11
53.90314
 21
1118.429149999999
 31
0.0
  0
LINE
  5
2AA
330
1E
100
AcDbEntity
  8
0
100
AcDbLine
 10
54.02604
 20
1118.95315
 30
0.0
 11
63.69204
 21
1112.185149999999
 31
0.0
  0
LINE
  5
2AB
330
1E
100
AcDbEntity
  8
0
100
AcDbLine
 10
43.70474
 20
1126.18015
 30
0.0
 11
54.02604
 21
1118.95315
 31
0.0
  0
LINE
  5
30C
330
1E
100
AcDbEntity
  8
0
100
AcDbLine
 10
63.81484
 20
1111.48815
 30
0.0
 11
72.33404
 21
1105.52315
 31
0.0
  0
LINE
  5
30D
330
1E
100
AcDbEntity
  8
0
100
AcDbLine
 10
63.69204
 20
1112.185149999999
 30
0.0
 11
72.04744000000001
 21
1106.33415
 31
0.0
  0
LINE
  5
30E
330
1E
100
AcDbEntity
  8
0
100
AcDbLine
 10
64.38844
 20
1112.30715
 30
0.0
 11
72.90764
 21
1106.34215
 31
0.0
  0
LINE
  5
30F
330
1E
100
AcDbEntity
  8
0
100
AcDbLine
 10
54.47674
 20
1119.248149999999
 30
0.0
 11
64.38844
 21
1112.30715
 31
0.0
  0
LINE
  5
310
330
1E
100
AcDbEntity
  8
0
100
AcDbLine
 10
43.99154
 20
1126.58915
 30
0.0
 11
54.47674
 21
1119.248149999999
 31
0.0
  0
LINE
  5
311
330
1E
100
AcDbEntity
  8
0
100
AcDbLine
 10
33.50644
 20
1133.931149999999
 30
0.0
 11
43.99154
 21
1126.58915
 31
0.0
  0
LINE
  5
31B
330
1E
100
AcDbEntity
  8
0
100
AcDbLine
 10
23.02113999999999
 20
1140.05215
 30
0.0
 11
32.93283999999999
 21
1133.11215
 31
0.0
  0
LINE
  5
31F
330
1E
100
AcDbEntity
  8
0
100
AcDbLine
 10
23.71744
 20
1140.17515
 30
0.0
 11
33.38344
 21
1133.40715
 31
0.0
  0
LINE
  5
321
330
1E
100
AcDbEntity
  8
0
100
AcDbLine
 10
78.88724
 20
1100.93415
 30
0.0
 11
82.90114
 21
1098.12415
 31
0.0
  0
LINE
  5
322
330
1E
100
AcDbEntity
  8
0
100
AcDbLine
 10
72.33404
 20
1105.52315
 30
0.0
 11
78.88724
 21
1100.93415
 31
0.0
  0
LINE
  5
323
330
1E
100
AcDbEntity
  8
0
100
AcDbLine
 10
72.04744000000001
 20
1106.33415
 30
0.0
 11
78.43684
 21
1101.86015
 31
0.0
  0
LINE
  5
324
330
1E
100
AcDbEntity
  8
0
100
AcDbLine
 10
78.43684
 20
1101.86015
 30
0.0
 11
82.36874
 21
1099.10715
 31
0.0
  0
LINE
  5
325
330
1E
100
AcDbEntity
  8
0
100
AcDbLine
 10
72.90764
 20
1106.34215
 30
0.0
 11
79.46084
 21
1101.75415
 31
0.0
  0
LINE
  5
326
330
1E
100
AcDbEntity
  8
0
100
AcDbLine
 10
79.46084
 20
1101.75415
 30
0.0
 11
83.47464
 21
1098.943149999999
 31
0.0
  0
LINE
  5
327
330
1E
100
AcDbEntity
  8
0
100
AcDbLine
 10
82.90114
 20
1098.12415
 30
0.0
 11
84.37554
 21
1097.09115
 31
0.0
  0
LINE
  5
328
330
1E
100
AcDbEntity
  8
0
100
AcDbLine
 10
82.36874
 20
1099.10715
 30
0.0
 11
83.84324000000001
 21
1098.07515
 31
0.0
  0
LINE
  5
329
330
1E
100
AcDbEntity
  8
0
100
AcDbLine
 10
83.47464
 20
1098.943149999999
 30
0.0
 11
84.94913999999999
 21
1097.91115
 31
0.0
  0
LINE
  5
32B
330
1E
100
AcDbEntity
  8
0
100
AcDbLine
 10
77.46984000000001
 20
1131.991149999999
 30
0.0
 11
89.02214
 21
1122.13115
 31
0.0
  0
LINE
  5
32E
330
1E
100
AcDbEntity
  8
0
100
AcDbLine
 10
0.9843699999999808
 20
1144.496149999999
 30
0.0
 11
2.745459999999979
 21
1142.652149999999
 31
0.0
  0
LINE
  5
32F
330
1E
100
AcDbEntity
  8
0
100
AcDbLine
 10
0.9843699999999808
 20
1144.496149999999
 30
0.0
 11
2.745459999999979
 21
1142.652149999999
 31
0.0
  0
LINE
  5
330
330
1E
100
AcDbEntity
  8
0
100
AcDbLine
 10
2.745459999999979
 20
1142.652149999999
 30
0.0
 11
3.687399999999979
 21
1141.382149999999
 31
0.0
  0
LINE
  5
331
330
1E
100
AcDbEntity
  8
0
100
AcDbLine
 10
14.50193999999999
 20
1146.018149999999
 30
0.0
 11
23.02113999999999
 21
1140.05215
 31
0.0
  0
LINE
  5
334
330
1E
100
AcDbEntity
  8
0
100
AcDbLine
 10
15.36214
 20
1146.02615
 30
0.0
 11
23.71744
 21
1140.17515
 31
0.0
  0
LINE
  5
335
330
1E
100
AcDbEntity
  8
0
100
AcDbLine
 10
23.59464
 20
1140.87215
 30
0.0
 11
33.50644
 21
1133.931149999999
 31
0.0
  0
LINE
  5
336
330
1E
100
AcDbEntity
  8
0
100
AcDbLine
 10
-0.20314000000002
 20
1147.158149999999
 30
0.0
 11
0.0020699999999808
 21
1150.067149999999
 31
0.0
  0
LINE
  5
337
330
1E
100
AcDbEntity
  8
0
100
AcDbLine
 10
-0.20314000000002
 20
1147.158149999999
 30
0.0
 11
0.9843699999999808
 21
1144.496149999999
 31
0.0
  0
LINE
  5
338
330
1E
100
AcDbEntity
  8
0
100
AcDbLine
 10
-0.20314000000002
 20
1147.158149999999
 30
0.0
 11
0.0020699999999808
 21
1150.067149999999
 31
0.0
  0
LINE
  5
339
330
1E
100
AcDbEntity
  8
0
100
AcDbLine
 10
0.0020699999999808
 20
1150.067149999999
 30
0.0
 11
1.026429999999979
 21
1152.40115
 31
0.0
  0
LINE
  5
33A
330
1E
100
AcDbEntity
  8
0
100
AcDbLine
 10
3.934849999999979
 20
1153.417149999999
 30
0.0
 11
7.948739999999981
 21
1150.60615
 31
0.0
  0
LINE
  5
33B
330
1E
100
AcDbEntity
  8
0
100
AcDbLine
 10
1.026429999999979
 20
1152.40115
 30
0.0
 11
2.46037999999998
 21
1154.44915
 31
0.0
  0
LINE
  5
33C
330
1E
100
AcDbEntity
  8
0
100
AcDbLine
 10
0.0020699999999808
 20
1150.067149999999
 30
0.0
 11
1.026429999999979
 21
1152.40115
 31
0.0
  0
LINE
  5
33D
330
1E
100
AcDbEntity
  8
0
100
AcDbLine
 10
-0.20314000000002
 20
1147.158149999999
 30
0.0
 11
0.9843699999999808
 21
1144.496149999999
 31
0.0
  0
LINE
  5
33E
330
1E
100
AcDbEntity
  8
0
100
AcDbLine
 10
2.46037999999998
 20
1154.44915
 30
0.0
 11
3.566319999999979
 21
1154.28515
 31
0.0
  0
LINE
  5
33F
330
1E
100
AcDbEntity
  8
0
100
AcDbLine
 10
2.46037999999998
 20
1154.44915
 30
0.0
 11
3.934849999999979
 21
1153.417149999999
 31
0.0
  0
LINE
  5
340
330
1E
100
AcDbEntity
  8
0
100
AcDbLine
 10
3.566319999999979
 20
1154.28515
 30
0.0
 11
5.040789999999979
 21
1153.25315
 31
0.0
  0
LINE
  5
341
330
1E
100
AcDbEntity
  8
0
100
AcDbLine
 10
7.948739999999981
 20
1150.60615
 30
0.0
 11
14.50193999999999
 21
1146.018149999999
 31
0.0
  0
LINE
  5
342
330
1E
100
AcDbEntity
  8
0
100
AcDbLine
 10
8.97273999999998
 20
1150.500149999999
 30
0.0
 11
15.36214
 21
1146.02615
 31
0.0
  0
LINE
  5
343
330
1E
100
AcDbEntity
  8
0
100
AcDbLine
 10
5.040789999999979
 20
1153.25315
 30
0.0
 11
8.97273999999998
 21
1150.500149999999
 31
0.0
  0
LINE
  5
344
330
1E
100
AcDbEntity
  8
0
100
AcDbLine
 10
8.52223999999998
 20
1151.42515
 30
0.0
 11
15.07544
 21
1146.837149999999
 31
0.0
  0
LINE
  5
345
330
1E
100
AcDbEntity
  8
0
100
AcDbLine
 10
4.50842999999998
 20
1154.23615
 30
0.0
 11
8.52223999999998
 21
1151.42515
 31
0.0
  0
LINE
  5
346
330
1E
100
AcDbEntity
  8
0
100
AcDbLine
 10
3.033949999999979
 20
1155.268149999999
 30
0.0
 11
9.056539999999991
 21
1163.86915
 31
0.0
  0
LINE
  5
347
330
1E
100
AcDbEntity
  8
0
100
AcDbLine
 10
3.033949999999979
 20
1155.268149999999
 30
0.0
 11
3.566319999999979
 21
1154.28515
 31
0.0
  0
LINE
  5
348
330
1E
100
AcDbEntity
  8
0
100
AcDbLine
 10
3.033949999999979
 20
1155.268149999999
 30
0.0
 11
4.50842999999998
 21
1154.23615
 31
0.0
  0
LINE
  5
349
330
1E
100
AcDbEntity
  8
0
100
AcDbLine
 10
15.07544
 20
1146.837149999999
 30
0.0
 11
23.59464
 21
1140.87215
 31
0.0
  0
LINE
  5
34A
330
1E
100
AcDbEntity
  8
0
100
AcDbLine
 10
53.89104
 20
1149.44515
 30
0.0
 11
58.04414000000001
 21
1146.65915
 31
0.0
  0
LINE
  5
34B
330
1E
100
AcDbEntity
  8
0
100
AcDbLine
 10
49.68054
 20
1152.14915
 30
0.0
 11
53.89104
 21
1149.44515
 31
0.0
  0
LINE
  5
34C
330
1E
100
AcDbEntity
  8
0
100
AcDbLine
 10
43.54504
 20
1155.59015
 30
0.0
 11
49.68054
 21
1152.14915
 31
0.0
  0
LINE
  5
34D
330
1E
100
AcDbEntity
  8
0
100
AcDbLine
 10
38.05654
 20
1158.21315
 30
0.0
 11
43.54504
 21
1155.59015
 31
0.0
  0
LINE
  5
34E
330
1E
100
AcDbEntity
  8
0
100
AcDbLine
 10
33.38714
 20
1160.261149999999
 30
0.0
 11
38.05654
 21
1158.21315
 31
0.0
  0
LINE
  5
34F
330
1E
100
AcDbEntity
  8
0
100
AcDbLine
 10
26.50594
 20
1162.63815
 30
0.0
 11
33.38714
 21
1160.261149999999
 31
0.0
  0
LINE
  5
350
330
1E
100
AcDbEntity
  8
0
100
AcDbLine
 10
19.74754
 20
1164.31815
 30
0.0
 11
26.50594
 21
1162.63815
 31
0.0
  0
LINE
  5
351
330
1E
100
AcDbEntity
  8
0
100
AcDbLine
 10
14.62743999999999
 20
1164.85215
 30
0.0
 11
19.74754
 21
1164.31815
 31
0.0
  0
LINE
  5
352
330
1E
100
AcDbEntity
  8
0
100
AcDbLine
 10
10.03963999999999
 20
1164.402149999999
 30
0.0
 11
14.62743999999999
 21
1164.85215
 31
0.0
  0
LINE
  5
353
330
1E
100
AcDbEntity
  8
0
100
AcDbLine
 10
9.056539999999991
 20
1163.86915
 30
0.0
 11
10.03963999999999
 21
1164.402149999999
 31
0.0
  0
LINE
  5
354
330
1E
100
AcDbEntity
  8
0
100
AcDbLine
 10
58.04414000000001
 20
1146.65915
 30
0.0
 11
62.08254
 21
1143.70915
 31
0.0
  0
LINE
  5
35B
330
1E
100
AcDbEntity
  8
0
100
AcDbLine
 10
85.1790563657712
 20
1098.358508067435
 30
0.0
 11
85.69884
 21
1097.97415
 31
0.0
  0
LINE
  5
35C
330
1E
100
AcDbEntity
  8
0
100
AcDbLine
 10
85.69884
 20
1097.97415
 30
0.0
 11
94.55984
 21
1090.096149999999
 31
0.0
  0
LINE
  5
35D
330
1E
100
AcDbEntity
  8
0
100
AcDbLine
 10
83.84324000000001
 20
1098.07515
 30
0.0
 11
84.94913999999999
 21
1097.91115
 31
0.0
  0
LINE
  5
35E
330
1E
100
AcDbEntity
  8
0
100
AcDbLine
 10
83.84324000000001
 20
1098.07515
 30
0.0
 11
84.37554
 21
1097.09115
 31
0.0
  0
LINE
  5
35F
330
1E
100
AcDbEntity
  8
0
100
AcDbLine
 10
84.94913999999999
 20
1097.91115
 30
0.0
 11
85.22819689101408
 21
1098.322170722295
 31
0.0
  0
LINE
  5
360
330
1E
100
AcDbEntity
  8
0
100
AcDbLine
 10
116.8031399999999
 20
351.85515
 30
0.0
 11
123.2031399999999
 21
351.85515
 31
0.0
  0
LINE
  5
361
330
1E
100
AcDbEntity
  8
0
100
AcDbLine
 10
123.2031399999999
 20
351.85515
 30
0.0
 11
130.0031399999999
 21
351.85515
 31
0.0
  0
LINE
  5
362
330
1E
100
AcDbEntity
  8
0
100
AcDbLine
 10
105.4031399999999
 20
351.85515
 30
0.0
 11
110.8031399999999
 21
351.85515
 31
0.0
  0
LINE
  5
363
330
1E
100
AcDbEntity
  8
0
100
AcDbLine
 10
110.8031399999999
 20
351.85515
 30
0.0
 11
116.8031399999999
 21
351.85515
 31
0.0
  0
LINE
  5
364
330
1E
100
AcDbEntity
  8
0
100
AcDbLine
 10
110.8031399999999
 20
351.85515
 30
0.0
 11
112.00314
 21
351.85515
 31
0.0
  0
LINE
  5
365
330
1E
100
AcDbEntity
  8
0
100
AcDbLine
 10
130.0031399999999
 20
351.85515
 30
0.0
 11
137.00314
 21
351.85515
 31
0.0
  0
LINE
  5
366
330
1E
100
AcDbEntity
  8
0
100
AcDbLine
 10
137.00314
 20
351.85515
 30
0.0
 11
144.2031399999999
 21
351.85515
 31
0.0
  0
LINE
  5
367
330
1E
100
AcDbEntity
  8
0
100
AcDbLine
 10
100.6031399999999
 20
351.85515
 30
0.0
 11
105.4031399999999
 21
351.85515
 31
0.0
  0
LINE
  5
368
330
1E
100
AcDbEntity
  8
0
100
AcDbLine
 10
96.60313999999999
 20
351.85515
 30
0.0
 11
100.6031399999999
 21
351.85515
 31
0.0
  0
LINE
  5
369
330
1E
100
AcDbEntity
  8
0
100
AcDbLine
 10
93.50314
 20
351.85515
 30
0.0
 11
96.60313999999999
 21
351.85515
 31
0.0
  0
LINE
  5
36A
330
1E
100
AcDbEntity
  8
0
100
AcDbLine
 10
91.20314
 20
351.85515
 30
0.0
 11
93.50314
 21
351.85515
 31
0.0
  0
LINE
  5
36B
330
1E
100
AcDbEntity
  8
0
100
AcDbLine
 10
94.04583999999999
 20
1088.64215
 30
0.0
 11
94.35923999999999
 21
1089.80215
 31
0.0
  0
LINE
  5
36C
330
1E
100
AcDbEntity
  8
0
100
AcDbLine
 10
92.98773999999999
 20
1091.121149999999
 30
0.0
 11
94.35923999999999
 21
1089.80215
 31
0.0
  0
LINE
  5
36D
330
1E
100
AcDbEntity
  8
0
100
AcDbLine
 10
92.43524
 20
1087.00115
 30
0.0
 11
94.04583999999999
 21
1088.64215
 31
0.0
  0
LINE
  5
36E
330
1E
100
AcDbEntity
  8
0
100
AcDbLine
 10
91.20704000000001
 20
1092.36815
 30
0.0
 11
92.98773999999999
 21
1091.121149999999
 31
0.0
  0
LINE
  5
36F
330
1E
100
AcDbEntity
  8
0
100
AcDbLine
 10
89.92704000000001
 20
1086.21815
 30
0.0
 11
92.43524
 21
1087.00115
 31
0.0
  0
LINE
  5
373
330
1E
100
AcDbEntity
  8
0
100
AcDbLine
 10
107.2321399999999
 20
1106.10015
 30
0.0
 11
116.32914
 21
1097.57215
 31
0.0
  0
LINE
  5
374
330
1E
100
AcDbEntity
  8
0
100
AcDbLine
 10
94.55984
 20
1090.096149999999
 30
0.0
 11
103.02814
 21
1082.087149999999
 31
0.0
  0
LINE
  5
375
330
1E
100
AcDbEntity
  8
0
100
AcDbLine
 10
103.02814
 20
1082.087149999999
 30
0.0
 11
111.3701399999999
 21
1073.48315
 31
0.0
  0
LINE
  5
376
330
1E
100
AcDbEntity
  8
0
100
AcDbLine
 10
116.32914
 20
1097.57215
 30
0.0
 11
125.9391399999999
 21
1088.37115
 31
0.0
  0
LINE
  5
377
330
1E
100
AcDbEntity
  8
0
100
AcDbLine
 10
111.3701399999999
 20
1073.48315
 30
0.0
 11
121.7411399999999
 21
1061.839149999999
 31
0.0
  0
LINE
  5
378
330
1E
100
AcDbEntity
  8
0
100
AcDbLine
 10
125.9391399999999
 20
1088.37115
 30
0.0
 11
138.1901399999999
 21
1076.14415
 31
0.0
  0
LINE
  5
379
330
1E
100
AcDbEntity
  8
0
100
AcDbLine
 10
121.7411399999999
 20
1061.839149999999
 30
0.0
 11
132.14014
 21
1048.91115
 31
0.0
  0
LINE
  5
37A
330
1E
100
AcDbEntity
  8
0
100
AcDbLine
 10
132.14014
 20
1048.91115
 30
0.0
 11
142.3971399999999
 21
1034.79315
 31
0.0
  0
LINE
  5
37B
330
1E
100
AcDbEntity
  8
0
100
AcDbLine
 10
89.80313999999991
 20
351.85515
 30
0.0
 11
91.20314
 21
351.85515
 31
0.0
  0
LINE
  5
37C
330
1E
100
AcDbEntity
  8
0
100
AcDbLine
 10
89.2031399999999
 20
351.85515
 30
0.0
 11
89.2031399999999
 21
328.85515
 31
0.0
  0
LINE
  5
37D
330
1E
100
AcDbEntity
  8
0
100
AcDbLine
 10
89.2031399999999
 20
351.85515
 30
0.0
 11
89.80313999999991
 21
351.85515
 31
0.0
  0
LINE
  5
37E
330
1E
100
AcDbEntity
  8
0
100
AcDbLine
 10
130.0031399999999
 20
328.85515
 30
0.0
 11
137.00314
 21
328.85515
 31
0.0
  0
LINE
  5
37F
330
1E
100
AcDbEntity
  8
0
100
AcDbLine
 10
183.00314
 20
328.85515
 30
0.0
 11
187.8031399999999
 21
328.85515
 31
0.0
  0
LINE
  5
380
330
1E
100
AcDbEntity
  8
0
100
AcDbLine
 10
187.8031399999999
 20
328.85515
 30
0.0
 11
191.8031399999999
 21
328.85515
 31
0.0
  0
LINE
  5
381
330
1E
100
AcDbEntity
  8
0
100
AcDbLine
 10
191.8031399999999
 20
328.85515
 30
0.0
 11
194.9031399999999
 21
328.85515
 31
0.0
  0
LINE
  5
382
330
1E
100
AcDbEntity
  8
0
100
AcDbLine
 10
194.9031399999999
 20
328.85515
 30
0.0
 11
198.4031399999999
 21
328.85515
 31
0.0
  0
LINE
  5
383
330
1E
100
AcDbEntity
  8
0
100
AcDbLine
 10
205.70314
 20
228.85515
 30
0.0
 11
206.10314
 21
228.85515
 31
0.0
  0
LINE
  5
384
330
1E
100
AcDbEntity
  8
0
100
AcDbLine
 10
206.10314
 20
228.85515
 30
0.0
 11
207.1031399999999
 21
228.85515
 31
0.0
  0
LINE
  5
385
330
1E
100
AcDbEntity
  8
0
100
AcDbLine
 10
207.1031399999999
 20
228.85515
 30
0.0
 11
208.8031399999999
 21
228.85515
 31
0.0
  0
LINE
  5
386
330
1E
100
AcDbEntity
  8
0
100
AcDbLine
 10
208.8031399999999
 20
228.85515
 30
0.0
 11
211.00314
 21
228.85515
 31
0.0
  0
LINE
  5
387
330
1E
100
AcDbEntity
  8
0
100
AcDbLine
 10
211.00314
 20
228.85515
 30
0.0
 11
213.5031399999999
 21
228.85515
 31
0.0
  0
LINE
  5
388
330
1E
100
AcDbEntity
  8
0
100
AcDbLine
 10
236.5921399999999
 20
290.6531499999999
 30
0.0
 11
238.9841399999999
 21
291.6041499999999
 31
0.0
  0
LINE
  5
389
330
1E
100
AcDbEntity
  8
0
100
AcDbLine
 10
233.68614
 20
290.1448499999999
 30
0.0
 11
236.5921399999999
 21
290.6531499999999
 31
0.0
  0
LINE
  5
38A
330
1E
100
AcDbEntity
  8
0
100
AcDbLine
 10
230.5431399999999
 20
290.2737499999999
 30
0.0
 11
233.68614
 21
290.1448499999999
 31
0.0
  0
LINE
  5
38B
330
1E
100
AcDbEntity
  8
0
100
AcDbLine
 10
240.41314
 20
292.9779499999999
 30
0.0
 11
240.67614
 21
294.5197499999999
 31
0.0
  0
LINE
  5
38C
330
1E
100
AcDbEntity
  8
0
100
AcDbLine
 10
238.9841399999999
 20
291.6041499999999
 30
0.0
 11
240.41314
 21
292.9779499999999
 31
0.0
  0
LINE
  5
38D
330
1E
100
AcDbEntity
  8
0
100
AcDbLine
 10
227.7441399999999
 20
290.9764499999999
 30
0.0
 11
230.5431399999999
 21
290.2737499999999
 31
0.0
  0
LINE
  5
38E
330
1E
100
AcDbEntity
  8
0
100
AcDbLine
 10
225.8041399999999
 20
292.15265
 30
0.0
 11
227.7441399999999
 21
290.9764499999999
 31
0.0
  0
LINE
  5
38F
330
1E
100
AcDbEntity
  8
0
100
AcDbLine
 10
239.64614
 20
295.9473499999999
 30
0.0
 11
240.67614
 21
294.5197499999999
 31
0.0
  0
LINE
  5
390
330
1E
100
AcDbEntity
  8
0
100
AcDbLine
 10
237.7101399999999
 20
297.1234499999999
 30
0.0
 11
239.64614
 21
295.9473499999999
 31
0.0
  0
LINE
  5
391
330
1E
100
AcDbEntity
  8
0
100
AcDbLine
 10
234.9161399999999
 20
297.82725
 30
0.0
 11
237.7101399999999
 21
297.1234499999999
 31
0.0
  0
LINE
  5
392
330
1E
100
AcDbEntity
  8
0
100
AcDbLine
 10
231.7731399999999
 20
297.95835
 30
0.0
 11
234.9161399999999
 21
297.82725
 31
0.0
  0
LINE
  5
393
330
1E
100
AcDbEntity
  8
0
100
AcDbLine
 10
228.8631399999999
 20
297.4531499999999
 30
0.0
 11
231.7731399999999
 21
297.95835
 31
0.0
  0
LINE
  5
394
330
1E
100
AcDbEntity
  8
0
100
AcDbLine
 10
226.4681399999999
 20
296.5010499999999
 30
0.0
 11
228.8631399999999
 21
297.4531499999999
 31
0.0
  0
LINE
  5
395
330
1E
100
AcDbEntity
  8
0
100
AcDbLine
 10
225.03514
 20
295.1273499999999
 30
0.0
 11
226.4681399999999
 21
296.5010499999999
 31
0.0
  0
LINE
  5
396
330
1E
100
AcDbEntity
  8
0
100
AcDbLine
 10
224.7701399999999
 20
293.5823499999999
 30
0.0
 11
225.8041399999999
 21
292.15265
 31
0.0
  0
LINE
  5
397
330
1E
100
AcDbEntity
  8
0
100
AcDbLine
 10
224.7701399999999
 20
293.5823499999999
 30
0.0
 11
225.03514
 21
295.1273499999999
 31
0.0
  0
LINE
  5
398
330
1E
100
AcDbEntity
  8
0
100
AcDbLine
 10
213.5031399999999
 20
228.85515
 30
0.0
 11
216.20314
 21
228.85515
 31
0.0
  0
LINE
  5
399
330
1E
100
AcDbEntity
  8
0
100
AcDbLine
 10
216.20314
 20
228.85515
 30
0.0
 11
240.5435121759009
 21
228.85515
 31
0.0
  0
LINE
  5
39A
330
1E
100
AcDbEntity
  8
0
100
AcDbLine
 10
240.5435121759009
 20
228.85515
 30
0.0
 11
259.70314
 21
228.85515
 31
0.0
  0
LINE
  5
39B
330
1E
100
AcDbEntity
  8
0
100
AcDbLine
 10
205.60314
 20
229.3551499999999
 30
0.0
 11
206.7031399999999
 21
229.3551499999999
 31
0.0
  0
LINE
  5
39C
330
1E
100
AcDbEntity
  8
0
100
AcDbLine
 10
206.7031399999999
 20
229.3551499999999
 30
0.0
 11
208.4031399999999
 21
229.3551499999999
 31
0.0
  0
LINE
  5
39D
330
1E
100
AcDbEntity
  8
0
100
AcDbLine
 10
205.60314
 20
280.3551499999999
 30
0.0
 11
206.7031399999999
 21
280.3551499999999
 31
0.0
  0
LINE
  5
39E
330
1E
100
AcDbEntity
  8
0
100
AcDbLine
 10
208.4031399999999
 20
229.3551499999999
 30
0.0
 11
210.7031399999999
 21
229.3551499999999
 31
0.0
  0
LINE
  5
39F
330
1E
100
AcDbEntity
  8
0
100
AcDbLine
 10
210.7031399999999
 20
229.3551499999999
 30
0.0
 11
213.40314
 21
229.3551499999999
 31
0.0
  0
LINE
  5
3A0
330
1E
100
AcDbEntity
  8
0
100
AcDbLine
 10
206.7031399999999
 20
280.3551499999999
 30
0.0
 11
208.4031399999999
 21
280.3551499999999
 31
0.0
  0
LINE
  5
3A1
330
1E
100
AcDbEntity
  8
0
100
AcDbLine
 10
208.4031399999999
 20
280.3551499999999
 30
0.0
 11
210.7031399999999
 21
280.3551499999999
 31
0.0
  0
LINE
  5
3A2
330
1E
100
AcDbEntity
  8
0
100
AcDbLine
 10
213.40314
 20
229.3551499999999
 30
0.0
 11
216.20314
 21
229.3551499999999
 31
0.0
  0
LINE
  5
3A3
330
1E
100
AcDbEntity
  8
0
100
AcDbLine
 10
216.20314
 20
229.3551499999999
 30
0.0
 11
240.543216574261
 21
229.3551499999999
 31
0.0
  0
LINE
  5
3A4
330
1E
100
AcDbEntity
  8
0
100
AcDbLine
 10
216.20314
 20
229.3551499999999
 30
0.0
 11
240.543216574261
 21
229.3551499999999
 31
0.0
  0
LINE
  5
3A5
330
1E
100
AcDbEntity
  8
0
100
AcDbLine
 10
210.7031399999999
 20
280.3551499999999
 30
0.0
 11
213.40314
 21
280.3551499999999
 31
0.0
  0
LINE
  5
3A6
330
1E
100
AcDbEntity
  8
0
100
AcDbLine
 10
213.40314
 20
280.3551499999999
 30
0.0
 11
216.20314
 21
280.3551499999999
 31
0.0
  0
LINE
  5
3A7
330
1E
100
AcDbEntity
  8
0
100
AcDbLine
 10
240.543216574261
 20
229.3551499999999
 30
0.0
 11
260.20314
 21
229.3551499999999
 31
0.0
  0
LINE
  5
3A8
330
1E
100
AcDbEntity
  8
0
100
AcDbLine
 10
260.20314
 20
229.3551499999999
 30
0.0
 11
260.20314
 21
280.3551499999999
 31
0.0
  0
LINE
  5
3A9
330
1E
100
AcDbEntity
  8
0
100
AcDbLine
 10
240.543216574261
 20
229.3551499999999
 30
0.0
 11
260.20314
 21
229.3551499999999
 31
0.0
  0
LINE
  5
3AA
330
1E
100
AcDbEntity
  8
0
100
AcDbLine
 10
260.20314
 20
280.3551499999999
 30
0.0
 11
260.20314
 21
229.3551499999999
 31
0.0
  0
LINE
  5
3AB
330
1E
100
AcDbEntity
  8
0
100
AcDbLine
 10
224.5569542511809
 20
280.3551499999999
 30
0.0
 11
260.20314
 21
280.3551499999999
 31
0.0
  0
LINE
  5
3AC
330
1E
100
AcDbEntity
  8
0
100
AcDbLine
 10
216.20314
 20
280.3551499999999
 30
0.0
 11
224.5569542511809
 21
280.3551499999999
 31
0.0
  0
LINE
  5
3AD
330
1E
100
AcDbEntity
  8
0
100
AcDbLine
 10
259.70314
 20
228.85515
 30
0.0
 11
260.20314
 21
229.3551499999999
 31
0.0
  0
LINE
  5
3AE
330
1E
100
AcDbEntity
  8
0
100
AcDbLine
 10
205.2031399999999
 20
229.3551499999999
 30
0.0
 11
205.2031399999999
 21
280.3551499999999
 31
0.0
  0
LINE
  5
3AF
330
1E
100
AcDbEntity
  8
0
100
AcDbLine
 10
205.2031399999999
 20
229.3551499999999
 30
0.0
 11
205.70314
 21
228.85515
 31
0.0
  0
LINE
  5
3B0
330
1E
100
AcDbEntity
  8
0
100
AcDbLine
 10
205.2031399999999
 20
229.3551499999999
 30
0.0
 11
205.60314
 21
229.3551499999999
 31
0.0
  0
LINE
  5
3B1
330
1E
100
AcDbEntity
  8
0
100
AcDbLine
 10
205.70314
 20
280.8551499999999
 30
0.0
 11
206.10314
 21
280.8551499999999
 31
0.0
  0
LINE
  5
3B2
330
1E
100
AcDbEntity
  8
0
100
AcDbLine
 10
206.10314
 20
280.8551499999999
 30
0.0
 11
207.1031399999999
 21
280.8551499999999
 31
0.0
  0
LINE
  5
3B3
330
1E
100
AcDbEntity
  8
0
100
AcDbLine
 10
207.1031399999999
 20
280.8551499999999
 30
0.0
 11
208.8031399999999
 21
280.8551499999999
 31
0.0
  0
LINE
  5
3B4
330
1E
100
AcDbEntity
  8
0
100
AcDbLine
 10
208.8031399999999
 20
280.8551499999999
 30
0.0
 11
211.00314
 21
280.8551499999999
 31
0.0
  0
LINE
  5
3B5
330
1E
100
AcDbEntity
  8
0
100
AcDbLine
 10
211.00314
 20
280.8551499999999
 30
0.0
 11
213.5031399999999
 21
280.8551499999999
 31
0.0
  0
LINE
  5
3B6
330
1E
100
AcDbEntity
  8
0
100
AcDbLine
 10
205.2031399999999
 20
328.85515
 30
0.0
 11
205.2031399999999
 21
351.85515
 31
0.0
  0
LINE
  5
3B7
330
1E
100
AcDbEntity
  8
0
100
AcDbLine
 10
205.2031399999999
 20
328.85515
 30
0.0
 11
211.2031399999999
 21
328.85515
 31
0.0
  0
LINE
  5
3B8
330
1E
100
AcDbEntity
  8
0
100
AcDbLine
 10
205.2031399999999
 20
281.35515
 30
0.0
 11
205.2031399999999
 21
922.802455840995
 31
0.0
  0
LINE
  5
3B9
330
1E
100
AcDbEntity
  8
0
100
AcDbLine
 10
205.60314
 20
281.3551499999999
 30
0.0
 11
206.7031399999999
 21
281.3551499999999
 31
0.0
  0
LINE
  5
3BA
330
1E
100
AcDbEntity
  8
0
100
AcDbLine
 10
206.7031399999999
 20
281.3551499999999
 30
0.0
 11
208.4031399999999
 21
281.3551499999999
 31
0.0
  0
LINE
  5
3BB
330
1E
100
AcDbEntity
  8
0
100
AcDbLine
 10
208.4031399999999
 20
281.3551499999999
 30
0.0
 11
210.7031399999999
 21
281.3551499999999
 31
0.0
  0
LINE
  5
3BC
330
1E
100
AcDbEntity
  8
0
100
AcDbLine
 10
216.20314
 20
281.3551499999999
 30
0.0
 11
219.00314
 21
281.3551499999999
 31
0.0
  0
LINE
  5
3BD
330
1E
100
AcDbEntity
  8
0
100
AcDbLine
 10
210.7031399999999
 20
281.3551499999999
 30
0.0
 11
213.40314
 21
281.3551499999999
 31
0.0
  0
LINE
  5
3BE
330
1E
100
AcDbEntity
  8
0
100
AcDbLine
 10
216.20314
 20
328.85515
 30
0.0
 11
219.53114
 21
328.85515
 31
0.0
  0
LINE
  5
3BF
330
1E
100
AcDbEntity
  8
0
100
AcDbLine
 10
216.20314
 20
328.85515
 30
0.0
 11
219.0191399999999
 21
328.85515
 31
0.0
  0
LINE
  5
3C0
330
1E
100
AcDbEntity
  8
0
100
AcDbLine
 10
211.2031399999999
 20
328.85515
 30
0.0
 11
216.20314
 21
328.85515
 31
0.0
  0
LINE
  5
3C1
330
1E
100
AcDbEntity
  8
0
100
AcDbLine
 10
213.40314
 20
281.3551499999999
 30
0.0
 11
216.20314
 21
281.3551499999999
 31
0.0
  0
LINE
  5
3C2
330
1E
100
AcDbEntity
  8
0
100
AcDbLine
 10
205.2031399999999
 20
281.3551499999999
 30
0.0
 11
205.70314
 21
280.8551499999999
 31
0.0
  0
LINE
  5
3C3
330
1E
100
AcDbEntity
  8
0
100
AcDbLine
 10
205.2031399999999
 20
281.3551499999999
 30
0.0
 11
205.60314
 21
281.3551499999999
 31
0.0
  0
LINE
  5
3C4
330
1E
100
AcDbEntity
  8
0
100
AcDbLine
 10
205.2031399999999
 20
281.35515
 30
0.0
 11
205.2031399999999
 21
922.802455840995
 31
0.0
  0
LINE
  5
3C5
330
1E
100
AcDbEntity
  8
0
100
AcDbLine
 10
213.5031399999999
 20
280.8551499999999
 30
0.0
 11
216.20314
 21
280.8551499999999
 31
0.0
  0
LINE
  5
3C6
330
1E
100
AcDbEntity
  8
0
100
AcDbLine
 10
259.70314
 20
280.8551499999999
 30
0.0
 11
260.20314
 21
280.3551499999999
 31
0.0
  0
LINE
  5
3C7
330
1E
100
AcDbEntity
  8
0
100
AcDbLine
 10
224.0031399999999
 20
281.3551499999999
 30
0.0
 11
224.556183995763
 21
281.3551499999999
 31
0.0
  0
LINE
  5
3C8
330
1E
100
AcDbEntity
  8
0
100
AcDbLine
 10
219.0191399999999
 20
328.85515
 30
0.0
 11
221.6591399999999
 21
328.85515
 31
0.0
  0
LINE
  5
3C9
330
1E
100
AcDbEntity
  8
0
100
AcDbLine
 10
224.0031399999999
 20
328.85515
 30
0.0
 11
224.519596863397
 21
328.85515
 31
0.0
  0
LINE
  5
3CA
330
1E
100
AcDbEntity
  8
0
100
AcDbLine
 10
221.6591399999999
 20
328.85515
 30
0.0
 11
223.9911399999999
 21
328.85515
 31
0.0
  0
LINE
  5
3CB
330
1E
100
AcDbEntity
  8
0
100
AcDbLine
 10
222.65114
 20
328.85515
 30
0.0
 11
224.519596863397
 21
328.85515
 31
0.0
  0
LINE
  5
3CC
330
1E
100
AcDbEntity
  8
0
100
AcDbLine
 10
219.53114
 20
328.85515
 30
0.0
 11
222.65114
 21
328.85515
 31
0.0
  0
LINE
  5
3CD
330
1E
100
AcDbEntity
  8
0
100
AcDbLine
 10
221.7031399999999
 20
281.3551499999999
 30
0.0
 11
224.0031399999999
 21
281.3551499999999
 31
0.0
  0
LINE
  5
3CE
330
1E
100
AcDbEntity
  8
0
100
AcDbLine
 10
219.00314
 20
281.3551499999999
 30
0.0
 11
221.7031399999999
 21
281.3551499999999
 31
0.0
  0
LINE
  5
3CF
330
1E
100
AcDbEntity
  8
0
100
AcDbLine
 10
224.5565691234719
 20
280.8551499999999
 30
0.0
 11
259.70314
 21
280.8551499999999
 31
0.0
  0
LINE
  5
3D0
330
1E
100
AcDbEntity
  8
0
100
AcDbLine
 10
216.20314
 20
280.8551499999999
 30
0.0
 11
224.5565691234719
 21
280.8551499999999
 31
0.0
  0
LINE
  5
3D1
330
1E
100
AcDbEntity
  8
0
100
AcDbLine
 10
205.2031399999999
 20
280.3551499999999
 30
0.0
 11
205.70314
 21
280.8551499999999
 31
0.0
  0
LINE
  5
3D2
330
1E
100
AcDbEntity
  8
0
100
AcDbLine
 10
205.2031399999999
 20
280.3551499999999
 30
0.0
 11
205.60314
 21
280.3551499999999
 31
0.0
  0
LINE
  5
3D3
330
1E
100
AcDbEntity
  8
0
100
AcDbLine
 10
205.2031399999999
 20
280.3551499999999
 30
0.0
 11
205.2031399999999
 21
229.3551499999999
 31
0.0
  0
LINE
  5
3D4
330
1E
100
AcDbEntity
  8
0
100
AcDbLine
 10
198.4031399999999
 20
328.85515
 30
0.0
 11
202.2031399999999
 21
328.85515
 31
0.0
  0
LINE
  5
3D5
330
1E
100
AcDbEntity
  8
0
100
AcDbLine
 10
202.2031399999999
 20
328.85515
 30
0.0
 11
202.2031399999999
 21
351.85515
 31
0.0
  0
LINE
  5
3D6
330
1E
100
AcDbEntity
  8
0
100
AcDbLine
 10
202.2031399999999
 20
328.85515
 30
0.0
 11
205.2031399999999
 21
328.85515
 31
0.0
  0
LINE
  5
3D7
330
1E
100
AcDbEntity
  8
0
100
AcDbLine
 10
202.2031399999999
 20
328.85515
 30
0.0
 11
216.20314
 21
328.85515
 31
0.0
  0
LINE
  5
3D8
330
1E
100
AcDbEntity
  8
0
100
AcDbLine
 10
177.6031399999999
 20
328.85515
 30
0.0
 11
183.00314
 21
328.85515
 31
0.0
  0
LINE
  5
3D9
330
1E
100
AcDbEntity
  8
0
100
AcDbLine
 10
171.60314
 20
328.85515
 30
0.0
 11
177.6031399999999
 21
328.85515
 31
0.0
  0
LINE
  5
3DA
330
1E
100
AcDbEntity
  8
0
100
AcDbLine
 10
165.20314
 20
328.85515
 30
0.0
 11
171.60314
 21
328.85515
 31
0.0
  0
LINE
  5
3DB
330
1E
100
AcDbEntity
  8
0
100
AcDbLine
 10
158.4031399999999
 20
328.85515
 30
0.0
 11
165.20314
 21
328.85515
 31
0.0
  0
LINE
  5
3DC
330
1E
100
AcDbEntity
  8
0
100
AcDbLine
 10
151.4031399999999
 20
328.85515
 30
0.0
 11
158.4031399999999
 21
328.85515
 31
0.0
  0
LINE
  5
3DD
330
1E
100
AcDbEntity
  8
0
100
AcDbLine
 10
177.6031399999999
 20
351.85515
 30
0.0
 11
183.00314
 21
351.85515
 31
0.0
  0
LINE
  5
3DE
330
1E
100
AcDbEntity
  8
0
100
AcDbLine
 10
171.60314
 20
351.85515
 30
0.0
 11
177.6031399999999
 21
351.85515
 31
0.0
  0
LINE
  5
3DF
330
1E
100
AcDbEntity
  8
0
100
AcDbLine
 10
165.20314
 20
351.85515
 30
0.0
 11
171.60314
 21
351.85515
 31
0.0
  0
LINE
  5
3E0
330
1E
100
AcDbEntity
  8
0
100
AcDbLine
 10
158.4031399999999
 20
351.85515
 30
0.0
 11
165.20314
 21
351.85515
 31
0.0
  0
LINE
  5
3E1
330
1E
100
AcDbEntity
  8
0
100
AcDbLine
 10
151.4031399999999
 20
351.85515
 30
0.0
 11
158.4031399999999
 21
351.85515
 31
0.0
  0
LINE
  5
3E2
330
1E
100
AcDbEntity
  8
0
100
AcDbLine
 10
144.2031399999999
 20
351.85515
 30
0.0
 11
151.4031399999999
 21
351.85515
 31
0.0
  0
LINE
  5
3E3
330
1E
100
AcDbEntity
  8
0
100
AcDbLine
 10
183.00314
 20
351.85515
 30
0.0
 11
187.8031399999999
 21
351.85515
 31
0.0
  0
LINE
  5
3E4
330
1E
100
AcDbEntity
  8
0
100
AcDbLine
 10
187.8031399999999
 20
351.85515
 30
0.0
 11
191.8031399999999
 21
351.85515
 31
0.0
  0
LINE
  5
3E5
330
1E
100
AcDbEntity
  8
0
100
AcDbLine
 10
191.8031399999999
 20
351.85515
 30
0.0
 11
194.9031399999999
 21
351.85515
 31
0.0
  0
LINE
  5
3E6
330
1E
100
AcDbEntity
  8
0
100
AcDbLine
 10
194.9031399999999
 20
351.85515
 30
0.0
 11
198.4031399999999
 21
351.85515
 31
0.0
  0
LINE
  5
3E7
330
1E
100
AcDbEntity
  8
0
100
AcDbLine
 10
174.19214
 20
986.2991500000001
 30
0.0
 11
174.5671399999999
 21
986.5151499999999
 31
0.0
  0
LINE
  5
3EA
330
1E
100
AcDbEntity
  8
0
100
AcDbLine
 10
173.6431399999999
 20
986.6751500000001
 30
0.0
 11
174.19214
 21
986.2991500000001
 31
0.0
  0
LINE
  5
3ED
330
1E
100
AcDbEntity
  8
0
100
AcDbLine
 10
138.1901399999999
 20
1076.14415
 30
0.0
 11
150.14414
 21
1063.28515
 31
0.0
  0
LINE
  5
3EE
330
1E
100
AcDbEntity
  8
0
100
AcDbLine
 10
150.14414
 20
1063.28515
 30
0.0
 11
162.6021399999999
 21
1048.63815
 31
0.0
  0
LINE
  5
3EF
330
1E
100
AcDbEntity
  8
0
100
AcDbLine
 10
142.3971399999999
 20
1034.79315
 30
0.0
 11
153.7311399999999
 21
1017.56815
 31
0.0
  0
LINE
  5
3F0
330
1E
100
AcDbEntity
  8
0
100
AcDbLine
 10
162.6021399999999
 20
1048.63815
 30
0.0
 11
174.97914
 21
1032.55315
 31
0.0
  0
LINE
  5
3F1
330
1E
100
AcDbEntity
  8
0
100
AcDbLine
 10
153.7311399999999
 20
1017.56815
 30
0.0
 11
162.54914
 21
1004.04015
 31
0.0
  0
LINE
  5
3F2
330
1E
100
AcDbEntity
  8
0
100
AcDbLine
 10
162.54914
 20
1004.04015
 30
0.0
 11
171.44314
 21
990.4851499999999
 31
0.0
  0
LINE
  5
3F3
330
1E
100
AcDbEntity
  8
0
100
AcDbLine
 10
174.97914
 20
1032.55315
 30
0.0
 11
184.10914
 21
1018.57215
 31
0.0
  0
LINE
  5
3F4
330
1E
100
AcDbEntity
  8
0
100
AcDbLine
 10
171.44314
 20
990.4851499999999
 30
0.0
 11
173.6431399999999
 21
986.6751500000001
 31
0.0
  0
LINE
  5
3F8
330
1E
100
AcDbEntity
  8
0
100
AcDbLine
 10
184.10914
 20
1018.57215
 30
0.0
 11
193.9601399999999
 21
1003.48515
 31
0.0
  0
LINE
  5
3FF
330
1E
100
AcDbEntity
  8
0
100
AcDbLine
 10
196.1481399999999
 20
998.97515
 30
0.0
 11
196.33514
 21
999.08315
 31
0.0
  0
LINE
  5
400
330
1E
100
AcDbEntity
  8
0
100
AcDbLine
 10
195.6491399999999
 20
998.6871499999999
 30
0.0
 11
196.1481399999999
 21
998.97515
 31
0.0
  0
LINE
  5
401
330
1E
100
AcDbEntity
  8
0
100
AcDbLine
 10
194.8381399999999
 20
998.21915
 30
0.0
 11
195.6491399999999
 21
998.6871499999999
 31
0.0
  0
LINE
  5
402
330
1E
100
AcDbEntity
  8
0
100
AcDbLine
 10
174.5671399999999
 20
986.5151499999999
 30
0.0
 11
194.8381399999999
 21
998.21915
 31
0.0
  0
LINE
  5
405
330
1E
100
AcDbEntity
  8
0
100
AcDbLine
 10
196.1601399999999
 20
999.67515
 30
0.0
 11
196.33514
 21
999.08315
 31
0.0
  0
LINE
  5
406
330
1E
100
AcDbEntity
  8
0
100
AcDbLine
 10
193.9601399999999
 20
1003.48515
 30
0.0
 11
196.1601399999999
 21
999.67515
 31
0.0
  0
LINE
  5
40D
330
1E
100
AcDbEntity
  8
0
100
AcDbLine
 10
174.5671399999999
 20
986.5151499999999
 30
0.0
 11
196.4861399999999
 21
948.5651500000001
 31
0.0
  0
LINE
  5
40F
330
1E
100
AcDbEntity
  8
0
100
AcDbLine
 10
196.4861399999999
 20
948.5651500000001
 30
0.0
 11
197.7541399999999
 21
949.2981499999999
 31
0.0
  0
LINE
  5
410
330
1E
100
AcDbEntity
  8
0
100
AcDbLine
 10
196.4861399999999
 20
948.5651500000001
 30
0.0
 11
207.56714
 21
929.37215
 31
0.0
  0
LINE
  5
411
330
1E
100
AcDbEntity
  8
0
100
AcDbLine
 10
200.6141399999999
 20
927.85515
 30
0.0
 11
203.43814
 21
924.16415
 31
0.0
  0
LINE
  5
412
330
1E
100
AcDbEntity
  8
0
100
AcDbLine
 10
200.9681399999999
 20
940.1851500000001
 30
0.0
 11
208.86914
 21
917.3891499999999
 31
0.0
  0
LINE
  5
413
330
1E
100
AcDbEntity
  8
0
100
AcDbLine
 10
200.006333080213
 20
942.467950668845
 30
0.0
 11
200.9681399999999
 21
940.1851500000001
 31
0.0
  0
LINE
  5
414
330
1E
100
AcDbEntity
  8
0
100
AcDbLine
 10
199.939639157756
 20
942.583468803825
 30
0.0
 11
200.9681399999999
 21
940.1851500000001
 31
0.0
  0
LINE
  5
415
330
1E
100
AcDbEntity
  8
0
100
AcDbLine
 10
198.78914
 20
941.5171499999999
 30
0.0
 11
199.537136816519
 21
943.28062857599
 31
0.0
  0
LINE
  5
417
330
1E
100
AcDbEntity
  8
0
100
AcDbLine
 10
198.20814
 20
936.77515
 30
0.0
 11
198.83014
 21
932.1461499999999
 31
0.0
  0
LINE
  5
418
330
1E
100
AcDbEntity
  8
0
100
AcDbLine
 10
198.20814
 20
936.77515
 30
0.0
 11
198.78914
 21
941.5171499999999
 31
0.0
  0
LINE
  5
41A
330
1E
100
AcDbEntity
  8
0
100
AcDbLine
 10
198.83014
 20
932.1461499999999
 30
0.0
 11
200.6141399999999
 21
927.85515
 31
0.0
  0
LINE
  5
41C
330
1E
100
AcDbEntity
  8
0
100
AcDbLine
 10
197.7541399999999
 20
949.2981499999999
 30
0.0
 11
200.2841399999999
 21
950.75815
 31
0.0
  0
LINE
  5
41E
330
1E
100
AcDbEntity
  8
0
100
AcDbLine
 10
200.2841399999999
 20
950.75815
 30
0.0
 11
203.1481399999999
 21
952.4121499999999
 31
0.0
  0
LINE
  5
420
330
1E
100
AcDbEntity
  8
0
100
AcDbLine
 10
196.223571478898
 20
999.0187147043901
 30
0.0
 11
218.1361399999999
 21
961.0651500000001
 31
0.0
  0
LINE
  5
421
330
1E
100
AcDbEntity
  8
0
100
AcDbLine
 10
196.223571478898
 20
999.0187147043901
 30
0.0
 11
196.33514
 21
999.08315
 31
0.0
  0
LINE
  5
422
330
1E
100
AcDbEntity
  8
0
100
AcDbLine
 10
198.4031399999999
 20
351.85515
 30
0.0
 11
202.2031399999999
 21
351.85515
 31
0.0
  0
LINE
  5
423
330
1E
100
AcDbEntity
  8
0
100
AcDbLine
 10
211.2031399999999
 20
351.85515
 30
0.0
 11
216.20314
 21
351.85515
 31
0.0
  0
LINE
  5
424
330
1E
100
AcDbEntity
  8
0
100
AcDbLine
 10
205.2031399999999
 20
351.85515
 30
0.0
 11
205.2031399999999
 21
328.85515
 31
0.0
  0
LINE
  5
425
330
1E
100
AcDbEntity
  8
0
100
AcDbLine
 10
205.2031399999999
 20
351.85515
 30
0.0
 11
211.2031399999999
 21
351.85515
 31
0.0
  0
LINE
  5
426
330
1E
100
AcDbEntity
  8
0
100
AcDbLine
 10
219.0191399999999
 20
351.85515
 30
0.0
 11
221.6591399999999
 21
351.85515
 31
0.0
  0
LINE
  5
427
330
1E
100
AcDbEntity
  8
0
100
AcDbLine
 10
221.6591399999999
 20
351.85515
 30
0.0
 11
223.9911399999999
 21
351.85515
 31
0.0
  0
LINE
  5
428
330
1E
100
AcDbEntity
  8
0
100
AcDbLine
 10
219.53114
 20
351.85515
 30
0.0
 11
222.65114
 21
351.85515
 31
0.0
  0
LINE
  5
429
330
1E
100
AcDbEntity
  8
0
100
AcDbLine
 10
216.20314
 20
351.85515
 30
0.0
 11
219.53114
 21
351.85515
 31
0.0
  0
LINE
  5
42A
330
1E
100
AcDbEntity
  8
0
100
AcDbLine
 10
216.20314
 20
351.85515
 30
0.0
 11
219.0191399999999
 21
351.85515
 31
0.0
  0
LINE
  5
42B
330
1E
100
AcDbEntity
  8
0
100
AcDbLine
 10
222.65114
 20
351.85515
 30
0.0
 11
224.5018809887779
 21
351.85515
 31
0.0
  0
LINE
  5
42C
330
1E
100
AcDbEntity
  8
0
100
AcDbLine
 10
222.5671399999999
 20
847.08815
 30
0.0
 11
224.3681399999999
 21
815.48715
 31
0.0
  0
LINE
  5
42D
330
1E
100
AcDbEntity
  8
0
100
AcDbLine
 10
219.66814
 20
868.78515
 30
0.0
 11
222.5671399999999
 21
847.08815
 31
0.0
  0
LINE
  5
42E
330
1E
100
AcDbEntity
  8
0
100
AcDbLine
 10
215.0691399999999
 20
892.99215
 30
0.0
 11
219.66814
 21
868.78515
 31
0.0
  0
LINE
  5
42F
330
1E
100
AcDbEntity
  8
0
100
AcDbLine
 10
208.86914
 20
917.3891499999999
 30
0.0
 11
215.0691399999999
 21
892.99215
 31
0.0
  0
LINE
  5
430
330
1E
100
AcDbEntity
  8
0
100
AcDbLine
 10
224.0031399999999
 20
351.85515
 30
0.0
 11
224.5018809887779
 21
351.85515
 31
0.0
  0
LINE
  5
431
330
1E
100
AcDbEntity
  8
0
100
AcDbLine
 10
227.2031399999999
 20
908.6282411764711
 30
0.0
 11
227.2031399999999
 21
922.829735219525
 31
0.0
  0
LINE
  5
432
330
1E
100
AcDbEntity
  8
0
100
AcDbLine
 10
224.3681399999999
 20
815.48715
 30
0.0
 11
224.556183995763
 21
281.3551499999999
 31
0.0
  0
LINE
  5
433
330
1E
100
AcDbEntity
  8
0
100
AcDbLine
 10
224.3681399999999
 20
815.48715
 30
0.0
 11
224.556183995763
 21
281.3551499999999
 31
0.0
  0
LINE
  5
434
330
1E
100
AcDbEntity
  8
0
100
AcDbLine
 10
223.989685967248
 20
920.77698768735
 30
0.0
 11
225.2031399999999
 21
921.26715
 31
0.0
  0
LINE
  5
435
330
1E
100
AcDbEntity
  8
0
100
AcDbLine
 10
207.1361399999999
 20
921.31115
 30
0.0
 11
207.574309683527
 21
921.125000132174
 31
0.0
  0
LINE
  5
437
330
1E
100
AcDbEntity
  8
0
100
AcDbLine
 10
203.43814
 20
924.16415
 30
0.0
 11
207.1361399999999
 21
921.31115
 31
0.0
  0
LINE
  5
438
330
1E
100
AcDbEntity
  8
0
100
AcDbLine
 10
222.7681399999999
 20
925.3951499999999
 30
0.0
 11
229.5681399999999
 21
899.6871499999999
 31
0.0
  0
LINE
  5
43A
330
1E
100
AcDbEntity
  8
0
100
AcDbLine
 10
225.2031399999999
 20
921.26715
 30
0.0
 11
228.8701399999999
 21
924.1321499999999
 31
0.0
  0
LINE
  5
43B
330
1E
100
AcDbEntity
  8
0
100
AcDbLine
 10
228.8701399999999
 20
924.1321499999999
 30
0.0
 11
231.74714
 21
927.7881499999999
 31
0.0
  0
LINE
  5
43C
330
1E
100
AcDbEntity
  8
0
100
AcDbLine
 10
210.7841399999999
 20
931.28115
 30
0.0
 11
212.1651399999999
 21
933.1091499999999
 31
0.0
  0
LINE
  5
43D
330
1E
100
AcDbEntity
  8
0
100
AcDbLine
 10
212.1651399999999
 20
933.1091499999999
 30
0.0
 11
214.09714
 21
934.95915
 31
0.0
  0
LINE
  5
43E
330
1E
100
AcDbEntity
  8
0
100
AcDbLine
 10
208.2831399999999
 20
931.06015
 30
0.0
 11
210.0191399999999
 21
933.8971499999999
 31
0.0
  0
LINE
  5
440
330
1E
100
AcDbEntity
  8
0
100
AcDbLine
 10
210.0191399999999
 20
933.8971499999999
 30
0.0
 11
212.3911399999999
 21
936.4021499999999
 31
0.0
  0
LINE
  5
444
330
1E
100
AcDbEntity
  8
0
100
AcDbLine
 10
218.421737528942
 20
937.548931216247
 30
0.0
 11
222.7681399999999
 21
925.3951499999999
 31
0.0
  0
LINE
  5
446
330
1E
100
AcDbEntity
  8
0
100
AcDbLine
 10
221.4931399999999
 20
938.43215
 30
0.0
 11
224.02014
 21
938.6461500000001
 31
0.0
  0
LINE
  5
448
330
1E
100
AcDbEntity
  8
0
100
AcDbLine
 10
218.88414
 20
937.7551499999999
 30
0.0
 11
221.4931399999999
 21
938.43215
 31
0.0
  0
LINE
  5
449
330
1E
100
AcDbEntity
  8
0
100
AcDbLine
 10
216.33914
 20
936.62015
 30
0.0
 11
218.88414
 21
937.7551499999999
 31
0.0
  0
LINE
  5
44A
330
1E
100
AcDbEntity
  8
0
100
AcDbLine
 10
214.09714
 20
934.95915
 30
0.0
 11
216.33914
 21
936.62015
 31
0.0
  0
LINE
  5
44B
330
1E
100
AcDbEntity
  8
0
100
AcDbLine
 10
221.7511399999999
 20
940.91415
 30
0.0
 11
225.15714
 21
940.85815
 31
0.0
  0
LINE
  5
44C
330
1E
100
AcDbEntity
  8
0
100
AcDbLine
 10
218.4631399999999
 20
939.9961499999999
 30
0.0
 11
221.7511399999999
 21
940.91415
 31
0.0
  0
LINE
  5
44E
330
1E
100
AcDbEntity
  8
0
100
AcDbLine
 10
215.2031399999999
 20
938.58715
 30
0.0
 11
218.4631399999999
 21
939.9961499999999
 31
0.0
  0
LINE
  5
450
330
1E
100
AcDbEntity
  8
0
100
AcDbLine
 10
212.3911399999999
 20
936.4021499999999
 30
0.0
 11
215.2031399999999
 21
938.58715
 31
0.0
  0
LINE
  5
452
330
1E
100
AcDbEntity
  8
0
100
AcDbLine
 10
207.56714
 20
929.37215
 30
0.0
 11
210.7841399999999
 21
931.28115
 31
0.0
  0
LINE
  5
453
330
1E
100
AcDbEntity
  8
0
100
AcDbLine
 10
207.56714
 20
929.37215
 30
0.0
 11
208.2831399999999
 21
931.06015
 31
0.0
  0
LINE
  5
457
330
1E
100
AcDbEntity
  8
0
100
AcDbLine
 10
226.1711399999999
 20
938.38515
 30
0.0
 11
227.72314
 21
937.7771499999999
 31
0.0
  0
LINE
  5
459
330
1E
100
AcDbEntity
  8
0
100
AcDbLine
 10
224.02014
 20
938.6461500000001
 30
0.0
 11
226.1711399999999
 21
938.38515
 31
0.0
  0
LINE
  5
45D
330
1E
100
AcDbEntity
  8
0
100
AcDbLine
 10
227.2031399999999
 20
950.878022811816
 30
0.0
 11
228.92614
 21
949.5221499999999
 31
0.0
  0
LINE
  5
45E
330
1E
100
AcDbEntity
  8
0
100
AcDbLine
 10
227.2031399999999
 20
950.878022811816
 30
0.0
 11
227.2031399999999
 21
1134.355149999999
 31
0.0
  0
LINE
  5
460
330
1E
100
AcDbEntity
  8
0
100
AcDbLine
 10
225.15714
 20
940.85815
 30
0.0
 11
227.96414
 21
940.4051500000001
 31
0.0
  0
LINE
  5
462
330
1E
100
AcDbEntity
  8
0
100
AcDbLine
 10
227.72314
 20
937.7771499999999
 30
0.0
 11
228.7561399999999
 21
936.76615
 31
0.0
  0
LINE
  5
465
330
1E
100
AcDbEntity
  8
0
100
AcDbLine
 10
227.96414
 20
940.4051500000001
 30
0.0
 11
229.9631399999999
 21
939.5891500000001
 31
0.0
  0
LINE
  5
467
330
1E
100
AcDbEntity
  8
0
100
AcDbLine
 10
228.92614
 20
949.5221499999999
 30
0.0
 11
231.7921399999999
 21
945.85515
 31
0.0
  0
LINE
  5
468
330
1E
100
AcDbEntity
  8
0
100
AcDbLine
 10
228.7561399999999
 20
936.76615
 30
0.0
 11
228.9801399999999
 21
935.59915
 31
0.0
  0
LINE
  5
46A
330
1E
100
AcDbEntity
  8
0
100
AcDbLine
 10
228.55114
 20
934.2631499999999
 30
0.0
 11
228.9801399999999
 21
935.59915
 31
0.0
  0
LINE
  5
46C
330
1E
100
AcDbEntity
  8
0
100
AcDbLine
 10
227.34814
 20
932.88215
 30
0.0
 11
228.55114
 21
934.2631499999999
 31
0.0
  0
LINE
  5
46E
330
1E
100
AcDbEntity
  8
0
100
AcDbLine
 10
225.6301399999999
 20
931.26715
 30
0.0
 11
227.34814
 21
932.88215
 31
0.0
  0
LINE
  5
46F
330
1E
100
AcDbEntity
  8
0
100
AcDbLine
 10
225.6301399999999
 20
931.26715
 30
0.0
 11
227.1221399999999
 21
931.6121500000001
 31
0.0
  0
LINE
  5
470
330
1E
100
AcDbEntity
  8
0
100
AcDbLine
 10
223.5401399999999
 20
929.69015
 30
0.0
 11
225.6301399999999
 21
931.26715
 31
0.0
  0
LINE
  5
471
330
1E
100
AcDbEntity
  8
0
100
AcDbLine
 10
221.661867900228
 20
928.4886023794781
 30
0.0
 11
223.5401399999999
 21
929.69015
 31
0.0
  0
LINE
  5
472
330
1E
100
AcDbEntity
  8
0
100
AcDbLine
 10
229.5681399999999
 20
899.6871499999999
 30
0.0
 11
234.66814
 21
874.29015
 31
0.0
  0
LINE
  5
473
330
1E
100
AcDbEntity
  8
0
100
AcDbLine
 10
231.74714
 20
927.7881499999999
 30
0.0
 11
233.6121399999999
 21
932.19015
 31
0.0
  0
LINE
  5
474
330
1E
100
AcDbEntity
  8
0
100
AcDbLine
 10
240.3681399999999
 20
815.4911499999998
 30
0.0
 11
240.67614
 21
280.8551499999999
 31
0.0
  0
LINE
  5
475
330
1E
100
AcDbEntity
  8
0
100
AcDbLine
 10
240.3681399999999
 20
815.4911499999998
 30
0.0
 11
240.67614
 21
280.8551499999999
 31
0.0
  0
LINE
  5
476
330
1E
100
AcDbEntity
  8
0
100
AcDbLine
 10
238.3681399999999
 20
849.8921499999999
 30
0.0
 11
240.3681399999999
 21
815.4911499999998
 31
0.0
  0
LINE
  5
477
330
1E
100
AcDbEntity
  8
0
100
AcDbLine
 10
234.66814
 20
874.29015
 30
0.0
 11
238.3681399999999
 21
849.8921499999999
 31
0.0
  0
LINE
  5
478
330
1E
100
AcDbEntity
  8
0
100
AcDbLine
 10
233.6121399999999
 20
932.19015
 30
0.0
 11
234.1981399999999
 21
936.93515
 31
0.0
  0
LINE
  5
47A
330
1E
100
AcDbEntity
  8
0
100
AcDbLine
 10
229.9631399999999
 20
939.5891500000001
 30
0.0
 11
231.2681399999999
 21
938.32015
 31
0.0
  0
LINE
  5
47C
330
1E
100
AcDbEntity
  8
0
100
AcDbLine
 10
233.5341399999999
 20
941.5401499999999
 30
0.0
 11
234.1981399999999
 21
936.93515
 31
0.0
  0
LINE
  5
47D
330
1E
100
AcDbEntity
  8
0
100
AcDbLine
 10
231.7921399999999
 20
945.85515
 30
0.0
 11
233.5341399999999
 21
941.5401499999999
 31
0.0
  0
LINE
  5
47E
330
1E
100
AcDbEntity
  8
0
100
AcDbLine
 10
231.2681399999999
 20
938.32015
 30
0.0
 11
231.62414
 21
936.71115
 31
0.0
  0
LINE
  5
47F
330
1E
100
AcDbEntity
  8
0
100
AcDbLine
 10
231.0401399999999
 20
935.07815
 30
0.0
 11
231.62414
 21
936.71115
 31
0.0
  0
LINE
  5
480
330
1E
100
AcDbEntity
  8
0
100
AcDbLine
 10
229.4991399999999
 20
933.3381499999999
 30
0.0
 11
231.0401399999999
 21
935.07815
 31
0.0
  0
LINE
  5
481
330
1E
100
AcDbEntity
  8
0
100
AcDbLine
 10
229.453006773146
 20
933.3046514936679
 30
0.0
 11
229.4991399999999
 21
933.3381499999999
 31
0.0
  0
LINE
  5
483
330
1E
100
AcDbEntity
  8
0
100
AcDbLine
 10
205.60314
 20
1134.355149999999
 30
0.0
 11
206.7031399999999
 21
1134.355149999999
 31
0.0
  0
LINE
  5
484
330
1E
100
AcDbEntity
  8
0
100
AcDbLine
 10
205.2031399999999
 20
1134.355149999999
 30
0.0
 11
205.70314
 21
1134.855149999999
 31
0.0
  0
LINE
  5
485
330
1E
100
AcDbEntity
  8
0
100
AcDbLine
 10
205.2031399999999
 20
1134.355149999999
 30
0.0
 11
205.60314
 21
1134.355149999999
 31
0.0
  0
LINE
  5
486
330
1E
100
AcDbEntity
  8
0
100
AcDbLine
 10
205.2031399999999
 20
983.465693863636
 30
0.0
 11
205.2031399999999
 21
1134.355149999999
 31
0.0
  0
LINE
  5
487
330
1E
100
AcDbEntity
  8
0
100
AcDbLine
 10
206.7031399999999
 20
1134.355149999999
 30
0.0
 11
208.4031399999999
 21
1134.355149999999
 31
0.0
  0
LINE
  5
488
330
1E
100
AcDbEntity
  8
0
100
AcDbLine
 10
205.70314
 20
1134.855149999999
 30
0.0
 11
206.10314
 21
1134.855149999999
 31
0.0
  0
LINE
  5
489
330
1E
100
AcDbEntity
  8
0
100
AcDbLine
 10
206.10314
 20
1134.855149999999
 30
0.0
 11
207.1031399999999
 21
1134.855149999999
 31
0.0
  0
LINE
  5
48A
330
1E
100
AcDbEntity
  8
0
100
AcDbLine
 10
208.4031399999999
 20
1134.355149999999
 30
0.0
 11
210.7031399999999
 21
1134.355149999999
 31
0.0
  0
LINE
  5
48B
330
1E
100
AcDbEntity
  8
0
100
AcDbLine
 10
207.1031399999999
 20
1134.855149999999
 30
0.0
 11
208.8031399999999
 21
1134.855149999999
 31
0.0
  0
LINE
  5
48C
330
1E
100
AcDbEntity
  8
0
100
AcDbLine
 10
205.2031399999999
 20
1135.355149999999
 30
0.0
 11
205.60314
 21
1135.355149999999
 31
0.0
  0
LINE
  5
48D
330
1E
100
AcDbEntity
  8
0
100
AcDbLine
 10
205.2031399999999
 20
1135.355149999999
 30
0.0
 11
205.70314
 21
1134.855149999999
 31
0.0
  0
LINE
  5
48E
330
1E
100
AcDbEntity
  8
0
100
AcDbLine
 10
205.2031399999999
 20
1135.355149999999
 30
0.0
 11
205.2031399999999
 21
1186.355149999999
 31
0.0
  0
LINE
  5
48F
330
1E
100
AcDbEntity
  8
0
100
AcDbLine
 10
205.60314
 20
1135.355149999999
 30
0.0
 11
206.7031399999999
 21
1135.355149999999
 31
0.0
  0
LINE
  5
490
330
1E
100
AcDbEntity
  8
0
100
AcDbLine
 10
205.2031399999999
 20
1186.355149999999
 30
0.0
 11
205.60314
 21
1186.355149999999
 31
0.0
  0
LINE
  5
491
330
1E
100
AcDbEntity
  8
0
100
AcDbLine
 10
205.2031399999999
 20
1186.355149999999
 30
0.0
 11
205.70314
 21
1186.855149999999
 31
0.0
  0
LINE
  5
492
330
1E
100
AcDbEntity
  8
0
100
AcDbLine
 10
205.2031399999999
 20
1186.355149999999
 30
0.0
 11
205.2031399999999
 21
1135.355149999999
 31
0.0
  0
LINE
  5
493
330
1E
100
AcDbEntity
  8
0
100
AcDbLine
 10
205.60314
 20
1186.355149999999
 30
0.0
 11
206.7031399999999
 21
1186.355149999999
 31
0.0
  0
LINE
  5
494
330
1E
100
AcDbEntity
  8
0
100
AcDbLine
 10
205.70314
 20
1186.855149999999
 30
0.0
 11
206.10314
 21
1186.855149999999
 31
0.0
  0
LINE
  5
495
330
1E
100
AcDbEntity
  8
0
100
AcDbLine
 10
206.10314
 20
1186.855149999999
 30
0.0
 11
207.1031399999999
 21
1186.855149999999
 31
0.0
  0
LINE
  5
496
330
1E
100
AcDbEntity
  8
0
100
AcDbLine
 10
207.1031399999999
 20
1186.855149999999
 30
0.0
 11
208.8031399999999
 21
1186.855149999999
 31
0.0
  0
LINE
  5
497
330
1E
100
AcDbEntity
  8
0
100
AcDbLine
 10
206.7031399999999
 20
1186.355149999999
 30
0.0
 11
208.4031399999999
 21
1186.355149999999
 31
0.0
  0
LINE
  5
498
330
1E
100
AcDbEntity
  8
0
100
AcDbLine
 10
208.4031399999999
 20
1186.355149999999
 30
0.0
 11
210.7031399999999
 21
1186.355149999999
 31
0.0
  0
LINE
  5
499
330
1E
100
AcDbEntity
  8
0
100
AcDbLine
 10
206.7031399999999
 20
1135.355149999999
 30
0.0
 11
208.4031399999999
 21
1135.355149999999
 31
0.0
  0
LINE
  5
49A
330
1E
100
AcDbEntity
  8
0
100
AcDbLine
 10
208.8031399999999
 20
1186.855149999999
 30
0.0
 11
211.00314
 21
1186.855149999999
 31
0.0
  0
LINE
  5
49B
330
1E
100
AcDbEntity
  8
0
100
AcDbLine
 10
208.4031399999999
 20
1135.355149999999
 30
0.0
 11
210.7031399999999
 21
1135.355149999999
 31
0.0
  0
LINE
  5
49C
330
1E
100
AcDbEntity
  8
0
100
AcDbLine
 10
208.8031399999999
 20
1134.855149999999
 30
0.0
 11
211.00314
 21
1134.855149999999
 31
0.0
  0
LINE
  5
49D
330
1E
100
AcDbEntity
  8
0
100
AcDbLine
 10
222.4495867068899
 20
953.5941367995571
 30
0.0
 11
225.2701399999999
 21
952.3991499999999
 31
0.0
  0
LINE
  5
49E
330
1E
100
AcDbEntity
  8
0
100
AcDbLine
 10
210.7031399999999
 20
1134.355149999999
 30
0.0
 11
213.40314
 21
1134.355149999999
 31
0.0
  0
LINE
  5
49F
330
1E
100
AcDbEntity
  8
0
100
AcDbLine
 10
213.40314
 20
1134.355149999999
 30
0.0
 11
216.20314
 21
1134.355149999999
 31
0.0
  0
LINE
  5
4A0
330
1E
100
AcDbEntity
  8
0
100
AcDbLine
 10
211.00314
 20
1134.855149999999
 30
0.0
 11
213.5031399999999
 21
1134.855149999999
 31
0.0
  0
LINE
  5
4A1
330
1E
100
AcDbEntity
  8
0
100
AcDbLine
 10
211.00314
 20
1186.855149999999
 30
0.0
 11
213.5031399999999
 21
1186.855149999999
 31
0.0
  0
LINE
  5
4A2
330
1E
100
AcDbEntity
  8
0
100
AcDbLine
 10
210.7031399999999
 20
1186.355149999999
 30
0.0
 11
213.40314
 21
1186.355149999999
 31
0.0
  0
LINE
  5
4A3
330
1E
100
AcDbEntity
  8
0
100
AcDbLine
 10
213.40314
 20
1186.355149999999
 30
0.0
 11
216.20314
 21
1186.355149999999
 31
0.0
  0
LINE
  5
4A4
330
1E
100
AcDbEntity
  8
0
100
AcDbLine
 10
210.7031399999999
 20
1135.355149999999
 30
0.0
 11
213.40314
 21
1135.355149999999
 31
0.0
  0
LINE
  5
4A5
330
1E
100
AcDbEntity
  8
0
100
AcDbLine
 10
213.5031399999999
 20
1186.855149999999
 30
0.0
 11
216.20314
 21
1186.855149999999
 31
0.0
  0
LINE
  5
4A6
330
1E
100
AcDbEntity
  8
0
100
AcDbLine
 10
213.40314
 20
1135.355149999999
 30
0.0
 11
216.20314
 21
1135.355149999999
 31
0.0
  0
LINE
  5
4A7
330
1E
100
AcDbEntity
  8
0
100
AcDbLine
 10
213.5031399999999
 20
1134.855149999999
 30
0.0
 11
216.20314
 21
1134.855149999999
 31
0.0
  0
LINE
  5
4A8
330
1E
100
AcDbEntity
  8
0
100
AcDbLine
 10
216.20314
 20
1134.355149999999
 30
0.0
 11
219.00314
 21
1134.355149999999
 31
0.0
  0
LINE
  5
4A9
330
1E
100
AcDbEntity
  8
0
100
AcDbLine
 10
216.20314
 20
1186.855149999999
 30
0.0
 11
259.70314
 21
1186.855149999999
 31
0.0
  0
LINE
  5
4AA
330
1E
100
AcDbEntity
  8
0
100
AcDbLine
 10
216.20314
 20
1186.355149999999
 30
0.0
 11
260.20314
 21
1186.355149999999
 31
0.0
  0
LINE
  5
4AB
330
1E
100
AcDbEntity
  8
0
100
AcDbLine
 10
216.20314
 20
1135.355149999999
 30
0.0
 11
260.20314
 21
1135.355149999999
 31
0.0
  0
LINE
  5
4AC
330
1E
100
AcDbEntity
  8
0
100
AcDbLine
 10
216.20314
 20
1134.855149999999
 30
0.0
 11
259.70314
 21
1134.855149999999
 31
0.0
  0
LINE
  5
4AD
330
1E
100
AcDbEntity
  8
0
100
AcDbLine
 10
216.20314
 20
1134.855149999999
 30
0.0
 11
218.9031399999999
 21
1134.855149999999
 31
0.0
  0
LINE
  5
4AE
330
1E
100
AcDbEntity
  8
0
100
AcDbLine
 10
225.7031399999999
 20
1134.355149999999
 30
0.0
 11
226.8031399999999
 21
1134.355149999999
 31
0.0
  0
LINE
  5
4AF
330
1E
100
AcDbEntity
  8
0
100
AcDbLine
 10
224.0031399999999
 20
1134.355149999999
 30
0.0
 11
225.7031399999999
 21
1134.355149999999
 31
0.0
  0
LINE
  5
4B0
330
1E
100
AcDbEntity
  8
0
100
AcDbLine
 10
221.7031399999999
 20
1134.355149999999
 30
0.0
 11
224.0031399999999
 21
1134.355149999999
 31
0.0
  0
LINE
  5
4B1
330
1E
100
AcDbEntity
  8
0
100
AcDbLine
 10
226.30314
 20
1134.855149999999
 30
0.0
 11
226.70314
 21
1134.855149999999
 31
0.0
  0
LINE
  5
4B2
330
1E
100
AcDbEntity
  8
0
100
AcDbLine
 10
225.3031399999999
 20
1134.855149999999
 30
0.0
 11
226.30314
 21
1134.855149999999
 31
0.0
  0
LINE
  5
4B3
330
1E
100
AcDbEntity
  8
0
100
AcDbLine
 10
223.6031399999999
 20
1134.855149999999
 30
0.0
 11
225.3031399999999
 21
1134.855149999999
 31
0.0
  0
LINE
  5
4B4
330
1E
100
AcDbEntity
  8
0
100
AcDbLine
 10
221.4031399999999
 20
1134.855149999999
 30
0.0
 11
223.6031399999999
 21
1134.855149999999
 31
0.0
  0
LINE
  5
4B5
330
1E
100
AcDbEntity
  8
0
100
AcDbLine
 10
218.9031399999999
 20
1134.855149999999
 30
0.0
 11
221.4031399999999
 21
1134.855149999999
 31
0.0
  0
LINE
  5
4B6
330
1E
100
AcDbEntity
  8
0
100
AcDbLine
 10
219.00314
 20
1134.355149999999
 30
0.0
 11
221.7031399999999
 21
1134.355149999999
 31
0.0
  0
LINE
  5
4B7
330
1E
100
AcDbEntity
  8
0
100
AcDbLine
 10
226.8031399999999
 20
1134.355149999999
 30
0.0
 11
227.2031399999999
 21
1134.355149999999
 31
0.0
  0
LINE
  5
4B8
330
1E
100
AcDbEntity
  8
0
100
AcDbLine
 10
226.70314
 20
1134.855149999999
 30
0.0
 11
259.70314
 21
1134.855149999999
 31
0.0
  0
LINE
  5
4B9
330
1E
100
AcDbEntity
  8
0
100
AcDbLine
 10
226.70314
 20
1134.855149999999
 30
0.0
 11
227.2031399999999
 21
1134.355149999999
 31
0.0
  0
LINE
  5
4BA
330
1E
100
AcDbEntity
  8
0
100
AcDbLine
 10
259.70314
 20
1186.855149999999
 30
0.0
 11
260.20314
 21
1186.355149999999
 31
0.0
  0
LINE
  5
4BB
330
1E
100
AcDbEntity
  8
0
100
AcDbLine
 10
260.20314
 20
1186.355149999999
 30
0.0
 11
260.20314
 21
1135.355149999999
 31
0.0
  0
LINE
  5
4BC
330
1E
100
AcDbEntity
  8
0
100
AcDbLine
 10
260.20314
 20
1135.355149999999
 30
0.0
 11
260.20314
 21
1186.355149999999
 31
0.0
  0
LINE
  5
4BD
330
1E
100
AcDbEntity
  8
0
100
AcDbLine
 10
259.70314
 20
1134.855149999999
 30
0.0
 11
260.20314
 21
1135.355149999999
 31
0.0
  0
LINE
  5
4BE
330
1E
100
AcDbEntity
  8
0
100
AcDbLine
 10
218.1361399999999
 20
961.0651500000001
 30
0.0
 11
231.2681399999999
 21
938.32015
 31
0.0
  0
LINE
  5
4BF
330
1E
100
AcDbEntity
  8
0
100
AcDbLine
 10
217.7071399999999
 20
960.8171499999999
 30
0.0
 11
218.1361399999999
 21
961.0651500000001
 31
0.0
  0
LINE
  5
4C1
330
1E
100
AcDbEntity
  8
0
100
AcDbLine
 10
216.5611399999999
 20
960.15615
 30
0.0
 11
217.7071399999999
 21
960.8171499999999
 31
0.0
  0
LINE
  5
4C3
330
1E
100
AcDbEntity
  8
0
100
AcDbLine
 10
214.65214
 20
959.0531499999999
 30
0.0
 11
216.5611399999999
 21
960.15615
 31
0.0
  0
LINE
  5
4C5
330
1E
100
AcDbEntity
  8
0
100
AcDbLine
 10
212.12214
 20
957.5931500000001
 30
0.0
 11
214.65214
 21
959.0531499999999
 31
0.0
  0
LINE
  5
4C8
330
1E
100
AcDbEntity
  8
0
100
AcDbLine
 10
203.1481399999999
 20
952.4121499999999
 30
0.0
 11
212.12214
 21
957.5931500000001
 31
0.0
  0
LINE
  5
4CC
330
1E
100
AcDbEntity
  8
0
100
AcDbLine
 10
202.2031399999999
 20
351.85515
 30
0.0
 11
202.2031399999999
 21
328.85515
 31
0.0
  0
LINE
  5
4CD
330
1E
100
AcDbEntity
  8
0
100
AcDbLine
 10
202.2031399999999
 20
351.85515
 30
0.0
 11
205.2031399999999
 21
351.85515
 31
0.0
  0
LINE
  5
4CE
330
1E
100
AcDbEntity
  8
0
100
AcDbLine
 10
202.2031399999999
 20
351.85515
 30
0.0
 11
216.20314
 21
351.85515
 31
0.0
  0
LINE
  5
4CF
330
1E
100
AcDbEntity
  8
0
100
AcDbLine
 10
144.2031399999999
 20
328.85515
 30
0.0
 11
151.4031399999999
 21
328.85515
 31
0.0
  0
LINE
  5
4D0
330
1E
100
AcDbEntity
  8
0
100
AcDbLine
 10
137.00314
 20
328.85515
 30
0.0
 11
144.2031399999999
 21
328.85515
 31
0.0
  0
LINE
  5
4D5
330
1E
100
AcDbEntity
  8
0
100
AcDbLine
 10
89.02214
 20
1122.13115
 30
0.0
 11
107.2321399999999
 21
1106.10015
 31
0.0
  0
LINE
  5
4D6
330
1E
100
AcDbEntity
  8
0
100
AcDbLine
 10
62.08254
 20
1143.70915
 30
0.0
 11
77.46984000000001
 21
1131.991149999999
 31
0.0
  0
LINE
  5
4D7
330
1E
100
AcDbEntity
  8
0
100
AcDbLine
 10
229.453006773146
 20
933.3046514936679
 30
0.0
 11
227.1221399999999
 21
931.6121500000001
 31
0.0
  0
LINE
  5
4D8
330
1E
100
AcDbEntity
  8
0
100
AcDbLine
 10
225.2701399999999
 20
952.3991499999999
 30
0.0
 11
227.2031399999999
 21
950.878022811816
 31
0.0
  0
ENDSEC
  0
SECTION
  2
OBJECTS
  0
DICTIONARY
  5
C
330
0
100
AcDbDictionary
281
     1
  3
ACAD_GROUP
350
D
  3
ACAD_LAYOUT
350
19
  3
ACAD_MLINESTYLE
350
16
  3
ACAD_PLOTSETTINGS
350
18
  3
ACAD_PLOTSTYLENAME
350
E
  3
AcDbVariableDictionary
350
4D9
  0
DICTIONARY
  5
D
102
{ACAD_REACTORS
330
C
102
}
330
C
100
AcDbDictionary
281
     1
  0
DICTIONARY
  5
19
102
{ACAD_REACTORS
330
C
102
}
330
C
100
AcDbDictionary
281
     1
  3
Layout1
350
1D
  3
Model
350
21
  0
DICTIONARY
  5
16
102
{ACAD_REACTORS
330
C
102
}
330
C
100
AcDbDictionary
281
     1
  3
Standard
350
17
  0
DICTIONARY
  5
18
102
{ACAD_REACTORS
330
C
102
}
330
C
100
AcDbDictionary
281
     1
  0
ACDBDICTIONARYWDFLT
  5
E
102
{ACAD_REACTORS
330
C
102
}
330
C
100
AcDbDictionary
281
     1
  3
Normal
350
F
100
AcDbDictionaryWithDefault
340
F
  0
DICTIONARY
  5
4D9
102
{ACAD_REACTORS
330
C
102
}
330
C
100
AcDbDictionary
281
     1
  3
DIMASSOC
350
4DA
  0
LAYOUT
  5
1D
102
{ACAD_REACTORS
330
19
102
}
330
19
100
AcDbPlotSettings
  1

  2
hp deskjet 980c series
  4

  6

 40
0.0
 41
0.0
 42
0.0
 43
0.0
 44
0.0
 45
0.0
 46
0.0
 47
0.0
 48
0.0
 49
0.0
140
0.0
141
0.0
142
1.0
143
1.0
 70
   688
 72
     0
 73
     0
 74
     5
  7

 75
    16
147
1.0
148
0.0
149
0.0
100
AcDbLayout
  1
Layout1
 70
     1
 71
     1
 10
0.0
 20
0.0
 11
12.0
 21
9.0
 12
0.0
 22
0.0
 32
0.0
 14
1.000000000000000E+20
 24
1.000000000000000E+20
 34
1.000000000000000E+20
 15
-1.000000000000000E+20
 25
-1.000000000000000E+20
 35
-1.000000000000000E+20
146
0.0
 13
0.0
 23
0.0
 33
0.0
 16
1.0
 26
0.0
 36
0.0
 17
0.0
 27
1.0
 37
0.0
 76
     0
330
1A
  0
LAYOUT
  5
21
102
{ACAD_REACTORS
330
19
102
}
330
19
100
AcDbPlotSettings
  1

  2
hp deskjet 980c series
  4

  6

 40
0.0
 41
0.0
 42
0.0
 43
0.0
 44
0.0
 45
0.0
 46
0.0
 47
0.0
 48
0.0
 49
0.0
140
0.0
141
0.0
142
1.0
143
1.0
 70
  1712
 72
     0
 73
     0
 74
     0
  7

 75
     0
147
1.0
148
0.0
149
0.0
100
AcDbLayout
  1
Model
 70
     1
 71
     0
 10
0.0
 20
0.0
 11
12.0
 21
9.0
 12
0.0
 22
0.0
 32
0.0
 14
0.0
 24
0.0
 34
0.0
 15
0.0
 25
0.0
 35
0.0
146
0.0
 13
0.0
 23
0.0
 33
0.0
 16
1.0
 26
0.0
 36
0.0
 17
0.0
 27
1.0
 37
0.0
 76
     0
330
1E
  0
MLINESTYLE
  5
17
102
{ACAD_REACTORS
330
16
102
}
330
16
100
AcDbMlineStyle
  2
STANDARD
 70
     0
  3

 62
   256
 51
90.0
 52
90.0
 71
     2
 49
0.5
 62
   256
  6
BYLAYER
 49
-0.5
 62
   256
  6
BYLAYER
  0
ACDBPLACEHOLDER
  5
F
102
{ACAD_REACTORS
330
E
102
}
330
E
  0
DICTIONARYVAR
  5
4DA
102
{ACAD_REACTORS
330
4D9
102
}
330
4D9
100
DictionaryVariables
280
     0
  1
1
  0
ENDSEC
  0
EOF
