  0
SECTION
  2
HEADER
  9
$ACADVER
  1
AC1015
  9
$ACADMAINTVER
 70
    13
  9
$DWGCODEPAGE
  3
ANSI_1252
  9
$INSBASE
 10
0.0
 20
0.0
 30
0.0
  9
$EXTMIN
 10
0.0767649999999939
 20
-0.108950000000008
 30
0.0
  9
$EXTMAX
 10
103.923235
 20
86.10894999999999
 30
0.0
  9
$LIMMIN
 10
0.0
 20
0.0
  9
$LIMMAX
 10
12.0
 20
9.0
  9
$ORTHOMODE
 70
     0
  9
$REGENMODE
 70
     1
  9
$FILLMODE
 70
     1
  9
$QTEXTMODE
 70
     0
  9
$MIRRTEXT
 70
     1
  9
$LTSCALE
 40
1.0
  9
$ATTMODE
 70
     1
  9
$TEXTSIZE
 40
0.2
  9
$TRACEWID
 40
0.05
  9
$TEXTSTYLE
  7
Standard
  9
$CLAYER
  8
0
  9
$CELTYPE
  6
Continuous
  9
$CECOLOR
 62
   256
  9
$CELTSCALE
 40
1.0
  9
$DISPSILH
 70
     0
  9
$DIMSCALE
 40
1.0
  9
$DIMASZ
 40
0.18
  9
$DIMEXO
 40
0.0625
  9
$DIMDLI
 40
0.38
  9
$DIMRND
 40
0.0
  9
$DIMDLE
 40
0.0
  9
$DIMEXE
 40
0.18
  9
$DIMTP
 40
0.0
  9
$DIMTM
 40
0.0
  9
$DIMTXT
 40
0.18
  9
$DIMCEN
 40
0.09
  9
$DIMTSZ
 40
0.0
  9
$DIMTOL
 70
     0
  9
$DIMLIM
 70
     0
  9
$DIMTIH
 70
     1
  9
$DIMTOH
 70
     1
  9
$DIMSE1
 70
     0
  9
$DIMSE2
 70
     0
  9
$DIMTAD
 70
     0
  9
$DIMZIN
 70
     0
  9
$DIMBLK
  1

  9
$DIMASO
 70
     1
  9
$DIMSHO
 70
     1
  9
$DIMPOST
  1

  9
$DIMAPOST
  1

  9
$DIMALT
 70
     0
  9
$DIMALTD
 70
     2
  9
$DIMALTF
 40
25.4
  9
$DIMLFAC
 40
1.0
  9
$DIMTOFL
 70
     0
  9
$DIMTVP
 40
0.0
  9
$DIMTIX
 70
     0
  9
$DIMSOXD
 70
     0
  9
$DIMSAH
 70
     0
  9
$DIMBLK1
  1

  9
$DIMBLK2
  1

  9
$DIMSTYLE
  2
Standard
  9
$DIMCLRD
 70
     0
  9
$DIMCLRE
 70
     0
  9
$DIMCLRT
 70
     0
  9
$DIMTFAC
 40
1.0
  9
$DIMGAP
 40
0.09
  9
$DIMJUST
 70
     0
  9
$DIMSD1
 70
     0
  9
$DIMSD2
 70
     0
  9
$DIMTOLJ
 70
     1
  9
$DIMTZIN
 70
     0
  9
$DIMALTZ
 70
     0
  9
$DIMALTTZ
 70
     0
  9
$DIMUPT
 70
     0
  9
$DIMDEC
 70
     4
  9
$DIMTDEC
 70
     4
  9
$DIMALTU
 70
     2
  9
$DIMALTTD
 70
     2
  9
$DIMTXSTY
  7
Standard
  9
$DIMAUNIT
 70
     0
  9
$DIMADEC
 70
     0
  9
$DIMALTRND
 40
0.0
  9
$DIMAZIN
 70
     0
  9
$DIMDSEP
 70
    46
  9
$DIMATFIT
 70
     3
  9
$DIMFRAC
 70
     0
  9
$DIMLDRBLK
  1

  9
$DIMLUNIT
 70
     2
  9
$DIMLWD
 70
    -2
  9
$DIMLWE
 70
    -2
  9
$DIMTMOVE
 70
     0
  9
$LUNITS
 70
     2
  9
$LUPREC
 70
     4
  9
$SKETCHINC
 40
0.1
  9
$FILLETRAD
 40
0.0
  9
$AUNITS
 70
     0
  9
$AUPREC
 70
     0
  9
$MENU
  1
.
  9
$ELEVATION
 40
0.0
  9
$PELEVATION
 40
0.0
  9
$THICKNESS
 40
0.0
  9
$LIMCHECK
 70
     0
  9
$CHAMFERA
 40
0.0
  9
$CHAMFERB
 40
0.0
  9
$CHAMFERC
 40
0.0
  9
$CHAMFERD
 40
0.0
  9
$SKPOLY
 70
     0
  9
$TDCREATE
 40
2454738.896113634
  9
$TDUCREATE
 40
2454738.812780301
  9
$TDUPDATE
 40
2454738.897409930
  9
$TDUUPDATE
 40
2454738.814076597
  9
$TDINDWG
 40
0.0012962963
  9
$TDUSRTIMER
 40
0.0012962963
  9
$USRTIMER
 70
     1
  9
$ANGBASE
 50
0.0
  9
$ANGDIR
 70
     0
  9
$PDMODE
 70
     0
  9
$PDSIZE
 40
0.0
  9
$PLINEWID
 40
0.0
  9
$SPLFRAME
 70
     0
  9
$SPLINETYPE
 70
     6
  9
$SPLINESEGS
 70
     8
  9
$HANDSEED
  5
1E3
  9
$SURFTAB1
 70
     6
  9
$SURFTAB2
 70
     6
  9
$SURFTYPE
 70
     6
  9
$SURFU
 70
     6
  9
$SURFV
 70
     6
  9
$UCSBASE
  2

  9
$UCSNAME
  2

  9
$UCSORG
 10
0.0
 20
0.0
 30
0.0
  9
$UCSXDIR
 10
1.0
 20
0.0
 30
0.0
  9
$UCSYDIR
 10
0.0
 20
1.0
 30
0.0
  9
$UCSORTHOREF
  2

  9
$UCSORTHOVIEW
 70
     1
  9
$UCSORGTOP
 10
0.0
 20
0.0
 30
0.0
  9
$UCSORGBOTTOM
 10
0.0
 20
0.0
 30
0.0
  9
$UCSORGLEFT
 10
0.0
 20
0.0
 30
0.0
  9
$UCSORGRIGHT
 10
0.0
 20
0.0
 30
0.0
  9
$UCSORGFRONT
 10
0.0
 20
0.0
 30
0.0
  9
$UCSORGBACK
 10
0.0
 20
0.0
 30
0.0
  9
$PUCSBASE
  2

  9
$PUCSNAME
  2

  9
$PUCSORG
 10
0.0
 20
0.0
 30
0.0
  9
$PUCSXDIR
 10
1.0
 20
0.0
 30
0.0
  9
$PUCSYDIR
 10
0.0
 20
1.0
 30
0.0
  9
$PUCSORTHOREF
  2

  9
$PUCSORTHOVIEW
 70
     0
  9
$PUCSORGTOP
 10
0.0
 20
0.0
 30
0.0
  9
$PUCSORGBOTTOM
 10
0.0
 20
0.0
 30
0.0
  9
$PUCSORGLEFT
 10
0.0
 20
0.0
 30
0.0
  9
$PUCSORGRIGHT
 10
0.0
 20
0.0
 30
0.0
  9
$PUCSORGFRONT
 10
0.0
 20
0.0
 30
0.0
  9
$PUCSORGBACK
 10
0.0
 20
0.0
 30
0.0
  9
$USERI1
 70
     0
  9
$USERI2
 70
     0
  9
$USERI3
 70
     0
  9
$USERI4
 70
     0
  9
$USERI5
 70
     0
  9
$USERR1
 40
0.0
  9
$USERR2
 40
0.0
  9
$USERR3
 40
0.0
  9
$USERR4
 40
0.0
  9
$USERR5
 40
0.0
  9
$WORLDVIEW
 70
     1
  9
$SHADEDGE
 70
     3
  9
$SHADEDIF
 70
    70
  9
$TILEMODE
 70
     1
  9
$MAXACTVP
 70
    64
  9
$PINSBASE
 10
0.0
 20
0.0
 30
0.0
  9
$PLIMCHECK
 70
     0
  9
$PEXTMIN
 10
1.000000000000000E+20
 20
1.000000000000000E+20
 30
1.000000000000000E+20
  9
$PEXTMAX
 10
-1.000000000000000E+20
 20
-1.000000000000000E+20
 30
-1.000000000000000E+20
  9
$PLIMMIN
 10
0.0
 20
0.0
  9
$PLIMMAX
 10
12.0
 20
9.0
  9
$UNITMODE
 70
     0
  9
$VISRETAIN
 70
     1
  9
$PLINEGEN
 70
     0
  9
$PSLTSCALE
 70
     1
  9
$TREEDEPTH
 70
  3020
  9
$CMLSTYLE
  2
Standard
  9
$CMLJUST
 70
     0
  9
$CMLSCALE
 40
1.0
  9
$PROXYGRAPHICS
 70
     1
  9
$MEASUREMENT
 70
     0
  9
$CELWEIGHT
370
    -1
  9
$ENDCAPS
280
     0
  9
$JOINSTYLE
280
     0
  9
$LWDISPLAY
290
     0
  9
$INSUNITS
 70
     0
  9
$HYPERLINKBASE
  1

  9
$STYLESHEET
  1

  9
$XEDIT
290
     1
  9
$CEPSNTYPE
380
     0
  9
$PSTYLEMODE
290
     1
  9
$FINGERPRINTGUID
  2
{A93F6A29-5425-4D30-ABE6-7E24D4376533}
  9
$VERSIONGUID
  2
{00D6424B-B78E-4C9C-BB41-AEDEE647A924}
  9
$EXTNAMES
290
     1
  9
$PSVPSCALE
 40
0.0
  9
$OLESTARTUP
290
     0
  0
ENDSEC
  0
SECTION
  2
CLASSES
  0
CLASS
  1
ACDBDICTIONARYWDFLT
  2
AcDbDictionaryWithDefault
  3
AutoCAD 2000
 90
        0
280
     0
281
     0
  0
CLASS
  1
ACDBPLACEHOLDER
  2
AcDbPlaceHolder
  3
AutoCAD 2000
 90
        0
280
     0
281
     0
  0
CLASS
  1
LAYOUT
  2
AcDbLayout
  3
AutoCAD 2000
 90
        0
280
     0
281
     0
  0
CLASS
  1
DICTIONARYVAR
  2
AcDbDictionaryVar
  3
AutoCAD 2000
 90
        0
280
     0
281
     0
  0
ENDSEC
  0
SECTION
  2
TABLES
  0
TABLE
  2
VPORT
  5
8
330
0
100
AcDbSymbolTable
 70
     3
  0
VPORT
  5
1E2
330
8
100
AcDbSymbolTableRecord
100
AcDbViewportTableRecord
  2
*Active
 70
     0
 10
0.0
 20
0.0
 11
1.0
 21
1.0
 12
51.99999999999999
 22
42.99999999999999
 13
0.0
 23
0.0
 14
1.0
 24
1.0
 15
0.0
 25
0.0
 16
0.0
 26
0.0
 36
1.0
 17
0.0
 27
0.0
 37
0.0
 40
86.87941841432225
 41
2.078104993597951
 42
50.0
 43
0.0
 44
0.0
 50
0.0
 51
0.0
 71
     0
 72
   100
 73
     1
 74
     3
 75
     0
 76
     0
 77
     0
 78
     0
281
     0
 65
     1
110
0.0
120
0.0
130
0.0
111
1.0
121
0.0
131
0.0
112
0.0
122
1.0
132
0.0
 79
     1
146
0.0
  0
ENDTAB
  0
TABLE
  2
LTYPE
  5
5
330
0
100
AcDbSymbolTable
 70
     1
  0
LTYPE
  5
13
330
5
100
AcDbSymbolTableRecord
100
AcDbLinetypeTableRecord
  2
ByBlock
 70
     0
  3

 72
    65
 73
     0
 40
0.0
  0
LTYPE
  5
14
330
5
100
AcDbSymbolTableRecord
100
AcDbLinetypeTableRecord
  2
ByLayer
 70
     0
  3

 72
    65
 73
     0
 40
0.0
  0
LTYPE
  5
15
330
5
100
AcDbSymbolTableRecord
100
AcDbLinetypeTableRecord
  2
Continuous
 70
     0
  3
Solid line
 72
    65
 73
     0
 40
0.0
  0
ENDTAB
  0
TABLE
  2
LAYER
  5
2
330
0
100
AcDbSymbolTable
 70
     1
  0
LAYER
  5
10
330
2
100
AcDbSymbolTableRecord
100
AcDbLayerTableRecord
  2
0
 70
     0
 62
     7
  6
Continuous
370
    -3
390
F
  0
ENDTAB
  0
TABLE
  2
STYLE
  5
3
330
0
100
AcDbSymbolTable
 70
     1
  0
STYLE
  5
11
330
3
100
AcDbSymbolTableRecord
100
AcDbTextStyleTableRecord
  2
Standard
 70
     0
 40
0.0
 41
1.0
 50
0.0
 71
     0
 42
0.2
  3
txt
  4

  0
ENDTAB
  0
TABLE
  2
VIEW
  5
6
330
0
100
AcDbSymbolTable
 70
     0
  0
ENDTAB
  0
TABLE
  2
UCS
  5
7
330
0
100
AcDbSymbolTable
 70
     0
  0
ENDTAB
  0
TABLE
  2
APPID
  5
9
330
0
100
AcDbSymbolTable
 70
     1
  0
APPID
  5
12
330
9
100
AcDbSymbolTableRecord
100
AcDbRegAppTableRecord
  2
ACAD
 70
     0
  0
ENDTAB
  0
TABLE
  2
DIMSTYLE
  5
A
330
0
100
AcDbSymbolTable
 70
     1
100
AcDbDimStyleTable
 71
     0
  0
DIMSTYLE
105
1DA
330
A
100
AcDbSymbolTableRecord
100
AcDbDimStyleTableRecord
  2
Standard
 70
     0
340
11
  0
ENDTAB
  0
TABLE
  2
BLOCK_RECORD
  5
1
330
0
100
AcDbSymbolTable
 70
     0
  0
BLOCK_RECORD
  5
1E
330
1
100
AcDbSymbolTableRecord
100
AcDbBlockTableRecord
  2
*Model_Space
340
21
  0
BLOCK_RECORD
  5
1A
330
1
100
AcDbSymbolTableRecord
100
AcDbBlockTableRecord
  2
*Paper_Space
340
1D
  0
ENDTAB
  0
ENDSEC
  0
SECTION
  2
BLOCKS
  0
BLOCK
  5
1F
330
1E
100
AcDbEntity
  8
0
100
AcDbBlockBegin
  2
*Model_Space
 70
     0
 10
0.0
 20
0.0
 30
0.0
  3
*Model_Space
  1

  0
ENDBLK
  5
20
330
1E
100
AcDbEntity
  8
0
100
AcDbBlockEnd
  0
BLOCK
  5
1B
330
1A
100
AcDbEntity
 67
     1
  8
0
100
AcDbBlockBegin
  2
*Paper_Space
 70
     0
 10
0.0
 20
0.0
 30
0.0
  3
*Paper_Space
  1

  0
ENDBLK
  5
1C
330
1A
100
AcDbEntity
 67
     1
  8
0
100
AcDbBlockEnd
  0
ENDSEC
  0
SECTION
  2
ENTITIES
  0
LINE
  5
22
330
1E
100
AcDbEntity
  8
0
100
AcDbLine
 10
5.923235
 20
25.18775
 30
0.0
 11
5.923235
 21
24.59625
 31
0.0
  0
LINE
  5
23
330
1E
100
AcDbEntity
  8
0
100
AcDbLine
 10
5.923235
 20
25.18775
 30
0.0
 11
5.923235
 21
26.89465
 31
0.0
  0
LINE
  5
24
330
1E
100
AcDbEntity
  8
0
100
AcDbLine
 10
5.923235
 20
24.59625
 30
0.0
 11
5.923235
 21
25.19204999999999
 31
0.0
  0
LINE
  5
25
330
1E
100
AcDbEntity
  8
0
100
AcDbLine
 10
5.923235
 20
24.59625
 30
0.0
 11
6.677080999999999
 21
24.11414999999999
 31
0.0
  0
LINE
  5
26
330
1E
100
AcDbEntity
  8
0
100
AcDbLine
 10
5.923235
 20
24.59625
 30
0.0
 11
5.923235
 21
25.18775
 31
0.0
  0
LINE
  5
27
330
1E
100
AcDbEntity
  8
0
100
AcDbLine
 10
5.923235
 20
25.19204999999999
 30
0.0
 11
5.923235
 21
26.96815
 31
0.0
  0
LINE
  5
28
330
1E
100
AcDbEntity
  8
0
100
AcDbLine
 10
5.923235
 20
25.19204999999999
 30
0.0
 11
5.923235
 21
24.59625
 31
0.0
  0
LINE
  5
29
330
1E
100
AcDbEntity
  8
0
100
AcDbLine
 10
5.923235
 20
26.96815
 30
0.0
 11
5.923235
 21
29.72065
 31
0.0
  0
LINE
  5
2A
330
1E
100
AcDbEntity
  8
0
100
AcDbLine
 10
5.923235
 20
26.96815
 30
0.0
 11
5.923235
 21
25.19204999999999
 31
0.0
  0
LINE
  5
2B
330
1E
100
AcDbEntity
  8
0
100
AcDbLine
 10
5.923235
 20
29.72065
 30
0.0
 11
5.923235
 21
33.32495
 31
0.0
  0
LINE
  5
2C
330
1E
100
AcDbEntity
  8
0
100
AcDbLine
 10
5.923235
 20
29.72065
 30
0.0
 11
5.923235
 21
26.96815
 31
0.0
  0
LINE
  5
2D
330
1E
100
AcDbEntity
  8
0
100
AcDbLine
 10
5.923235
 20
26.89465
 30
0.0
 11
5.923235
 21
29.72374999999999
 31
0.0
  0
LINE
  5
2E
330
1E
100
AcDbEntity
  8
0
100
AcDbLine
 10
5.923235
 20
26.89465
 30
0.0
 11
5.923235
 21
25.18775
 31
0.0
  0
LINE
  5
2F
330
1E
100
AcDbEntity
  8
0
100
AcDbLine
 10
5.923235
 20
33.32495
 30
0.0
 11
5.923235
 21
29.72065
 31
0.0
  0
LINE
  5
30
330
1E
100
AcDbEntity
  8
0
100
AcDbLine
 10
5.923235
 20
33.32495
 30
0.0
 11
5.923235
 21
37.57725
 31
0.0
  0
LINE
  5
31
330
1E
100
AcDbEntity
  8
0
100
AcDbLine
 10
5.923235
 20
29.72374999999999
 30
0.0
 11
5.923235
 21
26.89465
 31
0.0
  0
LINE
  5
32
330
1E
100
AcDbEntity
  8
0
100
AcDbLine
 10
5.923235
 20
29.72374999999999
 30
0.0
 11
5.923235
 21
33.30825
 31
0.0
  0
LINE
  5
33
330
1E
100
AcDbEntity
  8
0
100
AcDbLine
 10
5.923235
 20
33.30825
 30
0.0
 11
5.923235
 21
29.72374999999999
 31
0.0
  0
LINE
  5
34
330
1E
100
AcDbEntity
  8
0
100
AcDbLine
 10
5.923235
 20
33.30825
 30
0.0
 11
5.923235
 21
37.57605
 31
0.0
  0
LINE
  5
35
330
1E
100
AcDbEntity
  8
0
100
AcDbLine
 10
0.178244999999994
 20
41.35295
 30
0.0
 11
0.448874999999993
 21
40.65695
 31
0.0
  0
LINE
  5
36
330
1E
100
AcDbEntity
  8
0
100
AcDbLine
 10
1.463744999999989
 20
39.57694999999999
 30
0.0
 11
2.117774999999989
 21
39.28895
 31
0.0
  0
LINE
  5
37
330
1E
100
AcDbEntity
  8
0
100
AcDbLine
 10
2.117774999999989
 20
39.28895
 30
0.0
 11
2.31170499999999
 21
39.21694999999999
 31
0.0
  0
LINE
  5
38
330
1E
100
AcDbEntity
  8
0
100
AcDbLine
 10
2.117774999999989
 20
39.28895
 30
0.0
 11
2.828184999999999
 21
39.18095
 31
0.0
  0
LINE
  5
39
330
1E
100
AcDbEntity
  8
0
100
AcDbLine
 10
0.8886549999999949
 20
40.04495
 30
0.0
 11
1.463744999999989
 21
39.57694999999999
 31
0.0
  0
LINE
  5
3A
330
1E
100
AcDbEntity
  8
0
100
AcDbLine
 10
0.448874999999993
 20
40.65695
 30
0.0
 11
0.8886549999999949
 21
40.04495
 31
0.0
  0
LINE
  5
3B
330
1E
100
AcDbEntity
  8
0
100
AcDbLine
 10
0.178244999999994
 20
41.35295
 30
0.0
 11
0.448874999999993
 21
40.65695
 31
0.0
  0
LINE
  5
3C
330
1E
100
AcDbEntity
  8
0
100
AcDbLine
 10
2.31170499999999
 20
39.21694999999999
 30
0.0
 11
3.033395
 21
39.10895
 31
0.0
  0
LINE
  5
3D
330
1E
100
AcDbEntity
  8
0
100
AcDbLine
 10
2.828184999999999
 20
39.18095
 30
0.0
 11
3.538594999999999
 21
39.28895
 31
0.0
  0
LINE
  5
3E
330
1E
100
AcDbEntity
  8
0
100
AcDbLine
 10
3.033395
 20
39.10895
 30
0.0
 11
6.677080999999999
 21
39.10895
 31
0.0
  0
LINE
  5
3F
330
1E
100
AcDbEntity
  8
0
100
AcDbLine
 10
3.538594999999999
 20
39.28895
 30
0.0
 11
4.192614999999999
 21
39.57694999999999
 31
0.0
  0
LINE
  5
40
330
1E
100
AcDbEntity
  8
0
100
AcDbLine
 10
4.192614999999999
 20
39.57694999999999
 30
0.0
 11
4.767705
 21
40.04495
 31
0.0
  0
LINE
  5
41
330
1E
100
AcDbEntity
  8
0
100
AcDbLine
 10
4.767705
 20
40.04495
 30
0.0
 11
5.20748399999999
 21
40.65695
 31
0.0
  0
LINE
  5
42
330
1E
100
AcDbEntity
  8
0
100
AcDbLine
 10
5.20748399999999
 20
40.65695
 30
0.0
 11
5.478114999999999
 21
41.35295
 31
0.0
  0
LINE
  5
43
330
1E
100
AcDbEntity
  8
0
100
AcDbLine
 10
5.478114999999999
 20
41.35295
 30
0.0
 11
5.579601999999999
 21
42.10894999999999
 31
0.0
  0
LINE
  5
44
330
1E
100
AcDbEntity
  8
0
100
AcDbLine
 10
3.03339499999999
 20
39.10895
 30
0.0
 11
6.677080999999999
 21
39.10895
 31
0.0
  0
LINE
  5
45
330
1E
100
AcDbEntity
  8
0
100
AcDbLine
 10
0.0767649999999939
 20
42.10894999999999
 30
0.0
 11
0.178244999999994
 21
42.86495
 31
0.0
  0
LINE
  5
46
330
1E
100
AcDbEntity
  8
0
100
AcDbLine
 10
0.0767649999999939
 20
42.10894999999999
 30
0.0
 11
0.178244999999994
 21
41.35295
 31
0.0
  0
LINE
  5
47
330
1E
100
AcDbEntity
  8
0
100
AcDbLine
 10
5.923235
 20
37.57725
 30
0.0
 11
5.923235
 21
39.10895
 31
0.0
  0
LINE
  5
48
330
1E
100
AcDbEntity
  8
0
100
AcDbLine
 10
5.923235
 20
37.57725
 30
0.0
 11
5.923235
 21
33.32495
 31
0.0
  0
LINE
  5
49
330
1E
100
AcDbEntity
  8
0
100
AcDbLine
 10
5.923235
 20
37.57605
 30
0.0
 11
5.923235
 21
33.30825
 31
0.0
  0
LINE
  5
4A
330
1E
100
AcDbEntity
  8
0
100
AcDbLine
 10
5.923235
 20
37.57605
 30
0.0
 11
5.923235
 21
39.10895
 31
0.0
  0
LINE
  5
4B
330
1E
100
AcDbEntity
  8
0
100
AcDbLine
 10
39.34373499999999
 20
24.11414999999999
 30
0.0
 11
75.92323499999999
 21
24.11414999999999
 31
0.0
  0
LINE
  5
4C
330
1E
100
AcDbEntity
  8
0
100
AcDbLine
 10
37.83603499999999
 20
24.11414999999999
 30
0.0
 11
38.589935
 21
24.59625
 31
0.0
  0
LINE
  5
4D
330
1E
100
AcDbEntity
  8
0
100
AcDbLine
 10
6.677080999999999
 20
24.11414999999999
 30
0.0
 11
37.83603499999999
 21
24.11414999999999
 31
0.0
  0
LINE
  5
4E
330
1E
100
AcDbEntity
  8
0
100
AcDbLine
 10
38.589935
 20
24.59625
 30
0.0
 11
38.589935
 21
25.19204999999999
 31
0.0
  0
LINE
  5
4F
330
1E
100
AcDbEntity
  8
0
100
AcDbLine
 10
38.589935
 20
24.59625
 30
0.0
 11
39.34373499999999
 21
24.11414999999999
 31
0.0
  0
LINE
  5
50
330
1E
100
AcDbEntity
  8
0
100
AcDbLine
 10
38.589935
 20
25.19204999999999
 30
0.0
 11
38.589935
 21
24.59625
 31
0.0
  0
LINE
  5
51
330
1E
100
AcDbEntity
  8
0
100
AcDbLine
 10
38.589935
 20
25.19204999999999
 30
0.0
 11
38.589935
 21
26.96815
 31
0.0
  0
LINE
  5
52
330
1E
100
AcDbEntity
  8
0
100
AcDbLine
 10
38.589935
 20
26.96815
 30
0.0
 11
38.589935
 21
25.19204999999999
 31
0.0
  0
LINE
  5
53
330
1E
100
AcDbEntity
  8
0
100
AcDbLine
 10
38.589935
 20
26.96815
 30
0.0
 11
38.589935
 21
29.72065
 31
0.0
  0
LINE
  5
54
330
1E
100
AcDbEntity
  8
0
100
AcDbLine
 10
38.589935
 20
42.05775
 30
0.0
 11
38.589935
 21
37.57725
 31
0.0
  0
LINE
  5
55
330
1E
100
AcDbEntity
  8
0
100
AcDbLine
 10
38.589935
 20
42.05775
 30
0.0
 11
38.589935
 21
46.64184999999999
 31
0.0
  0
LINE
  5
56
330
1E
100
AcDbEntity
  8
0
100
AcDbLine
 10
38.589935
 20
37.57725
 30
0.0
 11
38.589935
 21
33.32495
 31
0.0
  0
LINE
  5
57
330
1E
100
AcDbEntity
  8
0
100
AcDbLine
 10
38.589935
 20
37.57725
 30
0.0
 11
38.589935
 21
42.05775
 31
0.0
  0
LINE
  5
58
330
1E
100
AcDbEntity
  8
0
100
AcDbLine
 10
38.589935
 20
29.72065
 30
0.0
 11
38.589935
 21
26.96815
 31
0.0
  0
LINE
  5
59
330
1E
100
AcDbEntity
  8
0
100
AcDbLine
 10
38.589935
 20
29.72065
 30
0.0
 11
38.589935
 21
33.32495
 31
0.0
  0
LINE
  5
5A
330
1E
100
AcDbEntity
  8
0
100
AcDbLine
 10
38.589935
 20
33.32495
 30
0.0
 11
38.589935
 21
29.72065
 31
0.0
  0
LINE
  5
5B
330
1E
100
AcDbEntity
  8
0
100
AcDbLine
 10
38.589935
 20
33.32495
 30
0.0
 11
38.589935
 21
37.57725
 31
0.0
  0
LINE
  5
5C
330
1E
100
AcDbEntity
  8
0
100
AcDbLine
 10
6.67708099999999
 20
24.11414999999999
 30
0.0
 11
37.83603499999999
 21
24.11414999999999
 31
0.0
  0
LINE
  5
5D
330
1E
100
AcDbEntity
  8
0
100
AcDbLine
 10
5.923235
 20
39.10895
 30
0.0
 11
5.923235
 21
37.57605
 31
0.0
  0
LINE
  5
5E
330
1E
100
AcDbEntity
  8
0
100
AcDbLine
 10
5.923235
 20
39.10895
 30
0.0
 11
5.923235
 21
37.57725
 31
0.0
  0
LINE
  5
5F
330
1E
100
AcDbEntity
  8
0
100
AcDbLine
 10
0.178244999999994
 20
42.86495
 30
0.0
 11
0.448874999999993
 21
43.56094999999999
 31
0.0
  0
LINE
  5
60
330
1E
100
AcDbEntity
  8
0
100
AcDbLine
 10
2.117774999999989
 20
44.92894999999999
 30
0.0
 11
2.31170499999999
 21
45.00095
 31
0.0
  0
LINE
  5
61
330
1E
100
AcDbEntity
  8
0
100
AcDbLine
 10
2.117774999999989
 20
44.92894999999999
 30
0.0
 11
2.828184999999999
 21
45.03694999999999
 31
0.0
  0
LINE
  5
62
330
1E
100
AcDbEntity
  8
0
100
AcDbLine
 10
1.463744999999989
 20
44.64094999999999
 30
0.0
 11
2.117774999999989
 21
44.92894999999999
 31
0.0
  0
LINE
  5
63
330
1E
100
AcDbEntity
  8
0
100
AcDbLine
 10
0.8886549999999949
 20
44.17295
 30
0.0
 11
1.463744999999989
 21
44.64094999999999
 31
0.0
  0
LINE
  5
64
330
1E
100
AcDbEntity
  8
0
100
AcDbLine
 10
0.448874999999993
 20
43.56094999999999
 30
0.0
 11
0.8886549999999949
 21
44.17295
 31
0.0
  0
LINE
  5
65
330
1E
100
AcDbEntity
  8
0
100
AcDbLine
 10
0.178244999999994
 20
42.86495
 30
0.0
 11
0.448874999999993
 21
43.56094999999999
 31
0.0
  0
LINE
  5
66
330
1E
100
AcDbEntity
  8
0
100
AcDbLine
 10
2.31170499999999
 20
45.00095
 30
0.0
 11
3.033395
 21
45.10895
 31
0.0
  0
LINE
  5
67
330
1E
100
AcDbEntity
  8
0
100
AcDbLine
 10
3.03339499999999
 20
45.10895
 30
0.0
 11
6.677080999999999
 21
45.10895
 31
0.0
  0
LINE
  5
68
330
1E
100
AcDbEntity
  8
0
100
AcDbLine
 10
2.828184999999999
 20
45.03694999999999
 30
0.0
 11
3.538594999999999
 21
44.92894999999999
 31
0.0
  0
LINE
  5
69
330
1E
100
AcDbEntity
  8
0
100
AcDbLine
 10
3.538594999999999
 20
44.92894999999999
 30
0.0
 11
4.192614999999999
 21
44.64094999999999
 31
0.0
  0
LINE
  5
6A
330
1E
100
AcDbEntity
  8
0
100
AcDbLine
 10
4.192614999999999
 20
44.64094999999999
 30
0.0
 11
4.767705
 21
44.17295
 31
0.0
  0
LINE
  5
6B
330
1E
100
AcDbEntity
  8
0
100
AcDbLine
 10
4.767705
 20
44.17295
 30
0.0
 11
5.20748399999999
 21
43.56094999999999
 31
0.0
  0
LINE
  5
6C
330
1E
100
AcDbEntity
  8
0
100
AcDbLine
 10
5.20748399999999
 20
43.56094999999999
 30
0.0
 11
5.478114999999999
 21
42.86495
 31
0.0
  0
LINE
  5
6D
330
1E
100
AcDbEntity
  8
0
100
AcDbLine
 10
5.478114999999999
 20
42.86495
 30
0.0
 11
5.579601999999999
 21
42.10894999999999
 31
0.0
  0
LINE
  5
6E
330
1E
100
AcDbEntity
  8
0
100
AcDbLine
 10
3.033395
 20
45.10895
 30
0.0
 11
6.677080999999999
 21
45.10895
 31
0.0
  0
LINE
  5
6F
330
1E
100
AcDbEntity
  8
0
100
AcDbLine
 10
5.923235
 20
46.64184999999999
 30
0.0
 11
5.923235
 21
50.90965
 31
0.0
  0
LINE
  5
70
330
1E
100
AcDbEntity
  8
0
100
AcDbLine
 10
5.923235
 20
46.64184999999999
 30
0.0
 11
5.923235
 21
45.10895
 31
0.0
  0
LINE
  5
71
330
1E
100
AcDbEntity
  8
0
100
AcDbLine
 10
5.923235
 20
45.10895
 30
0.0
 11
5.923235
 21
46.64064999999999
 31
0.0
  0
LINE
  5
72
330
1E
100
AcDbEntity
  8
0
100
AcDbLine
 10
5.923235
 20
45.10895
 30
0.0
 11
5.923235
 21
46.64184999999999
 31
0.0
  0
LINE
  5
73
330
1E
100
AcDbEntity
  8
0
100
AcDbLine
 10
38.589935
 20
46.64184999999999
 30
0.0
 11
38.589935
 21
42.05775
 31
0.0
  0
LINE
  5
74
330
1E
100
AcDbEntity
  8
0
100
AcDbLine
 10
38.589935
 20
46.64184999999999
 30
0.0
 11
38.589935
 21
50.90965
 31
0.0
  0
LINE
  5
75
330
1E
100
AcDbEntity
  8
0
100
AcDbLine
 10
5.923235
 20
46.64064999999999
 30
0.0
 11
5.923235
 21
45.10895
 31
0.0
  0
LINE
  5
76
330
1E
100
AcDbEntity
  8
0
100
AcDbLine
 10
5.923235
 20
46.64064999999999
 30
0.0
 11
5.923235
 21
50.89294999999999
 31
0.0
  0
LINE
  5
77
330
1E
100
AcDbEntity
  8
0
100
AcDbLine
 10
5.923235
 20
54.49415
 30
0.0
 11
5.923235
 21
57.32325
 31
0.0
  0
LINE
  5
78
330
1E
100
AcDbEntity
  8
0
100
AcDbLine
 10
5.923235
 20
54.49415
 30
0.0
 11
5.923235
 21
50.90965
 31
0.0
  0
LINE
  5
79
330
1E
100
AcDbEntity
  8
0
100
AcDbLine
 10
5.923235
 20
50.90965
 30
0.0
 11
5.923235
 21
54.49415
 31
0.0
  0
LINE
  5
7A
330
1E
100
AcDbEntity
  8
0
100
AcDbLine
 10
5.923235
 20
50.90965
 30
0.0
 11
5.923235
 21
46.64184999999999
 31
0.0
  0
LINE
  5
7B
330
1E
100
AcDbEntity
  8
0
100
AcDbLine
 10
5.923235
 20
57.32325
 30
0.0
 11
5.923235
 21
59.03014999999999
 31
0.0
  0
LINE
  5
7C
330
1E
100
AcDbEntity
  8
0
100
AcDbLine
 10
5.923235
 20
57.32325
 30
0.0
 11
5.923235
 21
54.49415
 31
0.0
  0
LINE
  5
7D
330
1E
100
AcDbEntity
  8
0
100
AcDbLine
 10
5.923235
 20
59.03014999999999
 30
0.0
 11
5.923235
 21
59.62165
 31
0.0
  0
LINE
  5
7E
330
1E
100
AcDbEntity
  8
0
100
AcDbLine
 10
5.923235
 20
59.03014999999999
 30
0.0
 11
5.923235
 21
57.32325
 31
0.0
  0
LINE
  5
7F
330
1E
100
AcDbEntity
  8
0
100
AcDbLine
 10
5.923235
 20
59.02585
 30
0.0
 11
5.923235
 21
57.24975
 31
0.0
  0
LINE
  5
80
330
1E
100
AcDbEntity
  8
0
100
AcDbLine
 10
5.923235
 20
59.02585
 30
0.0
 11
5.923235
 21
59.62165
 31
0.0
  0
LINE
  5
81
330
1E
100
AcDbEntity
  8
0
100
AcDbLine
 10
5.923235
 20
57.24975
 30
0.0
 11
5.923235
 21
54.49725
 31
0.0
  0
LINE
  5
82
330
1E
100
AcDbEntity
  8
0
100
AcDbLine
 10
5.923235
 20
57.24975
 30
0.0
 11
5.923235
 21
59.02585
 31
0.0
  0
LINE
  5
83
330
1E
100
AcDbEntity
  8
0
100
AcDbLine
 10
38.589935
 20
54.49415
 30
0.0
 11
38.589935
 21
50.90965
 31
0.0
  0
LINE
  5
84
330
1E
100
AcDbEntity
  8
0
100
AcDbLine
 10
38.589935
 20
54.49415
 30
0.0
 11
38.589935
 21
57.32325
 31
0.0
  0
LINE
  5
85
330
1E
100
AcDbEntity
  8
0
100
AcDbLine
 10
38.589935
 20
50.90965
 30
0.0
 11
38.589935
 21
46.64184999999999
 31
0.0
  0
LINE
  5
86
330
1E
100
AcDbEntity
  8
0
100
AcDbLine
 10
38.589935
 20
50.90965
 30
0.0
 11
38.589935
 21
54.49415
 31
0.0
  0
LINE
  5
87
330
1E
100
AcDbEntity
  8
0
100
AcDbLine
 10
5.923235
 20
54.49725
 30
0.0
 11
5.923235
 21
50.89294999999999
 31
0.0
  0
LINE
  5
88
330
1E
100
AcDbEntity
  8
0
100
AcDbLine
 10
5.923235
 20
54.49725
 30
0.0
 11
5.923235
 21
57.24975
 31
0.0
  0
LINE
  5
89
330
1E
100
AcDbEntity
  8
0
100
AcDbLine
 10
5.923235
 20
50.89294999999999
 30
0.0
 11
5.923235
 21
46.64064999999999
 31
0.0
  0
LINE
  5
8A
330
1E
100
AcDbEntity
  8
0
100
AcDbLine
 10
5.923235
 20
50.89294999999999
 30
0.0
 11
5.923235
 21
54.49725
 31
0.0
  0
LINE
  5
8B
330
1E
100
AcDbEntity
  8
0
100
AcDbLine
 10
38.589935
 20
57.32325
 30
0.0
 11
38.589935
 21
59.03014999999999
 31
0.0
  0
LINE
  5
8C
330
1E
100
AcDbEntity
  8
0
100
AcDbLine
 10
38.589935
 20
57.32325
 30
0.0
 11
38.589935
 21
54.49415
 31
0.0
  0
LINE
  5
8D
330
1E
100
AcDbEntity
  8
0
100
AcDbLine
 10
5.923235
 20
59.62165
 30
0.0
 11
5.923235
 21
59.02585
 31
0.0
  0
LINE
  5
8E
330
1E
100
AcDbEntity
  8
0
100
AcDbLine
 10
5.923235
 20
59.62165
 30
0.0
 11
6.677080999999999
 21
60.10374999999999
 31
0.0
  0
LINE
  5
8F
330
1E
100
AcDbEntity
  8
0
100
AcDbLine
 10
5.923235
 20
59.62165
 30
0.0
 11
5.923235
 21
59.03014999999999
 31
0.0
  0
LINE
  5
90
330
1E
100
AcDbEntity
  8
0
100
AcDbLine
 10
6.677080999999999
 20
60.10374999999999
 30
0.0
 11
37.83603499999999
 21
60.10374999999999
 31
0.0
  0
LINE
  5
91
330
1E
100
AcDbEntity
  8
0
100
AcDbLine
 10
6.67708099999999
 20
60.10374999999999
 30
0.0
 11
37.83603499999999
 21
60.10374999999999
 31
0.0
  0
LINE
  5
92
330
1E
100
AcDbEntity
  8
0
100
AcDbLine
 10
38.589935
 20
59.03014999999999
 30
0.0
 11
38.589935
 21
57.32325
 31
0.0
  0
LINE
  5
93
330
1E
100
AcDbEntity
  8
0
100
AcDbLine
 10
38.589935
 20
59.03014999999999
 30
0.0
 11
38.589935
 21
59.62165
 31
0.0
  0
LINE
  5
94
330
1E
100
AcDbEntity
  8
0
100
AcDbLine
 10
39.34373499999999
 20
60.10374999999999
 30
0.0
 11
44.923235
 21
60.10374999999999
 31
0.0
  0
LINE
  5
95
330
1E
100
AcDbEntity
  8
0
100
AcDbLine
 10
38.589935
 20
59.62165
 30
0.0
 11
38.589935
 21
59.03014999999999
 31
0.0
  0
LINE
  5
96
330
1E
100
AcDbEntity
  8
0
100
AcDbLine
 10
38.589935
 20
59.62165
 30
0.0
 11
39.34373499999999
 21
60.10374999999999
 31
0.0
  0
LINE
  5
97
330
1E
100
AcDbEntity
  8
0
100
AcDbLine
 10
37.83603499999999
 20
60.10374999999999
 30
0.0
 11
38.589935
 21
59.62165
 31
0.0
  0
LINE
  5
98
330
1E
100
AcDbEntity
  8
0
100
AcDbLine
 10
44.923235
 20
42.10894999999999
 30
0.0
 11
44.923235
 21
86.10894999999999
 31
0.0
  0
LINE
  5
99
330
1E
100
AcDbEntity
  8
0
100
AcDbLine
 10
44.923235
 20
42.10894999999999
 30
0.0
 11
45.32323499999999
 21
39.30895
 31
0.0
  0
LINE
  5
9A
330
1E
100
AcDbEntity
  8
0
100
AcDbLine
 10
44.923235
 20
42.10894999999999
 30
0.0
 11
44.923235
 21
86.10894999999999
 31
0.0
  0
LINE
  5
9B
330
1E
100
AcDbEntity
  8
0
100
AcDbLine
 10
44.923235
 20
42.10894999999999
 30
0.0
 11
45.32323499999999
 21
39.30895
 31
0.0
  0
LINE
  5
9C
330
1E
100
AcDbEntity
  8
0
100
AcDbLine
 10
44.923235
 20
86.1089499999999
 30
0.0
 11
44.923235
 21
60.10374999999999
 31
0.0
  0
LINE
  5
9D
330
1E
100
AcDbEntity
  8
0
100
AcDbLine
 10
44.923235
 20
86.10894999999999
 30
0.0
 11
55.923235
 21
86.10894999999999
 31
0.0
  0
LINE
  5
9E
330
1E
100
AcDbEntity
  8
0
100
AcDbLine
 10
44.923235
 20
86.10894999999999
 30
0.0
 11
45.423235
 21
85.60895
 31
0.0
  0
LINE
  5
9F
330
1E
100
AcDbEntity
  8
0
100
AcDbLine
 10
44.923235
 20
86.10894999999999
 30
0.0
 11
44.923235
 21
42.10894999999999
 31
0.0
  0
LINE
  5
A0
330
1E
100
AcDbEntity
  8
0
100
AcDbLine
 10
44.923235
 20
86.10894999999999
 30
0.0
 11
44.923235
 21
42.10894999999999
 31
0.0
  0
LINE
  5
A1
330
1E
100
AcDbEntity
  8
0
100
AcDbLine
 10
44.923235
 20
86.10894999999999
 30
0.0
 11
44.923235
 21
60.10374999999999
 31
0.0
  0
LINE
  5
A2
330
1E
100
AcDbEntity
  8
0
100
AcDbLine
 10
53.123235
 20
31.50895
 30
0.0
 11
55.923235
 21
31.10895
 31
0.0
  0
LINE
  5
A3
330
1E
100
AcDbEntity
  8
0
100
AcDbLine
 10
55.923235
 20
31.10895
 30
0.0
 11
58.723235
 21
31.50895
 31
0.0
  0
LINE
  5
A4
330
1E
100
AcDbEntity
  8
0
100
AcDbLine
 10
55.923235
 20
31.10895
 30
0.0
 11
58.723235
 21
31.50895
 31
0.0
  0
LINE
  5
A5
330
1E
100
AcDbEntity
  8
0
100
AcDbLine
 10
53.123235
 20
31.50895
 30
0.0
 11
55.923235
 21
31.10895
 31
0.0
  0
LINE
  5
A6
330
1E
100
AcDbEntity
  8
0
100
AcDbLine
 10
53.22323499999999
 20
32.00895
 30
0.0
 11
55.923235
 21
31.60895
 31
0.0
  0
LINE
  5
A7
330
1E
100
AcDbEntity
  8
0
100
AcDbLine
 10
55.923235
 20
31.60895
 30
0.0
 11
58.623235
 21
32.00895
 31
0.0
  0
LINE
  5
A8
330
1E
100
AcDbEntity
  8
0
100
AcDbLine
 10
46.82323499999999
 20
36.90894999999999
 30
0.0
 11
48.523235
 21
34.70895
 31
0.0
  0
LINE
  5
A9
330
1E
100
AcDbEntity
  8
0
100
AcDbLine
 10
46.42323499999999
 20
36.60895
 30
0.0
 11
48.123235
 21
34.30895
 31
0.0
  0
LINE
  5
AA
330
1E
100
AcDbEntity
  8
0
100
AcDbLine
 10
46.42323499999999
 20
36.60895
 30
0.0
 11
48.123235
 21
34.30895
 31
0.0
  0
LINE
  5
AB
330
1E
100
AcDbEntity
  8
0
100
AcDbLine
 10
50.72323499999999
 20
33.00895
 30
0.0
 11
53.22323499999999
 21
32.00895
 31
0.0
  0
LINE
  5
AC
330
1E
100
AcDbEntity
  8
0
100
AcDbLine
 10
48.523235
 20
34.70895
 30
0.0
 11
50.72323499999999
 21
33.00895
 31
0.0
  0
LINE
  5
AD
330
1E
100
AcDbEntity
  8
0
100
AcDbLine
 10
48.123235
 20
34.30895
 30
0.0
 11
50.423235
 21
32.60895
 31
0.0
  0
LINE
  5
AE
330
1E
100
AcDbEntity
  8
0
100
AcDbLine
 10
50.423235
 20
32.60895
 30
0.0
 11
53.123235
 21
31.50895
 31
0.0
  0
LINE
  5
AF
330
1E
100
AcDbEntity
  8
0
100
AcDbLine
 10
50.423235
 20
32.60895
 30
0.0
 11
53.123235
 21
31.50895
 31
0.0
  0
LINE
  5
B0
330
1E
100
AcDbEntity
  8
0
100
AcDbLine
 10
46.82323499999999
 20
36.90894999999999
 30
0.0
 11
48.523235
 21
34.70895
 31
0.0
  0
LINE
  5
B1
330
1E
100
AcDbEntity
  8
0
100
AcDbLine
 10
58.623235
 20
32.00895
 30
0.0
 11
61.123235
 21
33.00895
 31
0.0
  0
LINE
  5
B2
330
1E
100
AcDbEntity
  8
0
100
AcDbLine
 10
61.123235
 20
33.00895
 30
0.0
 11
63.323235
 21
34.70895
 31
0.0
  0
LINE
  5
B3
330
1E
100
AcDbEntity
  8
0
100
AcDbLine
 10
58.723235
 20
31.50895
 30
0.0
 11
61.42323499999999
 21
32.60895
 31
0.0
  0
LINE
  5
B4
330
1E
100
AcDbEntity
  8
0
100
AcDbLine
 10
61.42323499999999
 20
32.60895
 30
0.0
 11
63.723235
 21
34.30895
 31
0.0
  0
LINE
  5
B5
330
1E
100
AcDbEntity
  8
0
100
AcDbLine
 10
58.723235
 20
31.50895
 30
0.0
 11
61.42323499999999
 21
32.60895
 31
0.0
  0
LINE
  5
B6
330
1E
100
AcDbEntity
  8
0
100
AcDbLine
 10
75.92323499999999
 20
24.11414999999999
 30
0.0
 11
75.92323499999999
 21
24.70035
 31
0.0
  0
LINE
  5
B8
330
1E
100
AcDbEntity
  8
0
100
AcDbLine
 10
75.92323499999999
 20
10.10895
 30
0.0
 11
76.42723499999999
 21
7.05394999999999
 31
0.0
  0
LINE
  5
B9
330
1E
100
AcDbEntity
  8
0
100
AcDbLine
 10
75.92323499999999
 20
10.10895
 30
0.0
 11
75.92323499999999
 21
32.10895
 31
0.0
  0
LINE
  5
BA
330
1E
100
AcDbEntity
  8
0
100
AcDbLine
 10
75.92323499999999
 20
10.10895
 30
0.0
 11
76.42723499999999
 21
13.16385
 31
0.0
  0
LINE
  5
BB
330
1E
100
AcDbEntity
  8
0
100
AcDbLine
 10
75.92323499999999
 20
24.70035
 30
0.0
 11
75.92323499999999
 21
24.11414999999999
 31
0.0
  0
LINE
  5
BC
330
1E
100
AcDbEntity
  8
0
100
AcDbLine
 10
75.92323499999999
 20
24.70035
 30
0.0
 11
75.92323499999999
 21
26.56505
 31
0.0
  0
LINE
  5
BD
330
1E
100
AcDbEntity
  8
0
100
AcDbLine
 10
75.92323499999999
 20
26.56505
 30
0.0
 11
75.92323499999999
 21
24.70035
 31
0.0
  0
LINE
  5
BE
330
1E
100
AcDbEntity
  8
0
100
AcDbLine
 10
75.92323499999999
 20
26.56505
 30
0.0
 11
75.92323499999999
 21
29.44235
 31
0.0
  0
LINE
  5
C0
330
1E
100
AcDbEntity
  8
0
100
AcDbLine
 10
75.92323499999999
 20
32.10895
 30
0.0
 11
75.92323499999999
 21
10.10895
 31
0.0
  0
LINE
  5
C3
330
1E
100
AcDbEntity
  8
0
100
AcDbLine
 10
75.92323499999999
 20
32.10895
 30
0.0
 11
75.92323499999999
 21
33.10895
 31
0.0
  0
LINE
  5
C4
330
1E
100
AcDbEntity
  8
0
100
AcDbLine
 10
75.92323499999999
 20
29.44235
 30
0.0
 11
75.92323499999999
 21
26.56505
 31
0.0
  0
LINE
  5
C5
330
1E
100
AcDbEntity
  8
0
100
AcDbLine
 10
75.92323499999999
 20
29.44235
 30
0.0
 11
75.92323499999999
 21
33.10895
 31
0.0
  0
LINE
  5
C6
330
1E
100
AcDbEntity
  8
0
100
AcDbLine
 10
77.771235
 20
4.18994999999999
 30
0.0
 11
80.011235
 21
1.660069999999989
 31
0.0
  0
LINE
  5
C7
330
1E
100
AcDbEntity
  8
0
100
AcDbLine
 10
76.42723499999999
 20
7.05394999999999
 30
0.0
 11
77.771235
 21
4.18994999999999
 31
0.0
  0
LINE
  5
C8
330
1E
100
AcDbEntity
  8
0
100
AcDbLine
 10
80.011235
 20
1.660069999999989
 30
0.0
 11
81.92323499999998
 21
0.391709999999992
 31
0.0
  0
LINE
  5
C9
330
1E
100
AcDbEntity
  8
0
100
AcDbLine
 10
80.011235
 20
1.660069999999989
 30
0.0
 11
81.92323499999998
 21
0.3917099999999911
 31
0.0
  0
LINE
  5
CA
330
1E
100
AcDbEntity
  8
0
100
AcDbLine
 10
81.92323499999998
 20
0.391709999999992
 30
0.0
 11
81.92323499999998
 21
2.76698916666666
 31
0.0
  0
LINE
  5
CB
330
1E
100
AcDbEntity
  8
0
100
AcDbLine
 10
89.92323499999999
 20
-0.108950000000008
 30
0.0
 11
92.923235
 21
0.23745999999999
 31
0.0
  0
LINE
  5
CC
330
1E
100
AcDbEntity
  8
0
100
AcDbLine
 10
92.923235
 20
0.237459999999991
 30
0.0
 11
95.62323499999999
 21
1.19008999999999
 31
0.0
  0
LINE
  5
CD
330
1E
100
AcDbEntity
  8
0
100
AcDbLine
 10
89.92323499999999
 20
-0.108950000000008
 30
0.0
 11
92.923235
 21
0.23745999999999
 31
0.0
  0
LINE
  5
CE
330
1E
100
AcDbEntity
  8
0
100
AcDbLine
 10
97.923235
 20
0.3917099999999911
 30
0.0
 11
99.835235
 21
1.660069999999989
 31
0.0
  0
LINE
  5
CF
330
1E
100
AcDbEntity
  8
0
100
AcDbLine
 10
97.923235
 20
0.391709999999992
 30
0.0
 11
97.923235
 21
2.766989166666669
 31
0.0
  0
LINE
  5
D0
330
1E
100
AcDbEntity
  8
0
100
AcDbLine
 10
97.923235
 20
0.391709999999992
 30
0.0
 11
97.923235
 21
2.766989166666669
 31
0.0
  0
LINE
  5
D1
330
1E
100
AcDbEntity
  8
0
100
AcDbLine
 10
97.923235
 20
0.391709999999992
 30
0.0
 11
99.835235
 21
1.660069999999989
 31
0.0
  0
LINE
  5
D2
330
1E
100
AcDbEntity
  8
0
100
AcDbLine
 10
92.923235
 20
0.23745999999999
 30
0.0
 11
95.62323499999999
 21
1.19008999999999
 31
0.0
  0
LINE
  5
D3
330
1E
100
AcDbEntity
  8
0
100
AcDbLine
 10
95.62323499999999
 20
1.19008999999999
 30
0.0
 11
98.02323499999999
 21
2.83554999999999
 31
0.0
  0
LINE
  5
D4
330
1E
100
AcDbEntity
  8
0
100
AcDbLine
 10
86.92323499999998
 20
0.23745999999999
 30
0.0
 11
89.92323499999999
 21
-0.108950000000008
 31
0.0
  0
LINE
  5
D5
330
1E
100
AcDbEntity
  8
0
100
AcDbLine
 10
86.92323499999998
 20
0.23745999999999
 30
0.0
 11
89.92323499999999
 21
-0.108950000000008
 31
0.0
  0
LINE
  5
D6
330
1E
100
AcDbEntity
  8
0
100
AcDbLine
 10
81.92323499999998
 20
2.76698916666666
 30
0.0
 11
81.92323499999998
 21
0.391709999999992
 31
0.0
  0
LINE
  5
D7
330
1E
100
AcDbEntity
  8
0
100
AcDbLine
 10
99.835235
 20
1.660069999999989
 30
0.0
 11
102.0752349999999
 21
4.18994999999999
 31
0.0
  0
LINE
  5
D8
330
1E
100
AcDbEntity
  8
0
100
AcDbLine
 10
97.923235
 20
2.766989166666669
 30
0.0
 11
97.923235
 21
0.3917099999999891
 31
0.0
  0
LINE
  5
D9
330
1E
100
AcDbEntity
  8
0
100
AcDbLine
 10
97.923235
 20
2.766989166666669
 30
0.0
 11
97.923235
 21
0.391709999999992
 31
0.0
  0
LINE
  5
DA
330
1E
100
AcDbEntity
  8
0
100
AcDbLine
 10
81.92323499999998
 20
2.76698916666666
 30
0.0
 11
81.92323499999998
 21
0.3917099999999891
 31
0.0
  0
LINE
  5
DB
330
1E
100
AcDbEntity
  8
0
100
AcDbLine
 10
98.02323499999999
 20
2.83554999999999
 30
0.0
 11
99.92323499999999
 21
4.91404999999999
 31
0.0
  0
LINE
  5
DC
330
1E
100
AcDbEntity
  8
0
100
AcDbLine
 10
102.0752349999999
 20
4.18994999999999
 30
0.0
 11
103.419235
 21
7.05394999999999
 31
0.0
  0
LINE
  5
DD
330
1E
100
AcDbEntity
  8
0
100
AcDbLine
 10
99.92323499999999
 20
4.91404999999999
 30
0.0
 11
101.023235
 21
7.25224999999999
 31
0.0
  0
LINE
  5
DE
330
1E
100
AcDbEntity
  8
0
100
AcDbLine
 10
84.223235
 20
1.19008999999999
 30
0.0
 11
86.92323499999998
 21
0.237459999999991
 31
0.0
  0
LINE
  5
DF
330
1E
100
AcDbEntity
  8
0
100
AcDbLine
 10
84.223235
 20
1.19008999999999
 30
0.0
 11
86.92323499999998
 21
0.23745999999999
 31
0.0
  0
LINE
  5
E0
330
1E
100
AcDbEntity
  8
0
100
AcDbLine
 10
81.823235
 20
2.83554999999999
 30
0.0
 11
84.223235
 21
1.19008999999999
 31
0.0
  0
LINE
  5
E1
330
1E
100
AcDbEntity
  8
0
100
AcDbLine
 10
103.419235
 20
7.05394999999999
 30
0.0
 11
103.923235
 21
10.10895
 31
0.0
  0
LINE
  5
E2
330
1E
100
AcDbEntity
  8
0
100
AcDbLine
 10
101.023235
 20
7.25224999999999
 30
0.0
 11
101.4232349999999
 21
9.850349999999989
 31
0.0
  0
LINE
  5
E3
330
1E
100
AcDbEntity
  8
0
100
AcDbLine
 10
79.92323499999999
 20
4.91404999999999
 30
0.0
 11
81.823235
 21
2.83554999999999
 31
0.0
  0
LINE
  5
E4
330
1E
100
AcDbEntity
  8
0
100
AcDbLine
 10
78.823235
 20
7.25224999999999
 30
0.0
 11
79.92323499999999
 21
4.91404999999999
 31
0.0
  0
LINE
  5
E5
330
1E
100
AcDbEntity
  8
0
100
AcDbLine
 10
77.771235
 20
16.02785
 30
0.0
 11
80.011235
 21
18.55785
 31
0.0
  0
LINE
  5
E6
330
1E
100
AcDbEntity
  8
0
100
AcDbLine
 10
76.42723499999999
 20
13.16385
 30
0.0
 11
77.771235
 21
16.02785
 31
0.0
  0
LINE
  5
E7
330
1E
100
AcDbEntity
  8
0
100
AcDbLine
 10
99.92323499999999
 20
14.78665
 30
0.0
 11
101.023235
 21
12.44844999999999
 31
0.0
  0
LINE
  5
E9
330
1E
100
AcDbEntity
  8
0
100
AcDbLine
 10
80.011235
 20
18.55785
 30
0.0
 11
82.97923500000001
 21
20.46715
 31
0.0
  0
LINE
  5
EA
330
1E
100
AcDbEntity
  8
0
100
AcDbLine
 10
95.62323499999999
 20
18.51054999999999
 30
0.0
 11
98.02323499999999
 21
16.86514999999999
 31
0.0
  0
LINE
  5
EB
330
1E
100
AcDbEntity
  8
0
100
AcDbLine
 10
98.02323499999999
 20
16.86514999999999
 30
0.0
 11
99.92323499999999
 21
14.78665
 31
0.0
  0
LINE
  5
EC
330
1E
100
AcDbEntity
  8
0
100
AcDbLine
 10
86.33923499999999
 20
21.61274999999999
 30
0.0
 11
89.92323499999999
 21
22.04235
 31
0.0
  0
LINE
  5
ED
330
1E
100
AcDbEntity
  8
0
100
AcDbLine
 10
82.97923500000001
 20
20.46715
 30
0.0
 11
86.33923499999999
 21
21.61274999999999
 31
0.0
  0
LINE
  5
EE
330
1E
100
AcDbEntity
  8
0
100
AcDbLine
 10
99.835235
 20
18.55785
 30
0.0
 11
102.0752349999999
 21
16.02785
 31
0.0
  0
LINE
  5
EF
330
1E
100
AcDbEntity
  8
0
100
AcDbLine
 10
89.92323499999999
 20
22.04235
 30
0.0
 11
93.50723499999999
 21
21.61274999999999
 31
0.0
  0
LINE
  5
F0
330
1E
100
AcDbEntity
  8
0
100
AcDbLine
 10
93.50723499999999
 20
21.61274999999999
 30
0.0
 11
96.86723499999999
 21
20.46715
 31
0.0
  0
LINE
  5
F1
330
1E
100
AcDbEntity
  8
0
100
AcDbLine
 10
96.86723499999999
 20
20.46715
 30
0.0
 11
99.835235
 21
18.55785
 31
0.0
  0
LINE
  5
F2
330
1E
100
AcDbEntity
  8
0
100
AcDbLine
 10
89.92323499999999
 20
19.80965
 30
0.0
 11
92.923235
 21
19.46324999999999
 31
0.0
  0
LINE
  5
F3
330
1E
100
AcDbEntity
  8
0
100
AcDbLine
 10
92.923235
 20
19.46324999999999
 30
0.0
 11
95.62323499999999
 21
18.51054999999999
 31
0.0
  0
LINE
  5
F4
330
1E
100
AcDbEntity
  8
0
100
AcDbLine
 10
86.92323499999998
 20
19.46324999999999
 30
0.0
 11
89.92323499999999
 21
19.80965
 31
0.0
  0
LINE
  5
F5
330
1E
100
AcDbEntity
  8
0
100
AcDbLine
 10
84.223235
 20
18.51054999999999
 30
0.0
 11
86.92323499999998
 21
19.46324999999999
 31
0.0
  0
LINE
  5
F6
330
1E
100
AcDbEntity
  8
0
100
AcDbLine
 10
81.823235
 20
16.86514999999999
 30
0.0
 11
84.223235
 21
18.51054999999999
 31
0.0
  0
LINE
  5
F7
330
1E
100
AcDbEntity
  8
0
100
AcDbLine
 10
79.92323499999999
 20
14.78665
 30
0.0
 11
81.823235
 21
16.86514999999999
 31
0.0
  0
LINE
  5
F8
330
1E
100
AcDbEntity
  8
0
100
AcDbLine
 10
78.823235
 20
12.44844999999999
 30
0.0
 11
79.92323499999999
 21
14.78665
 31
0.0
  0
LINE
  5
123
330
1E
100
AcDbEntity
  8
0
100
AcDbLine
 10
103.923235
 20
10.10895
 30
0.0
 11
103.923235
 21
41.10895
 31
0.0
  0
LINE
  5
125
330
1E
100
AcDbEntity
  8
0
100
AcDbLine
 10
102.0752349999999
 20
16.02785
 30
0.0
 11
103.419235
 21
13.16385
 31
0.0
  0
LINE
  5
126
330
1E
100
AcDbEntity
  8
0
100
AcDbLine
 10
103.419235
 20
13.16385
 30
0.0
 11
103.923235
 21
10.10895
 31
0.0
  0
LINE
  5
12E
330
1E
100
AcDbEntity
  8
0
100
AcDbLine
 10
101.023235
 20
12.44844999999999
 30
0.0
 11
101.4232349999999
 21
9.850349999999989
 31
0.0
  0
LINE
  5
130
330
1E
100
AcDbEntity
  8
0
100
AcDbLine
 10
78.42323499999999
 20
9.850349999999989
 30
0.0
 11
78.823235
 21
7.25224999999999
 31
0.0
  0
LINE
  5
132
330
1E
100
AcDbEntity
  8
0
100
AcDbLine
 10
78.42323499999999
 20
9.850349999999989
 30
0.0
 11
78.823235
 21
12.44844999999999
 31
0.0
  0
LINE
  5
133
330
1E
100
AcDbEntity
  8
0
100
AcDbLine
 10
75.92323499999999
 20
33.10895
 30
0.0
 11
75.92323499999999
 21
29.44235
 31
0.0
  0
LINE
  5
134
330
1E
100
AcDbEntity
  8
0
100
AcDbLine
 10
75.92323499999999
 20
33.10895
 30
0.0
 11
75.92323499999999
 21
32.10895
 31
0.0
  0
LINE
  5
135
330
1E
100
AcDbEntity
  8
0
100
AcDbLine
 10
75.92323499999999
 20
33.10895
 30
0.0
 11
75.92323499999999
 21
37.42354999999999
 31
0.0
  0
LINE
  5
142
330
1E
100
AcDbEntity
  8
0
100
AcDbLine
 10
65.42323499999999
 20
36.60895
 30
0.0
 11
66.523235
 21
39.30895
 31
0.0
  0
LINE
  5
143
330
1E
100
AcDbEntity
  8
0
100
AcDbLine
 10
63.723235
 20
34.30895
 30
0.0
 11
65.42323499999999
 21
36.60895
 31
0.0
  0
LINE
  5
144
330
1E
100
AcDbEntity
  8
0
100
AcDbLine
 10
63.723235
 20
34.30895
 30
0.0
 11
65.42323499999999
 21
36.60895
 31
0.0
  0
LINE
  5
145
330
1E
100
AcDbEntity
  8
0
100
AcDbLine
 10
63.323235
 20
34.70895
 30
0.0
 11
65.023235
 21
36.90894999999999
 31
0.0
  0
LINE
  5
146
330
1E
100
AcDbEntity
  8
0
100
AcDbLine
 10
63.323235
 20
34.70895
 30
0.0
 11
65.023235
 21
36.90894999999999
 31
0.0
  0
LINE
  5
147
330
1E
100
AcDbEntity
  8
0
100
AcDbLine
 10
45.823235
 20
39.40894999999999
 30
0.0
 11
46.82323499999999
 21
36.90894999999999
 31
0.0
  0
LINE
  5
148
330
1E
100
AcDbEntity
  8
0
100
AcDbLine
 10
45.32323499999999
 20
39.30895
 30
0.0
 11
46.42323499999999
 21
36.60895
 31
0.0
  0
LINE
  5
149
330
1E
100
AcDbEntity
  8
0
100
AcDbLine
 10
45.823235
 20
39.40894999999999
 30
0.0
 11
46.82323499999999
 21
36.90894999999999
 31
0.0
  0
LINE
  5
14A
330
1E
100
AcDbEntity
  8
0
100
AcDbLine
 10
45.423235
 20
42.10894999999999
 30
0.0
 11
45.423235
 21
85.60895
 31
0.0
  0
LINE
  5
14B
330
1E
100
AcDbEntity
  8
0
100
AcDbLine
 10
45.423235
 20
42.10894999999999
 30
0.0
 11
45.823235
 21
39.40894999999999
 31
0.0
  0
LINE
  5
14C
330
1E
100
AcDbEntity
  8
0
100
AcDbLine
 10
45.423235
 20
85.60895
 30
0.0
 11
55.923235
 21
85.60895
 31
0.0
  0
LINE
  5
14D
330
1E
100
AcDbEntity
  8
0
100
AcDbLine
 10
45.423235
 20
85.60895
 30
0.0
 11
45.423235
 21
42.10894999999999
 31
0.0
  0
LINE
  5
14E
330
1E
100
AcDbEntity
  8
0
100
AcDbLine
 10
66.42323499999999
 20
42.10894999999999
 30
0.0
 11
66.42323499999999
 21
85.60895
 31
0.0
  0
LINE
  5
14F
330
1E
100
AcDbEntity
  8
0
100
AcDbLine
 10
66.023235
 20
39.40894999999999
 30
0.0
 11
66.42323499999999
 21
42.10894999999999
 31
0.0
  0
LINE
  5
150
330
1E
100
AcDbEntity
  8
0
100
AcDbLine
 10
66.42323499999999
 20
85.60895
 30
0.0
 11
66.92323499999999
 21
86.10894999999999
 31
0.0
  0
LINE
  5
151
330
1E
100
AcDbEntity
  8
0
100
AcDbLine
 10
66.42323499999999
 20
85.60895
 30
0.0
 11
66.42323499999999
 21
42.10894999999999
 31
0.0
  0
LINE
  5
152
330
1E
100
AcDbEntity
  8
0
100
AcDbLine
 10
55.923235
 20
85.60895
 30
0.0
 11
66.42323499999999
 21
85.60895
 31
0.0
  0
LINE
  5
153
330
1E
100
AcDbEntity
  8
0
100
AcDbLine
 10
66.523235
 20
39.30895
 30
0.0
 11
66.92323499999999
 21
42.10894999999999
 31
0.0
  0
LINE
  5
154
330
1E
100
AcDbEntity
  8
0
100
AcDbLine
 10
55.923235
 20
86.10894999999999
 30
0.0
 11
66.92323499999999
 21
86.10894999999999
 31
0.0
  0
LINE
  5
16D
330
1E
100
AcDbEntity
  8
0
100
AcDbLine
 10
103.923235
 20
41.10895
 30
0.0
 11
103.923235
 21
10.10895
 31
0.0
  0
LINE
  5
173
330
1E
100
AcDbEntity
  8
0
100
AcDbLine
 10
75.92323499999999
 20
42.02885
 30
0.0
 11
75.92323499999999
 21
37.42354999999999
 31
0.0
  0
LINE
  5
174
330
1E
100
AcDbEntity
  8
0
100
AcDbLine
 10
75.92323499999999
 20
42.02885
 30
0.0
 11
75.92323499999999
 21
46.77355
 31
0.0
  0
LINE
  5
175
330
1E
100
AcDbEntity
  8
0
100
AcDbLine
 10
75.92323499999999
 20
37.42354999999999
 30
0.0
 11
75.92323499999999
 21
33.10895
 31
0.0
  0
LINE
  5
176
330
1E
100
AcDbEntity
  8
0
100
AcDbLine
 10
75.92323499999999
 20
37.42354999999999
 30
0.0
 11
75.92323499999999
 21
42.02885
 31
0.0
  0
LINE
  5
177
330
1E
100
AcDbEntity
  8
0
100
AcDbLine
 10
66.92323499999999
 20
60.10374999999999
 30
0.0
 11
75.92323499999999
 21
60.10374999999999
 31
0.0
  0
LINE
  5
17A
330
1E
100
AcDbEntity
  8
0
100
AcDbLine
 10
75.92323499999999
 20
57.69745
 30
0.0
 11
75.92323499999999
 21
54.83225
 31
0.0
  0
LINE
  5
17B
330
1E
100
AcDbEntity
  8
0
100
AcDbLine
 10
75.92323499999999
 20
57.69745
 30
0.0
 11
75.92323499999999
 21
59.44024999999999
 31
0.0
  0
LINE
  5
17C
330
1E
100
AcDbEntity
  8
0
100
AcDbLine
 10
75.92323499999999
 20
54.83225
 30
0.0
 11
75.92323499999999
 21
51.17575
 31
0.0
  0
LINE
  5
17D
330
1E
100
AcDbEntity
  8
0
100
AcDbLine
 10
75.92323499999999
 20
54.83225
 30
0.0
 11
75.92323499999999
 21
57.69745
 31
0.0
  0
LINE
  5
17E
330
1E
100
AcDbEntity
  8
0
100
AcDbLine
 10
75.92323499999999
 20
51.17575
 30
0.0
 11
75.92323499999999
 21
46.77355
 31
0.0
  0
LINE
  5
17F
330
1E
100
AcDbEntity
  8
0
100
AcDbLine
 10
75.92323499999999
 20
51.17575
 30
0.0
 11
75.92323499999999
 21
54.83225
 31
0.0
  0
LINE
  5
180
330
1E
100
AcDbEntity
  8
0
100
AcDbLine
 10
75.92323499999999
 20
46.77355
 30
0.0
 11
75.92323499999999
 21
42.02885
 31
0.0
  0
LINE
  5
181
330
1E
100
AcDbEntity
  8
0
100
AcDbLine
 10
75.92323499999999
 20
46.77355
 30
0.0
 11
75.92323499999999
 21
51.17575
 31
0.0
  0
LINE
  5
198
330
1E
100
AcDbEntity
  8
0
100
AcDbLine
 10
102.384235
 20
47.65744999999999
 30
0.0
 11
103.5532349999999
 21
44.36885
 31
0.0
  0
LINE
  5
199
330
1E
100
AcDbEntity
  8
0
100
AcDbLine
 10
103.5532349999999
 20
44.36885
 30
0.0
 11
103.923235
 21
41.10895
 31
0.0
  0
LINE
  5
19B
330
1E
100
AcDbEntity
  8
0
100
AcDbLine
 10
78.92323499999999
 20
51.10895
 30
0.0
 11
78.92323499999999
 21
54.77555
 31
0.0
  0
LINE
  5
19E
330
1E
100
AcDbEntity
  8
0
100
AcDbLine
 10
78.92323499999999
 20
51.17575
 30
0.0
 11
78.92323499999999
 21
54.83225
 31
0.0
  0
LINE
  5
1A2
330
1E
100
AcDbEntity
  8
0
100
AcDbLine
 10
78.92323499999999
 20
54.77555
 30
0.0
 11
78.92323499999999
 21
51.10895
 31
0.0
  0
LINE
  5
1A3
330
1E
100
AcDbEntity
  8
0
100
AcDbLine
 10
78.92323499999999
 20
54.77555
 30
0.0
 11
78.92323499999999
 21
57.65285
 31
0.0
  0
LINE
  5
1A4
330
1E
100
AcDbEntity
  8
0
100
AcDbLine
 10
78.92323499999999
 20
54.83225
 30
0.0
 11
78.92323499999999
 21
57.69745
 31
0.0
  0
LINE
  5
1A5
330
1E
100
AcDbEntity
  8
0
100
AcDbLine
 10
78.92323499999999
 20
54.83225
 30
0.0
 11
78.92323499999999
 21
24.11414999999999
 31
0.0
  0
LINE
  5
1A6
330
1E
100
AcDbEntity
  8
0
100
AcDbLine
 10
78.92323499999999
 20
54.83225
 30
0.0
 11
82.931535
 21
56.94605
 31
0.0
  0
LINE
  5
1A9
330
1E
100
AcDbEntity
  8
0
100
AcDbLine
 10
78.92323499999999
 20
57.65285
 30
0.0
 11
78.92323499999999
 21
54.77555
 31
0.0
  0
LINE
  5
1AA
330
1E
100
AcDbEntity
  8
0
100
AcDbLine
 10
78.92323499999999
 20
57.65285
 30
0.0
 11
78.92323499999999
 21
59.51755
 31
0.0
  0
LINE
  5
1AB
330
1E
100
AcDbEntity
  8
0
100
AcDbLine
 10
78.92323499999999
 20
59.51755
 30
0.0
 11
78.92323499999999
 21
57.65285
 31
0.0
  0
LINE
  5
1AC
330
1E
100
AcDbEntity
  8
0
100
AcDbLine
 10
78.92323499999999
 20
59.51755
 30
0.0
 11
78.92323499999999
 21
60.10374999999999
 31
0.0
  0
LINE
  5
1AD
330
1E
100
AcDbEntity
  8
0
100
AcDbLine
 10
78.92323499999999
 20
60.10374999999999
 30
0.0
 11
78.92323499999999
 21
59.51755
 31
0.0
  0
LINE
  5
1AE
330
1E
100
AcDbEntity
  8
0
100
AcDbLine
 10
78.92323499999999
 20
60.10374999999999
 30
0.0
 11
78.92323499999999
 21
59.44024999999999
 31
0.0
  0
LINE
  5
1AF
330
1E
100
AcDbEntity
  8
0
100
AcDbLine
 10
78.92323499999999
 20
59.44024999999999
 30
0.0
 11
78.92323499999999
 21
60.10374999999999
 31
0.0
  0
LINE
  5
1B0
330
1E
100
AcDbEntity
  8
0
100
AcDbLine
 10
78.92323499999999
 20
59.44024999999999
 30
0.0
 11
78.92323499999999
 21
57.69745
 31
0.0
  0
LINE
  5
1B1
330
1E
100
AcDbEntity
  8
0
100
AcDbLine
 10
78.92323499999999
 20
57.69745
 30
0.0
 11
78.92323499999999
 21
54.83225
 31
0.0
  0
LINE
  5
1B2
330
1E
100
AcDbEntity
  8
0
100
AcDbLine
 10
78.92323499999999
 20
57.69745
 30
0.0
 11
78.92323499999999
 21
59.44024999999999
 31
0.0
  0
LINE
  5
1B3
330
1E
100
AcDbEntity
  8
0
100
AcDbLine
 10
81.11303499999999
 20
59.59164999999989
 30
0.0
 11
81.37613499999998
 21
56.12580088690966
 31
0.0
  0
LINE
  5
1B4
330
1E
100
AcDbEntity
  8
0
100
AcDbLine
 10
81.11303499999999
 20
59.59164999999989
 30
0.0
 11
82.149035
 21
62.49764999999989
 31
0.0
  0
LINE
  5
1BA
330
1E
100
AcDbEntity
  8
0
100
AcDbLine
 10
96.993135
 20
53.87025
 30
0.0
 11
99.86843499999999
 21
51.06295
 31
0.0
  0
LINE
  5
1BB
330
1E
100
AcDbEntity
  8
0
100
AcDbLine
 10
93.668735
 20
55.86895
 30
0.0
 11
96.993135
 21
53.87025
 31
0.0
  0
LINE
  5
1BF
330
1E
100
AcDbEntity
  8
0
100
AcDbLine
 10
99.86843499999999
 20
51.06295
 30
0.0
 11
102.384235
 21
47.65744999999999
 31
0.0
  0
LINE
  5
1C0
330
1E
100
AcDbEntity
  8
0
100
AcDbLine
 10
97.982835
 20
56.30465
 30
0.0
 11
97.99903499999999
 21
58.20565
 31
0.0
  0
LINE
  5
1C1
330
1E
100
AcDbEntity
  8
0
100
AcDbLine
 10
97.95383499999999
 20
53.00565
 30
0.0
 11
97.982835
 21
56.30465
 31
0.0
  0
LINE
  5
1C2
330
1E
100
AcDbEntity
  8
0
100
AcDbLine
 10
90.164535
 20
57.17425
 30
0.0
 11
93.668735
 21
55.86895
 31
0.0
  0
LINE
  5
1C3
330
1E
100
AcDbEntity
  8
0
100
AcDbLine
 10
86.256035
 20
57.53035
 30
0.0
 11
90.164535
 21
57.17425
 31
0.0
  0
LINE
  5
1C4
330
1E
100
AcDbEntity
  8
0
100
AcDbLine
 10
82.931535
 20
56.94605
 30
0.0
 11
86.256035
 21
57.53035
 31
0.0
  0
LINE
  5
1C8
330
1E
100
AcDbEntity
  8
0
100
AcDbLine
 10
75.92323499999999
 20
59.44024999999999
 30
0.0
 11
75.92323499999999
 21
57.69745
 31
0.0
  0
LINE
  5
1C9
330
1E
100
AcDbEntity
  8
0
100
AcDbLine
 10
75.92323499999999
 20
59.44024999999999
 30
0.0
 11
75.92323499999999
 21
60.10374999999999
 31
0.0
  0
LINE
  5
1CA
330
1E
100
AcDbEntity
  8
0
100
AcDbLine
 10
95.64593499999999
 20
63.82565
 30
0.0
 11
97.424835
 21
61.30964999999999
 31
0.0
  0
LINE
  5
1CB
330
1E
100
AcDbEntity
  8
0
100
AcDbLine
 10
97.424835
 20
61.30964999999999
 30
0.0
 11
97.99903499999999
 21
58.20565
 31
0.0
  0
LINE
  5
1CC
330
1E
100
AcDbEntity
  8
0
100
AcDbLine
 10
90.02853499999998
 20
66.58164999999989
 30
0.0
 11
93.162035
 21
65.64664999999999
 31
0.0
  0
LINE
  5
1CD
330
1E
100
AcDbEntity
  8
0
100
AcDbLine
 10
93.162035
 20
65.64664999999999
 30
0.0
 11
95.64593499999999
 21
63.82565
 31
0.0
  0
LINE
  5
1CE
330
1E
100
AcDbEntity
  8
0
100
AcDbLine
 10
86.88473499999998
 20
66.31864999999989
 30
0.0
 11
90.02853499999998
 21
66.58164999999989
 31
0.0
  0
LINE
  5
1CF
330
1E
100
AcDbEntity
  8
0
100
AcDbLine
 10
84.086935
 20
64.88964999999989
 30
0.0
 11
86.88473499999998
 21
66.31864999999989
 31
0.0
  0
LINE
  5
1D0
330
1E
100
AcDbEntity
  8
0
100
AcDbLine
 10
82.149035
 20
62.49764999999989
 30
0.0
 11
84.086935
 21
64.88964999999989
 31
0.0
  0
LINE
  5
1D1
330
1E
100
AcDbEntity
  8
0
100
AcDbLine
 10
75.92323499999999
 20
60.10374999999999
 30
0.0
 11
75.92323499999999
 21
59.44024999999999
 31
0.0
  0
LINE
  5
1D2
330
1E
100
AcDbEntity
  8
0
100
AcDbLine
 10
75.92323499999999
 20
60.10374999999999
 30
0.0
 11
78.92323499999999
 21
60.10374999999999
 31
0.0
  0
LINE
  5
1D3
330
1E
100
AcDbEntity
  8
0
100
AcDbLine
 10
66.92323499999999
 20
86.10894999999999
 30
0.0
 11
66.92323499999999
 21
42.10894999999999
 31
0.0
  0
LINE
  5
1D4
330
1E
100
AcDbEntity
  8
0
100
AcDbLine
 10
66.92323499999999
 20
42.10894999999999
 30
0.0
 11
66.92323499999999
 21
86.10894999999999
 31
0.0
  0
LINE
  5
1D5
330
1E
100
AcDbEntity
  8
0
100
AcDbLine
 10
66.523235
 20
39.30895
 30
0.0
 11
66.92323499999999
 21
42.10894999999999
 31
0.0
  0
LINE
  5
1D6
330
1E
100
AcDbEntity
  8
0
100
AcDbLine
 10
65.023235
 20
36.90894999999999
 30
0.0
 11
66.023235
 21
39.40894999999999
 31
0.0
  0
LINE
  5
1D7
330
1E
100
AcDbEntity
  8
0
100
AcDbLine
 10
65.023235
 20
36.90894999999999
 30
0.0
 11
66.023235
 21
39.40894999999999
 31
0.0
  0
LINE
  5
1D8
330
1E
100
AcDbEntity
  8
0
100
AcDbLine
 10
44.923235
 20
60.10374999999999
 30
0.0
 11
44.923235
 21
86.10894999999999
 31
0.0
  0
LINE
  5
1D9
330
1E
100
AcDbEntity
  8
0
100
AcDbLine
 10
44.923235
 20
60.10374999999999
 30
0.0
 11
44.923235
 21
86.1089499999999
 31
0.0
  0
LINE
  5
1DE
330
1E
100
AcDbEntity
  8
0
100
AcDbLine
 10
75.92323499999999
 20
24.11414999999999
 30
0.0
 11
78.92323499999999
 21
24.11414999999999
 31
0.0
  0
ENDSEC
  0
SECTION
  2
OBJECTS
  0
DICTIONARY
  5
C
330
0
100
AcDbDictionary
281
     1
  3
ACAD_GROUP
350
D
  3
ACAD_LAYOUT
350
19
  3
ACAD_MLINESTYLE
350
16
  3
ACAD_PLOTSETTINGS
350
18
  3
ACAD_PLOTSTYLENAME
350
E
  3
AcDbVariableDictionary
350
1DF
  0
DICTIONARY
  5
D
102
{ACAD_REACTORS
330
C
102
}
330
C
100
AcDbDictionary
281
     1
  0
DICTIONARY
  5
19
102
{ACAD_REACTORS
330
C
102
}
330
C
100
AcDbDictionary
281
     1
  3
Layout1
350
1D
  3
Model
350
21
  0
DICTIONARY
  5
16
102
{ACAD_REACTORS
330
C
102
}
330
C
100
AcDbDictionary
281
     1
  3
Standard
350
17
  0
DICTIONARY
  5
18
102
{ACAD_REACTORS
330
C
102
}
330
C
100
AcDbDictionary
281
     1
  0
ACDBDICTIONARYWDFLT
  5
E
102
{ACAD_REACTORS
330
C
102
}
330
C
100
AcDbDictionary
281
     1
  3
Normal
350
F
100
AcDbDictionaryWithDefault
340
F
  0
DICTIONARY
  5
1DF
102
{ACAD_REACTORS
330
C
102
}
330
C
100
AcDbDictionary
281
     1
  3
DIMASSOC
350
1E0
  0
LAYOUT
  5
1D
102
{ACAD_REACTORS
330
19
102
}
330
19
100
AcDbPlotSettings
  1

  2
hp deskjet 980c series
  4

  6

 40
0.0
 41
0.0
 42
0.0
 43
0.0
 44
0.0
 45
0.0
 46
0.0
 47
0.0
 48
0.0
 49
0.0
140
0.0
141
0.0
142
1.0
143
1.0
 70
   688
 72
     0
 73
     0
 74
     5
  7

 75
    16
147
1.0
148
0.0
149
0.0
100
AcDbLayout
  1
Layout1
 70
     1
 71
     1
 10
0.0
 20
0.0
 11
12.0
 21
9.0
 12
0.0
 22
0.0
 32
0.0
 14
1.000000000000000E+20
 24
1.000000000000000E+20
 34
1.000000000000000E+20
 15
-1.000000000000000E+20
 25
-1.000000000000000E+20
 35
-1.000000000000000E+20
146
0.0
 13
0.0
 23
0.0
 33
0.0
 16
1.0
 26
0.0
 36
0.0
 17
0.0
 27
1.0
 37
0.0
 76
     0
330
1A
  0
LAYOUT
  5
21
102
{ACAD_REACTORS
330
19
102
}
330
19
100
AcDbPlotSettings
  1

  2
hp deskjet 980c series
  4

  6

 40
0.0
 41
0.0
 42
0.0
 43
0.0
 44
0.0
 45
0.0
 46
0.0
 47
0.0
 48
0.0
 49
0.0
140
0.0
141
0.0
142
1.0
143
1.0
 70
  1712
 72
     0
 73
     0
 74
     0
  7

 75
     0
147
1.0
148
0.0
149
0.0
100
AcDbLayout
  1
Model
 70
     1
 71
     0
 10
0.0
 20
0.0
 11
12.0
 21
9.0
 12
0.0
 22
0.0
 32
0.0
 14
0.0
 24
0.0
 34
0.0
 15
0.0
 25
0.0
 35
0.0
146
0.0
 13
0.0
 23
0.0
 33
0.0
 16
1.0
 26
0.0
 36
0.0
 17
0.0
 27
1.0
 37
0.0
 76
     0
330
1E
  0
MLINESTYLE
  5
17
102
{ACAD_REACTORS
330
16
102
}
330
16
100
AcDbMlineStyle
  2
STANDARD
 70
     0
  3

 62
   256
 51
90.0
 52
90.0
 71
     2
 49
0.5
 62
   256
  6
BYLAYER
 49
-0.5
 62
   256
  6
BYLAYER
  0
ACDBPLACEHOLDER
  5
F
102
{ACAD_REACTORS
330
E
102
}
330
E
  0
DICTIONARYVAR
  5
1E0
102
{ACAD_REACTORS
330
1DF
102
}
330
1DF
100
DictionaryVariables
280
     0
  1
1
  0
ENDSEC
  0
EOF
