  0
SECTION
  2
HEADER
  9
$ACADVER
  1
AC1015
  9
$ACADMAINTVER
 70
    13
  9
$DWGCODEPAGE
  3
ANSI_1252
  9
$INSBASE
 10
0.0
 20
0.0
 30
0.0
  9
$EXTMIN
 10
0.4940240606592852
 20
0.145
 30
0.0
  9
$EXTMAX
 10
86.10894999999999
 20
996.855
 30
0.0
  9
$LIMMIN
 10
0.0
 20
0.0
  9
$LIMMAX
 10
12.0
 20
9.0
  9
$ORTHOMODE
 70
     0
  9
$REGENMODE
 70
     1
  9
$FILLMODE
 70
     1
  9
$QTEXTMODE
 70
     0
  9
$MIRRTEXT
 70
     1
  9
$LTSCALE
 40
1.0
  9
$ATTMODE
 70
     1
  9
$TEXTSIZE
 40
0.2
  9
$TRACEWID
 40
0.05
  9
$TEXTSTYLE
  7
Standard
  9
$CLAYER
  8
0
  9
$CELTYPE
  6
Continuous
  9
$CECOLOR
 62
   256
  9
$CELTSCALE
 40
1.0
  9
$DISPSILH
 70
     0
  9
$DIMSCALE
 40
1.0
  9
$DIMASZ
 40
0.18
  9
$DIMEXO
 40
0.0625
  9
$DIMDLI
 40
0.38
  9
$DIMRND
 40
0.0
  9
$DIMDLE
 40
0.0
  9
$DIMEXE
 40
0.18
  9
$DIMTP
 40
0.0
  9
$DIMTM
 40
0.0
  9
$DIMTXT
 40
0.18
  9
$DIMCEN
 40
0.09
  9
$DIMTSZ
 40
0.0
  9
$DIMTOL
 70
     0
  9
$DIMLIM
 70
     0
  9
$DIMTIH
 70
     1
  9
$DIMTOH
 70
     1
  9
$DIMSE1
 70
     0
  9
$DIMSE2
 70
     0
  9
$DIMTAD
 70
     0
  9
$DIMZIN
 70
     0
  9
$DIMBLK
  1

  9
$DIMASO
 70
     1
  9
$DIMSHO
 70
     1
  9
$DIMPOST
  1

  9
$DIMAPOST
  1

  9
$DIMALT
 70
     0
  9
$DIMALTD
 70
     2
  9
$DIMALTF
 40
25.4
  9
$DIMLFAC
 40
1.0
  9
$DIMTOFL
 70
     0
  9
$DIMTVP
 40
0.0
  9
$DIMTIX
 70
     0
  9
$DIMSOXD
 70
     0
  9
$DIMSAH
 70
     0
  9
$DIMBLK1
  1

  9
$DIMBLK2
  1

  9
$DIMSTYLE
  2
Standard
  9
$DIMCLRD
 70
     0
  9
$DIMCLRE
 70
     0
  9
$DIMCLRT
 70
     0
  9
$DIMTFAC
 40
1.0
  9
$DIMGAP
 40
0.09
  9
$DIMJUST
 70
     0
  9
$DIMSD1
 70
     0
  9
$DIMSD2
 70
     0
  9
$DIMTOLJ
 70
     1
  9
$DIMTZIN
 70
     0
  9
$DIMALTZ
 70
     0
  9
$DIMALTTZ
 70
     0
  9
$DIMUPT
 70
     0
  9
$DIMDEC
 70
     4
  9
$DIMTDEC
 70
     4
  9
$DIMALTU
 70
     2
  9
$DIMALTTD
 70
     2
  9
$DIMTXSTY
  7
Standard
  9
$DIMAUNIT
 70
     0
  9
$DIMADEC
 70
     0
  9
$DIMALTRND
 40
0.0
  9
$DIMAZIN
 70
     0
  9
$DIMDSEP
 70
    46
  9
$DIMATFIT
 70
     3
  9
$DIMFRAC
 70
     0
  9
$DIMLDRBLK
  1

  9
$DIMLUNIT
 70
     2
  9
$DIMLWD
 70
    -2
  9
$DIMLWE
 70
    -2
  9
$DIMTMOVE
 70
     0
  9
$LUNITS
 70
     2
  9
$LUPREC
 70
     4
  9
$SKETCHINC
 40
0.1
  9
$FILLETRAD
 40
0.0
  9
$AUNITS
 70
     0
  9
$AUPREC
 70
     0
  9
$MENU
  1
.
  9
$ELEVATION
 40
0.0
  9
$PELEVATION
 40
0.0
  9
$THICKNESS
 40
0.0
  9
$LIMCHECK
 70
     0
  9
$CHAMFERA
 40
0.0
  9
$CHAMFERB
 40
0.0
  9
$CHAMFERC
 40
0.0
  9
$CHAMFERD
 40
0.0
  9
$SKPOLY
 70
     0
  9
$TDCREATE
 40
2454738.896111111
  9
$TDUCREATE
 40
2454738.812777777
  9
$TDUPDATE
 40
2454738.899026331
  9
$TDUUPDATE
 40
2454738.815692997
  9
$TDINDWG
 40
0.0029153935
  9
$TDUSRTIMER
 40
0.0029153935
  9
$USRTIMER
 70
     1
  9
$ANGBASE
 50
0.0
  9
$ANGDIR
 70
     0
  9
$PDMODE
 70
     0
  9
$PDSIZE
 40
0.0
  9
$PLINEWID
 40
0.0
  9
$SPLFRAME
 70
     0
  9
$SPLINETYPE
 70
     6
  9
$SPLINESEGS
 70
     8
  9
$HANDSEED
  5
174
  9
$SURFTAB1
 70
     6
  9
$SURFTAB2
 70
     6
  9
$SURFTYPE
 70
     6
  9
$SURFU
 70
     6
  9
$SURFV
 70
     6
  9
$UCSBASE
  2

  9
$UCSNAME
  2

  9
$UCSORG
 10
0.0
 20
0.0
 30
0.0
  9
$UCSXDIR
 10
1.0
 20
0.0
 30
0.0
  9
$UCSYDIR
 10
0.0
 20
1.0
 30
0.0
  9
$UCSORTHOREF
  2

  9
$UCSORTHOVIEW
 70
     1
  9
$UCSORGTOP
 10
0.0
 20
0.0
 30
0.0
  9
$UCSORGBOTTOM
 10
0.0
 20
0.0
 30
0.0
  9
$UCSORGLEFT
 10
0.0
 20
0.0
 30
0.0
  9
$UCSORGRIGHT
 10
0.0
 20
0.0
 30
0.0
  9
$UCSORGFRONT
 10
0.0
 20
0.0
 30
0.0
  9
$UCSORGBACK
 10
0.0
 20
0.0
 30
0.0
  9
$PUCSBASE
  2

  9
$PUCSNAME
  2

  9
$PUCSORG
 10
0.0
 20
0.0
 30
0.0
  9
$PUCSXDIR
 10
1.0
 20
0.0
 30
0.0
  9
$PUCSYDIR
 10
0.0
 20
1.0
 30
0.0
  9
$PUCSORTHOREF
  2

  9
$PUCSORTHOVIEW
 70
     0
  9
$PUCSORGTOP
 10
0.0
 20
0.0
 30
0.0
  9
$PUCSORGBOTTOM
 10
0.0
 20
0.0
 30
0.0
  9
$PUCSORGLEFT
 10
0.0
 20
0.0
 30
0.0
  9
$PUCSORGRIGHT
 10
0.0
 20
0.0
 30
0.0
  9
$PUCSORGFRONT
 10
0.0
 20
0.0
 30
0.0
  9
$PUCSORGBACK
 10
0.0
 20
0.0
 30
0.0
  9
$USERI1
 70
     0
  9
$USERI2
 70
     0
  9
$USERI3
 70
     0
  9
$USERI4
 70
     0
  9
$USERI5
 70
     0
  9
$USERR1
 40
0.0
  9
$USERR2
 40
0.0
  9
$USERR3
 40
0.0
  9
$USERR4
 40
0.0
  9
$USERR5
 40
0.0
  9
$WORLDVIEW
 70
     1
  9
$SHADEDGE
 70
     3
  9
$SHADEDIF
 70
    70
  9
$TILEMODE
 70
     1
  9
$MAXACTVP
 70
    64
  9
$PINSBASE
 10
0.0
 20
0.0
 30
0.0
  9
$PLIMCHECK
 70
     0
  9
$PEXTMIN
 10
1.000000000000000E+20
 20
1.000000000000000E+20
 30
1.000000000000000E+20
  9
$PEXTMAX
 10
-1.000000000000000E+20
 20
-1.000000000000000E+20
 30
-1.000000000000000E+20
  9
$PLIMMIN
 10
0.0
 20
0.0
  9
$PLIMMAX
 10
12.0
 20
9.0
  9
$UNITMODE
 70
     0
  9
$VISRETAIN
 70
     1
  9
$PLINEGEN
 70
     0
  9
$PSLTSCALE
 70
     1
  9
$TREEDEPTH
 70
  3020
  9
$CMLSTYLE
  2
Standard
  9
$CMLJUST
 70
     0
  9
$CMLSCALE
 40
1.0
  9
$PROXYGRAPHICS
 70
     1
  9
$MEASUREMENT
 70
     0
  9
$CELWEIGHT
370
    -1
  9
$ENDCAPS
280
     0
  9
$JOINSTYLE
280
     0
  9
$LWDISPLAY
290
     0
  9
$INSUNITS
 70
     0
  9
$HYPERLINKBASE
  1

  9
$STYLESHEET
  1

  9
$XEDIT
290
     1
  9
$CEPSNTYPE
380
     0
  9
$PSTYLEMODE
290
     1
  9
$FINGERPRINTGUID
  2
{7AC96306-218C-439E-8058-529F985D602A}
  9
$VERSIONGUID
  2
{F4319216-A8D3-4093-B57C-E5E0FE3B955C}
  9
$EXTNAMES
290
     1
  9
$PSVPSCALE
 40
0.0
  9
$OLESTARTUP
290
     0
  0
ENDSEC
  0
SECTION
  2
CLASSES
  0
CLASS
  1
ACDBDICTIONARYWDFLT
  2
AcDbDictionaryWithDefault
  3
AutoCAD 2000
 90
        0
280
     0
281
     0
  0
CLASS
  1
ACDBPLACEHOLDER
  2
AcDbPlaceHolder
  3
AutoCAD 2000
 90
        0
280
     0
281
     0
  0
CLASS
  1
LAYOUT
  2
AcDbLayout
  3
AutoCAD 2000
 90
        0
280
     0
281
     0
  0
CLASS
  1
DICTIONARYVAR
  2
AcDbDictionaryVar
  3
AutoCAD 2000
 90
        0
280
     0
281
     0
  0
ENDSEC
  0
SECTION
  2
TABLES
  0
TABLE
  2
VPORT
  5
8
330
0
100
AcDbSymbolTable
 70
     2
  0
VPORT
  5
173
330
8
100
AcDbSymbolTableRecord
100
AcDbViewportTableRecord
  2
*Active
 70
     0
 10
0.0
 20
0.0
 11
1.0
 21
1.0
 12
43.30148703032963
 22
498.5
 13
0.0
 23
0.0
 14
1.0
 24
1.0
 15
0.0
 25
0.0
 16
0.0
 26
0.0
 36
1.0
 17
0.0
 27
0.0
 37
0.0
 40
1004.357391304347
 41
2.078104993597951
 42
50.0
 43
0.0
 44
0.0
 50
0.0
 51
0.0
 71
     0
 72
   100
 73
     1
 74
     3
 75
     0
 76
     0
 77
     0
 78
     0
281
     0
 65
     1
110
0.0
120
0.0
130
0.0
111
1.0
121
0.0
131
0.0
112
0.0
122
1.0
132
0.0
 79
     1
146
0.0
  0
ENDTAB
  0
TABLE
  2
LTYPE
  5
5
330
0
100
AcDbSymbolTable
 70
     1
  0
LTYPE
  5
13
330
5
100
AcDbSymbolTableRecord
100
AcDbLinetypeTableRecord
  2
ByBlock
 70
     0
  3

 72
    65
 73
     0
 40
0.0
  0
LTYPE
  5
14
330
5
100
AcDbSymbolTableRecord
100
AcDbLinetypeTableRecord
  2
ByLayer
 70
     0
  3

 72
    65
 73
     0
 40
0.0
  0
LTYPE
  5
15
330
5
100
AcDbSymbolTableRecord
100
AcDbLinetypeTableRecord
  2
Continuous
 70
     0
  3
Solid line
 72
    65
 73
     0
 40
0.0
  0
ENDTAB
  0
TABLE
  2
LAYER
  5
2
330
0
100
AcDbSymbolTable
 70
     1
  0
LAYER
  5
10
330
2
100
AcDbSymbolTableRecord
100
AcDbLayerTableRecord
  2
0
 70
     0
 62
     7
  6
Continuous
370
    -3
390
F
  0
ENDTAB
  0
TABLE
  2
STYLE
  5
3
330
0
100
AcDbSymbolTable
 70
     1
  0
STYLE
  5
11
330
3
100
AcDbSymbolTableRecord
100
AcDbTextStyleTableRecord
  2
Standard
 70
     0
 40
0.0
 41
1.0
 50
0.0
 71
     0
 42
0.2
  3
txt
  4

  0
ENDTAB
  0
TABLE
  2
VIEW
  5
6
330
0
100
AcDbSymbolTable
 70
     0
  0
ENDTAB
  0
TABLE
  2
UCS
  5
7
330
0
100
AcDbSymbolTable
 70
     0
  0
ENDTAB
  0
TABLE
  2
APPID
  5
9
330
0
100
AcDbSymbolTable
 70
     1
  0
APPID
  5
12
330
9
100
AcDbSymbolTableRecord
100
AcDbRegAppTableRecord
  2
ACAD
 70
     0
  0
ENDTAB
  0
TABLE
  2
DIMSTYLE
  5
A
330
0
100
AcDbSymbolTable
 70
     1
100
AcDbDimStyleTable
 71
     0
  0
DIMSTYLE
105
16C
330
A
100
AcDbSymbolTableRecord
100
AcDbDimStyleTableRecord
  2
Standard
 70
     0
340
11
  0
ENDTAB
  0
TABLE
  2
BLOCK_RECORD
  5
1
330
0
100
AcDbSymbolTable
 70
     0
  0
BLOCK_RECORD
  5
1E
330
1
100
AcDbSymbolTableRecord
100
AcDbBlockTableRecord
  2
*Model_Space
340
21
  0
BLOCK_RECORD
  5
1A
330
1
100
AcDbSymbolTableRecord
100
AcDbBlockTableRecord
  2
*Paper_Space
340
1D
  0
ENDTAB
  0
ENDSEC
  0
SECTION
  2
BLOCKS
  0
BLOCK
  5
1F
330
1E
100
AcDbEntity
  8
0
100
AcDbBlockBegin
  2
*Model_Space
 70
     0
 10
0.0
 20
0.0
 30
0.0
  3
*Model_Space
  1

  0
ENDBLK
  5
20
330
1E
100
AcDbEntity
  8
0
100
AcDbBlockEnd
  0
BLOCK
  5
1B
330
1A
100
AcDbEntity
 67
     1
  8
0
100
AcDbBlockBegin
  2
*Paper_Space
 70
     0
 10
0.0
 20
0.0
 30
0.0
  3
*Paper_Space
  1

  0
ENDBLK
  5
1C
330
1A
100
AcDbEntity
 67
     1
  8
0
100
AcDbBlockEnd
  0
ENDSEC
  0
SECTION
  2
ENTITIES
  0
LINE
  5
22
330
1E
100
AcDbEntity
  8
0
100
AcDbLine
 10
31.60895
 20
38.855
 30
0.0
 11
32.0089499999999
 21
38.855
 31
0.0
  0
LINE
  5
23
330
1E
100
AcDbEntity
  8
0
100
AcDbLine
 10
32.0089499999999
 20
38.855
 30
0.0
 11
33.00894999999989
 21
38.855
 31
0.0
  0
LINE
  5
24
330
1E
100
AcDbEntity
  8
0
100
AcDbLine
 10
33.00894999999989
 20
38.855
 30
0.0
 11
34.70895
 21
38.855
 31
0.0
  0
LINE
  5
25
330
1E
100
AcDbEntity
  8
0
100
AcDbLine
 10
34.70895
 20
38.855
 30
0.0
 11
36.9089499999999
 21
38.855
 31
0.0
  0
LINE
  5
26
330
1E
100
AcDbEntity
  8
0
100
AcDbLine
 10
59.59164999999989
 20
0.145
 30
0.0
 11
62.49764999999989
 21
0.653000000000009
 31
0.0
  0
LINE
  5
27
330
1E
100
AcDbEntity
  8
0
100
AcDbLine
 10
64.88964999999989
 20
1.603999999999969
 30
0.0
 11
66.31864999999989
 21
2.978
 31
0.0
  0
LINE
  5
28
330
1E
100
AcDbEntity
  8
0
100
AcDbLine
 10
62.49764999999989
 20
0.653000000000009
 30
0.0
 11
64.88964999999989
 21
1.603999999999969
 31
0.0
  0
LINE
  5
29
330
1E
100
AcDbEntity
  8
0
100
AcDbLine
 10
56.44864999999989
 20
0.27399999999999
 30
0.0
 11
59.59164999999989
 21
0.145
 31
0.0
  0
LINE
  5
2A
330
1E
100
AcDbEntity
  8
0
100
AcDbLine
 10
53.64965
 20
0.9760000000000172
 30
0.0
 11
56.44864999999989
 21
0.27399999999999
 31
0.0
  0
LINE
  5
2B
330
1E
100
AcDbEntity
  8
0
100
AcDbLine
 10
65.55164999999999
 20
5.947000000000018
 30
0.0
 11
66.58164999999989
 21
4.519999999999999
 31
0.0
  0
LINE
  5
2C
330
1E
100
AcDbEntity
  8
0
100
AcDbLine
 10
63.61564999999989
 20
7.123000000000009
 30
0.0
 11
65.55164999999999
 21
5.947000000000018
 31
0.0
  0
LINE
  5
2D
330
1E
100
AcDbEntity
  8
0
100
AcDbLine
 10
60.82164999999989
 20
7.827000000000019
 30
0.0
 11
63.61564999999989
 21
7.123000000000009
 31
0.0
  0
LINE
  5
2E
330
1E
100
AcDbEntity
  8
0
100
AcDbLine
 10
57.67864999999989
 20
7.95799999999999
 30
0.0
 11
60.82164999999989
 21
7.827000000000019
 31
0.0
  0
LINE
  5
2F
330
1E
100
AcDbEntity
  8
0
100
AcDbLine
 10
54.76865
 20
7.453000000000018
 30
0.0
 11
57.67864999999989
 21
7.95799999999999
 31
0.0
  0
LINE
  5
30
330
1E
100
AcDbEntity
  8
0
100
AcDbLine
 10
52.37365
 20
6.501
 30
0.0
 11
54.76865
 21
7.453000000000018
 31
0.0
  0
LINE
  5
31
330
1E
100
AcDbEntity
  8
0
100
AcDbLine
 10
50.94064999999989
 20
5.127
 30
0.0
 11
52.37365
 21
6.501
 31
0.0
  0
LINE
  5
32
330
1E
100
AcDbEntity
  8
0
100
AcDbLine
 10
66.31864999999989
 20
2.978
 30
0.0
 11
66.58164999999989
 21
4.519999999999999
 31
0.0
  0
LINE
  5
33
330
1E
100
AcDbEntity
  8
0
100
AcDbLine
 10
51.70965
 20
2.15300000000001
 30
0.0
 11
53.64965
 21
0.9760000000000172
 31
0.0
  0
LINE
  5
34
330
1E
100
AcDbEntity
  8
0
100
AcDbLine
 10
50.67565
 20
3.582000000000009
 30
0.0
 11
51.70965
 21
2.15300000000001
 31
0.0
  0
LINE
  5
35
330
1E
100
AcDbEntity
  8
0
100
AcDbLine
 10
50.67565
 20
3.582000000000009
 30
0.0
 11
50.94064999999989
 21
5.127
 31
0.0
  0
LINE
  5
36
330
1E
100
AcDbEntity
  8
0
100
AcDbLine
 10
42.10894999999999
 20
38.855
 30
0.0
 11
50.64848079104429
 21
38.855
 31
0.0
  0
LINE
  5
37
330
1E
100
AcDbEntity
  8
0
100
AcDbLine
 10
66.5613510198264
 20
38.855
 30
0.0
 11
85.60895
 21
38.855
 31
0.0
  0
LINE
  5
38
330
1E
100
AcDbEntity
  8
0
100
AcDbLine
 10
36.9089499999999
 20
38.855
 30
0.0
 11
39.4089499999999
 21
38.855
 31
0.0
  0
LINE
  5
39
330
1E
100
AcDbEntity
  8
0
100
AcDbLine
 10
31.50895
 20
39.35499999999999
 30
0.0
 11
32.60895
 21
39.35499999999999
 31
0.0
  0
LINE
  5
3A
330
1E
100
AcDbEntity
  8
0
100
AcDbLine
 10
32.60895
 20
39.35499999999999
 30
0.0
 11
34.30895
 21
39.35499999999999
 31
0.0
  0
LINE
  5
3B
330
1E
100
AcDbEntity
  8
0
100
AcDbLine
 10
31.50895
 20
90.355
 30
0.0
 11
32.60895
 21
90.355
 31
0.0
  0
LINE
  5
3C
330
1E
100
AcDbEntity
  8
0
100
AcDbLine
 10
34.30895
 20
39.35499999999999
 30
0.0
 11
36.60895
 21
39.35499999999999
 31
0.0
  0
LINE
  5
3D
330
1E
100
AcDbEntity
  8
0
100
AcDbLine
 10
36.60895
 20
39.35499999999999
 30
0.0
 11
39.30895
 21
39.35499999999999
 31
0.0
  0
LINE
  5
3E
330
1E
100
AcDbEntity
  8
0
100
AcDbLine
 10
32.60895
 20
90.355
 30
0.0
 11
34.30895
 21
90.355
 31
0.0
  0
LINE
  5
3F
330
1E
100
AcDbEntity
  8
0
100
AcDbLine
 10
34.30895
 20
90.355
 30
0.0
 11
36.60895
 21
90.355
 31
0.0
  0
LINE
  5
40
330
1E
100
AcDbEntity
  8
0
100
AcDbLine
 10
39.30895
 20
39.35499999999999
 30
0.0
 11
42.10894999999999
 21
39.35499999999999
 31
0.0
  0
LINE
  5
41
330
1E
100
AcDbEntity
  8
0
100
AcDbLine
 10
42.10894999999999
 20
90.355
 30
0.0
 11
50.60881265220679
 21
90.355
 31
0.0
  0
LINE
  5
42
330
1E
100
AcDbEntity
  8
0
100
AcDbLine
 10
42.10894999999999
 20
39.35499999999999
 30
0.0
 11
50.6480956634828
 21
39.35499999999999
 31
0.0
  0
LINE
  5
43
330
1E
100
AcDbEntity
  8
0
100
AcDbLine
 10
36.60895
 20
90.355
 30
0.0
 11
39.30895
 21
90.355
 31
0.0
  0
LINE
  5
44
330
1E
100
AcDbEntity
  8
0
100
AcDbLine
 10
39.30895
 20
90.355
 30
0.0
 11
42.10894999999999
 21
90.355
 31
0.0
  0
LINE
  5
45
330
1E
100
AcDbEntity
  8
0
100
AcDbLine
 10
66.56105541795991
 20
39.35499999999999
 30
0.0
 11
86.1089499999999
 21
39.35499999999999
 31
0.0
  0
LINE
  5
46
330
1E
100
AcDbEntity
  8
0
100
AcDbLine
 10
66.56105541795991
 20
39.35499999999999
 30
0.0
 11
86.1089499999999
 21
39.35499999999999
 31
0.0
  0
LINE
  5
47
330
1E
100
AcDbEntity
  8
0
100
AcDbLine
 10
42.10894999999999
 20
90.355
 30
0.0
 11
50.60881265220679
 21
90.355
 31
0.0
  0
LINE
  5
48
330
1E
100
AcDbEntity
  8
0
100
AcDbLine
 10
66.5309040275754
 20
90.355
 30
0.0
 11
86.10894999999999
 21
90.355
 31
0.0
  0
LINE
  5
49
330
1E
100
AcDbEntity
  8
0
100
AcDbLine
 10
31.10895
 20
39.35499999999999
 30
0.0
 11
31.60895
 21
38.855
 31
0.0
  0
LINE
  5
4A
330
1E
100
AcDbEntity
  8
0
100
AcDbLine
 10
31.10895
 20
39.35499999999999
 30
0.0
 11
31.10895
 21
90.355
 31
0.0
  0
LINE
  5
4B
330
1E
100
AcDbEntity
  8
0
100
AcDbLine
 10
31.10895
 20
39.35499999999999
 30
0.0
 11
31.50895
 21
39.35499999999999
 31
0.0
  0
LINE
  5
4C
330
1E
100
AcDbEntity
  8
0
100
AcDbLine
 10
39.4089499999999
 20
38.855
 30
0.0
 11
42.10894999999999
 21
38.855
 31
0.0
  0
LINE
  5
4D
330
1E
100
AcDbEntity
  8
0
100
AcDbLine
 10
85.60895
 20
38.855
 30
0.0
 11
86.1089499999999
 21
39.35499999999999
 31
0.0
  0
LINE
  5
4E
330
1E
100
AcDbEntity
  8
0
100
AcDbLine
 10
31.60895
 20
90.85500000000001
 30
0.0
 11
32.00895
 21
90.85500000000001
 31
0.0
  0
LINE
  5
4F
330
1E
100
AcDbEntity
  8
0
100
AcDbLine
 10
32.00895
 20
90.85500000000001
 30
0.0
 11
33.00895
 21
90.85500000000001
 31
0.0
  0
LINE
  5
50
330
1E
100
AcDbEntity
  8
0
100
AcDbLine
 10
33.00895
 20
90.85500000000001
 30
0.0
 11
34.70895
 21
90.85500000000001
 31
0.0
  0
LINE
  5
51
330
1E
100
AcDbEntity
  8
0
100
AcDbLine
 10
34.70895
 20
90.85500000000001
 30
0.0
 11
36.9089499999999
 21
90.85500000000001
 31
0.0
  0
LINE
  5
52
330
1E
100
AcDbEntity
  8
0
100
AcDbLine
 10
36.9089499999999
 20
90.85500000000001
 30
0.0
 11
39.4089499999999
 21
90.85500000000001
 31
0.0
  0
LINE
  5
53
330
1E
100
AcDbEntity
  8
0
100
AcDbLine
 10
42.10894999999999
 20
90.85500000000001
 30
0.0
 11
50.6084275246453
 21
90.85500000000001
 31
0.0
  0
LINE
  5
54
330
1E
100
AcDbEntity
  8
0
100
AcDbLine
 10
39.4089499999999
 20
90.85500000000001
 30
0.0
 11
42.10894999999999
 21
90.85500000000001
 31
0.0
  0
LINE
  5
56
330
1E
100
AcDbEntity
  8
0
100
AcDbLine
 10
31.50895
 20
91.355
 30
0.0
 11
32.60895
 21
91.355
 31
0.0
  0
LINE
  5
57
330
1E
100
AcDbEntity
  8
0
100
AcDbLine
 10
31.10895
 20
91.35500000000009
 30
0.0
 11
31.10895
 21
637.965293785597
 31
0.0
  0
LINE
  5
58
330
1E
100
AcDbEntity
  8
0
100
AcDbLine
 10
31.10895
 20
91.355
 30
0.0
 11
31.60895
 21
90.85500000000001
 31
0.0
  0
LINE
  5
59
330
1E
100
AcDbEntity
  8
0
100
AcDbLine
 10
31.10895
 20
91.355
 30
0.0
 11
31.10895
 21
637.965293785597
 31
0.0
  0
LINE
  5
5A
330
1E
100
AcDbEntity
  8
0
100
AcDbLine
 10
31.10895
 20
91.355
 30
0.0
 11
31.50895
 21
91.355
 31
0.0
  0
LINE
  5
5B
330
1E
100
AcDbEntity
  8
0
100
AcDbLine
 10
29.38565
 20
634.1879999999999
 30
0.0
 11
31.10895
 21
632.832076548612
 31
0.0
  0
LINE
  5
5C
330
1E
100
AcDbEntity
  8
0
100
AcDbLine
 10
29.38565
 20
634.1879999999999
 30
0.0
 11
33.04215
 21
631.311
 31
0.0
  0
LINE
  5
5E
330
1E
100
AcDbEntity
  8
0
100
AcDbLine
 10
23.66004999999999
 20
659.2979999999999
 30
0.0
 11
26.18994999999999
 21
660.758
 31
0.0
  0
LINE
  5
5F
330
1E
100
AcDbEntity
  8
0
100
AcDbLine
 10
23.66004999999999
 20
659.2979999999999
 30
0.0
 11
25.63074999999999
 21
660.4349999999999
 31
0.0
  0
LINE
  5
60
330
1E
100
AcDbEntity
  8
0
100
AcDbLine
 10
22.39174999999999
 20
658.5650000000001
 30
0.0
 11
23.10353767450739
 21
658.976369837904
 31
0.0
  0
LINE
  5
61
330
1E
100
AcDbEntity
  8
0
100
AcDbLine
 10
22.39174999999999
 20
658.5650000000001
 30
0.0
 11
23.1036845459573
 21
658.976027354412
 31
0.0
  0
LINE
  5
63
330
1E
100
AcDbEntity
  8
0
100
AcDbLine
 10
22.39174999999999
 20
658.5650000000001
 30
0.0
 11
23.66004999999999
 21
659.2979999999999
 31
0.0
  0
LINE
  5
64
330
1E
100
AcDbEntity
  8
0
100
AcDbLine
 10
22.39174999999999
 20
658.5650000000001
 30
0.0
 11
25.8448238500605
 21
652.584077375458
 31
0.0
  0
LINE
  5
65
330
1E
100
AcDbEntity
  8
0
100
AcDbLine
 10
22.39174999999999
 20
658.5650000000001
 30
0.0
 11
33.47315
 21
639.372
 31
0.0
  0
LINE
  5
73
330
1E
100
AcDbEntity
  8
0
100
AcDbLine
 10
0.4940240606592852
 20
696.4237327195299
 30
0.0
 11
22.39174999999999
 21
658.5650000000001
 31
0.0
  0
LINE
  5
77
330
1E
100
AcDbEntity
  8
0
100
AcDbLine
 10
0.4940240606592852
 20
696.4237327195299
 30
0.0
 11
22.39174999999999
 21
658.5650000000001
 31
0.0
  0
LINE
  5
79
330
1E
100
AcDbEntity
  8
0
100
AcDbLine
 10
0.4940240606592852
 20
696.4237327195299
 30
0.0
 11
7.05394999999999
 21
700.5169999999999
 31
0.0
  0
LINE
  5
7A
330
1E
100
AcDbEntity
  8
0
100
AcDbLine
 10
7.05394999999999
 20
700.5169999999999
 30
0.0
 11
10.10895
 21
702.281
 31
0.0
  0
LINE
  5
82
330
1E
100
AcDbEntity
  8
0
100
AcDbLine
 10
10.10895
 20
702.281
 30
0.0
 11
13.16385
 21
704.044
 31
0.0
  0
LINE
  5
84
330
1E
100
AcDbEntity
  8
0
100
AcDbLine
 10
13.16385
 20
704.044
 30
0.0
 11
16.02785
 21
705.698
 31
0.0
  0
LINE
  5
85
330
1E
100
AcDbEntity
  8
0
100
AcDbLine
 10
16.02785
 20
705.698
 30
0.0
 11
18.55785
 21
707.159
 31
0.0
  0
LINE
  5
86
330
1E
100
AcDbEntity
  8
0
100
AcDbLine
 10
18.55785
 20
707.159
 30
0.0
 11
20.46715
 21
708.261
 31
0.0
  0
LINE
  5
87
330
1E
100
AcDbEntity
  8
0
100
AcDbLine
 10
20.0182922906896
 20
708.0019306051119
 30
0.0
 11
20.46715
 21
708.261
 31
0.0
  0
LINE
  5
89
330
1E
100
AcDbEntity
  8
0
100
AcDbLine
 10
21.61274999999999
 20
708.922
 30
0.0
 11
22.04235
 21
709.1699999999999
 31
0.0
  0
LINE
  5
8A
330
1E
100
AcDbEntity
  8
0
100
AcDbLine
 10
22.04235
 20
709.1699999999999
 30
0.0
 11
44.04234999999999
 21
671.0650000000001
 31
0.0
  0
LINE
  5
8B
330
1E
100
AcDbEntity
  8
0
100
AcDbLine
 10
20.46715
 20
708.261
 30
0.0
 11
21.61274999999999
 21
708.922
 31
0.0
  0
LINE
  5
95
330
1E
100
AcDbEntity
  8
0
100
AcDbLine
 10
24.69515
 20
651.5169999999999
 30
0.0
 11
25.4944223687226
 21
653.4011641750639
 31
0.0
  0
LINE
  5
99
330
1E
100
AcDbEntity
  8
0
100
AcDbLine
 10
24.11414999999999
 20
646.7749999999999
 30
0.0
 11
24.77765
 21
642.1699999999999
 31
0.0
  0
LINE
  5
9A
330
1E
100
AcDbEntity
  8
0
100
AcDbLine
 10
24.11414999999999
 20
646.7749999999999
 30
0.0
 11
24.70035
 21
651.52
 31
0.0
  0
LINE
  5
9C
330
1E
100
AcDbEntity
  8
0
100
AcDbLine
 10
24.11414999999999
 20
646.7749999999999
 30
0.0
 11
24.69515
 21
651.5169999999999
 31
0.0
  0
LINE
  5
A1
330
1E
100
AcDbEntity
  8
0
100
AcDbLine
 10
25.63074999999999
 20
660.4349999999999
 30
0.0
 11
27.45824999999999
 21
661.49
 31
0.0
  0
LINE
  5
A2
330
1E
100
AcDbEntity
  8
0
100
AcDbLine
 10
26.18994999999999
 20
660.758
 30
0.0
 11
29.05395
 21
662.4119999999999
 31
0.0
  0
LINE
  5
A3
330
1E
100
AcDbEntity
  8
0
100
AcDbLine
 10
26.18994999999999
 20
660.758
 30
0.0
 11
27.45824999999999
 21
661.49
 31
0.0
  0
LINE
  5
A5
330
1E
100
AcDbEntity
  8
0
100
AcDbLine
 10
26.87365
 20
650.1849999999999
 30
0.0
 11
34.77465
 21
627.389
 31
0.0
  0
LINE
  5
A8
330
1E
100
AcDbEntity
  8
0
100
AcDbLine
 10
24.77765
 20
642.1699999999999
 30
0.0
 11
26.52045
 21
637.855
 31
0.0
  0
LINE
  5
A9
330
1E
100
AcDbEntity
  8
0
100
AcDbLine
 10
24.70035
 20
651.52
 30
0.0
 11
25.4958280789827
 21
653.3978862571359
 31
0.0
  0
LINE
  5
AA
330
1E
100
AcDbEntity
  8
0
100
AcDbLine
 10
26.52045
 20
637.855
 30
0.0
 11
29.38565
 21
634.1879999999999
 31
0.0
  0
LINE
  5
AC
330
1E
100
AcDbEntity
  8
0
100
AcDbLine
 10
27.45824999999999
 20
661.49
 30
0.0
 11
29.70864999999999
 21
662.7899999999999
 31
0.0
  0
LINE
  5
AD
330
1E
100
AcDbEntity
  8
0
100
AcDbLine
 10
29.70864999999999
 20
662.7899999999999
 30
0.0
 11
32.10895
 21
664.175
 31
0.0
  0
LINE
  5
AF
330
1E
100
AcDbEntity
  8
0
100
AcDbLine
 10
29.05395
 20
662.4119999999999
 30
0.0
 11
29.70864999999999
 21
662.7899999999999
 31
0.0
  0
LINE
  5
B3
330
1E
100
AcDbEntity
  8
0
100
AcDbLine
 10
31.50895
 20
944.355
 30
0.0
 11
32.60895
 21
944.355
 31
0.0
  0
LINE
  5
B4
330
1E
100
AcDbEntity
  8
0
100
AcDbLine
 10
31.10895
 20
944.355
 30
0.0
 11
31.60895
 21
944.855
 31
0.0
  0
LINE
  5
B5
330
1E
100
AcDbEntity
  8
0
100
AcDbLine
 10
31.10895
 20
944.355
 30
0.0
 11
31.50895
 21
944.355
 31
0.0
  0
LINE
  5
B6
330
1E
100
AcDbEntity
  8
0
100
AcDbLine
 10
31.10895
 20
693.4662366818181
 30
0.0
 11
31.10895
 21
944.355
 31
0.0
  0
LINE
  5
BE
330
1E
100
AcDbEntity
  8
0
100
AcDbLine
 10
32.10895
 20
664.175
 30
0.0
 11
34.50925
 21
665.561
 31
0.0
  0
LINE
  5
C0
330
1E
100
AcDbEntity
  8
0
100
AcDbLine
 10
32.60895
 20
91.355
 30
0.0
 11
34.30895
 21
91.355
 31
0.0
  0
LINE
  5
C1
330
1E
100
AcDbEntity
  8
0
100
AcDbLine
 10
32.60895
 20
944.355
 30
0.0
 11
34.30895
 21
944.355
 31
0.0
  0
LINE
  5
C3
330
1E
100
AcDbEntity
  8
0
100
AcDbLine
 10
31.60895
 20
944.855
 30
0.0
 11
32.00895
 21
944.855
 31
0.0
  0
LINE
  5
C4
330
1E
100
AcDbEntity
  8
0
100
AcDbLine
 10
32.00895
 20
944.855
 30
0.0
 11
33.00895
 21
944.855
 31
0.0
  0
LINE
  5
C5
330
1E
100
AcDbEntity
  8
0
100
AcDbLine
 10
34.30895
 20
91.355
 30
0.0
 11
36.60895
 21
91.355
 31
0.0
  0
LINE
  5
C6
330
1E
100
AcDbEntity
  8
0
100
AcDbLine
 10
36.60895
 20
91.355
 30
0.0
 11
39.30895
 21
91.355
 31
0.0
  0
LINE
  5
C7
330
1E
100
AcDbEntity
  8
0
100
AcDbLine
 10
34.77465
 20
627.389
 30
0.0
 11
40.97464999999999
 21
602.9919999999999
 31
0.0
  0
LINE
  5
C8
330
1E
100
AcDbEntity
  8
0
100
AcDbLine
 10
34.18925
 20
641.0599999999999
 30
0.0
 11
35.92484999999999
 21
643.8969999999999
 31
0.0
  0
LINE
  5
C9
330
1E
100
AcDbEntity
  8
0
100
AcDbLine
 10
33.47315
 20
639.372
 30
0.0
 11
36.68945
 21
641.2809999999999
 31
0.0
  0
LINE
  5
CA
330
1E
100
AcDbEntity
  8
0
100
AcDbLine
 10
33.47315
 20
639.372
 30
0.0
 11
34.18925
 21
641.0599999999999
 31
0.0
  0
LINE
  5
CB
330
1E
100
AcDbEntity
  8
0
100
AcDbLine
 10
34.50925
 20
665.561
 30
0.0
 11
36.75955
 21
666.8610000000001
 31
0.0
  0
LINE
  5
CC
330
1E
100
AcDbEntity
  8
0
100
AcDbLine
 10
34.50925
 20
665.561
 30
0.0
 11
35.16384999999999
 21
665.939
 31
0.0
  0
LINE
  5
CE
330
1E
100
AcDbEntity
  8
0
100
AcDbLine
 10
36.68945
 20
641.2809999999999
 30
0.0
 11
38.07065
 21
643.109
 31
0.0
  0
LINE
  5
CF
330
1E
100
AcDbEntity
  8
0
100
AcDbLine
 10
35.92484999999999
 20
643.8969999999999
 30
0.0
 11
38.29715
 21
646.4019999999999
 31
0.0
  0
LINE
  5
D1
330
1E
100
AcDbEntity
  8
0
100
AcDbLine
 10
35.16384999999999
 20
665.939
 30
0.0
 11
38.02785
 21
667.5930000000001
 31
0.0
  0
LINE
  5
D2
330
1E
100
AcDbEntity
  8
0
100
AcDbLine
 10
36.75955
 20
666.8610000000001
 30
0.0
 11
38.74725
 21
668.008
 31
0.0
  0
LINE
  5
D3
330
1E
100
AcDbEntity
  8
0
100
AcDbLine
 10
36.75955
 20
666.8610000000001
 30
0.0
 11
38.02785
 21
667.5930000000001
 31
0.0
  0
LINE
  5
D4
330
1E
100
AcDbEntity
  8
0
100
AcDbLine
 10
36.6300588948489
 20
666.786192891305
 30
0.0
 11
36.75955
 21
666.8610000000001
 31
0.0
  0
LINE
  5
D5
330
1E
100
AcDbEntity
  8
0
100
AcDbLine
 10
36.6302179231641
 20
666.7858479556259
 30
0.0
 11
38.02785
 21
667.5930000000001
 31
0.0
  0
LINE
  5
D6
330
1E
100
AcDbEntity
  8
0
100
AcDbLine
 10
34.30895
 20
944.355
 30
0.0
 11
36.60895
 21
944.355
 31
0.0
  0
LINE
  5
D7
330
1E
100
AcDbEntity
  8
0
100
AcDbLine
 10
36.60895
 20
944.355
 30
0.0
 11
39.30895
 21
944.355
 31
0.0
  0
LINE
  5
D9
330
1E
100
AcDbEntity
  8
0
100
AcDbLine
 10
33.04215
 20
631.311
 30
0.0
 11
33.4795229951616
 21
631.1257061387538
 31
0.0
  0
LINE
  5
DA
330
1E
100
AcDbEntity
  8
0
100
AcDbLine
 10
33.04215
 20
631.311
 30
0.0
 11
33.4797333478873
 21
631.1250992281429
 31
0.0
  0
LINE
  5
DB
330
1E
100
AcDbEntity
  8
0
100
AcDbLine
 10
33.00895
 20
944.855
 30
0.0
 11
34.70895
 21
944.855
 31
0.0
  0
LINE
  5
DC
330
1E
100
AcDbEntity
  8
0
100
AcDbLine
 10
34.70895
 20
944.855
 30
0.0
 11
36.90894999999999
 21
944.855
 31
0.0
  0
LINE
  5
DD
330
1E
100
AcDbEntity
  8
0
100
AcDbLine
 10
38.07065
 20
643.109
 30
0.0
 11
40.00325
 21
644.959
 31
0.0
  0
LINE
  5
DE
330
1E
100
AcDbEntity
  8
0
100
AcDbLine
 10
40.00325
 20
644.959
 30
0.0
 11
42.24475
 21
646.62
 31
0.0
  0
LINE
  5
DF
330
1E
100
AcDbEntity
  8
0
100
AcDbLine
 10
38.29715
 20
646.4019999999999
 30
0.0
 11
41.10895
 21
648.587
 31
0.0
  0
LINE
  5
E0
330
1E
100
AcDbEntity
  8
0
100
AcDbLine
 10
39.30895
 20
91.355
 30
0.0
 11
42.10894999999999
 21
91.355
 31
0.0
  0
LINE
  5
E1
330
1E
100
AcDbEntity
  8
0
100
AcDbLine
 10
42.10894999999999
 20
91.355
 30
0.0
 11
44.9089499999999
 21
91.355
 31
0.0
  0
LINE
  5
E2
330
1E
100
AcDbEntity
  8
0
100
AcDbLine
 10
41.10895
 20
648.587
 30
0.0
 11
44.36885
 21
649.9959999999999
 31
0.0
  0
LINE
  5
E3
330
1E
100
AcDbEntity
  8
0
100
AcDbLine
 10
40.97464999999999
 20
602.9919999999999
 30
0.0
 11
45.57364999999999
 21
578.7849999999999
 31
0.0
  0
LINE
  5
E4
330
1E
100
AcDbEntity
  8
0
100
AcDbLine
 10
44.78985
 20
647.7549999999999
 30
0.0
 11
48.67365
 21
635.395
 31
0.0
  0
LINE
  5
E5
330
1E
100
AcDbEntity
  8
0
100
AcDbLine
 10
40.24754999999999
 20
668.8739999999999
 30
0.0
 11
41.14765
 21
669.3939999999998
 31
0.0
  0
LINE
  5
E6
330
1E
100
AcDbEntity
  8
0
100
AcDbLine
 10
40.24754999999999
 20
668.8739999999999
 30
0.0
 11
42.46715
 21
670.156
 31
0.0
  0
LINE
  5
E7
330
1E
100
AcDbEntity
  8
0
100
AcDbLine
 10
38.74725
 20
668.008
 30
0.0
 11
40.24754999999999
 21
668.8739999999999
 31
0.0
  0
LINE
  5
E8
330
1E
100
AcDbEntity
  8
0
100
AcDbLine
 10
38.74725
 20
668.008
 30
0.0
 11
40.55785
 21
669.0529999999999
 31
0.0
  0
LINE
  5
E9
330
1E
100
AcDbEntity
  8
0
100
AcDbLine
 10
41.48514999999999
 20
669.5889999999999
 30
0.0
 11
44.04234999999999
 21
671.0650000000001
 31
0.0
  0
LINE
  5
EB
330
1E
100
AcDbEntity
  8
0
100
AcDbLine
 10
41.14765
 20
669.3939999999998
 30
0.0
 11
41.48514999999999
 21
669.5889999999999
 31
0.0
  0
LINE
  5
EC
330
1E
100
AcDbEntity
  8
0
100
AcDbLine
 10
41.14765
 20
669.3939999999998
 30
0.0
 11
43.61275
 21
670.8169999999999
 31
0.0
  0
LINE
  5
ED
330
1E
100
AcDbEntity
  8
0
100
AcDbLine
 10
40.55785
 20
669.0529999999999
 30
0.0
 11
42.46715
 21
670.156
 31
0.0
  0
LINE
  5
EE
330
1E
100
AcDbEntity
  8
0
100
AcDbLine
 10
38.02785
 20
667.5930000000001
 30
0.0
 11
40.55785
 21
669.0529999999999
 31
0.0
  0
LINE
  5
EF
330
1E
100
AcDbEntity
  8
0
100
AcDbLine
 10
39.30895
 20
944.355
 30
0.0
 11
42.10894999999999
 21
944.355
 31
0.0
  0
LINE
  5
F0
330
1E
100
AcDbEntity
  8
0
100
AcDbLine
 10
42.10894999999999
 20
944.355
 30
0.0
 11
44.90895
 21
944.355
 31
0.0
  0
LINE
  5
F3
330
1E
100
AcDbEntity
  8
0
100
AcDbLine
 10
36.90894999999999
 20
944.855
 30
0.0
 11
39.40894999999999
 21
944.855
 31
0.0
  0
LINE
  5
F4
330
1E
100
AcDbEntity
  8
0
100
AcDbLine
 10
31.10895
 20
945.3549999999999
 30
0.0
 11
31.50895
 21
945.3549999999999
 31
0.0
  0
LINE
  5
F5
330
1E
100
AcDbEntity
  8
0
100
AcDbLine
 10
31.10895
 20
945.3549999999999
 30
0.0
 11
31.60895
 21
944.855
 31
0.0
  0
LINE
  5
F6
330
1E
100
AcDbEntity
  8
0
100
AcDbLine
 10
31.10895
 20
945.3549999999999
 30
0.0
 11
31.10895
 21
996.3549999999999
 31
0.0
  0
LINE
  5
F7
330
1E
100
AcDbEntity
  8
0
100
AcDbLine
 10
31.50895
 20
945.3549999999999
 30
0.0
 11
32.60895
 21
945.3549999999999
 31
0.0
  0
LINE
  5
F8
330
1E
100
AcDbEntity
  8
0
100
AcDbLine
 10
32.60895
 20
945.3549999999999
 30
0.0
 11
34.30895
 21
945.3549999999999
 31
0.0
  0
LINE
  5
F9
330
1E
100
AcDbEntity
  8
0
100
AcDbLine
 10
34.30895
 20
945.3549999999999
 30
0.0
 11
36.60895
 21
945.3549999999999
 31
0.0
  0
LINE
  5
FA
330
1E
100
AcDbEntity
  8
0
100
AcDbLine
 10
36.60895
 20
945.3549999999999
 30
0.0
 11
39.30895
 21
945.3549999999999
 31
0.0
  0
LINE
  5
FB
330
1E
100
AcDbEntity
  8
0
100
AcDbLine
 10
31.10895
 20
996.3549999999999
 30
0.0
 11
31.50895
 21
996.3549999999999
 31
0.0
  0
LINE
  5
FC
330
1E
100
AcDbEntity
  8
0
100
AcDbLine
 10
31.10895
 20
996.3549999999999
 30
0.0
 11
31.60895
 21
996.855
 31
0.0
  0
LINE
  5
FD
330
1E
100
AcDbEntity
  8
0
100
AcDbLine
 10
31.50895
 20
996.3549999999999
 30
0.0
 11
32.60895
 21
996.3549999999999
 31
0.0
  0
LINE
  5
FE
330
1E
100
AcDbEntity
  8
0
100
AcDbLine
 10
32.60895
 20
996.3549999999999
 30
0.0
 11
34.30895
 21
996.3549999999999
 31
0.0
  0
LINE
  5
FF
330
1E
100
AcDbEntity
  8
0
100
AcDbLine
 10
34.30895
 20
996.3549999999999
 30
0.0
 11
36.60895
 21
996.3549999999999
 31
0.0
  0
LINE
  5
100
330
1E
100
AcDbEntity
  8
0
100
AcDbLine
 10
31.60895
 20
996.855
 30
0.0
 11
32.00895
 21
996.855
 31
0.0
  0
LINE
  5
101
330
1E
100
AcDbEntity
  8
0
100
AcDbLine
 10
32.00895
 20
996.855
 30
0.0
 11
33.00895
 21
996.855
 31
0.0
  0
LINE
  5
102
330
1E
100
AcDbEntity
  8
0
100
AcDbLine
 10
33.00895
 20
996.855
 30
0.0
 11
34.70895
 21
996.855
 31
0.0
  0
LINE
  5
103
330
1E
100
AcDbEntity
  8
0
100
AcDbLine
 10
34.70895
 20
996.855
 30
0.0
 11
36.90894999999999
 21
996.855
 31
0.0
  0
LINE
  5
104
330
1E
100
AcDbEntity
  8
0
100
AcDbLine
 10
36.90894999999999
 20
996.855
 30
0.0
 11
39.40894999999999
 21
996.855
 31
0.0
  0
LINE
  5
105
330
1E
100
AcDbEntity
  8
0
100
AcDbLine
 10
36.60895
 20
996.3549999999999
 30
0.0
 11
39.30895
 21
996.3549999999999
 31
0.0
  0
LINE
  5
106
330
1E
100
AcDbEntity
  8
0
100
AcDbLine
 10
39.40894999999999
 20
996.855
 30
0.0
 11
42.10894999999999
 21
996.855
 31
0.0
  0
LINE
  5
107
330
1E
100
AcDbEntity
  8
0
100
AcDbLine
 10
42.10894999999999
 20
996.855
 30
0.0
 11
85.60895
 21
996.855
 31
0.0
  0
LINE
  5
108
330
1E
100
AcDbEntity
  8
0
100
AcDbLine
 10
39.30895
 20
996.3549999999999
 30
0.0
 11
42.10894999999999
 21
996.3549999999999
 31
0.0
  0
LINE
  5
109
330
1E
100
AcDbEntity
  8
0
100
AcDbLine
 10
39.30895
 20
945.3549999999999
 30
0.0
 11
42.10894999999999
 21
945.3549999999999
 31
0.0
  0
LINE
  5
10A
330
1E
100
AcDbEntity
  8
0
100
AcDbLine
 10
42.10894999999999
 20
945.3549999999999
 30
0.0
 11
86.10894999999999
 21
945.3549999999999
 31
0.0
  0
LINE
  5
10B
330
1E
100
AcDbEntity
  8
0
100
AcDbLine
 10
39.40894999999999
 20
944.855
 30
0.0
 11
42.10894999999999
 21
944.855
 31
0.0
  0
LINE
  5
10C
330
1E
100
AcDbEntity
  8
0
100
AcDbLine
 10
44.9089499999999
 20
91.355
 30
0.0
 11
47.60895
 21
91.355
 31
0.0
  0
LINE
  5
10D
330
1E
100
AcDbEntity
  8
0
100
AcDbLine
 10
47.60895
 20
91.355
 30
0.0
 11
49.9089499999999
 21
91.355
 31
0.0
  0
LINE
  5
10E
330
1E
100
AcDbEntity
  8
0
100
AcDbLine
 10
48.47265
 20
557.088
 30
0.0
 11
50.27365
 21
525.4869999999999
 31
0.0
  0
LINE
  5
10F
330
1E
100
AcDbEntity
  8
0
100
AcDbLine
 10
45.57364999999999
 20
578.7849999999999
 30
0.0
 11
48.47265
 21
557.088
 31
0.0
  0
LINE
  5
112
330
1E
100
AcDbEntity
  8
0
100
AcDbLine
 10
48.67365
 20
635.395
 30
0.0
 11
55.47365
 21
609.687
 31
0.0
  0
LINE
  5
113
330
1E
100
AcDbEntity
  8
0
100
AcDbLine
 10
49.9089499999999
 20
91.355
 30
0.0
 11
50.6080423970837
 21
91.355
 31
0.0
  0
LINE
  5
114
330
1E
100
AcDbEntity
  8
0
100
AcDbLine
 10
53.10895
 20
655.3612696182579
 30
0.0
 11
53.10895
 21
944.355
 31
0.0
  0
LINE
  5
115
330
1E
100
AcDbEntity
  8
0
100
AcDbLine
 10
50.27365
 20
525.4869999999999
 30
0.0
 11
50.67565
 21
3.582000000000029
 31
0.0
  0
LINE
  5
116
330
1E
100
AcDbEntity
  8
0
100
AcDbLine
 10
50.27365
 20
525.4869999999999
 30
0.0
 11
50.67565
 21
3.582000000000009
 31
0.0
  0
LINE
  5
117
330
1E
100
AcDbEntity
  8
0
100
AcDbLine
 10
51.10895
 20
631.2669999999999
 30
0.0
 11
54.77555
 21
634.1319999999999
 31
0.0
  0
LINE
  5
118
330
1E
100
AcDbEntity
  8
0
100
AcDbLine
 10
49.8952357886738
 20
630.7766871389369
 30
0.0
 11
51.10895
 21
631.2669999999999
 31
0.0
  0
LINE
  5
119
330
1E
100
AcDbEntity
  8
0
100
AcDbLine
 10
47.5674337538449
 20
638.488296196833
 30
0.0
 11
49.44595
 21
639.69
 31
0.0
  0
LINE
  5
11A
330
1E
100
AcDbEntity
  8
0
100
AcDbLine
 10
49.44595
 20
639.69
 30
0.0
 11
51.53595
 21
641.2669999999999
 31
0.0
  0
LINE
  5
11B
330
1E
100
AcDbEntity
  8
0
100
AcDbLine
 10
51.53595
 20
641.2669999999999
 30
0.0
 11
53.25395
 21
642.8819999999999
 31
0.0
  0
LINE
  5
11C
330
1E
100
AcDbEntity
  8
0
100
AcDbLine
 10
53.02785
 20
641.6119999999999
 30
0.0
 11
55.40485
 21
643.338
 31
0.0
  0
LINE
  5
11D
330
1E
100
AcDbEntity
  8
0
100
AcDbLine
 10
50.16384999999999
 20
639.959
 30
0.0
 11
53.02785
 21
641.6119999999999
 31
0.0
  0
LINE
  5
11E
330
1E
100
AcDbEntity
  8
0
100
AcDbLine
 10
47.5758969852282
 20
638.464630587562
 30
0.0
 11
50.16384999999999
 21
639.959
 31
0.0
  0
LINE
  5
11F
330
1E
100
AcDbEntity
  8
0
100
AcDbLine
 10
52.07724999999999
 20
648.385
 30
0.0
 11
53.62845
 21
647.7769999999999
 31
0.0
  0
LINE
  5
120
330
1E
100
AcDbEntity
  8
0
100
AcDbLine
 10
49.92595
 20
648.646
 30
0.0
 11
52.07724999999999
 21
648.385
 31
0.0
  0
LINE
  5
121
330
1E
100
AcDbEntity
  8
0
100
AcDbLine
 10
47.39945
 20
648.432
 30
0.0
 11
49.92595
 21
648.646
 31
0.0
  0
LINE
  5
122
330
1E
100
AcDbEntity
  8
0
100
AcDbLine
 10
44.78985
 20
647.7549999999999
 30
0.0
 11
47.39945
 21
648.432
 31
0.0
  0
LINE
  5
123
330
1E
100
AcDbEntity
  8
0
100
AcDbLine
 10
42.24475
 20
646.62
 30
0.0
 11
44.78985
 21
647.7549999999999
 31
0.0
  0
LINE
  5
124
330
1E
100
AcDbEntity
  8
0
100
AcDbLine
 10
51.06295
 20
650.8580000000001
 30
0.0
 11
53.87025
 21
650.4049999999999
 31
0.0
  0
LINE
  5
125
330
1E
100
AcDbEntity
  8
0
100
AcDbLine
 10
47.65744999999999
 20
650.914
 30
0.0
 11
51.06295
 21
650.8580000000001
 31
0.0
  0
LINE
  5
126
330
1E
100
AcDbEntity
  8
0
100
AcDbLine
 10
44.36885
 20
649.9959999999999
 30
0.0
 11
47.65744999999999
 21
650.914
 31
0.0
  0
LINE
  5
128
330
1E
100
AcDbEntity
  8
0
100
AcDbLine
 10
44.04234999999999
 20
671.0650000000001
 30
0.0
 11
57.17425
 21
648.32
 31
0.0
  0
LINE
  5
129
330
1E
100
AcDbEntity
  8
0
100
AcDbLine
 10
43.61275
 20
670.8169999999999
 30
0.0
 11
44.04234999999999
 21
671.0650000000001
 31
0.0
  0
LINE
  5
12A
330
1E
100
AcDbEntity
  8
0
100
AcDbLine
 10
42.46715
 20
670.156
 30
0.0
 11
43.61275
 21
670.8169999999999
 31
0.0
  0
LINE
  5
12B
330
1E
100
AcDbEntity
  8
0
100
AcDbLine
 10
44.80895
 20
944.855
 30
0.0
 11
47.30895
 21
944.855
 31
0.0
  0
LINE
  5
12C
330
1E
100
AcDbEntity
  8
0
100
AcDbLine
 10
44.90895
 20
944.355
 30
0.0
 11
47.60895
 21
944.355
 31
0.0
  0
LINE
  5
12D
330
1E
100
AcDbEntity
  8
0
100
AcDbLine
 10
53.10895
 20
660.877923451388
 30
0.0
 11
54.83225
 21
659.5219999999999
 31
0.0
  0
LINE
  5
12E
330
1E
100
AcDbEntity
  8
0
100
AcDbLine
 10
47.30895
 20
944.855
 30
0.0
 11
49.50895
 21
944.855
 31
0.0
  0
LINE
  5
12F
330
1E
100
AcDbEntity
  8
0
100
AcDbLine
 10
52.70895
 20
944.355
 30
0.0
 11
53.10895
 21
944.355
 31
0.0
  0
LINE
  5
130
330
1E
100
AcDbEntity
  8
0
100
AcDbLine
 10
51.60895
 20
944.355
 30
0.0
 11
52.70895
 21
944.355
 31
0.0
  0
LINE
  5
131
330
1E
100
AcDbEntity
  8
0
100
AcDbLine
 10
52.20895
 20
944.855
 30
0.0
 11
52.60895
 21
944.855
 31
0.0
  0
LINE
  5
132
330
1E
100
AcDbEntity
  8
0
100
AcDbLine
 10
51.20895
 20
944.855
 30
0.0
 11
52.20895
 21
944.855
 31
0.0
  0
LINE
  5
133
330
1E
100
AcDbEntity
  8
0
100
AcDbLine
 10
49.50895
 20
944.855
 30
0.0
 11
51.20895
 21
944.855
 31
0.0
  0
LINE
  5
134
330
1E
100
AcDbEntity
  8
0
100
AcDbLine
 10
49.90895
 20
944.355
 30
0.0
 11
51.60895
 21
944.355
 31
0.0
  0
LINE
  5
135
330
1E
100
AcDbEntity
  8
0
100
AcDbLine
 10
47.60895
 20
944.355
 30
0.0
 11
49.90895
 21
944.355
 31
0.0
  0
LINE
  5
13F
330
1E
100
AcDbEntity
  8
0
100
AcDbLine
 10
66.27365000000001
 20
525.4909999999999
 30
0.0
 11
66.58164999999989
 21
4.519999999999999
 31
0.0
  0
LINE
  5
140
330
1E
100
AcDbEntity
  8
0
100
AcDbLine
 10
66.27365000000001
 20
525.4909999999999
 30
0.0
 11
66.58164999999989
 21
4.519999999999949
 31
0.0
  0
LINE
  5
141
330
1E
100
AcDbEntity
  8
0
100
AcDbLine
 10
64.27365
 20
559.8919999999999
 30
0.0
 11
66.27365000000001
 21
525.4909999999999
 31
0.0
  0
LINE
  5
142
330
1E
100
AcDbEntity
  8
0
100
AcDbLine
 10
60.57365
 20
584.2899999999999
 30
0.0
 11
64.27365
 21
559.8919999999999
 31
0.0
  0
LINE
  5
143
330
1E
100
AcDbEntity
  8
0
100
AcDbLine
 10
55.47365
 20
609.687
 30
0.0
 11
60.57365
 21
584.2899999999999
 31
0.0
  0
LINE
  5
144
330
1E
100
AcDbEntity
  8
0
100
AcDbLine
 10
54.77555
 20
634.1319999999999
 30
0.0
 11
57.65285
 21
637.788
 31
0.0
  0
LINE
  5
145
330
1E
100
AcDbEntity
  8
0
100
AcDbLine
 10
53.62845
 20
647.7769999999999
 30
0.0
 11
54.66194999999999
 21
646.7659999999999
 31
0.0
  0
LINE
  5
146
330
1E
100
AcDbEntity
  8
0
100
AcDbLine
 10
53.87025
 20
650.4049999999999
 30
0.0
 11
55.86895
 21
649.5890000000001
 31
0.0
  0
LINE
  5
147
330
1E
100
AcDbEntity
  8
0
100
AcDbLine
 10
54.45695
 20
644.263
 30
0.0
 11
54.88565
 21
645.599
 31
0.0
  0
LINE
  5
148
330
1E
100
AcDbEntity
  8
0
100
AcDbLine
 10
53.25395
 20
642.8819999999999
 30
0.0
 11
54.45695
 21
644.263
 31
0.0
  0
LINE
  5
149
330
1E
100
AcDbEntity
  8
0
100
AcDbLine
 10
55.86895
 20
649.5890000000001
 30
0.0
 11
57.17425
 21
648.32
 31
0.0
  0
LINE
  5
14A
330
1E
100
AcDbEntity
  8
0
100
AcDbLine
 10
54.66194999999999
 20
646.7659999999999
 30
0.0
 11
54.88565
 21
645.599
 31
0.0
  0
LINE
  5
14B
330
1E
100
AcDbEntity
  8
0
100
AcDbLine
 10
57.17425
 20
648.32
 30
0.0
 11
57.53035
 21
646.7109999999999
 31
0.0
  0
LINE
  5
14C
330
1E
100
AcDbEntity
  8
0
100
AcDbLine
 10
56.94605
 20
645.0779999999999
 30
0.0
 11
57.53035
 21
646.7109999999999
 31
0.0
  0
LINE
  5
14D
330
1E
100
AcDbEntity
  8
0
100
AcDbLine
 10
55.40485
 20
643.338
 30
0.0
 11
56.94605
 21
645.0779999999999
 31
0.0
  0
LINE
  5
14F
330
1E
100
AcDbEntity
  8
0
100
AcDbLine
 10
54.83225
 20
659.5219999999999
 30
0.0
 11
57.69745
 21
655.855
 31
0.0
  0
LINE
  5
150
330
1E
100
AcDbEntity
  8
0
100
AcDbLine
 10
57.69745
 20
655.855
 30
0.0
 11
59.44024999999999
 21
651.5399999999999
 31
0.0
  0
LINE
  5
152
330
1E
100
AcDbEntity
  8
0
100
AcDbLine
 10
59.51755
 20
642.19
 30
0.0
 11
60.10374999999999
 21
646.9349999999999
 31
0.0
  0
LINE
  5
153
330
1E
100
AcDbEntity
  8
0
100
AcDbLine
 10
59.44024999999999
 20
651.5399999999999
 30
0.0
 11
60.10374999999999
 21
646.9349999999999
 31
0.0
  0
LINE
  5
156
330
1E
100
AcDbEntity
  8
0
100
AcDbLine
 10
57.65285
 20
637.788
 30
0.0
 11
59.51755
 21
642.19
 31
0.0
  0
LINE
  5
15A
330
1E
100
AcDbEntity
  8
0
100
AcDbLine
 10
52.60895
 20
944.855
 30
0.0
 11
85.60895
 21
944.855
 31
0.0
  0
LINE
  5
15B
330
1E
100
AcDbEntity
  8
0
100
AcDbLine
 10
52.60895
 20
944.855
 30
0.0
 11
53.10895
 21
944.355
 31
0.0
  0
LINE
  5
15C
330
1E
100
AcDbEntity
  8
0
100
AcDbLine
 10
42.10894999999999
 20
996.3549999999999
 30
0.0
 11
86.10894999999999
 21
996.3549999999999
 31
0.0
  0
LINE
  5
15D
330
1E
100
AcDbEntity
  8
0
100
AcDbLine
 10
42.10894999999999
 20
996.855
 30
0.0
 11
85.60895
 21
996.855
 31
0.0
  0
LINE
  5
15E
330
1E
100
AcDbEntity
  8
0
100
AcDbLine
 10
42.10894999999999
 20
996.3549999999999
 30
0.0
 11
86.10894999999999
 21
996.3549999999999
 31
0.0
  0
LINE
  5
15F
330
1E
100
AcDbEntity
  8
0
100
AcDbLine
 10
42.10894999999999
 20
944.855
 30
0.0
 11
85.60895
 21
944.855
 31
0.0
  0
LINE
  5
160
330
1E
100
AcDbEntity
  8
0
100
AcDbLine
 10
42.10894999999999
 20
944.855
 30
0.0
 11
44.80895
 21
944.855
 31
0.0
  0
LINE
  5
161
330
1E
100
AcDbEntity
  8
0
100
AcDbLine
 10
42.10894999999999
 20
90.85500000000001
 30
0.0
 11
50.6084275246453
 21
90.85500000000001
 31
0.0
  0
LINE
  5
162
330
1E
100
AcDbEntity
  8
0
100
AcDbLine
 10
66.53060842570889
 20
90.85500000000001
 30
0.0
 11
85.60895
 21
90.85500000000001
 31
0.0
  0
LINE
  5
163
330
1E
100
AcDbEntity
  8
0
100
AcDbLine
 10
66.53060842570889
 20
90.85500000000001
 30
0.0
 11
85.60895
 21
90.85500000000001
 31
0.0
  0
LINE
  5
164
330
1E
100
AcDbEntity
  8
0
100
AcDbLine
 10
31.10895
 20
90.355
 30
0.0
 11
31.60895
 21
90.85500000000001
 31
0.0
  0
LINE
  5
165
330
1E
100
AcDbEntity
  8
0
100
AcDbLine
 10
31.10895
 20
90.355
 30
0.0
 11
31.10895
 21
39.35499999999999
 31
0.0
  0
LINE
  5
166
330
1E
100
AcDbEntity
  8
0
100
AcDbLine
 10
31.10895
 20
90.355
 30
0.0
 11
31.50895
 21
90.355
 31
0.0
  0
LINE
  5
167
330
1E
100
AcDbEntity
  8
0
100
AcDbLine
 10
85.60895
 20
996.855
 30
0.0
 11
86.10894999999999
 21
996.3549999999999
 31
0.0
  0
LINE
  5
168
330
1E
100
AcDbEntity
  8
0
100
AcDbLine
 10
86.10894999999999
 20
945.3549999999999
 30
0.0
 11
86.10894999999999
 21
996.3549999999999
 31
0.0
  0
LINE
  5
169
330
1E
100
AcDbEntity
  8
0
100
AcDbLine
 10
85.60895
 20
944.855
 30
0.0
 11
86.10894999999999
 21
945.3549999999999
 31
0.0
  0
LINE
  5
16A
330
1E
100
AcDbEntity
  8
0
100
AcDbLine
 10
86.1089499999999
 20
39.35499999999999
 30
0.0
 11
86.10894999999999
 21
90.355
 31
0.0
  0
LINE
  5
16B
330
1E
100
AcDbEntity
  8
0
100
AcDbLine
 10
85.60895
 20
90.85500000000001
 30
0.0
 11
86.10894999999999
 21
90.355
 31
0.0
  0
LINE
  5
170
330
1E
100
AcDbEntity
  8
0
100
AcDbLine
 10
53.10895
 20
618.626957
 30
0.0
 11
53.10895
 21
632.8297556864669
 31
0.0
  0
ENDSEC
  0
SECTION
  2
OBJECTS
  0
DICTIONARY
  5
C
330
0
100
AcDbDictionary
281
     1
  3
ACAD_GROUP
350
D
  3
ACAD_LAYOUT
350
19
  3
ACAD_MLINESTYLE
350
16
  3
ACAD_PLOTSETTINGS
350
18
  3
ACAD_PLOTSTYLENAME
350
E
  3
AcDbVariableDictionary
350
171
  0
DICTIONARY
  5
D
102
{ACAD_REACTORS
330
C
102
}
330
C
100
AcDbDictionary
281
     1
  0
DICTIONARY
  5
19
102
{ACAD_REACTORS
330
C
102
}
330
C
100
AcDbDictionary
281
     1
  3
Layout1
350
1D
  3
Model
350
21
  0
DICTIONARY
  5
16
102
{ACAD_REACTORS
330
C
102
}
330
C
100
AcDbDictionary
281
     1
  3
Standard
350
17
  0
DICTIONARY
  5
18
102
{ACAD_REACTORS
330
C
102
}
330
C
100
AcDbDictionary
281
     1
  0
ACDBDICTIONARYWDFLT
  5
E
102
{ACAD_REACTORS
330
C
102
}
330
C
100
AcDbDictionary
281
     1
  3
Normal
350
F
100
AcDbDictionaryWithDefault
340
F
  0
DICTIONARY
  5
171
102
{ACAD_REACTORS
330
C
102
}
330
C
100
AcDbDictionary
281
     1
  3
DIMASSOC
350
172
  0
LAYOUT
  5
1D
102
{ACAD_REACTORS
330
19
102
}
330
19
100
AcDbPlotSettings
  1

  2
hp deskjet 980c series
  4

  6

 40
0.0
 41
0.0
 42
0.0
 43
0.0
 44
0.0
 45
0.0
 46
0.0
 47
0.0
 48
0.0
 49
0.0
140
0.0
141
0.0
142
1.0
143
1.0
 70
   688
 72
     0
 73
     0
 74
     5
  7

 75
    16
147
1.0
148
0.0
149
0.0
100
AcDbLayout
  1
Layout1
 70
     1
 71
     1
 10
0.0
 20
0.0
 11
12.0
 21
9.0
 12
0.0
 22
0.0
 32
0.0
 14
1.000000000000000E+20
 24
1.000000000000000E+20
 34
1.000000000000000E+20
 15
-1.000000000000000E+20
 25
-1.000000000000000E+20
 35
-1.000000000000000E+20
146
0.0
 13
0.0
 23
0.0
 33
0.0
 16
1.0
 26
0.0
 36
0.0
 17
0.0
 27
1.0
 37
0.0
 76
     0
330
1A
  0
LAYOUT
  5
21
102
{ACAD_REACTORS
330
19
102
}
330
19
100
AcDbPlotSettings
  1

  2
hp deskjet 980c series
  4

  6

 40
0.0
 41
0.0
 42
0.0
 43
0.0
 44
0.0
 45
0.0
 46
0.0
 47
0.0
 48
0.0
 49
0.0
140
0.0
141
0.0
142
1.0
143
1.0
 70
  1712
 72
     0
 73
     0
 74
     0
  7

 75
     0
147
1.0
148
0.0
149
0.0
100
AcDbLayout
  1
Model
 70
     1
 71
     0
 10
0.0
 20
0.0
 11
12.0
 21
9.0
 12
0.0
 22
0.0
 32
0.0
 14
0.0
 24
0.0
 34
0.0
 15
0.0
 25
0.0
 35
0.0
146
0.0
 13
0.0
 23
0.0
 33
0.0
 16
1.0
 26
0.0
 36
0.0
 17
0.0
 27
1.0
 37
0.0
 76
     0
330
1E
  0
MLINESTYLE
  5
17
102
{ACAD_REACTORS
330
16
102
}
330
16
100
AcDbMlineStyle
  2
STANDARD
 70
     0
  3

 62
   256
 51
90.0
 52
90.0
 71
     2
 49
0.5
 62
   256
  6
BYLAYER
 49
-0.5
 62
   256
  6
BYLAYER
  0
ACDBPLACEHOLDER
  5
F
102
{ACAD_REACTORS
330
E
102
}
330
E
  0
DICTIONARYVAR
  5
172
102
{ACAD_REACTORS
330
171
102
}
330
171
100
DictionaryVariables
280
     0
  1
1
  0
ENDSEC
  0
EOF
