  0
SECTION
  2
HEADER
  9
$ACADVER
  1
AC1015
  9
$ACADMAINTVER
 70
    13
  9
$DWGCODEPAGE
  3
ANSI_1252
  9
$INSBASE
 10
0.0
 20
0.0
 30
0.0
  9
$EXTMIN
 10
-0.000000000000001
 20
-0.230500000000026
 30
0.0
  9
$EXTMAX
 10
100.0
 20
327.2305
 30
0.0
  9
$LIMMIN
 10
0.0
 20
0.0
  9
$LIMMAX
 10
12.0
 20
9.0
  9
$ORTHOMODE
 70
     0
  9
$REGENMODE
 70
     1
  9
$FILLMODE
 70
     1
  9
$QTEXTMODE
 70
     0
  9
$MIRRTEXT
 70
     1
  9
$LTSCALE
 40
1.0
  9
$ATTMODE
 70
     1
  9
$TEXTSIZE
 40
0.2
  9
$TRACEWID
 40
0.05
  9
$TEXTSTYLE
  7
Standard
  9
$CLAYER
  8
0
  9
$CELTYPE
  6
Continuous
  9
$CECOLOR
 62
   256
  9
$CELTSCALE
 40
1.0
  9
$DISPSILH
 70
     0
  9
$DIMSCALE
 40
1.0
  9
$DIMASZ
 40
0.18
  9
$DIMEXO
 40
0.0625
  9
$DIMDLI
 40
0.38
  9
$DIMRND
 40
0.0
  9
$DIMDLE
 40
0.0
  9
$DIMEXE
 40
0.18
  9
$DIMTP
 40
0.0
  9
$DIMTM
 40
0.0
  9
$DIMTXT
 40
0.18
  9
$DIMCEN
 40
0.09
  9
$DIMTSZ
 40
0.0
  9
$DIMTOL
 70
     0
  9
$DIMLIM
 70
     0
  9
$DIMTIH
 70
     1
  9
$DIMTOH
 70
     1
  9
$DIMSE1
 70
     0
  9
$DIMSE2
 70
     0
  9
$DIMTAD
 70
     0
  9
$DIMZIN
 70
     0
  9
$DIMBLK
  1

  9
$DIMASO
 70
     1
  9
$DIMSHO
 70
     1
  9
$DIMPOST
  1

  9
$DIMAPOST
  1

  9
$DIMALT
 70
     0
  9
$DIMALTD
 70
     2
  9
$DIMALTF
 40
25.4
  9
$DIMLFAC
 40
1.0
  9
$DIMTOFL
 70
     0
  9
$DIMTVP
 40
0.0
  9
$DIMTIX
 70
     0
  9
$DIMSOXD
 70
     0
  9
$DIMSAH
 70
     0
  9
$DIMBLK1
  1

  9
$DIMBLK2
  1

  9
$DIMSTYLE
  2
Standard
  9
$DIMCLRD
 70
     0
  9
$DIMCLRE
 70
     0
  9
$DIMCLRT
 70
     0
  9
$DIMTFAC
 40
1.0
  9
$DIMGAP
 40
0.09
  9
$DIMJUST
 70
     0
  9
$DIMSD1
 70
     0
  9
$DIMSD2
 70
     0
  9
$DIMTOLJ
 70
     1
  9
$DIMTZIN
 70
     0
  9
$DIMALTZ
 70
     0
  9
$DIMALTTZ
 70
     0
  9
$DIMUPT
 70
     0
  9
$DIMDEC
 70
     4
  9
$DIMTDEC
 70
     4
  9
$DIMALTU
 70
     2
  9
$DIMALTTD
 70
     2
  9
$DIMTXSTY
  7
Standard
  9
$DIMAUNIT
 70
     0
  9
$DIMADEC
 70
     0
  9
$DIMALTRND
 40
0.0
  9
$DIMAZIN
 70
     0
  9
$DIMDSEP
 70
    46
  9
$DIMATFIT
 70
     3
  9
$DIMFRAC
 70
     0
  9
$DIMLDRBLK
  1

  9
$DIMLUNIT
 70
     2
  9
$DIMLWD
 70
    -2
  9
$DIMLWE
 70
    -2
  9
$DIMTMOVE
 70
     0
  9
$LUNITS
 70
     2
  9
$LUPREC
 70
     4
  9
$SKETCHINC
 40
0.1
  9
$FILLETRAD
 40
0.0
  9
$AUNITS
 70
     0
  9
$AUPREC
 70
     0
  9
$MENU
  1
.
  9
$ELEVATION
 40
0.0
  9
$PELEVATION
 40
0.0
  9
$THICKNESS
 40
0.0
  9
$LIMCHECK
 70
     0
  9
$CHAMFERA
 40
0.0
  9
$CHAMFERB
 40
0.0
  9
$CHAMFERC
 40
0.0
  9
$CHAMFERD
 40
0.0
  9
$SKPOLY
 70
     0
  9
$TDCREATE
 40
2454739.449397963
  9
$TDUCREATE
 40
2454739.366064629
  9
$TDUPDATE
 40
2454739.454165937
  9
$TDUUPDATE
 40
2454739.370832604
  9
$TDINDWG
 40
0.0047679745
  9
$TDUSRTIMER
 40
0.0047679745
  9
$USRTIMER
 70
     1
  9
$ANGBASE
 50
0.0
  9
$ANGDIR
 70
     0
  9
$PDMODE
 70
     0
  9
$PDSIZE
 40
0.0
  9
$PLINEWID
 40
0.0
  9
$SPLFRAME
 70
     0
  9
$SPLINETYPE
 70
     6
  9
$SPLINESEGS
 70
     8
  9
$HANDSEED
  5
71A
  9
$SURFTAB1
 70
     6
  9
$SURFTAB2
 70
     6
  9
$SURFTYPE
 70
     6
  9
$SURFU
 70
     6
  9
$SURFV
 70
     6
  9
$UCSBASE
  2

  9
$UCSNAME
  2

  9
$UCSORG
 10
0.0
 20
0.0
 30
0.0
  9
$UCSXDIR
 10
1.0
 20
0.0
 30
0.0
  9
$UCSYDIR
 10
0.0
 20
1.0
 30
0.0
  9
$UCSORTHOREF
  2

  9
$UCSORTHOVIEW
 70
     1
  9
$UCSORGTOP
 10
0.0
 20
0.0
 30
0.0
  9
$UCSORGBOTTOM
 10
0.0
 20
0.0
 30
0.0
  9
$UCSORGLEFT
 10
0.0
 20
0.0
 30
0.0
  9
$UCSORGRIGHT
 10
0.0
 20
0.0
 30
0.0
  9
$UCSORGFRONT
 10
0.0
 20
0.0
 30
0.0
  9
$UCSORGBACK
 10
0.0
 20
0.0
 30
0.0
  9
$PUCSBASE
  2

  9
$PUCSNAME
  2

  9
$PUCSORG
 10
0.0
 20
0.0
 30
0.0
  9
$PUCSXDIR
 10
1.0
 20
0.0
 30
0.0
  9
$PUCSYDIR
 10
0.0
 20
1.0
 30
0.0
  9
$PUCSORTHOREF
  2

  9
$PUCSORTHOVIEW
 70
     0
  9
$PUCSORGTOP
 10
0.0
 20
0.0
 30
0.0
  9
$PUCSORGBOTTOM
 10
0.0
 20
0.0
 30
0.0
  9
$PUCSORGLEFT
 10
0.0
 20
0.0
 30
0.0
  9
$PUCSORGRIGHT
 10
0.0
 20
0.0
 30
0.0
  9
$PUCSORGFRONT
 10
0.0
 20
0.0
 30
0.0
  9
$PUCSORGBACK
 10
0.0
 20
0.0
 30
0.0
  9
$USERI1
 70
     0
  9
$USERI2
 70
     0
  9
$USERI3
 70
     0
  9
$USERI4
 70
     0
  9
$USERI5
 70
     0
  9
$USERR1
 40
0.0
  9
$USERR2
 40
0.0
  9
$USERR3
 40
0.0
  9
$USERR4
 40
0.0
  9
$USERR5
 40
0.0
  9
$WORLDVIEW
 70
     1
  9
$SHADEDGE
 70
     3
  9
$SHADEDIF
 70
    70
  9
$TILEMODE
 70
     1
  9
$MAXACTVP
 70
    64
  9
$PINSBASE
 10
0.0
 20
0.0
 30
0.0
  9
$PLIMCHECK
 70
     0
  9
$PEXTMIN
 10
1.000000000000000E+20
 20
1.000000000000000E+20
 30
1.000000000000000E+20
  9
$PEXTMAX
 10
-1.000000000000000E+20
 20
-1.000000000000000E+20
 30
-1.000000000000000E+20
  9
$PLIMMIN
 10
0.0
 20
0.0
  9
$PLIMMAX
 10
12.0
 20
9.0
  9
$UNITMODE
 70
     0
  9
$VISRETAIN
 70
     1
  9
$PLINEGEN
 70
     0
  9
$PSLTSCALE
 70
     1
  9
$TREEDEPTH
 70
  3020
  9
$CMLSTYLE
  2
Standard
  9
$CMLJUST
 70
     0
  9
$CMLSCALE
 40
1.0
  9
$PROXYGRAPHICS
 70
     1
  9
$MEASUREMENT
 70
     0
  9
$CELWEIGHT
370
    -1
  9
$ENDCAPS
280
     0
  9
$JOINSTYLE
280
     0
  9
$LWDISPLAY
290
     0
  9
$INSUNITS
 70
     0
  9
$HYPERLINKBASE
  1

  9
$STYLESHEET
  1

  9
$XEDIT
290
     1
  9
$CEPSNTYPE
380
     0
  9
$PSTYLEMODE
290
     1
  9
$FINGERPRINTGUID
  2
{00F6EF73-E895-45DE-9A92-1E827C7FD4C7}
  9
$VERSIONGUID
  2
{15119D61-49FD-4BCC-8E2C-83137718BB8F}
  9
$EXTNAMES
290
     1
  9
$PSVPSCALE
 40
0.0
  9
$OLESTARTUP
290
     0
  0
ENDSEC
  0
SECTION
  2
CLASSES
  0
CLASS
  1
ACDBDICTIONARYWDFLT
  2
AcDbDictionaryWithDefault
  3
AutoCAD 2000
 90
        0
280
     0
281
     0
  0
CLASS
  1
ACDBPLACEHOLDER
  2
AcDbPlaceHolder
  3
AutoCAD 2000
 90
        0
280
     0
281
     0
  0
CLASS
  1
LAYOUT
  2
AcDbLayout
  3
AutoCAD 2000
 90
        0
280
     0
281
     0
  0
CLASS
  1
DICTIONARYVAR
  2
AcDbDictionaryVar
  3
AutoCAD 2000
 90
        0
280
     0
281
     0
  0
ENDSEC
  0
SECTION
  2
TABLES
  0
TABLE
  2
VPORT
  5
8
330
0
100
AcDbSymbolTable
 70
     2
  0
VPORT
  5
719
330
8
100
AcDbSymbolTableRecord
100
AcDbViewportTableRecord
  2
*Active
 70
     0
 10
0.0
 20
0.0
 11
1.0
 21
1.0
 12
50.0
 22
163.4999999999999
 13
0.0
 23
0.0
 14
1.0
 24
1.0
 15
0.0
 25
0.0
 16
0.0
 26
0.0
 36
1.0
 17
0.0
 27
0.0
 37
0.0
 40
329.9734884910486
 41
2.078104993597951
 42
50.0
 43
0.0
 44
0.0
 50
0.0
 51
0.0
 71
     0
 72
   100
 73
     1
 74
     3
 75
     0
 76
     0
 77
     0
 78
     0
281
     0
 65
     1
110
0.0
120
0.0
130
0.0
111
1.0
121
0.0
131
0.0
112
0.0
122
1.0
132
0.0
 79
     1
146
0.0
  0
ENDTAB
  0
TABLE
  2
LTYPE
  5
5
330
0
100
AcDbSymbolTable
 70
     1
  0
LTYPE
  5
13
330
5
100
AcDbSymbolTableRecord
100
AcDbLinetypeTableRecord
  2
ByBlock
 70
     0
  3

 72
    65
 73
     0
 40
0.0
  0
LTYPE
  5
14
330
5
100
AcDbSymbolTableRecord
100
AcDbLinetypeTableRecord
  2
ByLayer
 70
     0
  3

 72
    65
 73
     0
 40
0.0
  0
LTYPE
  5
15
330
5
100
AcDbSymbolTableRecord
100
AcDbLinetypeTableRecord
  2
Continuous
 70
     0
  3
Solid line
 72
    65
 73
     0
 40
0.0
  0
ENDTAB
  0
TABLE
  2
LAYER
  5
2
330
0
100
AcDbSymbolTable
 70
     1
  0
LAYER
  5
10
330
2
100
AcDbSymbolTableRecord
100
AcDbLayerTableRecord
  2
0
 70
     0
 62
     7
  6
Continuous
370
    -3
390
F
  0
ENDTAB
  0
TABLE
  2
STYLE
  5
3
330
0
100
AcDbSymbolTable
 70
     1
  0
STYLE
  5
11
330
3
100
AcDbSymbolTableRecord
100
AcDbTextStyleTableRecord
  2
Standard
 70
     0
 40
0.0
 41
1.0
 50
0.0
 71
     0
 42
0.2
  3
txt
  4

  0
ENDTAB
  0
TABLE
  2
VIEW
  5
6
330
0
100
AcDbSymbolTable
 70
     0
  0
ENDTAB
  0
TABLE
  2
UCS
  5
7
330
0
100
AcDbSymbolTable
 70
     0
  0
ENDTAB
  0
TABLE
  2
APPID
  5
9
330
0
100
AcDbSymbolTable
 70
     1
  0
APPID
  5
12
330
9
100
AcDbSymbolTableRecord
100
AcDbRegAppTableRecord
  2
ACAD
 70
     0
  0
ENDTAB
  0
TABLE
  2
DIMSTYLE
  5
A
330
0
100
AcDbSymbolTable
 70
     1
100
AcDbDimStyleTable
 71
     0
  0
DIMSTYLE
105
711
330
A
100
AcDbSymbolTableRecord
100
AcDbDimStyleTableRecord
  2
Standard
 70
     0
340
11
  0
ENDTAB
  0
TABLE
  2
BLOCK_RECORD
  5
1
330
0
100
AcDbSymbolTable
 70
     0
  0
BLOCK_RECORD
  5
1E
330
1
100
AcDbSymbolTableRecord
100
AcDbBlockTableRecord
  2
*Model_Space
340
21
  0
BLOCK_RECORD
  5
1A
330
1
100
AcDbSymbolTableRecord
100
AcDbBlockTableRecord
  2
*Paper_Space
340
1D
  0
ENDTAB
  0
ENDSEC
  0
SECTION
  2
BLOCKS
  0
BLOCK
  5
1F
330
1E
100
AcDbEntity
  8
0
100
AcDbBlockBegin
  2
*Model_Space
 70
     0
 10
0.0
 20
0.0
 30
0.0
  3
*Model_Space
  1

  0
ENDBLK
  5
20
330
1E
100
AcDbEntity
  8
0
100
AcDbBlockEnd
  0
BLOCK
  5
1B
330
1A
100
AcDbEntity
 67
     1
  8
0
100
AcDbBlockBegin
  2
*Paper_Space
 70
     0
 10
0.0
 20
0.0
 30
0.0
  3
*Paper_Space
  1

  0
ENDBLK
  5
1C
330
1A
100
AcDbEntity
 67
     1
  8
0
100
AcDbBlockEnd
  0
ENDSEC
  0
SECTION
  2
ENTITIES
  0
LINE
  5
22
330
1E
100
AcDbEntity
  8
0
100
AcDbLine
 10
-0.000000000000001
 20
281.2755
 30
0.0
 11
-0.000000000000001
 21
279.6685
 31
0.0
  0
LINE
  5
23
330
1E
100
AcDbEntity
  8
0
100
AcDbLine
 10
-0.000000000000001
 20
281.2755
 30
0.0
 11
1.8
 21
291.0814999999999
 31
0.0
  0
LINE
  5
24
330
1E
100
AcDbEntity
  8
0
100
AcDbLine
 10
-0.000000000000001
 20
279.6685
 30
0.0
 11
1.8
 21
269.8634999999999
 31
0.0
  0
LINE
  5
25
330
1E
100
AcDbEntity
  8
0
100
AcDbLine
 10
-0.000000000000001
 20
279.6685
 30
0.0
 11
-0.000000000000001
 21
281.2755
 31
0.0
  0
LINE
  5
26
330
1E
100
AcDbEntity
  8
0
100
AcDbLine
 10
-0.000000000000001
 20
288.6684999999999
 30
0.0
 11
1.8
 21
298.4725
 31
0.0
  0
LINE
  5
27
330
1E
100
AcDbEntity
  8
0
100
AcDbLine
 10
-0.000000000000001
 20
288.6684999999999
 30
0.0
 11
-0.000000000000001
 21
281.9185
 31
0.0
  0
LINE
  5
28
330
1E
100
AcDbEntity
  8
0
100
AcDbLine
 10
1.8
 20
291.0814999999999
 30
0.0
 11
6.7
 21
300.3505
 31
0.0
  0
LINE
  5
29
330
1E
100
AcDbEntity
  8
0
100
AcDbLine
 10
1.8
 20
291.0814999999999
 30
0.0
 11
6.7
 21
300.3505
 31
0.0
  0
LINE
  5
2A
330
1E
100
AcDbEntity
  8
0
100
AcDbLine
 10
1.8
 20
269.8634999999999
 30
0.0
 11
2.299999999999999
 21
268.3335
 31
0.0
  0
LINE
  5
2B
330
1E
100
AcDbEntity
  8
0
100
AcDbLine
 10
1.8
 20
291.7235
 30
0.0
 11
6.7
 21
300.9935
 31
0.0
  0
LINE
  5
2C
330
1E
100
AcDbEntity
  8
0
100
AcDbLine
 10
1.8
 20
298.4725
 30
0.0
 11
6.7
 21
307.7425
 31
0.0
  0
LINE
  5
2D
330
1E
100
AcDbEntity
  8
0
100
AcDbLine
 10
1.8
 20
291.7235
 30
0.0
 11
6.7
 21
300.9935
 31
0.0
  0
LINE
  5
2E
330
1E
100
AcDbEntity
  8
0
100
AcDbLine
 10
35.0
 20
115.6495
 30
0.0
 11
35.0
 21
75.6778
 31
0.0
  0
LINE
  5
2F
330
1E
100
AcDbEntity
  8
0
100
AcDbLine
 10
35.0
 20
115.6495
 30
0.0
 11
35.1161
 21
115.4104
 31
0.0
  0
LINE
  5
30
330
1E
100
AcDbEntity
  8
0
100
AcDbLine
 10
35.0
 20
115.6495
 30
0.0
 11
35.0
 21
125.6833
 31
0.0
  0
LINE
  5
31
330
1E
100
AcDbEntity
  8
0
100
AcDbLine
 10
35.0
 20
75.6778
 30
0.0
 11
35.0
 21
69.41459999999999
 31
0.0
  0
LINE
  5
32
330
1E
100
AcDbEntity
  8
0
100
AcDbLine
 10
35.0
 20
75.6778
 30
0.0
 11
35.0
 21
115.6495
 31
0.0
  0
LINE
  5
33
330
1E
100
AcDbEntity
  8
0
100
AcDbLine
 10
35.0
 20
75.6778
 30
0.0
 11
35.0
 21
125.6833
 31
0.0
  0
LINE
  5
35
330
1E
100
AcDbEntity
  8
0
100
AcDbLine
 10
35.0
 20
69.41459999999999
 30
0.0
 11
35.14759999999999
 21
69.16769999999999
 31
0.0
  0
LINE
  5
36
330
1E
100
AcDbEntity
  8
0
100
AcDbLine
 10
35.0
 20
69.41459999999999
 30
0.0
 11
35.0
 21
75.6778
 31
0.0
  0
LINE
  5
37
330
1E
100
AcDbEntity
  8
0
100
AcDbLine
 10
37.0879
 20
68.04120000000001
 30
0.0
 11
38.496
 21
67.6833
 31
0.0
  0
LINE
  5
39
330
1E
100
AcDbEntity
  8
0
100
AcDbLine
 10
36.0681
 20
68.5013
 30
0.0
 11
37.0879
 21
68.04120000000001
 31
0.0
  0
LINE
  5
3B
330
1E
100
AcDbEntity
  8
0
100
AcDbLine
 10
35.44019999999999
 20
68.9001
 30
0.0
 11
36.0681
 21
68.5013
 31
0.0
  0
LINE
  5
3E
330
1E
100
AcDbEntity
  8
0
100
AcDbLine
 10
36.5715
 20
114.5701999999999
 30
0.0
 11
38.5205
 21
114.1
 31
0.0
  0
LINE
  5
3F
330
1E
100
AcDbEntity
  8
0
100
AcDbLine
 10
35.689
 20
114.9326
 30
0.0
 11
36.5715
 21
114.5701999999999
 31
0.0
  0
LINE
  5
40
330
1E
100
AcDbEntity
  8
0
100
AcDbLine
 10
35.14759999999999
 20
69.16769999999999
 30
0.0
 11
35.44019999999999
 21
68.9001
 31
0.0
  0
LINE
  5
43
330
1E
100
AcDbEntity
  8
0
100
AcDbLine
 10
35.1161
 20
115.4104
 30
0.0
 11
35.689
 21
114.9326
 31
0.0
  0
LINE
  5
44
330
1E
100
AcDbEntity
  8
0
100
AcDbLine
 10
35.0
 20
125.6833
 30
0.0
 11
35.0
 21
75.6778
 31
0.0
  0
LINE
  5
45
330
1E
100
AcDbEntity
  8
0
100
AcDbLine
 10
35.0
 20
125.6833
 30
0.0
 11
38.0
 21
125.6833
 31
0.0
  0
LINE
  5
46
330
1E
100
AcDbEntity
  8
0
100
AcDbLine
 10
35.0
 20
125.6833
 30
0.0
 11
35.0
 21
115.6495
 31
0.0
  0
LINE
  5
47
330
1E
100
AcDbEntity
  8
0
100
AcDbLine
 10
25.0176
 20
250.4824999999999
 30
0.0
 11
25.69729999999999
 21
250.7454999999999
 31
0.0
  0
LINE
  5
48
330
1E
100
AcDbEntity
  8
0
100
AcDbLine
 10
2.299999999999999
 20
268.3335
 30
0.0
 11
7.099999999999999
 21
259.2174999999999
 31
0.0
  0
LINE
  5
49
330
1E
100
AcDbEntity
  8
0
100
AcDbLine
 10
13.694
 20
263.1854999999999
 30
0.0
 11
14.2492
 21
263.5855
 31
0.0
  0
LINE
  5
4A
330
1E
100
AcDbEntity
  8
0
100
AcDbLine
 10
14.2492
 20
263.5855
 30
0.0
 11
14.2917
 21
264.1675
 31
0.0
  0
LINE
  5
4B
330
1E
100
AcDbEntity
  8
0
100
AcDbLine
 10
12.9336
 20
263.2174999999999
 30
0.0
 11
13.694
 21
263.1854999999999
 31
0.0
  0
LINE
  5
4C
330
1E
100
AcDbEntity
  8
0
100
AcDbLine
 10
12.4123
 20
263.6435
 30
0.0
 11
12.4548
 21
264.2265
 31
0.0
  0
LINE
  5
4D
330
1E
100
AcDbEntity
  8
0
100
AcDbLine
 10
12.4123
 20
263.6435
 30
0.0
 11
12.9336
 21
263.2174999999999
 31
0.0
  0
LINE
  5
52
330
1E
100
AcDbEntity
  8
0
100
AcDbLine
 10
13.01
 20
264.6255
 30
0.0
 11
13.7704
 21
264.5924999999999
 31
0.0
  0
LINE
  5
54
330
1E
100
AcDbEntity
  8
0
100
AcDbLine
 10
13.7704
 20
264.5924999999999
 30
0.0
 11
14.2917
 21
264.1675
 31
0.0
  0
LINE
  5
55
330
1E
100
AcDbEntity
  8
0
100
AcDbLine
 10
12.4548
 20
264.2265
 30
0.0
 11
13.01
 21
264.6255
 31
0.0
  0
LINE
  5
57
330
1E
100
AcDbEntity
  8
0
100
AcDbLine
 10
11.76609999999999
 20
268.1805
 30
0.0
 11
12.40339999999999
 21
268.5004999999999
 31
0.0
  0
LINE
  5
58
330
1E
100
AcDbEntity
  8
0
100
AcDbLine
 10
11.0247
 20
268.3145
 30
0.0
 11
11.76609999999999
 21
268.1805
 31
0.0
  0
LINE
  5
59
330
1E
100
AcDbEntity
  8
0
100
AcDbLine
 10
7.099999999999999
 20
259.2174999999999
 30
0.0
 11
15.0
 21
251.2495
 31
0.0
  0
LINE
  5
5C
330
1E
100
AcDbEntity
  8
0
100
AcDbLine
 10
10.3
 20
274.6594999999999
 30
0.0
 11
11.0
 21
274.8895
 31
0.0
  0
LINE
  5
5E
330
1E
100
AcDbEntity
  8
0
100
AcDbLine
 10
10.0
 20
274.1234999999999
 30
0.0
 11
10.3
 21
273.5874999999999
 31
0.0
  0
LINE
  5
5F
330
1E
100
AcDbEntity
  8
0
100
AcDbLine
 10
10.0
 20
274.1234999999999
 30
0.0
 11
10.3
 21
274.6594999999999
 31
0.0
  0
LINE
  5
61
330
1E
100
AcDbEntity
  8
0
100
AcDbLine
 10
10.60769999999999
 20
268.8034999999999
 30
0.0
 11
10.7816
 21
269.3705
 31
0.0
  0
LINE
  5
62
330
1E
100
AcDbEntity
  8
0
100
AcDbLine
 10
10.60769999999999
 20
268.8034999999999
 30
0.0
 11
11.0247
 21
268.3145
 31
0.0
  0
LINE
  5
66
330
1E
100
AcDbEntity
  8
0
100
AcDbLine
 10
10.7816
 20
269.3705
 30
0.0
 11
11.4188
 21
269.6905
 31
0.0
  0
LINE
  5
68
330
1E
100
AcDbEntity
  8
0
100
AcDbLine
 10
10.3
 20
273.5874999999999
 30
0.0
 11
11.0
 21
273.3575
 31
0.0
  0
LINE
  5
6A
330
1E
100
AcDbEntity
  8
0
100
AcDbLine
 10
10.60769999999999
 20
279.4445
 30
0.0
 11
10.7816
 21
278.8765
 31
0.0
  0
LINE
  5
6B
330
1E
100
AcDbEntity
  8
0
100
AcDbLine
 10
10.60769999999999
 20
279.4445
 30
0.0
 11
11.0247
 21
279.9325
 31
0.0
  0
LINE
  5
6E
330
1E
100
AcDbEntity
  8
0
100
AcDbLine
 10
11.4188
 20
269.6905
 30
0.0
 11
12.16029999999999
 21
269.5565
 31
0.0
  0
LINE
  5
70
330
1E
100
AcDbEntity
  8
0
100
AcDbLine
 10
11.0
 20
273.3575
 30
0.0
 11
11.69999999999999
 21
273.5874999999999
 31
0.0
  0
LINE
  5
72
330
1E
100
AcDbEntity
  8
0
100
AcDbLine
 10
11.0
 20
274.8895
 30
0.0
 11
11.69999999999999
 21
274.6594999999999
 31
0.0
  0
LINE
  5
74
330
1E
100
AcDbEntity
  8
0
100
AcDbLine
 10
12.16029999999999
 20
269.5565
 30
0.0
 11
12.5773
 21
269.0684999999999
 31
0.0
  0
LINE
  5
75
330
1E
100
AcDbEntity
  8
0
100
AcDbLine
 10
12.40339999999999
 20
268.5004999999999
 30
0.0
 11
12.5773
 21
269.0684999999999
 31
0.0
  0
LINE
  5
77
330
1E
100
AcDbEntity
  8
0
100
AcDbLine
 10
11.69999999999999
 20
273.5874999999999
 30
0.0
 11
12.0
 21
274.1234999999999
 31
0.0
  0
LINE
  5
7A
330
1E
100
AcDbEntity
  8
0
100
AcDbLine
 10
11.69999999999999
 20
274.6594999999999
 30
0.0
 11
12.0
 21
274.1234999999999
 31
0.0
  0
LINE
  5
7C
330
1E
100
AcDbEntity
  8
0
100
AcDbLine
 10
11.4188
 20
278.5565
 30
0.0
 11
12.16029999999999
 21
278.6904999999999
 31
0.0
  0
LINE
  5
7D
330
1E
100
AcDbEntity
  8
0
100
AcDbLine
 10
12.16029999999999
 20
278.6904999999999
 30
0.0
 11
12.5773
 21
279.1784999999999
 31
0.0
  0
LINE
  5
7E
330
1E
100
AcDbEntity
  8
0
100
AcDbLine
 10
12.40339999999999
 20
279.7465
 30
0.0
 11
12.5773
 21
279.1784999999999
 31
0.0
  0
LINE
  5
81
330
1E
100
AcDbEntity
  8
0
100
AcDbLine
 10
11.76609999999999
 20
280.0654999999999
 30
0.0
 11
12.40339999999999
 21
279.7465
 31
0.0
  0
LINE
  5
83
330
1E
100
AcDbEntity
  8
0
100
AcDbLine
 10
11.0247
 20
279.9325
 30
0.0
 11
11.76609999999999
 21
280.0654999999999
 31
0.0
  0
LINE
  5
85
330
1E
100
AcDbEntity
  8
0
100
AcDbLine
 10
10.7816
 20
278.8765
 30
0.0
 11
11.4188
 21
278.5565
 31
0.0
  0
LINE
  5
86
330
1E
100
AcDbEntity
  8
0
100
AcDbLine
 10
13.01
 20
283.6215
 30
0.0
 11
13.7704
 21
283.6545
 31
0.0
  0
LINE
  5
87
330
1E
100
AcDbEntity
  8
0
100
AcDbLine
 10
13.7704
 20
283.6545
 30
0.0
 11
14.2917
 21
284.0794999999999
 31
0.0
  0
LINE
  5
89
330
1E
100
AcDbEntity
  8
0
100
AcDbLine
 10
14.2492
 20
284.6614999999999
 30
0.0
 11
14.2917
 21
284.0794999999999
 31
0.0
  0
LINE
  5
8C
330
1E
100
AcDbEntity
  8
0
100
AcDbLine
 10
13.694
 20
285.0615
 30
0.0
 11
14.2492
 21
284.6614999999999
 31
0.0
  0
LINE
  5
8E
330
1E
100
AcDbEntity
  8
0
100
AcDbLine
 10
12.9336
 20
285.0284999999999
 30
0.0
 11
13.694
 21
285.0615
 31
0.0
  0
LINE
  5
90
330
1E
100
AcDbEntity
  8
0
100
AcDbLine
 10
12.4123
 20
284.6044999999999
 30
0.0
 11
12.4548
 21
284.0205
 31
0.0
  0
LINE
  5
91
330
1E
100
AcDbEntity
  8
0
100
AcDbLine
 10
12.4123
 20
284.6044999999999
 30
0.0
 11
12.9336
 21
285.0284999999999
 31
0.0
  0
LINE
  5
93
330
1E
100
AcDbEntity
  8
0
100
AcDbLine
 10
12.4548
 20
284.0205
 30
0.0
 11
13.01
 21
283.6215
 31
0.0
  0
LINE
  5
94
330
1E
100
AcDbEntity
  8
0
100
AcDbLine
 10
6.7
 20
300.3505
 30
0.0
 11
14.69999999999999
 21
308.3175
 31
0.0
  0
LINE
  5
95
330
1E
100
AcDbEntity
  8
0
100
AcDbLine
 10
2.299999999999999
 20
268.3335
 30
0.0
 11
7.099999999999999
 21
259.2174999999999
 31
0.0
  0
LINE
  5
97
330
1E
100
AcDbEntity
  8
0
100
AcDbLine
 10
16.725
 20
258.5224999999999
 30
0.0
 11
17.1812
 21
258.9895
 31
0.0
  0
LINE
  5
98
330
1E
100
AcDbEntity
  8
0
100
AcDbLine
 10
15.9688
 20
258.4524999999999
 30
0.0
 11
16.725
 21
258.5224999999999
 31
0.0
  0
LINE
  5
99
330
1E
100
AcDbEntity
  8
0
100
AcDbLine
 10
15.72499999999999
 20
259.8494999999999
 30
0.0
 11
16.4812
 21
259.9175
 31
0.0
  0
LINE
  5
9E
330
1E
100
AcDbEntity
  8
0
100
AcDbLine
 10
16.4812
 20
259.9175
 30
0.0
 11
17.09099999999999
 21
259.5695
 31
0.0
  0
LINE
  5
A2
330
1E
100
AcDbEntity
  8
0
100
AcDbLine
 10
17.09099999999999
 20
259.5695
 30
0.0
 11
17.1812
 21
258.9895
 31
0.0
  0
LINE
  5
A4
330
1E
100
AcDbEntity
  8
0
100
AcDbLine
 10
15.359
 20
258.8025
 30
0.0
 11
15.9688
 21
258.4524999999999
 31
0.0
  0
LINE
  5
A5
330
1E
100
AcDbEntity
  8
0
100
AcDbLine
 10
15.2688
 20
259.3824999999999
 30
0.0
 11
15.72499999999999
 21
259.8494999999999
 31
0.0
  0
LINE
  5
A6
330
1E
100
AcDbEntity
  8
0
100
AcDbLine
 10
15.2688
 20
259.3824999999999
 30
0.0
 11
15.359
 21
258.8025
 31
0.0
  0
LINE
  5
A8
330
1E
100
AcDbEntity
  8
0
100
AcDbLine
 10
18.1569
 20
271.7624999999999
 30
0.0
 11
18.3947
 21
272.3174999999999
 31
0.0
  0
LINE
  5
A9
330
1E
100
AcDbEntity
  8
0
100
AcDbLine
 10
18.1569
 20
271.7624999999999
 30
0.0
 11
18.5167
 21
271.2485
 31
0.0
  0
LINE
  5
AA
330
1E
100
AcDbEntity
  8
0
100
AcDbLine
 10
18.3947
 20
272.3174999999999
 30
0.0
 11
19.06589999999999
 21
272.5935
 31
0.0
  0
LINE
  5
AC
330
1E
100
AcDbEntity
  8
0
100
AcDbLine
 10
18.1569
 20
276.0314999999999
 30
0.0
 11
18.3947
 21
275.4764999999999
 31
0.0
  0
LINE
  5
AD
330
1E
100
AcDbEntity
  8
0
100
AcDbLine
 10
18.1569
 20
276.0314999999999
 30
0.0
 11
18.5167
 21
276.5455
 31
0.0
  0
LINE
  5
AF
330
1E
100
AcDbEntity
  8
0
100
AcDbLine
 10
19.06589999999999
 20
272.5935
 30
0.0
 11
19.7894
 21
272.4105
 31
0.0
  0
LINE
  5
B0
330
1E
100
AcDbEntity
  8
0
100
AcDbLine
 10
18.5167
 20
271.2485
 30
0.0
 11
19.2402
 21
271.0665
 31
0.0
  0
LINE
  5
B2
330
1E
100
AcDbEntity
  8
0
100
AcDbLine
 10
19.1381
 20
254.9854999999999
 30
0.0
 11
19.4815
 21
255.5064999999999
 31
0.0
  0
LINE
  5
B3
330
1E
100
AcDbEntity
  8
0
100
AcDbLine
 10
19.1381
 20
254.9854999999999
 30
0.0
 11
19.3582
 21
254.4275
 31
0.0
  0
LINE
  5
B7
330
1E
100
AcDbEntity
  8
0
100
AcDbLine
 10
19.1244
 20
267.5595
 30
0.0
 11
19.233
 21
268.1364999999999
 31
0.0
  0
LINE
  5
B8
330
1E
100
AcDbEntity
  8
0
100
AcDbLine
 10
19.1244
 20
267.5595
 30
0.0
 11
19.5953
 21
267.1015
 31
0.0
  0
LINE
  5
BB
330
1E
100
AcDbEntity
  8
0
100
AcDbLine
 10
19.4815
 20
255.5064999999999
 30
0.0
 11
20.2105
 21
255.6744999999999
 31
0.0
  0
LINE
  5
BD
330
1E
100
AcDbEntity
  8
0
100
AcDbLine
 10
19.3582
 20
254.4275
 30
0.0
 11
20.038
 21
254.1644999999999
 31
0.0
  0
LINE
  5
BE
330
1E
100
AcDbEntity
  8
0
100
AcDbLine
 10
19.8315
 20
268.4975
 30
0.0
 11
20.5853
 21
268.4145
 31
0.0
  0
LINE
  5
BF
330
1E
100
AcDbEntity
  8
0
100
AcDbLine
 10
19.5953
 20
267.1015
 30
0.0
 11
20.34909999999999
 21
267.0174999999999
 31
0.0
  0
LINE
  5
C0
330
1E
100
AcDbEntity
  8
0
100
AcDbLine
 10
19.233
 20
268.1364999999999
 30
0.0
 11
19.8315
 21
268.4975
 31
0.0
  0
LINE
  5
C2
330
1E
100
AcDbEntity
  8
0
100
AcDbLine
 10
19.7894
 20
272.4105
 30
0.0
 11
20.1492
 21
271.8965
 31
0.0
  0
LINE
  5
C3
330
1E
100
AcDbEntity
  8
0
100
AcDbLine
 10
19.9114
 20
271.3424999999999
 30
0.0
 11
20.1492
 21
271.8965
 31
0.0
  0
LINE
  5
C4
330
1E
100
AcDbEntity
  8
0
100
AcDbLine
 10
19.2402
 20
271.0665
 30
0.0
 11
19.9114
 21
271.3424999999999
 31
0.0
  0
LINE
  5
C5
330
1E
100
AcDbEntity
  8
0
100
AcDbLine
 10
19.06589999999999
 20
275.2015
 30
0.0
 11
19.7894
 21
275.3835
 31
0.0
  0
LINE
  5
C6
330
1E
100
AcDbEntity
  8
0
100
AcDbLine
 10
19.7894
 20
275.3835
 30
0.0
 11
20.1492
 21
275.8974999999999
 31
0.0
  0
LINE
  5
C7
330
1E
100
AcDbEntity
  8
0
100
AcDbLine
 10
20.2105
 20
255.6744999999999
 30
0.0
 11
20.8903
 21
255.4114999999999
 31
0.0
  0
LINE
  5
C8
330
1E
100
AcDbEntity
  8
0
100
AcDbLine
 10
20.038
 20
254.1644999999999
 30
0.0
 11
20.76709999999999
 21
254.3325
 31
0.0
  0
LINE
  5
C9
330
1E
100
AcDbEntity
  8
0
100
AcDbLine
 10
20.5853
 20
268.4145
 30
0.0
 11
21.0562
 21
267.9565
 31
0.0
  0
LINE
  5
CA
330
1E
100
AcDbEntity
  8
0
100
AcDbLine
 10
20.34909999999999
 20
267.0174999999999
 30
0.0
 11
20.9476
 21
267.3784999999999
 31
0.0
  0
LINE
  5
CB
330
1E
100
AcDbEntity
  8
0
100
AcDbLine
 10
19.9114
 20
276.4515
 30
0.0
 11
20.1492
 21
275.8974999999999
 31
0.0
  0
LINE
  5
CE
330
1E
100
AcDbEntity
  8
0
100
AcDbLine
 10
19.2402
 20
276.7285
 30
0.0
 11
19.9114
 21
276.4515
 31
0.0
  0
LINE
  5
D0
330
1E
100
AcDbEntity
  8
0
100
AcDbLine
 10
18.5167
 20
276.5455
 30
0.0
 11
19.2402
 21
276.7285
 31
0.0
  0
LINE
  5
D2
330
1E
100
AcDbEntity
  8
0
100
AcDbLine
 10
18.3947
 20
275.4764999999999
 30
0.0
 11
19.06589999999999
 21
275.2015
 31
0.0
  0
LINE
  5
D3
330
1E
100
AcDbEntity
  8
0
100
AcDbLine
 10
19.8315
 20
279.2964999999999
 30
0.0
 11
20.5853
 21
279.3795
 31
0.0
  0
LINE
  5
D4
330
1E
100
AcDbEntity
  8
0
100
AcDbLine
 10
20.8903
 20
255.4114999999999
 30
0.0
 11
21.1104
 21
254.8535
 31
0.0
  0
LINE
  5
D5
330
1E
100
AcDbEntity
  8
0
100
AcDbLine
 10
20.76709999999999
 20
254.3325
 30
0.0
 11
21.1104
 21
254.8535
 31
0.0
  0
LINE
  5
D6
330
1E
100
AcDbEntity
  8
0
100
AcDbLine
 10
22.359
 20
263.1775
 30
0.0
 11
22.86659999999999
 21
263.6134999999999
 31
0.0
  0
LINE
  5
D7
330
1E
100
AcDbEntity
  8
0
100
AcDbLine
 10
21.5978
 20
263.1604999999999
 30
0.0
 11
22.359
 21
263.1775
 31
0.0
  0
LINE
  5
D8
330
1E
100
AcDbEntity
  8
0
100
AcDbLine
 10
21.0301
 20
263.5495
 30
0.0
 11
21.5978
 21
263.1604999999999
 31
0.0
  0
LINE
  5
D9
330
1E
100
AcDbEntity
  8
0
100
AcDbLine
 10
21.5138
 20
264.5665
 30
0.0
 11
22.275
 21
264.5855
 31
0.0
  0
LINE
  5
DD
330
1E
100
AcDbEntity
  8
0
100
AcDbLine
 10
20.9476
 20
267.3784999999999
 30
0.0
 11
21.0562
 21
267.9565
 31
0.0
  0
LINE
  5
E0
330
1E
100
AcDbEntity
  8
0
100
AcDbLine
 10
22.275
 20
264.5855
 30
0.0
 11
22.8427
 21
264.1965
 31
0.0
  0
LINE
  5
E2
330
1E
100
AcDbEntity
  8
0
100
AcDbLine
 10
22.8427
 20
264.1965
 30
0.0
 11
22.86659999999999
 21
263.6134999999999
 31
0.0
  0
LINE
  5
E3
330
1E
100
AcDbEntity
  8
0
100
AcDbLine
 10
21.0061
 20
264.1315
 30
0.0
 11
21.5138
 21
264.5665
 31
0.0
  0
LINE
  5
E4
330
1E
100
AcDbEntity
  8
0
100
AcDbLine
 10
21.0061
 20
264.1315
 30
0.0
 11
21.0301
 21
263.5495
 31
0.0
  0
LINE
  5
E5
330
1E
100
AcDbEntity
  8
0
100
AcDbLine
 10
23.816
 20
259.8525
 30
0.0
 11
24.4632
 21
259.5455
 31
0.0
  0
LINE
  5
E6
330
1E
100
AcDbEntity
  8
0
100
AcDbLine
 10
23.6602
 20
260.4235
 30
0.0
 11
24.06159999999999
 21
260.9195
 31
0.0
  0
LINE
  5
E7
330
1E
100
AcDbEntity
  8
0
100
AcDbLine
 10
23.6602
 20
260.4235
 30
0.0
 11
23.816
 21
259.8525
 31
0.0
  0
LINE
  5
E9
330
1E
100
AcDbEntity
  8
0
100
AcDbLine
 10
24.1652
 20
251.7295
 30
0.0
 11
24.845
 21
251.9925
 31
0.0
  0
LINE
  5
EB
330
1E
100
AcDbEntity
  8
0
100
AcDbLine
 10
24.06159999999999
 20
260.9195
 30
0.0
 11
24.807
 21
261.0384999999999
 31
0.0
  0
LINE
  5
EC
330
1E
100
AcDbEntity
  8
0
100
AcDbLine
 10
24.807
 20
261.0384999999999
 30
0.0
 11
25.4543
 21
260.7314999999999
 31
0.0
  0
LINE
  5
ED
330
1E
100
AcDbEntity
  8
0
100
AcDbLine
 10
24.4632
 20
259.5455
 30
0.0
 11
25.2087
 21
259.6644999999999
 31
0.0
  0
LINE
  5
EF
330
1E
100
AcDbEntity
  8
0
100
AcDbLine
 10
25.4543
 20
260.7314999999999
 30
0.0
 11
25.60999999999999
 21
260.1594999999999
 31
0.0
  0
LINE
  5
F0
330
1E
100
AcDbEntity
  8
0
100
AcDbLine
 10
25.2087
 20
259.6644999999999
 30
0.0
 11
25.60999999999999
 21
260.1594999999999
 31
0.0
  0
LINE
  5
F1
330
1E
100
AcDbEntity
  8
0
100
AcDbLine
 10
24.845
 20
251.9925
 30
0.0
 11
25.5741
 21
251.8244999999999
 31
0.0
  0
LINE
  5
F2
330
1E
100
AcDbEntity
  8
0
100
AcDbLine
 10
25.5741
 20
251.8244999999999
 30
0.0
 11
25.9175
 21
251.3035
 31
0.0
  0
LINE
  5
F3
330
1E
100
AcDbEntity
  8
0
100
AcDbLine
 10
25.69729999999999
 20
250.7454999999999
 30
0.0
 11
25.9175
 21
251.3035
 31
0.0
  0
LINE
  5
F4
330
1E
100
AcDbEntity
  8
0
100
AcDbLine
 10
24.2885
 20
250.6505
 30
0.0
 11
25.0176
 21
250.4824999999999
 31
0.0
  0
LINE
  5
F5
330
1E
100
AcDbEntity
  8
0
100
AcDbLine
 10
23.94509999999999
 20
251.1715
 30
0.0
 11
24.1652
 21
251.7295
 31
0.0
  0
LINE
  5
F6
330
1E
100
AcDbEntity
  8
0
100
AcDbLine
 10
23.94509999999999
 20
251.1715
 30
0.0
 11
24.2885
 21
250.6505
 31
0.0
  0
LINE
  5
F9
330
1E
100
AcDbEntity
  8
0
100
AcDbLine
 10
26.0352
 20
273.6714999999999
 30
0.0
 11
26.3352
 21
273.1345
 31
0.0
  0
LINE
  5
FA
330
1E
100
AcDbEntity
  8
0
100
AcDbLine
 10
26.0352
 20
273.6714999999999
 30
0.0
 11
26.3352
 21
274.2065
 31
0.0
  0
LINE
  5
FC
330
1E
100
AcDbEntity
  8
0
100
AcDbLine
 10
20.5853
 20
279.3795
 30
0.0
 11
21.0562
 21
279.8385
 31
0.0
  0
LINE
  5
FE
330
1E
100
AcDbEntity
  8
0
100
AcDbLine
 10
15.72499999999999
 20
288.3985
 30
0.0
 11
16.4812
 21
288.3295
 31
0.0
  0
LINE
  5
FF
330
1E
100
AcDbEntity
  8
0
100
AcDbLine
 10
16.4812
 20
288.3295
 30
0.0
 11
17.09099999999999
 21
288.6775
 31
0.0
  0
LINE
  5
101
330
1E
100
AcDbEntity
  8
0
100
AcDbLine
 10
17.09099999999999
 20
288.6775
 30
0.0
 11
17.1812
 21
289.2574999999999
 31
0.0
  0
LINE
  5
106
330
1E
100
AcDbEntity
  8
0
100
AcDbLine
 10
16.725
 20
289.7244999999999
 30
0.0
 11
17.1812
 21
289.2574999999999
 31
0.0
  0
LINE
  5
108
330
1E
100
AcDbEntity
  8
0
100
AcDbLine
 10
15.9688
 20
289.7945
 30
0.0
 11
16.725
 21
289.7244999999999
 31
0.0
  0
LINE
  5
10A
330
1E
100
AcDbEntity
  8
0
100
AcDbLine
 10
15.359
 20
289.4445
 30
0.0
 11
15.9688
 21
289.7945
 31
0.0
  0
LINE
  5
10C
330
1E
100
AcDbEntity
  8
0
100
AcDbLine
 10
15.2688
 20
288.8645
 30
0.0
 11
15.72499999999999
 21
288.3985
 31
0.0
  0
LINE
  5
10D
330
1E
100
AcDbEntity
  8
0
100
AcDbLine
 10
15.2688
 20
288.8645
 30
0.0
 11
15.359
 21
289.4445
 31
0.0
  0
LINE
  5
112
330
1E
100
AcDbEntity
  8
0
100
AcDbLine
 10
20.9476
 20
280.4155
 30
0.0
 11
21.0562
 21
279.8385
 31
0.0
  0
LINE
  5
113
330
1E
100
AcDbEntity
  8
0
100
AcDbLine
 10
19.4815
 20
292.7404999999999
 30
0.0
 11
20.2105
 21
292.5724999999999
 31
0.0
  0
LINE
  5
114
330
1E
100
AcDbEntity
  8
0
100
AcDbLine
 10
20.2105
 20
292.5724999999999
 30
0.0
 11
20.8903
 21
292.8355
 31
0.0
  0
LINE
  5
118
330
1E
100
AcDbEntity
  8
0
100
AcDbLine
 10
20.038
 20
294.0824999999999
 30
0.0
 11
20.76709999999999
 21
293.9144999999999
 31
0.0
  0
LINE
  5
11A
330
1E
100
AcDbEntity
  8
0
100
AcDbLine
 10
19.3582
 20
293.8194999999999
 30
0.0
 11
20.038
 21
294.0824999999999
 31
0.0
  0
LINE
  5
11C
330
1E
100
AcDbEntity
  8
0
100
AcDbLine
 10
19.1381
 20
293.2615
 30
0.0
 11
19.4815
 21
292.7404999999999
 31
0.0
  0
LINE
  5
11D
330
1E
100
AcDbEntity
  8
0
100
AcDbLine
 10
19.1381
 20
293.2615
 30
0.0
 11
19.3582
 21
293.8194999999999
 31
0.0
  0
LINE
  5
11F
330
1E
100
AcDbEntity
  8
0
100
AcDbLine
 10
21.5138
 20
283.2275
 30
0.0
 11
22.275
 21
283.2094999999999
 31
0.0
  0
LINE
  5
120
330
1E
100
AcDbEntity
  8
0
100
AcDbLine
 10
22.275
 20
283.2094999999999
 30
0.0
 11
22.8427
 21
283.5984999999999
 31
0.0
  0
LINE
  5
121
330
1E
100
AcDbEntity
  8
0
100
AcDbLine
 10
22.8427
 20
283.5984999999999
 30
0.0
 11
22.86659999999999
 21
284.1804999999999
 31
0.0
  0
LINE
  5
122
330
1E
100
AcDbEntity
  8
0
100
AcDbLine
 10
22.359
 20
284.6164999999999
 30
0.0
 11
22.86659999999999
 21
284.1804999999999
 31
0.0
  0
LINE
  5
123
330
1E
100
AcDbEntity
  8
0
100
AcDbLine
 10
21.5978
 20
284.6344999999999
 30
0.0
 11
22.359
 21
284.6164999999999
 31
0.0
  0
LINE
  5
124
330
1E
100
AcDbEntity
  8
0
100
AcDbLine
 10
21.0301
 20
284.2465
 30
0.0
 11
21.5978
 21
284.6344999999999
 31
0.0
  0
LINE
  5
125
330
1E
100
AcDbEntity
  8
0
100
AcDbLine
 10
21.0061
 20
283.6625
 30
0.0
 11
21.5138
 21
283.2275
 31
0.0
  0
LINE
  5
126
330
1E
100
AcDbEntity
  8
0
100
AcDbLine
 10
21.0061
 20
283.6625
 30
0.0
 11
21.0301
 21
284.2465
 31
0.0
  0
LINE
  5
127
330
1E
100
AcDbEntity
  8
0
100
AcDbLine
 10
24.06159999999999
 20
286.8745
 30
0.0
 11
24.807
 21
286.7554999999999
 31
0.0
  0
LINE
  5
128
330
1E
100
AcDbEntity
  8
0
100
AcDbLine
 10
24.807
 20
286.7554999999999
 30
0.0
 11
25.4543
 21
287.0634999999999
 31
0.0
  0
LINE
  5
129
330
1E
100
AcDbEntity
  8
0
100
AcDbLine
 10
25.4543
 20
287.0634999999999
 30
0.0
 11
25.60999999999999
 21
287.6345
 31
0.0
  0
LINE
  5
12B
330
1E
100
AcDbEntity
  8
0
100
AcDbLine
 10
20.8903
 20
292.8355
 30
0.0
 11
21.1104
 21
293.3935
 31
0.0
  0
LINE
  5
12C
330
1E
100
AcDbEntity
  8
0
100
AcDbLine
 10
20.76709999999999
 20
293.9144999999999
 30
0.0
 11
21.1104
 21
293.3935
 31
0.0
  0
LINE
  5
12F
330
1E
100
AcDbEntity
  8
0
100
AcDbLine
 10
25.2087
 20
288.1304999999999
 30
0.0
 11
25.60999999999999
 21
287.6345
 31
0.0
  0
LINE
  5
131
330
1E
100
AcDbEntity
  8
0
100
AcDbLine
 10
24.1652
 20
296.5174999999999
 30
0.0
 11
24.845
 21
296.2545
 31
0.0
  0
LINE
  5
134
330
1E
100
AcDbEntity
  8
0
100
AcDbLine
 10
24.2885
 20
297.5965
 30
0.0
 11
25.0176
 21
297.7644999999999
 31
0.0
  0
LINE
  5
136
330
1E
100
AcDbEntity
  8
0
100
AcDbLine
 10
23.94509999999999
 20
297.0755
 30
0.0
 11
24.1652
 21
296.5174999999999
 31
0.0
  0
LINE
  5
137
330
1E
100
AcDbEntity
  8
0
100
AcDbLine
 10
23.94509999999999
 20
297.0755
 30
0.0
 11
24.2885
 21
297.5965
 31
0.0
  0
LINE
  5
13A
330
1E
100
AcDbEntity
  8
0
100
AcDbLine
 10
24.845
 20
296.2545
 30
0.0
 11
25.5741
 21
296.4225
 31
0.0
  0
LINE
  5
13B
330
1E
100
AcDbEntity
  8
0
100
AcDbLine
 10
25.5741
 20
296.4225
 30
0.0
 11
25.9175
 21
296.9434999999999
 31
0.0
  0
LINE
  5
13D
330
1E
100
AcDbEntity
  8
0
100
AcDbLine
 10
25.69729999999999
 20
297.5015
 30
0.0
 11
25.9175
 21
296.9434999999999
 31
0.0
  0
LINE
  5
13F
330
1E
100
AcDbEntity
  8
0
100
AcDbLine
 10
25.0176
 20
297.7644999999999
 30
0.0
 11
25.69729999999999
 21
297.5015
 31
0.0
  0
LINE
  5
143
330
1E
100
AcDbEntity
  8
0
100
AcDbLine
 10
24.4632
 20
288.2495
 30
0.0
 11
25.2087
 21
288.1304999999999
 31
0.0
  0
LINE
  5
145
330
1E
100
AcDbEntity
  8
0
100
AcDbLine
 10
23.816
 20
287.9415
 30
0.0
 11
24.4632
 21
288.2495
 31
0.0
  0
LINE
  5
147
330
1E
100
AcDbEntity
  8
0
100
AcDbLine
 10
23.6602
 20
287.3715
 30
0.0
 11
24.06159999999999
 21
286.8745
 31
0.0
  0
LINE
  5
148
330
1E
100
AcDbEntity
  8
0
100
AcDbLine
 10
23.6602
 20
287.3715
 30
0.0
 11
23.816
 21
287.9415
 31
0.0
  0
LINE
  5
149
330
1E
100
AcDbEntity
  8
0
100
AcDbLine
 10
20.34909999999999
 20
280.7764999999999
 30
0.0
 11
20.9476
 21
280.4155
 31
0.0
  0
LINE
  5
14A
330
1E
100
AcDbEntity
  8
0
100
AcDbLine
 10
19.5953
 20
280.6934999999999
 30
0.0
 11
20.34909999999999
 21
280.7764999999999
 31
0.0
  0
LINE
  5
14B
330
1E
100
AcDbEntity
  8
0
100
AcDbLine
 10
19.1244
 20
280.2345
 30
0.0
 11
19.233
 21
279.6575
 31
0.0
  0
LINE
  5
14C
330
1E
100
AcDbEntity
  8
0
100
AcDbLine
 10
19.1244
 20
280.2345
 30
0.0
 11
19.5953
 21
280.6934999999999
 31
0.0
  0
LINE
  5
14E
330
1E
100
AcDbEntity
  8
0
100
AcDbLine
 10
19.233
 20
279.6575
 30
0.0
 11
19.8315
 21
279.2964999999999
 31
0.0
  0
LINE
  5
14F
330
1E
100
AcDbEntity
  8
0
100
AcDbLine
 10
15.0
 20
251.2495
 30
0.0
 11
16.1
 21
250.4855
 31
0.0
  0
LINE
  5
150
330
1E
100
AcDbEntity
  8
0
100
AcDbLine
 10
16.1
 20
250.4855
 30
0.0
 11
26.1
 21
244.5876
 31
0.0
  0
LINE
  5
152
330
1E
100
AcDbEntity
  8
0
100
AcDbLine
 10
26.3352
 20
274.2065
 30
0.0
 11
27.0352
 21
274.4365
 31
0.0
  0
LINE
  5
154
330
1E
100
AcDbEntity
  8
0
100
AcDbLine
 10
27.3975
 20
256.5824999999999
 30
0.0
 11
28.1046
 21
256.3664999999999
 31
0.0
  0
LINE
  5
155
330
1E
100
AcDbEntity
  8
0
100
AcDbLine
 10
27.3975
 20
257.6655
 30
0.0
 11
28.1046
 21
257.8825
 31
0.0
  0
LINE
  5
156
330
1E
100
AcDbEntity
  8
0
100
AcDbLine
 10
27.1146
 20
257.1234999999999
 30
0.0
 11
27.3975
 21
257.6655
 31
0.0
  0
LINE
  5
157
330
1E
100
AcDbEntity
  8
0
100
AcDbLine
 10
27.1146
 20
257.1234999999999
 30
0.0
 11
27.3975
 21
256.5824999999999
 31
0.0
  0
LINE
  5
158
330
1E
100
AcDbEntity
  8
0
100
AcDbLine
 10
27.4805
 20
267.3925
 30
0.0
 11
27.523
 21
267.9745
 31
0.0
  0
LINE
  5
159
330
1E
100
AcDbEntity
  8
0
100
AcDbLine
 10
27.4805
 20
267.3925
 30
0.0
 11
28.0018
 21
266.9665
 31
0.0
  0
LINE
  5
15A
330
1E
100
AcDbEntity
  8
0
100
AcDbLine
 10
27.523
 20
267.9745
 30
0.0
 11
28.07809999999999
 21
268.3745
 31
0.0
  0
LINE
  5
15B
330
1E
100
AcDbEntity
  8
0
100
AcDbLine
 10
27.0352
 20
272.9044999999999
 30
0.0
 11
27.73519999999999
 21
273.1345
 31
0.0
  0
LINE
  5
15C
330
1E
100
AcDbEntity
  8
0
100
AcDbLine
 10
27.73519999999999
 20
273.1345
 30
0.0
 11
28.0352
 21
273.6714999999999
 31
0.0
  0
LINE
  5
15D
330
1E
100
AcDbEntity
  8
0
100
AcDbLine
 10
28.1046
 20
257.8825
 30
0.0
 11
28.8117
 21
257.6655
 31
0.0
  0
LINE
  5
15F
330
1E
100
AcDbEntity
  8
0
100
AcDbLine
 10
28.8117
 20
257.6655
 30
0.0
 11
29.0945
 21
257.1234999999999
 31
0.0
  0
LINE
  5
161
330
1E
100
AcDbEntity
  8
0
100
AcDbLine
 10
28.8117
 20
256.5824999999999
 30
0.0
 11
29.0945
 21
257.1234999999999
 31
0.0
  0
LINE
  5
162
330
1E
100
AcDbEntity
  8
0
100
AcDbLine
 10
28.1046
 20
256.3664999999999
 30
0.0
 11
28.8117
 21
256.5824999999999
 31
0.0
  0
LINE
  5
163
330
1E
100
AcDbEntity
  8
0
100
AcDbLine
 10
28.07809999999999
 20
268.3745
 30
0.0
 11
28.8385
 21
268.3415
 31
0.0
  0
LINE
  5
164
330
1E
100
AcDbEntity
  8
0
100
AcDbLine
 10
28.8385
 20
268.3415
 30
0.0
 11
29.3599
 21
267.9164999999999
 31
0.0
  0
LINE
  5
165
330
1E
100
AcDbEntity
  8
0
100
AcDbLine
 10
28.76219999999999
 20
266.9345
 30
0.0
 11
29.31739999999999
 21
267.3335
 31
0.0
  0
LINE
  5
166
330
1E
100
AcDbEntity
  8
0
100
AcDbLine
 10
28.0018
 20
266.9665
 30
0.0
 11
28.76219999999999
 21
266.9345
 31
0.0
  0
LINE
  5
169
330
1E
100
AcDbEntity
  8
0
100
AcDbLine
 10
27.73519999999999
 20
274.2065
 30
0.0
 11
28.0352
 21
273.6714999999999
 31
0.0
  0
LINE
  5
16C
330
1E
100
AcDbEntity
  8
0
100
AcDbLine
 10
27.0352
 20
274.4365
 30
0.0
 11
27.73519999999999
 21
274.2065
 31
0.0
  0
LINE
  5
16D
330
1E
100
AcDbEntity
  8
0
100
AcDbLine
 10
26.3352
 20
273.1345
 30
0.0
 11
27.0352
 21
272.9044999999999
 31
0.0
  0
LINE
  5
16E
330
1E
100
AcDbEntity
  8
0
100
AcDbLine
 10
28.07809999999999
 20
278.9674999999999
 30
0.0
 11
28.8385
 21
279.0004999999999
 31
0.0
  0
LINE
  5
170
330
1E
100
AcDbEntity
  8
0
100
AcDbLine
 10
30.7562
 20
247.5183
 30
0.0
 11
31.366
 21
247.8670999999999
 31
0.0
  0
LINE
  5
171
330
1E
100
AcDbEntity
  8
0
100
AcDbLine
 10
29.634
 20
248.6334999999999
 30
0.0
 11
30.2438
 21
248.9824999999999
 31
0.0
  0
LINE
  5
175
330
1E
100
AcDbEntity
  8
0
100
AcDbLine
 10
30.2438
 20
248.9824999999999
 30
0.0
 11
31.0
 21
248.9145
 31
0.0
  0
LINE
  5
176
330
1E
100
AcDbEntity
  8
0
100
AcDbLine
 10
31.0
 20
248.9145
 30
0.0
 11
31.4562
 21
248.4464999999999
 31
0.0
  0
LINE
  5
178
330
1E
100
AcDbEntity
  8
0
100
AcDbLine
 10
31.366
 20
247.8670999999999
 30
0.0
 11
31.4562
 21
248.4464999999999
 31
0.0
  0
LINE
  5
179
330
1E
100
AcDbEntity
  8
0
100
AcDbLine
 10
30.0
 20
247.5867
 30
0.0
 11
30.7562
 21
247.5183
 31
0.0
  0
LINE
  5
17A
330
1E
100
AcDbEntity
  8
0
100
AcDbLine
 10
29.5438
 20
248.0539999999999
 30
0.0
 11
29.634
 21
248.6334999999999
 31
0.0
  0
LINE
  5
17B
330
1E
100
AcDbEntity
  8
0
100
AcDbLine
 10
29.5438
 20
248.0539999999999
 30
0.0
 11
30.0
 21
247.5867
 31
0.0
  0
LINE
  5
17E
330
1E
100
AcDbEntity
  8
0
100
AcDbLine
 10
31.4202
 20
254.9055
 30
0.0
 11
32.06739999999999
 21
255.2135
 31
0.0
  0
LINE
  5
180
330
1E
100
AcDbEntity
  8
0
100
AcDbLine
 10
31.2644
 20
254.3355
 30
0.0
 11
31.4202
 21
254.9055
 31
0.0
  0
LINE
  5
181
330
1E
100
AcDbEntity
  8
0
100
AcDbLine
 10
31.2644
 20
254.3355
 30
0.0
 11
31.6658
 21
253.8394999999999
 31
0.0
  0
LINE
  5
185
330
1E
100
AcDbEntity
  8
0
100
AcDbLine
 10
32.06739999999999
 20
255.2135
 30
0.0
 11
32.8129
 21
255.0934999999999
 31
0.0
  0
LINE
  5
187
330
1E
100
AcDbEntity
  8
0
100
AcDbLine
 10
31.6658
 20
253.8394999999999
 30
0.0
 11
32.4112
 21
253.7195
 31
0.0
  0
LINE
  5
189
330
1E
100
AcDbEntity
  8
0
100
AcDbLine
 10
32.8129
 20
255.0934999999999
 30
0.0
 11
33.21419999999999
 21
254.5984999999999
 31
0.0
  0
LINE
  5
18B
330
1E
100
AcDbEntity
  8
0
100
AcDbLine
 10
33.0585
 20
254.0265
 30
0.0
 11
33.21419999999999
 21
254.5984999999999
 31
0.0
  0
LINE
  5
18C
330
1E
100
AcDbEntity
  8
0
100
AcDbLine
 10
32.4112
 20
253.7195
 30
0.0
 11
33.0585
 21
254.0265
 31
0.0
  0
LINE
  5
18D
330
1E
100
AcDbEntity
  8
0
100
AcDbLine
 10
33.0507
 20
261.7764999999999
 30
0.0
 11
33.3941
 21
262.2964999999999
 31
0.0
  0
LINE
  5
18E
330
1E
100
AcDbEntity
  8
0
100
AcDbLine
 10
32.32169999999999
 20
261.6075
 30
0.0
 11
33.0507
 21
261.7764999999999
 31
0.0
  0
LINE
  5
18F
330
1E
100
AcDbEntity
  8
0
100
AcDbLine
 10
31.7652
 20
262.9494999999999
 30
0.0
 11
32.4942
 21
263.1184999999999
 31
0.0
  0
LINE
  5
190
330
1E
100
AcDbEntity
  8
0
100
AcDbLine
 10
32.4942
 20
263.1184999999999
 30
0.0
 11
33.174
 21
262.8554999999999
 31
0.0
  0
LINE
  5
191
330
1E
100
AcDbEntity
  8
0
100
AcDbLine
 10
33.174
 20
262.8554999999999
 30
0.0
 11
33.3941
 21
262.2964999999999
 31
0.0
  0
LINE
  5
192
330
1E
100
AcDbEntity
  8
0
100
AcDbLine
 10
31.6419
 20
261.8704999999999
 30
0.0
 11
32.32169999999999
 21
261.6075
 31
0.0
  0
LINE
  5
193
330
1E
100
AcDbEntity
  8
0
100
AcDbLine
 10
31.4218
 20
262.4284999999999
 30
0.0
 11
31.7652
 21
262.9494999999999
 31
0.0
  0
LINE
  5
194
330
1E
100
AcDbEntity
  8
0
100
AcDbLine
 10
31.4218
 20
262.4284999999999
 30
0.0
 11
31.6419
 21
261.8704999999999
 31
0.0
  0
LINE
  5
195
330
1E
100
AcDbEntity
  8
0
100
AcDbLine
 10
29.31739999999999
 20
267.3335
 30
0.0
 11
29.3599
 21
267.9164999999999
 31
0.0
  0
LINE
  5
196
330
1E
100
AcDbEntity
  8
0
100
AcDbLine
 10
35.764
 20
245.7289
 30
0.0
 11
36.3192
 21
245.3295
 31
0.0
  0
LINE
  5
198
330
1E
100
AcDbEntity
  8
0
100
AcDbLine
 10
35.7215
 20
246.3112
 30
0.0
 11
35.764
 21
245.7289
 31
0.0
  0
LINE
  5
199
330
1E
100
AcDbEntity
  8
0
100
AcDbLine
 10
35.7215
 20
246.3112
 30
0.0
 11
36.2428
 21
246.7370999999999
 31
0.0
  0
LINE
  5
19B
330
1E
100
AcDbEntity
  8
0
100
AcDbLine
 10
35.19769999999999
 20
272.6915
 30
0.0
 11
35.86889999999999
 21
272.9665
 31
0.0
  0
LINE
  5
19C
330
1E
100
AcDbEntity
  8
0
100
AcDbLine
 10
34.4742
 20
272.8725
 30
0.0
 11
35.19769999999999
 21
272.6915
 31
0.0
  0
LINE
  5
19D
330
1E
100
AcDbEntity
  8
0
100
AcDbLine
 10
34.1143
 20
273.3874999999999
 30
0.0
 11
34.3522
 21
273.9415
 31
0.0
  0
LINE
  5
19E
330
1E
100
AcDbEntity
  8
0
100
AcDbLine
 10
34.1143
 20
273.3874999999999
 30
0.0
 11
34.4742
 21
272.8725
 31
0.0
  0
LINE
  5
1A1
330
1E
100
AcDbEntity
  8
0
100
AcDbLine
 10
34.3522
 20
274.0047394399999
 30
0.0
 11
34.3522
 21
273.9415
 31
0.0
  0
LINE
  5
1A2
330
1E
100
AcDbEntity
  8
0
100
AcDbLine
 10
35.0234
 20
274.2164999999999
 30
0.0
 11
35.74689999999999
 21
274.0345
 31
0.0
  0
LINE
  5
1A3
330
1E
100
AcDbEntity
  8
0
100
AcDbLine
 10
35.74689999999999
 20
274.0345
 30
0.0
 11
36.10669999999999
 21
273.5205
 31
0.0
  0
LINE
  5
1A4
330
1E
100
AcDbEntity
  8
0
100
AcDbLine
 10
34.3522
 20
273.9415
 30
0.0
 11
35.0234
 21
274.2164999999999
 31
0.0
  0
LINE
  5
1A5
330
1E
100
AcDbEntity
  8
0
100
AcDbLine
 10
34.3522
 20
273.9415
 30
0.0
 11
34.3522
 21
274.0047394399999
 31
0.0
  0
LINE
  5
1A6
330
1E
100
AcDbEntity
  8
0
100
AcDbLine
 10
36.2428
 20
246.7370999999999
 30
0.0
 11
37.0032
 21
246.7691999999999
 31
0.0
  0
LINE
  5
1A7
330
1E
100
AcDbEntity
  8
0
100
AcDbLine
 10
36.3192
 20
245.3295
 30
0.0
 11
37.07959999999999
 21
245.3617
 31
0.0
  0
LINE
  5
1A8
330
1E
100
AcDbEntity
  8
0
100
AcDbLine
 10
36.0074
 20
252.7235
 30
0.0
 11
36.5751
 21
253.1115
 31
0.0
  0
LINE
  5
1A9
330
1E
100
AcDbEntity
  8
0
100
AcDbLine
 10
35.98349999999999
 20
252.1395
 30
0.0
 11
36.0074
 21
252.7235
 31
0.0
  0
LINE
  5
1AA
330
1E
100
AcDbEntity
  8
0
100
AcDbLine
 10
35.98349999999999
 20
252.1395
 30
0.0
 11
36.4911
 21
251.7055
 31
0.0
  0
LINE
  5
1AB
330
1E
100
AcDbEntity
  8
0
100
AcDbLine
 10
37.0032
 20
246.7691999999999
 30
0.0
 11
37.5584
 21
246.3699
 31
0.0
  0
LINE
  5
1AC
330
1E
100
AcDbEntity
  8
0
100
AcDbLine
 10
37.07959999999999
 20
245.3617
 30
0.0
 11
37.6009
 21
245.7876
 31
0.0
  0
LINE
  5
1AD
330
1E
100
AcDbEntity
  8
0
100
AcDbLine
 10
37.5584
 20
246.3699
 30
0.0
 11
37.6009
 21
245.7876
 31
0.0
  0
LINE
  5
1AE
330
1E
100
AcDbEntity
  8
0
100
AcDbLine
 10
37.25229999999999
 20
251.6865
 30
0.0
 11
37.82
 21
252.0755
 31
0.0
  0
LINE
  5
1AF
330
1E
100
AcDbEntity
  8
0
100
AcDbLine
 10
36.5751
 20
253.1115
 30
0.0
 11
37.3363
 21
253.0934999999999
 31
0.0
  0
LINE
  5
1B0
330
1E
100
AcDbEntity
  8
0
100
AcDbLine
 10
37.3363
 20
253.0934999999999
 30
0.0
 11
37.844
 21
252.6585
 31
0.0
  0
LINE
  5
1B1
330
1E
100
AcDbEntity
  8
0
100
AcDbLine
 10
36.4911
 20
251.7055
 30
0.0
 11
37.25229999999999
 21
251.6865
 31
0.0
  0
LINE
  5
1B4
330
1E
100
AcDbEntity
  8
0
100
AcDbLine
 10
37.6516
 20
258.8184999999999
 30
0.0
 11
38.2614
 21
259.1685
 31
0.0
  0
LINE
  5
1B5
330
1E
100
AcDbEntity
  8
0
100
AcDbLine
 10
37.5614
 20
258.2395
 30
0.0
 11
37.6516
 21
258.8184999999999
 31
0.0
  0
LINE
  5
1B6
330
1E
100
AcDbEntity
  8
0
100
AcDbLine
 10
37.5614
 20
258.2395
 30
0.0
 11
38.0176
 21
257.7725
 31
0.0
  0
LINE
  5
1B7
330
1E
100
AcDbEntity
  8
0
100
AcDbLine
 10
37.204
 20
267.6025
 30
0.0
 11
37.7117
 21
268.0365
 31
0.0
  0
LINE
  5
1B8
330
1E
100
AcDbEntity
  8
0
100
AcDbLine
 10
36.4428
 20
267.5835
 30
0.0
 11
37.204
 21
267.6025
 31
0.0
  0
LINE
  5
1B9
330
1E
100
AcDbEntity
  8
0
100
AcDbLine
 10
36.3588
 20
268.9904999999999
 30
0.0
 11
37.11999999999999
 21
269.0094999999999
 31
0.0
  0
LINE
  5
1BD
330
1E
100
AcDbEntity
  8
0
100
AcDbLine
 10
35.86889999999999
 20
272.9665
 30
0.0
 11
36.10669999999999
 21
273.5205
 31
0.0
  0
LINE
  5
1C0
330
1E
100
AcDbEntity
  8
0
100
AcDbLine
 10
37.11999999999999
 20
269.0094999999999
 30
0.0
 11
37.68769999999999
 21
268.6205
 31
0.0
  0
LINE
  5
1C2
330
1E
100
AcDbEntity
  8
0
100
AcDbLine
 10
37.68769999999999
 20
268.6205
 30
0.0
 11
37.7117
 21
268.0365
 31
0.0
  0
LINE
  5
1C3
330
1E
100
AcDbEntity
  8
0
100
AcDbLine
 10
35.8751
 20
267.9725
 30
0.0
 11
36.4428
 21
267.5835
 31
0.0
  0
LINE
  5
1C4
330
1E
100
AcDbEntity
  8
0
100
AcDbLine
 10
35.85119999999999
 20
268.5565
 30
0.0
 11
36.3588
 21
268.9904999999999
 31
0.0
  0
LINE
  5
1C5
330
1E
100
AcDbEntity
  8
0
100
AcDbLine
 10
35.85119999999999
 20
268.5565
 30
0.0
 11
35.8751
 21
267.9725
 31
0.0
  0
LINE
  5
1C6
330
1E
100
AcDbEntity
  8
0
100
AcDbLine
 10
36.3588
 20
278.0345
 30
0.0
 11
37.11999999999999
 21
278.0165
 31
0.0
  0
LINE
  5
1C7
330
1E
100
AcDbEntity
  8
0
100
AcDbLine
 10
37.11999999999999
 20
278.0165
 30
0.0
 11
37.68769999999999
 21
278.4044999999999
 31
0.0
  0
LINE
  5
1C8
330
1E
100
AcDbEntity
  8
0
100
AcDbLine
 10
37.82
 20
252.0755
 30
0.0
 11
37.844
 21
252.6585
 31
0.0
  0
LINE
  5
1CB
330
1E
100
AcDbEntity
  8
0
100
AcDbLine
 10
37.68769999999999
 20
278.4044999999999
 30
0.0
 11
37.7117
 21
278.9884999999999
 31
0.0
  0
LINE
  5
1CD
330
1E
100
AcDbEntity
  8
0
100
AcDbLine
 10
35.8751
 20
279.0525
 30
0.0
 11
36.4428
 21
279.4415
 31
0.0
  0
LINE
  5
1CE
330
1E
100
AcDbEntity
  8
0
100
AcDbLine
 10
35.85119999999999
 20
278.4685
 30
0.0
 11
36.3588
 21
278.0345
 31
0.0
  0
LINE
  5
1CF
330
1E
100
AcDbEntity
  8
0
100
AcDbLine
 10
35.85119999999999
 20
278.4685
 30
0.0
 11
35.8751
 21
279.0525
 31
0.0
  0
LINE
  5
1D0
330
1E
100
AcDbEntity
  8
0
100
AcDbLine
 10
28.8385
 20
279.0004999999999
 30
0.0
 11
29.3599
 21
279.4264999999999
 31
0.0
  0
LINE
  5
1D1
330
1E
100
AcDbEntity
  8
0
100
AcDbLine
 10
27.3975
 20
290.1284999999999
 30
0.0
 11
28.1046
 21
289.9115
 31
0.0
  0
LINE
  5
1D3
330
1E
100
AcDbEntity
  8
0
100
AcDbLine
 10
27.3975
 20
291.2115
 30
0.0
 11
28.1046
 21
291.4284999999999
 31
0.0
  0
LINE
  5
1D5
330
1E
100
AcDbEntity
  8
0
100
AcDbLine
 10
27.1146
 20
290.6705
 30
0.0
 11
27.3975
 21
290.1284999999999
 31
0.0
  0
LINE
  5
1D6
330
1E
100
AcDbEntity
  8
0
100
AcDbLine
 10
27.1146
 20
290.6705
 30
0.0
 11
27.3975
 21
291.2115
 31
0.0
  0
LINE
  5
1D8
330
1E
100
AcDbEntity
  8
0
100
AcDbLine
 10
37.204
 20
279.4225
 30
0.0
 11
37.7117
 21
278.9884999999999
 31
0.0
  0
LINE
  5
1DC
330
1E
100
AcDbEntity
  8
0
100
AcDbLine
 10
36.4428
 20
279.4415
 30
0.0
 11
37.204
 21
279.4225
 31
0.0
  0
LINE
  5
1DE
330
1E
100
AcDbEntity
  8
0
100
AcDbLine
 10
29.31739999999999
 20
280.0085
 30
0.0
 11
29.3599
 21
279.4264999999999
 31
0.0
  0
LINE
  5
1DF
330
1E
100
AcDbEntity
  8
0
100
AcDbLine
 10
28.1046
 20
289.9115
 30
0.0
 11
28.8117
 21
290.1284999999999
 31
0.0
  0
LINE
  5
1E0
330
1E
100
AcDbEntity
  8
0
100
AcDbLine
 10
28.1046
 20
291.4284999999999
 30
0.0
 11
28.8117
 21
291.2115
 31
0.0
  0
LINE
  5
1E1
330
1E
100
AcDbEntity
  8
0
100
AcDbLine
 10
31.7652
 20
284.3914999999999
 30
0.0
 11
32.4942
 21
284.2235
 31
0.0
  0
LINE
  5
1E2
330
1E
100
AcDbEntity
  8
0
100
AcDbLine
 10
32.4942
 20
284.2235
 30
0.0
 11
33.174
 21
284.4865
 31
0.0
  0
LINE
  5
1E3
330
1E
100
AcDbEntity
  8
0
100
AcDbLine
 10
33.174
 20
284.4865
 30
0.0
 11
33.3941
 21
285.0445
 31
0.0
  0
LINE
  5
1E4
330
1E
100
AcDbEntity
  8
0
100
AcDbLine
 10
33.0507
 20
285.5655
 30
0.0
 11
33.3941
 21
285.0445
 31
0.0
  0
LINE
  5
1E5
330
1E
100
AcDbEntity
  8
0
100
AcDbLine
 10
37.6516
 20
288.5224999999999
 30
0.0
 11
38.2614
 21
288.1734999999999
 31
0.0
  0
LINE
  5
1E6
330
1E
100
AcDbEntity
  8
0
100
AcDbLine
 10
37.5614
 20
289.1025
 30
0.0
 11
37.6516
 21
288.5224999999999
 31
0.0
  0
LINE
  5
1E7
330
1E
100
AcDbEntity
  8
0
100
AcDbLine
 10
37.5614
 20
289.1025
 30
0.0
 11
38.0176
 21
289.5694999999999
 31
0.0
  0
LINE
  5
1E8
330
1E
100
AcDbEntity
  8
0
100
AcDbLine
 10
32.32169999999999
 20
285.7345
 30
0.0
 11
33.0507
 21
285.5655
 31
0.0
  0
LINE
  5
1E9
330
1E
100
AcDbEntity
  8
0
100
AcDbLine
 10
31.6419
 20
285.4705
 30
0.0
 11
32.32169999999999
 21
285.7345
 31
0.0
  0
LINE
  5
1EA
330
1E
100
AcDbEntity
  8
0
100
AcDbLine
 10
31.4218
 20
284.9125
 30
0.0
 11
31.7652
 21
284.3914999999999
 31
0.0
  0
LINE
  5
1EB
330
1E
100
AcDbEntity
  8
0
100
AcDbLine
 10
31.4218
 20
284.9125
 30
0.0
 11
31.6419
 21
285.4705
 31
0.0
  0
LINE
  5
1EC
330
1E
100
AcDbEntity
  8
0
100
AcDbLine
 10
28.8117
 20
290.1284999999999
 30
0.0
 11
29.0945
 21
290.6705
 31
0.0
  0
LINE
  5
1ED
330
1E
100
AcDbEntity
  8
0
100
AcDbLine
 10
31.2644
 20
293.4594999999999
 30
0.0
 11
31.4202
 21
292.8885
 31
0.0
  0
LINE
  5
1EE
330
1E
100
AcDbEntity
  8
0
100
AcDbLine
 10
31.2644
 20
293.4594999999999
 30
0.0
 11
31.6658
 21
293.9555
 31
0.0
  0
LINE
  5
1EF
330
1E
100
AcDbEntity
  8
0
100
AcDbLine
 10
30.2438
 20
299.2644999999999
 30
0.0
 11
31.0
 21
299.3325
 31
0.0
  0
LINE
  5
1F0
330
1E
100
AcDbEntity
  8
0
100
AcDbLine
 10
29.634
 20
299.6134999999999
 30
0.0
 11
30.2438
 21
299.2644999999999
 31
0.0
  0
LINE
  5
1F1
330
1E
100
AcDbEntity
  8
0
100
AcDbLine
 10
31.0
 20
299.3325
 30
0.0
 11
31.4562
 21
299.8005
 31
0.0
  0
LINE
  5
1F2
330
1E
100
AcDbEntity
  8
0
100
AcDbLine
 10
31.4202
 20
292.8885
 30
0.0
 11
32.06739999999999
 21
292.5815
 31
0.0
  0
LINE
  5
1F3
330
1E
100
AcDbEntity
  8
0
100
AcDbLine
 10
32.06739999999999
 20
292.5815
 30
0.0
 11
32.8129
 21
292.7004999999999
 31
0.0
  0
LINE
  5
1F4
330
1E
100
AcDbEntity
  8
0
100
AcDbLine
 10
32.8129
 20
292.7004999999999
 30
0.0
 11
33.21419999999999
 21
293.1954999999999
 31
0.0
  0
LINE
  5
1F5
330
1E
100
AcDbEntity
  8
0
100
AcDbLine
 10
33.0585
 20
293.7675
 30
0.0
 11
33.21419999999999
 21
293.1954999999999
 31
0.0
  0
LINE
  5
1F6
330
1E
100
AcDbEntity
  8
0
100
AcDbLine
 10
36.5751
 20
294.6825
 30
0.0
 11
37.3363
 21
294.7004999999999
 31
0.0
  0
LINE
  5
1F7
330
1E
100
AcDbEntity
  8
0
100
AcDbLine
 10
36.0074
 20
295.0715
 30
0.0
 11
36.5751
 21
294.6825
 31
0.0
  0
LINE
  5
1F8
330
1E
100
AcDbEntity
  8
0
100
AcDbLine
 10
37.3363
 20
294.7004999999999
 30
0.0
 11
37.844
 21
295.1365
 31
0.0
  0
LINE
  5
1F9
330
1E
100
AcDbEntity
  8
0
100
AcDbLine
 10
37.82
 20
295.7184999999999
 30
0.0
 11
37.844
 21
295.1365
 31
0.0
  0
LINE
  5
1FD
330
1E
100
AcDbEntity
  8
0
100
AcDbLine
 10
37.25229999999999
 20
296.1075
 30
0.0
 11
37.82
 21
295.7184999999999
 31
0.0
  0
LINE
  5
1FF
330
1E
100
AcDbEntity
  8
0
100
AcDbLine
 10
36.4911
 20
296.0894999999999
 30
0.0
 11
37.25229999999999
 21
296.1075
 31
0.0
  0
LINE
  5
200
330
1E
100
AcDbEntity
  8
0
100
AcDbLine
 10
35.98349999999999
 20
295.6544999999999
 30
0.0
 11
36.0074
 21
295.0715
 31
0.0
  0
LINE
  5
201
330
1E
100
AcDbEntity
  8
0
100
AcDbLine
 10
35.98349999999999
 20
295.6544999999999
 30
0.0
 11
36.4911
 21
296.0894999999999
 31
0.0
  0
LINE
  5
202
330
1E
100
AcDbEntity
  8
0
100
AcDbLine
 10
32.4112
 20
294.0745
 30
0.0
 11
33.0585
 21
293.7675
 31
0.0
  0
LINE
  5
203
330
1E
100
AcDbEntity
  8
0
100
AcDbLine
 10
31.6658
 20
293.9555
 30
0.0
 11
32.4112
 21
294.0745
 31
0.0
  0
LINE
  5
205
330
1E
100
AcDbEntity
  8
0
100
AcDbLine
 10
31.366
 20
300.3795
 30
0.0
 11
31.4562
 21
299.8005
 31
0.0
  0
LINE
  5
208
330
1E
100
AcDbEntity
  8
0
100
AcDbLine
 10
30.7562
 20
300.7294999999999
 30
0.0
 11
31.366
 21
300.3795
 31
0.0
  0
LINE
  5
20A
330
1E
100
AcDbEntity
  8
0
100
AcDbLine
 10
30.0
 20
300.6605
 30
0.0
 11
30.7562
 21
300.7294999999999
 31
0.0
  0
LINE
  5
20C
330
1E
100
AcDbEntity
  8
0
100
AcDbLine
 10
29.5438
 20
300.1924999999999
 30
0.0
 11
29.634
 21
299.6134999999999
 31
0.0
  0
LINE
  5
20D
330
1E
100
AcDbEntity
  8
0
100
AcDbLine
 10
29.5438
 20
300.1924999999999
 30
0.0
 11
30.0
 21
300.6605
 31
0.0
  0
LINE
  5
20F
330
1E
100
AcDbEntity
  8
0
100
AcDbLine
 10
28.8117
 20
291.2115
 30
0.0
 11
29.0945
 21
290.6705
 31
0.0
  0
LINE
  5
210
330
1E
100
AcDbEntity
  8
0
100
AcDbLine
 10
28.76219999999999
 20
280.4075
 30
0.0
 11
29.31739999999999
 21
280.0085
 31
0.0
  0
LINE
  5
211
330
1E
100
AcDbEntity
  8
0
100
AcDbLine
 10
28.0018
 20
280.3754999999999
 30
0.0
 11
28.76219999999999
 21
280.4075
 31
0.0
  0
LINE
  5
212
330
1E
100
AcDbEntity
  8
0
100
AcDbLine
 10
27.4805
 20
279.9494999999999
 30
0.0
 11
27.523
 21
279.3674999999999
 31
0.0
  0
LINE
  5
213
330
1E
100
AcDbEntity
  8
0
100
AcDbLine
 10
27.4805
 20
279.9494999999999
 30
0.0
 11
28.0018
 21
280.3754999999999
 31
0.0
  0
LINE
  5
214
330
1E
100
AcDbEntity
  8
0
100
AcDbLine
 10
27.523
 20
279.3674999999999
 30
0.0
 11
28.07809999999999
 21
278.9674999999999
 31
0.0
  0
LINE
  5
215
330
1E
100
AcDbEntity
  8
0
100
AcDbLine
 10
26.1
 20
244.5876
 30
0.0
 11
37.7
 21
240.987
 31
0.0
  0
LINE
  5
216
330
1E
100
AcDbEntity
  8
0
100
AcDbLine
 10
37.7
 20
240.987
 30
0.0
 11
48.5
 21
239.843604878049
 31
0.0
  0
LINE
  5
217
330
1E
100
AcDbEntity
  8
0
100
AcDbLine
 10
37.91673489079949
 20
240.964054294732
 30
0.0
 11
38.0
 21
240.6369
 31
0.0
  0
LINE
  5
218
330
1E
100
AcDbEntity
  8
0
100
AcDbLine
 10
38.0
 20
240.6369
 30
0.0
 11
38.0
 21
230.3157
 31
0.0
  0
LINE
  5
219
330
1E
100
AcDbEntity
  8
0
100
AcDbLine
 10
38.0
 20
230.3157
 30
0.0
 11
38.0
 21
219.2438999999999
 31
0.0
  0
LINE
  5
21A
330
1E
100
AcDbEntity
  8
0
100
AcDbLine
 10
38.0
 20
230.3157
 30
0.0
 11
38.0
 21
240.6369
 31
0.0
  0
LINE
  5
21B
330
1E
100
AcDbEntity
  8
0
100
AcDbLine
 10
38.0
 20
219.2438999999999
 30
0.0
 11
38.0
 21
204.4093
 31
0.0
  0
LINE
  5
21C
330
1E
100
AcDbEntity
  8
0
100
AcDbLine
 10
38.0
 20
219.2438999999999
 30
0.0
 11
38.0
 21
230.3157
 31
0.0
  0
LINE
  5
21D
330
1E
100
AcDbEntity
  8
0
100
AcDbLine
 10
38.0
 20
204.4093
 30
0.0
 11
38.0
 21
188.8133
 31
0.0
  0
LINE
  5
21E
330
1E
100
AcDbEntity
  8
0
100
AcDbLine
 10
38.0
 20
204.4093
 30
0.0
 11
38.0
 21
219.2438999999999
 31
0.0
  0
LINE
  5
21F
330
1E
100
AcDbEntity
  8
0
100
AcDbLine
 10
38.0
 20
188.8133
 30
0.0
 11
38.0
 21
171.7563
 31
0.0
  0
LINE
  5
220
330
1E
100
AcDbEntity
  8
0
100
AcDbLine
 10
38.0
 20
188.8133
 30
0.0
 11
38.0
 21
204.4093
 31
0.0
  0
LINE
  5
221
330
1E
100
AcDbEntity
  8
0
100
AcDbLine
 10
38.0
 20
171.7563
 30
0.0
 11
38.0
 21
152.35151
 31
0.0
  0
LINE
  5
222
330
1E
100
AcDbEntity
  8
0
100
AcDbLine
 10
38.0
 20
171.7563
 30
0.0
 11
38.0
 21
188.8133
 31
0.0
  0
LINE
  5
223
330
1E
100
AcDbEntity
  8
0
100
AcDbLine
 10
38.0
 20
152.35151
 30
0.0
 11
38.0
 21
136.7634999999999
 31
0.0
  0
LINE
  5
224
330
1E
100
AcDbEntity
  8
0
100
AcDbLine
 10
38.0
 20
152.35151
 30
0.0
 11
38.0
 21
171.7563
 31
0.0
  0
LINE
  5
225
330
1E
100
AcDbEntity
  8
0
100
AcDbLine
 10
38.0
 20
136.7634999999999
 30
0.0
 11
38.0
 21
120.5708999999999
 31
0.0
  0
LINE
  5
226
330
1E
100
AcDbEntity
  8
0
100
AcDbLine
 10
38.0
 20
136.7634999999999
 30
0.0
 11
38.0
 21
152.35151
 31
0.0
  0
LINE
  5
227
330
1E
100
AcDbEntity
  8
0
100
AcDbLine
 10
38.0
 20
116.3208999999999
 30
0.0
 11
38.10337569936929
 21
116.112856405019
 31
0.0
  0
LINE
  5
228
330
1E
100
AcDbEntity
  8
0
100
AcDbLine
 10
38.0
 20
116.3208999999999
 30
0.0
 11
38.0
 21
120.5708999999999
 31
0.0
  0
LINE
  5
22A
330
1E
100
AcDbEntity
  8
0
100
AcDbLine
 10
38.496
 20
67.6833
 30
0.0
 11
40.8272
 21
67.90919999999999
 31
0.0
  0
LINE
  5
22D
330
1E
100
AcDbEntity
  8
0
100
AcDbLine
 10
38.5205
 20
114.1
 30
0.0
 11
40.7166
 21
114.3089
 31
0.0
  0
LINE
  5
22E
330
1E
100
AcDbEntity
  8
0
100
AcDbLine
 10
39.4097
 20
114.6748
 30
0.0
 11
40.7166
 21
114.3089
 31
0.0
  0
LINE
  5
22F
330
1E
100
AcDbEntity
  8
0
100
AcDbLine
 10
40.7166
 20
114.3089
 30
0.0
 11
40.8272
 21
67.90919999999999
 31
0.0
  0
LINE
  5
232
330
1E
100
AcDbEntity
  8
0
100
AcDbLine
 10
40.71745084508879
 20
113.9519474062779
 30
0.0
 11
41.744
 21
113.6044999999999
 31
0.0
  0
LINE
  5
233
330
1E
100
AcDbEntity
  8
0
100
AcDbLine
 10
40.8197960692373
 20
71.01534978488899
 30
0.0
 11
41.8224
 21
71.29859999999999
 31
0.0
  0
LINE
  5
234
330
1E
100
AcDbEntity
  8
0
100
AcDbLine
 10
41.8224
 20
71.29859999999999
 30
0.0
 11
42.0053213353475
 21
71.3277775032912
 31
0.0
  0
LINE
  5
235
330
1E
100
AcDbEntity
  8
0
100
AcDbLine
 10
42.05969999999999
 20
32.7785
 30
0.0
 11
42.07559999999999
 21
-0.222500000000044
 31
0.0
  0
LINE
  5
236
330
1E
100
AcDbEntity
  8
0
100
AcDbLine
 10
42.05969999999999
 20
32.7785
 30
0.0
 11
42.07559999999999
 21
-0.222500000000045
 31
0.0
  0
LINE
  5
237
330
1E
100
AcDbEntity
  8
0
100
AcDbLine
 10
42.07559999999999
 20
-0.222500000000045
 30
0.0
 11
42.6498
 21
-0.22750000000004
 31
0.0
  0
LINE
  5
238
330
1E
100
AcDbEntity
  8
0
100
AcDbLine
 10
42.2
 20
85.7301
 30
0.0
 11
43.6
 21
85.23839999999999
 31
0.0
  0
LINE
  5
239
330
1E
100
AcDbEntity
  8
0
100
AcDbLine
 10
42.03159999999999
 20
55.7757
 30
0.0
 11
42.05969999999999
 21
32.7785
 31
0.0
  0
LINE
  5
23A
330
1E
100
AcDbEntity
  8
0
100
AcDbLine
 10
41.9897
 20
80.5727
 30
0.0
 11
42.03159999999999
 21
55.7757
 31
0.0
  0
LINE
  5
23B
330
1E
100
AcDbEntity
  8
0
100
AcDbLine
 10
40.77468239775639
 20
89.94175866925941
 30
0.0
 11
41.0
 21
86.89480000000001
 31
0.0
  0
LINE
  5
23C
330
1E
100
AcDbEntity
  8
0
100
AcDbLine
 10
41.29999999999999
 20
86.29949999999999
 30
0.0
 11
42.2
 21
85.7301
 31
0.0
  0
LINE
  5
23D
330
1E
100
AcDbEntity
  8
0
100
AcDbLine
 10
41.0
 20
86.89480000000001
 30
0.0
 11
41.29999999999999
 21
86.29949999999999
 31
0.0
  0
LINE
  5
23E
330
1E
100
AcDbEntity
  8
0
100
AcDbLine
 10
41.97832241589909
 20
85.87034801820779
 30
0.0
 11
41.9897
 21
80.5727
 31
0.0
  0
LINE
  5
23F
330
1E
100
AcDbEntity
  8
0
100
AcDbLine
 10
43.6
 20
85.23839999999999
 30
0.0
 11
45.49999999999999
 21
84.876
 31
0.0
  0
LINE
  5
240
330
1E
100
AcDbEntity
  8
0
100
AcDbLine
 10
42.88631705265849
 20
-0.226701764925256
 30
0.0
 11
44.5237
 21
-0.228500000000046
 31
0.0
  0
LINE
  5
241
330
1E
100
AcDbEntity
  8
0
100
AcDbLine
 10
42.6498
 20
-0.22750000000004
 30
0.0
 11
44.42759999999999
 21
-0.22150000000004
 31
0.0
  0
LINE
  5
242
330
1E
100
AcDbEntity
  8
0
100
AcDbLine
 10
42.2154
 20
105.2791
 30
0.0
 11
44.5
 21
104.8889
 31
0.0
  0
LINE
  5
244
330
1E
100
AcDbEntity
  8
0
100
AcDbLine
 10
42.2154
 20
113.3124
 30
0.0
 11
44.5
 21
112.9222
 31
0.0
  0
LINE
  5
247
330
1E
100
AcDbEntity
  8
0
100
AcDbLine
 10
40.7370122058974
 20
105.7454259495899
 30
0.0
 11
42.2154
 21
105.2791
 31
0.0
  0
LINE
  5
248
330
1E
100
AcDbEntity
  8
0
100
AcDbLine
 10
44.42759999999999
 20
-0.22150000000004
 30
0.0
 11
46.91259999999999
 21
-0.226500000000035
 31
0.0
  0
LINE
  5
249
330
1E
100
AcDbEntity
  8
0
100
AcDbLine
 10
44.5237
 20
-0.228500000000046
 30
0.0
 11
46.0714521375315
 21
-0.224807549572535
 31
0.0
  0
LINE
  5
24A
330
1E
100
AcDbEntity
  8
0
100
AcDbLine
 10
45.49999999999999
 20
84.876
 30
0.0
 11
47.7
 21
84.64310000000001
 31
0.0
  0
LINE
  5
24B
330
1E
100
AcDbEntity
  8
0
100
AcDbLine
 10
50.0
 20
84.5654
 30
0.0
 11
52.3
 21
84.64310000000001
 31
0.0
  0
LINE
  5
24C
330
1E
100
AcDbEntity
  8
0
100
AcDbLine
 10
47.7
 20
84.64310000000001
 30
0.0
 11
50.0
 21
84.5654
 31
0.0
  0
LINE
  5
24D
330
1E
100
AcDbEntity
  8
0
100
AcDbLine
 10
46.91259999999999
 20
-0.226500000000035
 30
0.0
 11
50.0077
 21
-0.22550000000003
 31
0.0
  0
LINE
  5
24E
330
1E
100
AcDbEntity
  8
0
100
AcDbLine
 10
52.3
 20
84.64310000000001
 30
0.0
 11
54.5
 21
84.876
 31
0.0
  0
LINE
  5
24F
330
1E
100
AcDbEntity
  8
0
100
AcDbLine
 10
50.0077
 20
-0.22550000000003
 30
0.0
 11
53.1127
 21
-0.223500000000021
 31
0.0
  0
LINE
  5
250
330
1E
100
AcDbEntity
  8
0
100
AcDbLine
 10
50.0
 20
104.5233999999999
 30
0.0
 11
52.8769
 21
104.6423
 31
0.0
  0
LINE
  5
251
330
1E
100
AcDbEntity
  8
0
100
AcDbLine
 10
50.0
 20
112.5566999999999
 30
0.0
 11
52.8769
 21
112.6759
 31
0.0
  0
LINE
  5
252
330
1E
100
AcDbEntity
  8
0
100
AcDbLine
 10
52.8769
 20
112.6759
 30
0.0
 11
55.5
 21
112.9796999999999
 31
0.0
  0
LINE
  5
253
330
1E
100
AcDbEntity
  8
0
100
AcDbLine
 10
47.1231
 20
112.6567
 30
0.0
 11
50.0
 21
112.5566999999999
 31
0.0
  0
LINE
  5
254
330
1E
100
AcDbEntity
  8
0
100
AcDbLine
 10
52.8769
 20
104.6423
 30
0.0
 11
55.5
 21
104.9463
 31
0.0
  0
LINE
  5
255
330
1E
100
AcDbEntity
  8
0
100
AcDbLine
 10
47.1231
 20
104.6232
 30
0.0
 11
50.0
 21
104.5233999999999
 31
0.0
  0
LINE
  5
256
330
1E
100
AcDbEntity
  8
0
100
AcDbLine
 10
44.5
 20
104.8889
 30
0.0
 11
47.1231
 21
104.6232
 31
0.0
  0
LINE
  5
257
330
1E
100
AcDbEntity
  8
0
100
AcDbLine
 10
50.0
 20
112.7100999999999
 30
0.0
 11
53.02399999999999
 21
112.8217
 31
0.0
  0
LINE
  5
258
330
1E
100
AcDbEntity
  8
0
100
AcDbLine
 10
54.5
 20
84.876
 30
0.0
 11
56.4
 21
85.23839999999999
 31
0.0
  0
LINE
  5
259
330
1E
100
AcDbEntity
  8
0
100
AcDbLine
 10
53.1127
 20
-0.223500000000021
 30
0.0
 11
55.6277
 21
-0.22750000000004
 31
0.0
  0
LINE
  5
25A
330
1E
100
AcDbEntity
  8
0
100
AcDbLine
 10
57.4488
 20
-0.230500000000026
 30
0.0
 11
58.0758
 21
-0.223500000000021
 31
0.0
  0
LINE
  5
25B
330
1E
100
AcDbEntity
  8
0
100
AcDbLine
 10
56.4
 20
85.23839999999999
 30
0.0
 11
57.8
 21
85.7301
 31
0.0
  0
LINE
  5
25C
330
1E
100
AcDbEntity
  8
0
100
AcDbLine
 10
57.8
 20
85.7301
 30
0.0
 11
58.7
 21
86.29949999999999
 31
0.0
  0
LINE
  5
25D
330
1E
100
AcDbEntity
  8
0
100
AcDbLine
 10
55.6277
 20
-0.22750000000004
 30
0.0
 11
57.4488
 21
-0.230500000000026
 31
0.0
  0
LINE
  5
25E
330
1E
100
AcDbEntity
  8
0
100
AcDbLine
 10
58.0596
 20
32.7775
 30
0.0
 11
58.0758
 21
-0.223500000000021
 31
0.0
  0
LINE
  5
25F
330
1E
100
AcDbEntity
  8
0
100
AcDbLine
 10
58.0596
 20
32.7775
 30
0.0
 11
58.0758
 21
-0.223500000000022
 31
0.0
  0
LINE
  5
260
330
1E
100
AcDbEntity
  8
0
100
AcDbLine
 10
58.17759999999999
 20
71.29859999999999
 30
0.0
 11
59.1802971736969
 21
71.0153234424018
 31
0.0
  0
LINE
  5
261
330
1E
100
AcDbEntity
  8
0
100
AcDbLine
 10
64.85240000000001
 20
69.16769999999999
 30
0.0
 11
65.0
 21
69.41459999999999
 31
0.0
  0
LINE
  5
262
330
1E
100
AcDbEntity
  8
0
100
AcDbLine
 10
64.5598
 20
68.9001
 30
0.0
 11
64.85240000000001
 21
69.16769999999999
 31
0.0
  0
LINE
  5
264
330
1E
100
AcDbEntity
  8
0
100
AcDbLine
 10
63.9318
 20
68.5013
 30
0.0
 11
64.5598
 21
68.9001
 31
0.0
  0
LINE
  5
265
330
1E
100
AcDbEntity
  8
0
100
AcDbLine
 10
62.9121
 20
68.04120000000001
 30
0.0
 11
63.9318
 21
68.5013
 31
0.0
  0
LINE
  5
267
330
1E
100
AcDbEntity
  8
0
100
AcDbLine
 10
61.5039
 20
67.6833
 30
0.0
 11
62.9121
 21
68.04120000000001
 31
0.0
  0
LINE
  5
269
330
1E
100
AcDbEntity
  8
0
100
AcDbLine
 10
59.1729
 20
67.90919999999999
 30
0.0
 11
61.5039
 21
67.6833
 31
0.0
  0
LINE
  5
26A
330
1E
100
AcDbEntity
  8
0
100
AcDbLine
 10
59.1729
 20
67.90919999999999
 30
0.0
 11
59.2834
 21
114.3089
 31
0.0
  0
LINE
  5
26B
330
1E
100
AcDbEntity
  8
0
100
AcDbLine
 10
58.00490337098779
 20
71.32614657597379
 30
0.0
 11
58.17759999999999
 21
71.29859999999999
 31
0.0
  0
LINE
  5
26C
330
1E
100
AcDbEntity
  8
0
100
AcDbLine
 10
65.0
 20
75.6778
 30
0.0
 11
65.0
 21
115.6495
 31
0.0
  0
LINE
  5
26D
330
1E
100
AcDbEntity
  8
0
100
AcDbLine
 10
65.0
 20
75.6778
 30
0.0
 11
65.0
 21
69.41459999999999
 31
0.0
  0
LINE
  5
26E
330
1E
100
AcDbEntity
  8
0
100
AcDbLine
 10
65.0
 20
69.41459999999999
 30
0.0
 11
65.0
 21
75.6778
 31
0.0
  0
LINE
  5
26F
330
1E
100
AcDbEntity
  8
0
100
AcDbLine
 10
58.0306
 20
55.7847
 30
0.0
 11
58.0596
 21
32.7775
 31
0.0
  0
LINE
  5
270
330
1E
100
AcDbEntity
  8
0
100
AcDbLine
 10
57.98960000000001
 20
80.5817
 30
0.0
 11
58.0306
 21
55.7847
 31
0.0
  0
LINE
  5
271
330
1E
100
AcDbEntity
  8
0
100
AcDbLine
 10
58.7
 20
86.29949999999999
 30
0.0
 11
59.0
 21
86.89480000000001
 31
0.0
  0
LINE
  5
272
330
1E
100
AcDbEntity
  8
0
100
AcDbLine
 10
59.0
 20
86.89480000000001
 30
0.0
 11
59.225371865503
 21
89.9424924686042
 31
0.0
  0
LINE
  5
273
330
1E
100
AcDbEntity
  8
0
100
AcDbLine
 10
57.97809133849879
 20
85.84277245349019
 30
0.0
 11
57.98960000000001
 21
80.5817
 31
0.0
  0
LINE
  5
274
330
1E
100
AcDbEntity
  8
0
100
AcDbLine
 10
55.5
 20
104.9463
 30
0.0
 11
57.78459999999999
 21
105.4321
 31
0.0
  0
LINE
  5
277
330
1E
100
AcDbEntity
  8
0
100
AcDbLine
 10
57.78459999999999
 20
105.4321
 30
0.0
 11
59.2636100206155
 21
105.998953335325
 31
0.0
  0
LINE
  5
278
330
1E
100
AcDbEntity
  8
0
100
AcDbLine
 10
53.02399999999999
 20
112.8217
 30
0.0
 11
55.80799999999999
 21
113.1199999999999
 31
0.0
  0
LINE
  5
279
330
1E
100
AcDbEntity
  8
0
100
AcDbLine
 10
55.5
 20
112.9796999999999
 30
0.0
 11
57.78459999999999
 21
113.4654
 31
0.0
  0
LINE
  5
27A
330
1E
100
AcDbEntity
  8
0
100
AcDbLine
 10
44.5
 20
112.9222
 30
0.0
 11
47.1231
 21
112.6567
 31
0.0
  0
LINE
  5
27B
330
1E
100
AcDbEntity
  8
0
100
AcDbLine
 10
57.78459999999999
 20
113.4654
 30
0.0
 11
58.0317130383669
 21
113.5601098721769
 31
0.0
  0
LINE
  5
27C
330
1E
100
AcDbEntity
  8
0
100
AcDbLine
 10
55.80799999999999
 20
113.1199999999999
 30
0.0
 11
58.256
 21
113.6044999999999
 31
0.0
  0
LINE
  5
27D
330
1E
100
AcDbEntity
  8
0
100
AcDbLine
 10
58.256
 20
113.6044999999999
 30
0.0
 11
59.2825499248312
 21
113.9519476668659
 31
0.0
  0
LINE
  5
27E
330
1E
100
AcDbEntity
  8
0
100
AcDbLine
 10
46.976
 20
112.8217
 30
0.0
 11
50.0
 21
112.7100999999999
 31
0.0
  0
LINE
  5
27F
330
1E
100
AcDbEntity
  8
0
100
AcDbLine
 10
44.192
 20
113.1199999999999
 30
0.0
 11
46.976
 21
112.8217
 31
0.0
  0
LINE
  5
281
330
1E
100
AcDbEntity
  8
0
100
AcDbLine
 10
59.2834
 20
114.3089
 30
0.0
 11
61.4795
 21
114.1
 31
0.0
  0
LINE
  5
282
330
1E
100
AcDbEntity
  8
0
100
AcDbLine
 10
59.2834
 20
114.3089
 30
0.0
 11
60.5902
 21
114.6748
 31
0.0
  0
LINE
  5
283
330
1E
100
AcDbEntity
  8
0
100
AcDbLine
 10
61.4795
 20
114.1
 30
0.0
 11
63.4285
 21
114.5701999999999
 31
0.0
  0
LINE
  5
285
330
1E
100
AcDbEntity
  8
0
100
AcDbLine
 10
40.7178487007958
 20
113.785036145426
 30
0.0
 11
42.2154
 21
113.3124
 31
0.0
  0
LINE
  5
288
330
1E
100
AcDbEntity
  8
0
100
AcDbLine
 10
61.3308337662116
 20
115.050789132956
 30
0.0
 11
61.71199999999999
 21
115.7413
 31
0.0
  0
LINE
  5
28B
330
1E
100
AcDbEntity
  8
0
100
AcDbLine
 10
65.0
 20
115.6495
 30
0.0
 11
65.0
 21
125.6833
 31
0.0
  0
LINE
  5
28C
330
1E
100
AcDbEntity
  8
0
100
AcDbLine
 10
65.0
 20
115.6495
 30
0.0
 11
65.0
 21
75.6778
 31
0.0
  0
LINE
  5
28D
330
1E
100
AcDbEntity
  8
0
100
AcDbLine
 10
64.88389999999999
 20
115.4104
 30
0.0
 11
65.0
 21
115.6495
 31
0.0
  0
LINE
  5
28E
330
1E
100
AcDbEntity
  8
0
100
AcDbLine
 10
64.3111
 20
114.9326
 30
0.0
 11
64.88389999999999
 21
115.4104
 31
0.0
  0
LINE
  5
290
330
1E
100
AcDbEntity
  8
0
100
AcDbLine
 10
63.4285
 20
114.5701999999999
 30
0.0
 11
64.3111
 21
114.9326
 31
0.0
  0
LINE
  5
292
330
1E
100
AcDbEntity
  8
0
100
AcDbLine
 10
61.71199999999999
 20
115.7413
 30
0.0
 11
61.89663115941629
 21
116.112870208325
 31
0.0
  0
LINE
  5
293
330
1E
100
AcDbEntity
  8
0
100
AcDbLine
 10
41.744
 20
113.6044999999999
 30
0.0
 11
44.192
 21
113.1199999999999
 31
0.0
  0
LINE
  5
294
330
1E
100
AcDbEntity
  8
0
100
AcDbLine
 10
40.71745084508879
 20
113.9519474062779
 30
0.0
 11
41.744
 21
113.6044999999999
 31
0.0
  0
LINE
  5
295
330
1E
100
AcDbEntity
  8
0
100
AcDbLine
 10
38.0176
 20
257.7725
 30
0.0
 11
38.7738
 21
257.7035
 31
0.0
  0
LINE
  5
297
330
1E
100
AcDbEntity
  8
0
100
AcDbLine
 10
38.0176
 20
289.5694999999999
 30
0.0
 11
38.7738
 21
289.6385
 31
0.0
  0
LINE
  5
29D
330
1E
100
AcDbEntity
  8
0
100
AcDbLine
 10
62.0
 20
125.6833
 30
0.0
 11
65.0
 21
125.6833
 31
0.0
  0
LINE
  5
29E
330
1E
100
AcDbEntity
  8
0
100
AcDbLine
 10
62.0
 20
116.3208999999999
 30
0.0
 11
62.0
 21
120.5708999999999
 31
0.0
  0
LINE
  5
29F
330
1E
100
AcDbEntity
  8
0
100
AcDbLine
 10
62.0
 20
120.5708999999999
 30
0.0
 11
62.0
 21
116.3208999999999
 31
0.0
  0
LINE
  5
2A0
330
1E
100
AcDbEntity
  8
0
100
AcDbLine
 10
62.0
 20
120.5708999999999
 30
0.0
 11
62.0
 21
136.7634999999999
 31
0.0
  0
LINE
  5
2A1
330
1E
100
AcDbEntity
  8
0
100
AcDbLine
 10
61.89663115941629
 20
116.112870208325
 30
0.0
 11
62.0
 21
116.3208999999999
 31
0.0
  0
LINE
  5
2A2
330
1E
100
AcDbEntity
  8
0
100
AcDbLine
 10
62.0
 20
136.7634999999999
 30
0.0
 11
62.0
 21
152.35151
 31
0.0
  0
LINE
  5
2A3
330
1E
100
AcDbEntity
  8
0
100
AcDbLine
 10
62.0
 20
136.7634999999999
 30
0.0
 11
62.0
 21
120.5708999999999
 31
0.0
  0
LINE
  5
2A4
330
1E
100
AcDbEntity
  8
0
100
AcDbLine
 10
62.0
 20
188.8133
 30
0.0
 11
62.0
 21
204.4093
 31
0.0
  0
LINE
  5
2A5
330
1E
100
AcDbEntity
  8
0
100
AcDbLine
 10
62.0
 20
188.8133
 30
0.0
 11
62.0
 21
171.7563
 31
0.0
  0
LINE
  5
2A6
330
1E
100
AcDbEntity
  8
0
100
AcDbLine
 10
62.0
 20
171.7563
 30
0.0
 11
62.0
 21
188.8133
 31
0.0
  0
LINE
  5
2A7
330
1E
100
AcDbEntity
  8
0
100
AcDbLine
 10
62.0
 20
171.7563
 30
0.0
 11
62.0
 21
152.35151
 31
0.0
  0
LINE
  5
2A8
330
1E
100
AcDbEntity
  8
0
100
AcDbLine
 10
62.0
 20
152.35151
 30
0.0
 11
62.0
 21
171.7563
 31
0.0
  0
LINE
  5
2A9
330
1E
100
AcDbEntity
  8
0
100
AcDbLine
 10
62.0
 20
152.35151
 30
0.0
 11
62.0
 21
136.7634999999999
 31
0.0
  0
LINE
  5
2AA
330
1E
100
AcDbEntity
  8
0
100
AcDbLine
 10
62.0
 20
204.4093
 30
0.0
 11
62.0
 21
219.2438999999999
 31
0.0
  0
LINE
  5
2AB
330
1E
100
AcDbEntity
  8
0
100
AcDbLine
 10
62.0
 20
204.4093
 30
0.0
 11
62.0
 21
188.8133
 31
0.0
  0
LINE
  5
2AC
330
1E
100
AcDbEntity
  8
0
100
AcDbLine
 10
48.5
 20
231.1409999999999
 30
0.0
 11
48.5
 21
231.0338
 31
0.0
  0
LINE
  5
2AD
330
1E
100
AcDbEntity
  8
0
100
AcDbLine
 10
48.5
 20
231.1409999999999
 30
0.0
 11
48.5
 21
232.3091999999999
 31
0.0
  0
LINE
  5
2AE
330
1E
100
AcDbEntity
  8
0
100
AcDbLine
 10
48.5
 20
231.0338
 30
0.0
 11
48.5
 21
231.7493999999999
 31
0.0
  0
LINE
  5
2AF
330
1E
100
AcDbEntity
  8
0
100
AcDbLine
 10
48.5
 20
231.0338
 30
0.0
 11
51.5
 21
231.0338
 31
0.0
  0
LINE
  5
2B0
330
1E
100
AcDbEntity
  8
0
100
AcDbLine
 10
48.5
 20
231.0338
 30
0.0
 11
48.5
 21
231.1409999999999
 31
0.0
  0
LINE
  5
2B1
330
1E
100
AcDbEntity
  8
0
100
AcDbLine
 10
51.5
 20
231.0338
 30
0.0
 11
51.5
 21
231.7493999999999
 31
0.0
  0
LINE
  5
2B2
330
1E
100
AcDbEntity
  8
0
100
AcDbLine
 10
48.5
 20
231.7493999999999
 30
0.0
 11
48.5
 21
233.4589999999999
 31
0.0
  0
LINE
  5
2B3
330
1E
100
AcDbEntity
  8
0
100
AcDbLine
 10
48.5
 20
231.7493999999999
 30
0.0
 11
48.5
 21
231.0338
 31
0.0
  0
LINE
  5
2B4
330
1E
100
AcDbEntity
  8
0
100
AcDbLine
 10
48.5
 20
233.3486
 30
0.0
 11
48.5
 21
232.3091999999999
 31
0.0
  0
LINE
  5
2B5
330
1E
100
AcDbEntity
  8
0
100
AcDbLine
 10
48.5
 20
233.3486
 30
0.0
 11
48.5
 21
234.9775999999999
 31
0.0
  0
LINE
  5
2B6
330
1E
100
AcDbEntity
  8
0
100
AcDbLine
 10
48.5
 20
232.3091999999999
 30
0.0
 11
48.5
 21
231.1409999999999
 31
0.0
  0
LINE
  5
2B7
330
1E
100
AcDbEntity
  8
0
100
AcDbLine
 10
48.5
 20
232.3091999999999
 30
0.0
 11
48.5
 21
233.3486
 31
0.0
  0
LINE
  5
2B8
330
1E
100
AcDbEntity
  8
0
100
AcDbLine
 10
48.5
 20
234.9775999999999
 30
0.0
 11
48.5
 21
233.3486
 31
0.0
  0
LINE
  5
2B9
330
1E
100
AcDbEntity
  8
0
100
AcDbLine
 10
48.5
 20
234.9775999999999
 30
0.0
 11
48.5
 21
236.643
 31
0.0
  0
LINE
  5
2BA
330
1E
100
AcDbEntity
  8
0
100
AcDbLine
 10
48.5
 20
233.4589999999999
 30
0.0
 11
48.5
 21
235.4593
 31
0.0
  0
LINE
  5
2BB
330
1E
100
AcDbEntity
  8
0
100
AcDbLine
 10
48.5
 20
233.4589999999999
 30
0.0
 11
48.5
 21
231.7493999999999
 31
0.0
  0
LINE
  5
2BC
330
1E
100
AcDbEntity
  8
0
100
AcDbLine
 10
48.5
 20
235.4593
 30
0.0
 11
48.5
 21
237.4
 31
0.0
  0
LINE
  5
2BD
330
1E
100
AcDbEntity
  8
0
100
AcDbLine
 10
48.5
 20
235.4593
 30
0.0
 11
48.5
 21
233.4589999999999
 31
0.0
  0
LINE
  5
2BE
330
1E
100
AcDbEntity
  8
0
100
AcDbLine
 10
51.5
 20
231.7493999999999
 30
0.0
 11
51.5
 21
231.0338
 31
0.0
  0
LINE
  5
2BF
330
1E
100
AcDbEntity
  8
0
100
AcDbLine
 10
51.5
 20
231.7493999999999
 30
0.0
 11
51.5
 21
233.4589999999999
 31
0.0
  0
LINE
  5
2C0
330
1E
100
AcDbEntity
  8
0
100
AcDbLine
 10
51.5
 20
233.4589999999999
 30
0.0
 11
51.5
 21
231.7493999999999
 31
0.0
  0
LINE
  5
2C1
330
1E
100
AcDbEntity
  8
0
100
AcDbLine
 10
51.5
 20
233.4589999999999
 30
0.0
 11
51.5
 21
235.4593
 31
0.0
  0
LINE
  5
2C2
330
1E
100
AcDbEntity
  8
0
100
AcDbLine
 10
48.5
 20
236.643
 30
0.0
 11
48.5
 21
234.9775999999999
 31
0.0
  0
LINE
  5
2C3
330
1E
100
AcDbEntity
  8
0
100
AcDbLine
 10
48.5
 20
236.643
 30
0.0
 11
48.5
 21
238.8027999999999
 31
0.0
  0
LINE
  5
2C4
330
1E
100
AcDbEntity
  8
0
100
AcDbLine
 10
48.5
 20
238.8027999999999
 30
0.0
 11
48.5
 21
236.643
 31
0.0
  0
LINE
  5
2C5
330
1E
100
AcDbEntity
  8
0
100
AcDbLine
 10
48.5
 20
238.8027999999999
 30
0.0
 11
48.5
 21
239.843604878049
 31
0.0
  0
LINE
  5
2C6
330
1E
100
AcDbEntity
  8
0
100
AcDbLine
 10
48.5
 20
239.843604878049
 30
0.0
 11
48.5
 21
238.8027999999999
 31
0.0
  0
LINE
  5
2C7
330
1E
100
AcDbEntity
  8
0
100
AcDbLine
 10
48.5
 20
237.4
 30
0.0
 11
48.5
 21
240.0472
 31
0.0
  0
LINE
  5
2C8
330
1E
100
AcDbEntity
  8
0
100
AcDbLine
 10
48.5
 20
237.4
 30
0.0
 11
48.5
 21
235.4593
 31
0.0
  0
LINE
  5
2C9
330
1E
100
AcDbEntity
  8
0
100
AcDbLine
 10
48.5
 20
240.0472
 30
0.0
 11
48.5
 21
243.1110727272729
 31
0.0
  0
LINE
  5
2CA
330
1E
100
AcDbEntity
  8
0
100
AcDbLine
 10
48.5
 20
240.0472
 30
0.0
 11
48.5
 21
237.4
 31
0.0
  0
LINE
  5
2CB
330
1E
100
AcDbEntity
  8
0
100
AcDbLine
 10
51.5
 20
235.4593
 30
0.0
 11
51.5
 21
233.4589999999999
 31
0.0
  0
LINE
  5
2CC
330
1E
100
AcDbEntity
  8
0
100
AcDbLine
 10
51.5
 20
235.4593
 30
0.0
 11
51.5
 21
237.4
 31
0.0
  0
LINE
  5
2CD
330
1E
100
AcDbEntity
  8
0
100
AcDbLine
 10
51.5
 20
237.4
 30
0.0
 11
51.5
 21
235.4593
 31
0.0
  0
LINE
  5
2CE
330
1E
100
AcDbEntity
  8
0
100
AcDbLine
 10
51.5
 20
237.4
 30
0.0
 11
51.5
 21
240.0472
 31
0.0
  0
LINE
  5
2CF
330
1E
100
AcDbEntity
  8
0
100
AcDbLine
 10
51.5
 20
240.0472
 30
0.0
 11
51.5
 21
237.4
 31
0.0
  0
LINE
  5
2D0
330
1E
100
AcDbEntity
  8
0
100
AcDbLine
 10
51.5
 20
240.0472
 30
0.0
 11
51.5
 21
243.1110727272729
 31
0.0
  0
LINE
  5
2D1
330
1E
100
AcDbEntity
  8
0
100
AcDbLine
 10
51.5
 20
239.843604878049
 30
0.0
 11
62.3
 21
240.987
 31
0.0
  0
LINE
  5
2D2
330
1E
100
AcDbEntity
  8
0
100
AcDbLine
 10
62.0
 20
230.3157
 30
0.0
 11
62.0
 21
240.6369
 31
0.0
  0
LINE
  5
2D3
330
1E
100
AcDbEntity
  8
0
100
AcDbLine
 10
62.0
 20
230.3157
 30
0.0
 11
62.0
 21
219.2438999999999
 31
0.0
  0
LINE
  5
2D4
330
1E
100
AcDbEntity
  8
0
100
AcDbLine
 10
65.0
 20
125.6833
 30
0.0
 11
65.0
 21
115.6495
 31
0.0
  0
LINE
  5
2D5
330
1E
100
AcDbEntity
  8
0
100
AcDbLine
 10
62.0
 20
219.2438999999999
 30
0.0
 11
62.0
 21
230.3157
 31
0.0
  0
LINE
  5
2D6
330
1E
100
AcDbEntity
  8
0
100
AcDbLine
 10
62.0
 20
219.2438999999999
 30
0.0
 11
62.0
 21
204.4093
 31
0.0
  0
LINE
  5
2D8
330
1E
100
AcDbEntity
  8
0
100
AcDbLine
 10
42.24289999999999
 20
244.8351
 30
0.0
 11
42.4168
 21
244.2665
 31
0.0
  0
LINE
  5
2D9
330
1E
100
AcDbEntity
  8
0
100
AcDbLine
 10
42.24289999999999
 20
244.8351
 30
0.0
 11
42.6599
 21
245.3228
 31
0.0
  0
LINE
  5
2DB
330
1E
100
AcDbEntity
  8
0
100
AcDbLine
 10
41.7269
 20
250.2454999999999
 30
0.0
 11
42.4807
 21
250.3284999999999
 31
0.0
  0
LINE
  5
2DC
330
1E
100
AcDbEntity
  8
0
100
AcDbLine
 10
41.1284
 20
250.6064999999999
 30
0.0
 11
41.7269
 21
250.2454999999999
 31
0.0
  0
LINE
  5
2DE
330
1E
100
AcDbEntity
  8
0
100
AcDbLine
 10
38.2614
 20
259.1685
 30
0.0
 11
39.0176
 21
259.0994999999999
 31
0.0
  0
LINE
  5
2DF
330
1E
100
AcDbEntity
  8
0
100
AcDbLine
 10
39.0176
 20
259.0994999999999
 30
0.0
 11
39.47379999999999
 21
258.6315
 31
0.0
  0
LINE
  5
2E3
330
1E
100
AcDbEntity
  8
0
100
AcDbLine
 10
39.3836
 20
258.0534999999999
 30
0.0
 11
39.47379999999999
 21
258.6315
 31
0.0
  0
LINE
  5
2E4
330
1E
100
AcDbEntity
  8
0
100
AcDbLine
 10
38.7738
 20
257.7035
 30
0.0
 11
39.3836
 21
258.0534999999999
 31
0.0
  0
LINE
  5
2E6
330
1E
100
AcDbEntity
  8
0
100
AcDbLine
 10
40.9305
 20
264.3745
 30
0.0
 11
41.21329999999999
 21
264.9154999999999
 31
0.0
  0
LINE
  5
2E7
330
1E
100
AcDbEntity
  8
0
100
AcDbLine
 10
40.22339999999999
 20
264.1575
 30
0.0
 11
40.9305
 21
264.3745
 31
0.0
  0
LINE
  5
2E8
330
1E
100
AcDbEntity
  8
0
100
AcDbLine
 10
39.5163
 20
264.3745
 30
0.0
 11
40.22339999999999
 21
264.1575
 31
0.0
  0
LINE
  5
2E9
330
1E
100
AcDbEntity
  8
0
100
AcDbLine
 10
39.5163
 20
265.4574999999999
 30
0.0
 11
40.22339999999999
 21
265.6745
 31
0.0
  0
LINE
  5
2EE
330
1E
100
AcDbEntity
  8
0
100
AcDbLine
 10
40.22339999999999
 20
265.6745
 30
0.0
 11
40.9305
 21
265.4574999999999
 31
0.0
  0
LINE
  5
2F1
330
1E
100
AcDbEntity
  8
0
100
AcDbLine
 10
40.9305
 20
265.4574999999999
 30
0.0
 11
41.21329999999999
 21
264.9154999999999
 31
0.0
  0
LINE
  5
2F2
330
1E
100
AcDbEntity
  8
0
100
AcDbLine
 10
39.2334
 20
264.9154999999999
 30
0.0
 11
39.5163
 21
265.4574999999999
 31
0.0
  0
LINE
  5
2F3
330
1E
100
AcDbEntity
  8
0
100
AcDbLine
 10
39.2334
 20
264.9154999999999
 30
0.0
 11
39.5163
 21
264.3745
 31
0.0
  0
LINE
  5
2F6
330
1E
100
AcDbEntity
  8
0
100
AcDbLine
 10
41.4907
 20
251.6415
 30
0.0
 11
42.2445
 21
251.7255
 31
0.0
  0
LINE
  5
2F7
330
1E
100
AcDbEntity
  8
0
100
AcDbLine
 10
42.2445
 20
251.7255
 30
0.0
 11
42.843
 21
251.3644999999999
 31
0.0
  0
LINE
  5
2F9
330
1E
100
AcDbEntity
  8
0
100
AcDbLine
 10
41.0198
 20
251.1835
 30
0.0
 11
41.1284
 21
250.6064999999999
 31
0.0
  0
LINE
  5
2FA
330
1E
100
AcDbEntity
  8
0
100
AcDbLine
 10
41.0198
 20
251.1835
 30
0.0
 11
41.4907
 21
251.6415
 31
0.0
  0
LINE
  5
2FB
330
1E
100
AcDbEntity
  8
0
100
AcDbLine
 10
42.6599
 20
245.3228
 30
0.0
 11
43.4014
 21
245.4562999999999
 31
0.0
  0
LINE
  5
2FC
330
1E
100
AcDbEntity
  8
0
100
AcDbLine
 10
42.4168
 20
244.2665
 30
0.0
 11
43.0541
 21
243.9472
 31
0.0
  0
LINE
  5
2FD
330
1E
100
AcDbEntity
  8
0
100
AcDbLine
 10
42.843
 20
251.3644999999999
 30
0.0
 11
42.9517
 21
250.7864999999999
 31
0.0
  0
LINE
  5
2FE
330
1E
100
AcDbEntity
  8
0
100
AcDbLine
 10
42.4807
 20
250.3284999999999
 30
0.0
 11
42.9517
 21
250.7864999999999
 31
0.0
  0
LINE
  5
2FF
330
1E
100
AcDbEntity
  8
0
100
AcDbLine
 10
48.5
 20
243.1110727272729
 30
0.0
 11
48.5
 21
240.0472
 31
0.0
  0
LINE
  5
300
330
1E
100
AcDbEntity
  8
0
100
AcDbLine
 10
43.4014
 20
245.4562999999999
 30
0.0
 11
44.0386
 21
245.137
 31
0.0
  0
LINE
  5
302
330
1E
100
AcDbEntity
  8
0
100
AcDbLine
 10
44.0386
 20
245.137
 30
0.0
 11
44.21249999999999
 21
244.5683999999999
 31
0.0
  0
LINE
  5
303
330
1E
100
AcDbEntity
  8
0
100
AcDbLine
 10
43.7955
 20
244.0806999999999
 30
0.0
 11
44.21249999999999
 21
244.5683999999999
 31
0.0
  0
LINE
  5
304
330
1E
100
AcDbEntity
  8
0
100
AcDbLine
 10
43.0541
 20
243.9472
 30
0.0
 11
43.7955
 21
244.0806999999999
 31
0.0
  0
LINE
  5
306
330
1E
100
AcDbEntity
  8
0
100
AcDbLine
 10
45.8386
 20
255.5915
 30
0.0
 11
46.58
 21
255.7255
 31
0.0
  0
LINE
  5
307
330
1E
100
AcDbEntity
  8
0
100
AcDbLine
 10
45.4444
 20
256.9674999999999
 30
0.0
 11
46.1859
 21
257.1004999999999
 31
0.0
  0
LINE
  5
308
330
1E
100
AcDbEntity
  8
0
100
AcDbLine
 10
45.2013
 20
255.9114999999999
 30
0.0
 11
45.8386
 21
255.5915
 31
0.0
  0
LINE
  5
309
330
1E
100
AcDbEntity
  8
0
100
AcDbLine
 10
45.0274
 20
256.4785
 30
0.0
 11
45.2013
 21
255.9114999999999
 31
0.0
  0
LINE
  5
30A
330
1E
100
AcDbEntity
  8
0
100
AcDbLine
 10
45.0274
 20
256.4785
 30
0.0
 11
45.4444
 21
256.9674999999999
 31
0.0
  0
LINE
  5
30D
330
1E
100
AcDbEntity
  8
0
100
AcDbLine
 10
46.305
 20
250.3334999999999
 30
0.0
 11
46.5429
 21
249.7794999999999
 31
0.0
  0
LINE
  5
30F
330
1E
100
AcDbEntity
  8
0
100
AcDbLine
 10
46.305
 20
250.3334999999999
 30
0.0
 11
46.6649
 21
250.8475
 31
0.0
  0
LINE
  5
311
330
1E
100
AcDbEntity
  8
0
100
AcDbLine
 10
46.5429
 20
249.7794999999999
 30
0.0
 11
47.2141
 21
249.5045
 31
0.0
  0
LINE
  5
313
330
1E
100
AcDbEntity
  8
0
100
AcDbLine
 10
46.1859
 20
257.1004999999999
 30
0.0
 11
46.8231
 21
256.7814999999999
 31
0.0
  0
LINE
  5
316
330
1E
100
AcDbEntity
  8
0
100
AcDbLine
 10
46.6649
 20
250.8475
 30
0.0
 11
47.38839999999999
 21
251.0295
 31
0.0
  0
LINE
  5
318
330
1E
100
AcDbEntity
  8
0
100
AcDbLine
 10
46.8231
 20
256.7814999999999
 30
0.0
 11
46.99699999999999
 21
256.2124999999999
 31
0.0
  0
LINE
  5
319
330
1E
100
AcDbEntity
  8
0
100
AcDbLine
 10
46.58
 20
255.7255
 30
0.0
 11
46.99699999999999
 21
256.2124999999999
 31
0.0
  0
LINE
  5
31A
330
1E
100
AcDbEntity
  8
0
100
AcDbLine
 10
45.9295
 20
262.4105
 30
0.0
 11
46.4973
 21
262.7984999999999
 31
0.0
  0
LINE
  5
31B
330
1E
100
AcDbEntity
  8
0
100
AcDbLine
 10
46.4973
 20
262.7984999999999
 30
0.0
 11
47.2585
 21
262.7805
 31
0.0
  0
LINE
  5
31C
330
1E
100
AcDbEntity
  8
0
100
AcDbLine
 10
46.4132
 20
261.3925
 30
0.0
 11
47.17439999999999
 21
261.3734999999999
 31
0.0
  0
LINE
  5
31D
330
1E
100
AcDbEntity
  8
0
100
AcDbLine
 10
45.90559999999999
 20
261.8265
 30
0.0
 11
45.9295
 21
262.4105
 31
0.0
  0
LINE
  5
31E
330
1E
100
AcDbEntity
  8
0
100
AcDbLine
 10
45.90559999999999
 20
261.8265
 30
0.0
 11
46.4132
 21
261.3925
 31
0.0
  0
LINE
  5
320
330
1E
100
AcDbEntity
  8
0
100
AcDbLine
 10
45.02909999999999
 20
269.9135
 30
0.0
 11
45.3725
 21
270.4344999999999
 31
0.0
  0
LINE
  5
321
330
1E
100
AcDbEntity
  8
0
100
AcDbLine
 10
44.29999999999999
 20
269.7455
 30
0.0
 11
45.02909999999999
 21
269.9135
 31
0.0
  0
LINE
  5
322
330
1E
100
AcDbEntity
  8
0
100
AcDbLine
 10
43.62029999999999
 20
270.0085
 30
0.0
 11
44.29999999999999
 21
269.7455
 31
0.0
  0
LINE
  5
324
330
1E
100
AcDbEntity
  8
0
100
AcDbLine
 10
43.74349999999999
 20
271.0874999999999
 30
0.0
 11
44.47259999999999
 21
271.2555
 31
0.0
  0
LINE
  5
327
330
1E
100
AcDbEntity
  8
0
100
AcDbLine
 10
44.47259999999999
 20
271.2555
 30
0.0
 11
45.1524
 21
270.9925
 31
0.0
  0
LINE
  5
329
330
1E
100
AcDbEntity
  8
0
100
AcDbLine
 10
45.1524
 20
270.9925
 30
0.0
 11
45.3725
 21
270.4344999999999
 31
0.0
  0
LINE
  5
32B
330
1E
100
AcDbEntity
  8
0
100
AcDbLine
 10
43.4001
 20
270.5665
 30
0.0
 11
43.74349999999999
 21
271.0874999999999
 31
0.0
  0
LINE
  5
32C
330
1E
100
AcDbEntity
  8
0
100
AcDbLine
 10
43.4001
 20
270.5665
 30
0.0
 11
43.62029999999999
 21
270.0085
 31
0.0
  0
LINE
  5
32F
330
1E
100
AcDbEntity
  8
0
100
AcDbLine
 10
47.2141
 20
249.5045
 30
0.0
 11
47.9376
 21
249.6865
 31
0.0
  0
LINE
  5
330
330
1E
100
AcDbEntity
  8
0
100
AcDbLine
 10
47.38839999999999
 20
251.0295
 30
0.0
 11
48.0596
 21
250.7544999999999
 31
0.0
  0
LINE
  5
335
330
1E
100
AcDbEntity
  8
0
100
AcDbLine
 10
47.2585
 20
262.7805
 30
0.0
 11
47.7661
 21
262.3455
 31
0.0
  0
LINE
  5
336
330
1E
100
AcDbEntity
  8
0
100
AcDbLine
 10
47.17439999999999
 20
261.3734999999999
 30
0.0
 11
47.7421
 21
261.7624999999999
 31
0.0
  0
LINE
  5
337
330
1E
100
AcDbEntity
  8
0
100
AcDbLine
 10
48.0596
 20
250.7544999999999
 30
0.0
 11
48.29740000000001
 21
250.2005
 31
0.0
  0
LINE
  5
338
330
1E
100
AcDbEntity
  8
0
100
AcDbLine
 10
47.9376
 20
249.6865
 30
0.0
 11
48.29740000000001
 21
250.2005
 31
0.0
  0
LINE
  5
33B
330
1E
100
AcDbEntity
  8
0
100
AcDbLine
 10
47.7421
 20
261.7624999999999
 30
0.0
 11
47.7661
 21
262.3455
 31
0.0
  0
LINE
  5
33C
330
1E
100
AcDbEntity
  8
0
100
AcDbLine
 10
48.4097
 20
267.5645
 30
0.0
 11
48.8267
 21
268.0514999999999
 31
0.0
  0
LINE
  5
33D
330
1E
100
AcDbEntity
  8
0
100
AcDbLine
 10
47.6682
 20
267.4304999999999
 30
0.0
 11
48.4097
 21
267.5645
 31
0.0
  0
LINE
  5
33E
330
1E
100
AcDbEntity
  8
0
100
AcDbLine
 10
47.27399999999999
 20
268.8065
 30
0.0
 11
48.0155
 21
268.9395
 31
0.0
  0
LINE
  5
33F
330
1E
100
AcDbEntity
  8
0
100
AcDbLine
 10
48.0155
 20
268.9395
 30
0.0
 11
48.6528
 21
268.6205
 31
0.0
  0
LINE
  5
340
330
1E
100
AcDbEntity
  8
0
100
AcDbLine
 10
48.6528
 20
268.6205
 30
0.0
 11
48.8267
 21
268.0514999999999
 31
0.0
  0
LINE
  5
341
330
1E
100
AcDbEntity
  8
0
100
AcDbLine
 10
47.0309
 20
267.7494999999999
 30
0.0
 11
47.6682
 21
267.4304999999999
 31
0.0
  0
LINE
  5
342
330
1E
100
AcDbEntity
  8
0
100
AcDbLine
 10
46.85699999999999
 20
268.3174999999999
 30
0.0
 11
47.0309
 21
267.7494999999999
 31
0.0
  0
LINE
  5
343
330
1E
100
AcDbEntity
  8
0
100
AcDbLine
 10
46.85699999999999
 20
268.3174999999999
 30
0.0
 11
47.27399999999999
 21
268.8065
 31
0.0
  0
LINE
  5
346
330
1E
100
AcDbEntity
  8
0
100
AcDbLine
 10
49.29999999999999
 20
244.7843999999999
 30
0.0
 11
50.0
 21
245.0142
 31
0.0
  0
LINE
  5
347
330
1E
100
AcDbEntity
  8
0
100
AcDbLine
 10
49.0
 20
244.2477
 30
0.0
 11
49.29999999999999
 21
243.712
 31
0.0
  0
LINE
  5
349
330
1E
100
AcDbEntity
  8
0
100
AcDbLine
 10
49.0
 20
244.2477
 30
0.0
 11
49.29999999999999
 21
244.7843999999999
 31
0.0
  0
LINE
  5
34B
330
1E
100
AcDbEntity
  8
0
100
AcDbLine
 10
49.29999999999999
 20
243.712
 30
0.0
 11
50.0
 21
243.4813
 31
0.0
  0
LINE
  5
34D
330
1E
100
AcDbEntity
  8
0
100
AcDbLine
 10
43.0
 20
272.6034999999999
 30
0.0
 11
43.7
 21
272.8335
 31
0.0
  0
LINE
  5
34E
330
1E
100
AcDbEntity
  8
0
100
AcDbLine
 10
43.7
 20
272.8335
 30
0.0
 11
44.0
 21
273.3695
 31
0.0
  0
LINE
  5
34F
330
1E
100
AcDbEntity
  8
0
100
AcDbLine
 10
42.29999999999999
 20
272.8335
 30
0.0
 11
43.0
 21
272.6034999999999
 31
0.0
  0
LINE
  5
353
330
1E
100
AcDbEntity
  8
0
100
AcDbLine
 10
42.0
 20
273.3695
 30
0.0
 11
42.29999999999999
 21
272.8335
 31
0.0
  0
LINE
  5
354
330
1E
100
AcDbEntity
  8
0
100
AcDbLine
 10
42.0
 20
273.3695
 30
0.0
 11
42.29999999999999
 21
273.9055
 31
0.0
  0
LINE
  5
356
330
1E
100
AcDbEntity
  8
0
100
AcDbLine
 10
38.2614
 20
288.1734999999999
 30
0.0
 11
39.0176
 21
288.2424999999999
 31
0.0
  0
LINE
  5
357
330
1E
100
AcDbEntity
  8
0
100
AcDbLine
 10
39.0176
 20
288.2424999999999
 30
0.0
 11
39.47379999999999
 21
288.7095
 31
0.0
  0
LINE
  5
358
330
1E
100
AcDbEntity
  8
0
100
AcDbLine
 10
38.7738
 20
289.6385
 30
0.0
 11
39.3836
 21
289.2894999999999
 31
0.0
  0
LINE
  5
35A
330
1E
100
AcDbEntity
  8
0
100
AcDbLine
 10
39.5163
 20
281.5675
 30
0.0
 11
40.22339999999999
 21
281.3505
 31
0.0
  0
LINE
  5
35B
330
1E
100
AcDbEntity
  8
0
100
AcDbLine
 10
40.22339999999999
 20
281.3505
 30
0.0
 11
40.9305
 21
281.5675
 31
0.0
  0
LINE
  5
35C
330
1E
100
AcDbEntity
  8
0
100
AcDbLine
 10
40.9305
 20
281.5675
 30
0.0
 11
41.21329999999999
 21
282.1095
 31
0.0
  0
LINE
  5
35D
330
1E
100
AcDbEntity
  8
0
100
AcDbLine
 10
43.0
 20
274.1354999999999
 30
0.0
 11
43.7
 21
273.9055
 31
0.0
  0
LINE
  5
35E
330
1E
100
AcDbEntity
  8
0
100
AcDbLine
 10
42.29999999999999
 20
273.9055
 30
0.0
 11
43.0
 21
274.1354999999999
 31
0.0
  0
LINE
  5
360
330
1E
100
AcDbEntity
  8
0
100
AcDbLine
 10
43.7
 20
273.9055
 30
0.0
 11
44.0
 21
273.3695
 31
0.0
  0
LINE
  5
361
330
1E
100
AcDbEntity
  8
0
100
AcDbLine
 10
43.74349999999999
 20
275.6514999999999
 30
0.0
 11
44.47259999999999
 21
275.4825
 31
0.0
  0
LINE
  5
362
330
1E
100
AcDbEntity
  8
0
100
AcDbLine
 10
44.47259999999999
 20
275.4825
 30
0.0
 11
45.1524
 21
275.7454999999999
 31
0.0
  0
LINE
  5
363
330
1E
100
AcDbEntity
  8
0
100
AcDbLine
 10
45.1524
 20
275.7454999999999
 30
0.0
 11
45.3725
 21
276.3045
 31
0.0
  0
LINE
  5
365
330
1E
100
AcDbEntity
  8
0
100
AcDbLine
 10
45.02909999999999
 20
276.8254999999999
 30
0.0
 11
45.3725
 21
276.3045
 31
0.0
  0
LINE
  5
367
330
1E
100
AcDbEntity
  8
0
100
AcDbLine
 10
44.29999999999999
 20
276.9934999999999
 30
0.0
 11
45.02909999999999
 21
276.8254999999999
 31
0.0
  0
LINE
  5
368
330
1E
100
AcDbEntity
  8
0
100
AcDbLine
 10
43.62029999999999
 20
276.7304999999999
 30
0.0
 11
44.29999999999999
 21
276.9934999999999
 31
0.0
  0
LINE
  5
369
330
1E
100
AcDbEntity
  8
0
100
AcDbLine
 10
43.4001
 20
276.1725
 30
0.0
 11
43.74349999999999
 21
275.6514999999999
 31
0.0
  0
LINE
  5
36A
330
1E
100
AcDbEntity
  8
0
100
AcDbLine
 10
43.4001
 20
276.1725
 30
0.0
 11
43.62029999999999
 21
276.7304999999999
 31
0.0
  0
LINE
  5
36D
330
1E
100
AcDbEntity
  8
0
100
AcDbLine
 10
40.9305
 20
282.6505
 30
0.0
 11
41.21329999999999
 21
282.1095
 31
0.0
  0
LINE
  5
372
330
1E
100
AcDbEntity
  8
0
100
AcDbLine
 10
39.3836
 20
289.2894999999999
 30
0.0
 11
39.47379999999999
 21
288.7095
 31
0.0
  0
LINE
  5
376
330
1E
100
AcDbEntity
  8
0
100
AcDbLine
 10
45.9295
 20
284.6154999999999
 30
0.0
 11
46.4973
 21
284.2264999999999
 31
0.0
  0
LINE
  5
377
330
1E
100
AcDbEntity
  8
0
100
AcDbLine
 10
46.4973
 20
284.2264999999999
 30
0.0
 11
47.2585
 21
284.2445
 31
0.0
  0
LINE
  5
378
330
1E
100
AcDbEntity
  8
0
100
AcDbLine
 10
46.4132
 20
285.6325
 30
0.0
 11
47.17439999999999
 21
285.6514999999999
 31
0.0
  0
LINE
  5
379
330
1E
100
AcDbEntity
  8
0
100
AcDbLine
 10
45.90559999999999
 20
285.1985
 30
0.0
 11
45.9295
 21
284.6154999999999
 31
0.0
  0
LINE
  5
37A
330
1E
100
AcDbEntity
  8
0
100
AcDbLine
 10
45.90559999999999
 20
285.1985
 30
0.0
 11
46.4132
 21
285.6325
 31
0.0
  0
LINE
  5
37D
330
1E
100
AcDbEntity
  8
0
100
AcDbLine
 10
40.22339999999999
 20
282.8684999999999
 30
0.0
 11
40.9305
 21
282.6505
 31
0.0
  0
LINE
  5
37F
330
1E
100
AcDbEntity
  8
0
100
AcDbLine
 10
39.5163
 20
282.6505
 30
0.0
 11
40.22339999999999
 21
282.8684999999999
 31
0.0
  0
LINE
  5
381
330
1E
100
AcDbEntity
  8
0
100
AcDbLine
 10
39.2334
 20
282.1095
 30
0.0
 11
39.5163
 21
281.5675
 31
0.0
  0
LINE
  5
382
330
1E
100
AcDbEntity
  8
0
100
AcDbLine
 10
39.2334
 20
282.1095
 30
0.0
 11
39.5163
 21
282.6505
 31
0.0
  0
LINE
  5
384
330
1E
100
AcDbEntity
  8
0
100
AcDbLine
 10
45.4444
 20
290.3745
 30
0.0
 11
46.1859
 21
290.2414999999999
 31
0.0
  0
LINE
  5
385
330
1E
100
AcDbEntity
  8
0
100
AcDbLine
 10
46.1859
 20
290.2414999999999
 30
0.0
 11
46.8231
 21
290.5604999999999
 31
0.0
  0
LINE
  5
386
330
1E
100
AcDbEntity
  8
0
100
AcDbLine
 10
47.27399999999999
 20
277.9334999999999
 30
0.0
 11
48.0155
 21
277.7995
 31
0.0
  0
LINE
  5
387
330
1E
100
AcDbEntity
  8
0
100
AcDbLine
 10
48.0155
 20
277.7995
 30
0.0
 11
48.6528
 21
278.1195
 31
0.0
  0
LINE
  5
388
330
1E
100
AcDbEntity
  8
0
100
AcDbLine
 10
48.6528
 20
278.1195
 30
0.0
 11
48.8267
 21
278.6865
 31
0.0
  0
LINE
  5
389
330
1E
100
AcDbEntity
  8
0
100
AcDbLine
 10
48.4097
 20
279.1755
 30
0.0
 11
48.8267
 21
278.6865
 31
0.0
  0
LINE
  5
38C
330
1E
100
AcDbEntity
  8
0
100
AcDbLine
 10
47.2585
 20
284.2445
 30
0.0
 11
47.7661
 21
284.6795
 31
0.0
  0
LINE
  5
38F
330
1E
100
AcDbEntity
  8
0
100
AcDbLine
 10
47.7421
 20
285.2624999999999
 30
0.0
 11
47.7661
 21
284.6795
 31
0.0
  0
LINE
  5
391
330
1E
100
AcDbEntity
  8
0
100
AcDbLine
 10
47.17439999999999
 20
285.6514999999999
 30
0.0
 11
47.7421
 21
285.2624999999999
 31
0.0
  0
LINE
  5
393
330
1E
100
AcDbEntity
  8
0
100
AcDbLine
 10
47.6682
 20
279.3074999999999
 30
0.0
 11
48.4097
 21
279.1755
 31
0.0
  0
LINE
  5
394
330
1E
100
AcDbEntity
  8
0
100
AcDbLine
 10
47.0309
 20
278.9884999999999
 30
0.0
 11
47.6682
 21
279.3074999999999
 31
0.0
  0
LINE
  5
395
330
1E
100
AcDbEntity
  8
0
100
AcDbLine
 10
46.85699999999999
 20
278.4214999999999
 30
0.0
 11
47.0309
 21
278.9884999999999
 31
0.0
  0
LINE
  5
396
330
1E
100
AcDbEntity
  8
0
100
AcDbLine
 10
46.85699999999999
 20
278.4214999999999
 30
0.0
 11
47.27399999999999
 21
277.9334999999999
 31
0.0
  0
LINE
  5
397
330
1E
100
AcDbEntity
  8
0
100
AcDbLine
 10
46.8231
 20
290.5604999999999
 30
0.0
 11
46.99699999999999
 21
291.1284999999999
 31
0.0
  0
LINE
  5
398
330
1E
100
AcDbEntity
  8
0
100
AcDbLine
 10
46.58
 20
291.6174999999999
 30
0.0
 11
46.99699999999999
 21
291.1284999999999
 31
0.0
  0
LINE
  5
399
330
1E
100
AcDbEntity
  8
0
100
AcDbLine
 10
45.2013
 20
291.4305
 30
0.0
 11
45.8386
 21
291.7504999999999
 31
0.0
  0
LINE
  5
39A
330
1E
100
AcDbEntity
  8
0
100
AcDbLine
 10
45.0274
 20
290.8625
 30
0.0
 11
45.2013
 21
291.4305
 31
0.0
  0
LINE
  5
39B
330
1E
100
AcDbEntity
  8
0
100
AcDbLine
 10
45.0274
 20
290.8625
 30
0.0
 11
45.4444
 21
290.3745
 31
0.0
  0
LINE
  5
39E
330
1E
100
AcDbEntity
  8
0
100
AcDbLine
 10
49.29999999999999
 20
273.7765
 30
0.0
 11
50.0
 21
274.0065
 31
0.0
  0
LINE
  5
3A0
330
1E
100
AcDbEntity
  8
0
100
AcDbLine
 10
49.0
 20
273.2414999999999
 30
0.0
 11
49.29999999999999
 21
272.7044999999999
 31
0.0
  0
LINE
  5
3A1
330
1E
100
AcDbEntity
  8
0
100
AcDbLine
 10
49.0
 20
273.2414999999999
 30
0.0
 11
49.29999999999999
 21
273.7765
 31
0.0
  0
LINE
  5
3A3
330
1E
100
AcDbEntity
  8
0
100
AcDbLine
 10
50.0
 20
243.4813
 30
0.0
 11
50.7
 21
243.712
 31
0.0
  0
LINE
  5
3A6
330
1E
100
AcDbEntity
  8
0
100
AcDbLine
 10
50.0
 20
245.0142
 30
0.0
 11
50.7
 21
244.7843999999999
 31
0.0
  0
LINE
  5
3AC
330
1E
100
AcDbEntity
  8
0
100
AcDbLine
 10
50.7
 20
244.7843999999999
 30
0.0
 11
51.0
 21
244.2477
 31
0.0
  0
LINE
  5
3AD
330
1E
100
AcDbEntity
  8
0
100
AcDbLine
 10
50.7
 20
243.712
 30
0.0
 11
51.0
 21
244.2477
 31
0.0
  0
LINE
  5
3AE
330
1E
100
AcDbEntity
  8
0
100
AcDbLine
 10
50.0
 20
272.4744999999999
 30
0.0
 11
50.7
 21
272.7044999999999
 31
0.0
  0
LINE
  5
3AF
330
1E
100
AcDbEntity
  8
0
100
AcDbLine
 10
50.7
 20
272.7044999999999
 30
0.0
 11
51.0
 21
273.2414999999999
 31
0.0
  0
LINE
  5
3B0
330
1E
100
AcDbEntity
  8
0
100
AcDbLine
 10
51.5
 20
243.1110727272729
 30
0.0
 11
51.5
 21
240.0472
 31
0.0
  0
LINE
  5
3B1
330
1E
100
AcDbEntity
  8
0
100
AcDbLine
 10
55.9614
 20
245.137
 30
0.0
 11
56.5986
 21
245.4562999999999
 31
0.0
  0
LINE
  5
3B2
330
1E
100
AcDbEntity
  8
0
100
AcDbLine
 10
55.7875
 20
244.5683999999999
 30
0.0
 11
56.2045
 21
244.0806999999999
 31
0.0
  0
LINE
  5
3B3
330
1E
100
AcDbEntity
  8
0
100
AcDbLine
 10
55.7875
 20
244.5683999999999
 30
0.0
 11
55.9614
 21
245.137
 31
0.0
  0
LINE
  5
3B5
330
1E
100
AcDbEntity
  8
0
100
AcDbLine
 10
56.5986
 20
245.4562999999999
 30
0.0
 11
57.3401
 21
245.3228
 31
0.0
  0
LINE
  5
3B6
330
1E
100
AcDbEntity
  8
0
100
AcDbLine
 10
56.2045
 20
244.0806999999999
 30
0.0
 11
56.9459
 21
243.9472
 31
0.0
  0
LINE
  5
3B7
330
1E
100
AcDbEntity
  8
0
100
AcDbLine
 10
56.9459
 20
243.9472
 30
0.0
 11
57.5832
 21
244.2665
 31
0.0
  0
LINE
  5
3BA
330
1E
100
AcDbEntity
  8
0
100
AcDbLine
 10
52.6116
 20
251.0295
 30
0.0
 11
53.3351
 21
250.8475
 31
0.0
  0
LINE
  5
3BC
330
1E
100
AcDbEntity
  8
0
100
AcDbLine
 10
51.9404
 20
250.7544999999999
 30
0.0
 11
52.6116
 21
251.0295
 31
0.0
  0
LINE
  5
3BD
330
1E
100
AcDbEntity
  8
0
100
AcDbLine
 10
51.70259999999999
 20
250.2005
 30
0.0
 11
52.0624
 21
249.6865
 31
0.0
  0
LINE
  5
3BF
330
1E
100
AcDbEntity
  8
0
100
AcDbLine
 10
51.70259999999999
 20
250.2005
 30
0.0
 11
51.9404
 21
250.7544999999999
 31
0.0
  0
LINE
  5
3C0
330
1E
100
AcDbEntity
  8
0
100
AcDbLine
 10
52.0624
 20
249.6865
 30
0.0
 11
52.7859
 21
249.5045
 31
0.0
  0
LINE
  5
3C2
330
1E
100
AcDbEntity
  8
0
100
AcDbLine
 10
52.7859
 20
249.5045
 30
0.0
 11
53.4571
 21
249.7794999999999
 31
0.0
  0
LINE
  5
3C7
330
1E
100
AcDbEntity
  8
0
100
AcDbLine
 10
52.86229999999999
 20
262.4905
 30
0.0
 11
52.8863
 21
261.9064999999999
 31
0.0
  0
LINE
  5
3C8
330
1E
100
AcDbEntity
  8
0
100
AcDbLine
 10
52.86229999999999
 20
262.4905
 30
0.0
 11
53.36999999999999
 21
262.9255
 31
0.0
  0
LINE
  5
3CA
330
1E
100
AcDbEntity
  8
0
100
AcDbLine
 10
53.3351
 20
250.8475
 30
0.0
 11
53.695
 21
250.3334999999999
 31
0.0
  0
LINE
  5
3CC
330
1E
100
AcDbEntity
  8
0
100
AcDbLine
 10
53.1769
 20
256.7814999999999
 30
0.0
 11
53.8141
 21
257.1004999999999
 31
0.0
  0
LINE
  5
3CD
330
1E
100
AcDbEntity
  8
0
100
AcDbLine
 10
53.003
 20
256.2124999999999
 30
0.0
 11
53.42
 21
255.7255
 31
0.0
  0
LINE
  5
3CE
330
1E
100
AcDbEntity
  8
0
100
AcDbLine
 10
53.003
 20
256.2124999999999
 30
0.0
 11
53.1769
 21
256.7814999999999
 31
0.0
  0
LINE
  5
3CF
330
1E
100
AcDbEntity
  8
0
100
AcDbLine
 10
53.36999999999999
 20
262.9255
 30
0.0
 11
54.1312
 21
262.9434999999999
 31
0.0
  0
LINE
  5
3D0
330
1E
100
AcDbEntity
  8
0
100
AcDbLine
 10
52.8863
 20
261.9064999999999
 30
0.0
 11
53.45399999999999
 21
261.5185
 31
0.0
  0
LINE
  5
3D2
330
1E
100
AcDbEntity
  8
0
100
AcDbLine
 10
51.7871
 20
268.8614999999999
 30
0.0
 11
52.4244
 21
269.1805
 31
0.0
  0
LINE
  5
3D3
330
1E
100
AcDbEntity
  8
0
100
AcDbLine
 10
51.61319999999999
 20
268.2935
 30
0.0
 11
52.0302
 21
267.8045
 31
0.0
  0
LINE
  5
3D4
330
1E
100
AcDbEntity
  8
0
100
AcDbLine
 10
51.61319999999999
 20
268.2935
 30
0.0
 11
51.7871
 21
268.8614999999999
 31
0.0
  0
LINE
  5
3D6
330
1E
100
AcDbEntity
  8
0
100
AcDbLine
 10
53.1658
 20
269.0464999999999
 30
0.0
 11
53.5828
 21
268.5595
 31
0.0
  0
LINE
  5
3D9
330
1E
100
AcDbEntity
  8
0
100
AcDbLine
 10
52.4244
 20
269.1805
 30
0.0
 11
53.1658
 21
269.0464999999999
 31
0.0
  0
LINE
  5
3DA
330
1E
100
AcDbEntity
  8
0
100
AcDbLine
 10
52.0302
 20
267.8045
 30
0.0
 11
52.7717
 21
267.6714999999999
 31
0.0
  0
LINE
  5
3DB
330
1E
100
AcDbEntity
  8
0
100
AcDbLine
 10
52.7717
 20
267.6714999999999
 30
0.0
 11
53.409
 21
267.9905
 31
0.0
  0
LINE
  5
3DC
330
1E
100
AcDbEntity
  8
0
100
AcDbLine
 10
53.4571
 20
249.7794999999999
 30
0.0
 11
53.695
 21
250.3334999999999
 31
0.0
  0
LINE
  5
3DD
330
1E
100
AcDbEntity
  8
0
100
AcDbLine
 10
53.42
 20
255.7255
 30
0.0
 11
54.1614
 21
255.5915
 31
0.0
  0
LINE
  5
3DE
330
1E
100
AcDbEntity
  8
0
100
AcDbLine
 10
53.45399999999999
 20
261.5185
 30
0.0
 11
54.21520000000001
 21
261.5365
 31
0.0
  0
LINE
  5
3E1
330
1E
100
AcDbEntity
  8
0
100
AcDbLine
 10
53.8141
 20
257.1004999999999
 30
0.0
 11
54.5556
 21
256.9674999999999
 31
0.0
  0
LINE
  5
3E2
330
1E
100
AcDbEntity
  8
0
100
AcDbLine
 10
54.1614
 20
255.5915
 30
0.0
 11
54.7987
 21
255.9114999999999
 31
0.0
  0
LINE
  5
3E4
330
1E
100
AcDbEntity
  8
0
100
AcDbLine
 10
54.5556
 20
256.9674999999999
 30
0.0
 11
54.9726
 21
256.4785
 31
0.0
  0
LINE
  5
3E5
330
1E
100
AcDbEntity
  8
0
100
AcDbLine
 10
54.7987
 20
255.9114999999999
 30
0.0
 11
54.9726
 21
256.4785
 31
0.0
  0
LINE
  5
3E6
330
1E
100
AcDbEntity
  8
0
100
AcDbLine
 10
54.21520000000001
 20
261.5365
 30
0.0
 11
54.7228
 21
261.9705
 31
0.0
  0
LINE
  5
3E7
330
1E
100
AcDbEntity
  8
0
100
AcDbLine
 10
54.1312
 20
262.9434999999999
 30
0.0
 11
54.6989
 21
262.5545
 31
0.0
  0
LINE
  5
3E8
330
1E
100
AcDbEntity
  8
0
100
AcDbLine
 10
54.6989
 20
262.5545
 30
0.0
 11
54.7228
 21
261.9705
 31
0.0
  0
LINE
  5
3EB
330
1E
100
AcDbEntity
  8
0
100
AcDbLine
 10
54.8476
 20
270.9925
 30
0.0
 11
55.5274
 21
271.2555
 31
0.0
  0
LINE
  5
3ED
330
1E
100
AcDbEntity
  8
0
100
AcDbLine
 10
54.62749999999999
 20
270.4344999999999
 30
0.0
 11
54.9709
 21
269.9135
 31
0.0
  0
LINE
  5
3EE
330
1E
100
AcDbEntity
  8
0
100
AcDbLine
 10
54.62749999999999
 20
270.4344999999999
 30
0.0
 11
54.8476
 21
270.9925
 31
0.0
  0
LINE
  5
3F0
330
1E
100
AcDbEntity
  8
0
100
AcDbLine
 10
55.5274
 20
271.2555
 30
0.0
 11
56.2565
 21
271.0874999999999
 31
0.0
  0
LINE
  5
3F2
330
1E
100
AcDbEntity
  8
0
100
AcDbLine
 10
54.9709
 20
269.9135
 30
0.0
 11
55.7
 21
269.7455
 31
0.0
  0
LINE
  5
3F3
330
1E
100
AcDbEntity
  8
0
100
AcDbLine
 10
55.7
 20
269.7455
 30
0.0
 11
56.3797
 21
270.0085
 31
0.0
  0
LINE
  5
3F6
330
1E
100
AcDbEntity
  8
0
100
AcDbLine
 10
56.3797
 20
270.0085
 30
0.0
 11
56.5999
 21
270.5665
 31
0.0
  0
LINE
  5
3F7
330
1E
100
AcDbEntity
  8
0
100
AcDbLine
 10
56.2565
 20
271.0874999999999
 30
0.0
 11
56.5999
 21
270.5665
 31
0.0
  0
LINE
  5
3F9
330
1E
100
AcDbEntity
  8
0
100
AcDbLine
 10
53.409
 20
267.9905
 30
0.0
 11
53.5828
 21
268.5595
 31
0.0
  0
LINE
  5
3FB
330
1E
100
AcDbEntity
  8
0
100
AcDbLine
 10
57.3401
 20
245.3228
 30
0.0
 11
57.7571
 21
244.8351
 31
0.0
  0
LINE
  5
3FE
330
1E
100
AcDbEntity
  8
0
100
AcDbLine
 10
57.5832
 20
244.2665
 30
0.0
 11
57.7571
 21
244.8351
 31
0.0
  0
LINE
  5
3FF
330
1E
100
AcDbEntity
  8
0
100
AcDbLine
 10
57.5193
 20
250.3284999999999
 30
0.0
 11
58.2731
 21
250.2454999999999
 31
0.0
  0
LINE
  5
400
330
1E
100
AcDbEntity
  8
0
100
AcDbLine
 10
62.3
 20
240.987
 30
0.0
 11
73.9
 21
244.5876
 31
0.0
  0
LINE
  5
401
330
1E
100
AcDbEntity
  8
0
100
AcDbLine
 10
62.9204
 20
245.3617
 30
0.0
 11
63.68079999999999
 21
245.3295
 31
0.0
  0
LINE
  5
402
330
1E
100
AcDbEntity
  8
0
100
AcDbLine
 10
63.68079999999999
 20
245.3295
 30
0.0
 11
64.236
 21
245.7289
 31
0.0
  0
LINE
  5
406
330
1E
100
AcDbEntity
  8
0
100
AcDbLine
 10
63.7572
 20
246.7370999999999
 30
0.0
 11
64.27849999999999
 21
246.3112
 31
0.0
  0
LINE
  5
407
330
1E
100
AcDbEntity
  8
0
100
AcDbLine
 10
62.9968
 20
246.7691999999999
 30
0.0
 11
63.7572
 21
246.7370999999999
 31
0.0
  0
LINE
  5
408
330
1E
100
AcDbEntity
  8
0
100
AcDbLine
 10
62.4416
 20
246.3699
 30
0.0
 11
62.9968
 21
246.7691999999999
 31
0.0
  0
LINE
  5
409
330
1E
100
AcDbEntity
  8
0
100
AcDbLine
 10
62.3991
 20
245.7876
 30
0.0
 11
62.9204
 21
245.3617
 31
0.0
  0
LINE
  5
40A
330
1E
100
AcDbEntity
  8
0
100
AcDbLine
 10
62.3991
 20
245.7876
 30
0.0
 11
62.4416
 21
246.3699
 31
0.0
  0
LINE
  5
40C
330
1E
100
AcDbEntity
  8
0
100
AcDbLine
 10
64.236
 20
245.7289
 30
0.0
 11
64.27849999999999
 21
246.3112
 31
0.0
  0
LINE
  5
40D
330
1E
100
AcDbEntity
  8
0
100
AcDbLine
 10
58.2731
 20
250.2454999999999
 30
0.0
 11
58.8716
 21
250.6064999999999
 31
0.0
  0
LINE
  5
40F
330
1E
100
AcDbEntity
  8
0
100
AcDbLine
 10
58.3783
 20
263.9405
 30
0.0
 11
59.0854
 21
263.7244999999999
 31
0.0
  0
LINE
  5
410
330
1E
100
AcDbEntity
  8
0
100
AcDbLine
 10
59.0854
 20
263.7244999999999
 30
0.0
 11
59.7925
 21
263.9405
 31
0.0
  0
LINE
  5
412
330
1E
100
AcDbEntity
  8
0
100
AcDbLine
 10
59.0854
 20
265.2404999999999
 30
0.0
 11
59.7925
 21
265.0235
 31
0.0
  0
LINE
  5
413
330
1E
100
AcDbEntity
  8
0
100
AcDbLine
 10
58.3783
 20
265.0235
 30
0.0
 11
59.0854
 21
265.2404999999999
 31
0.0
  0
LINE
  5
415
330
1E
100
AcDbEntity
  8
0
100
AcDbLine
 10
58.0954
 20
264.4825
 30
0.0
 11
58.3783
 21
263.9405
 31
0.0
  0
LINE
  5
416
330
1E
100
AcDbEntity
  8
0
100
AcDbLine
 10
58.0954
 20
264.4825
 30
0.0
 11
58.3783
 21
265.0235
 31
0.0
  0
LINE
  5
417
330
1E
100
AcDbEntity
  8
0
100
AcDbLine
 10
59.7925
 20
263.9405
 30
0.0
 11
60.0753
 21
264.4825
 31
0.0
  0
LINE
  5
418
330
1E
100
AcDbEntity
  8
0
100
AcDbLine
 10
62.15600000000001
 20
252.6585
 30
0.0
 11
62.17999999999999
 21
252.0755
 31
0.0
  0
LINE
  5
419
330
1E
100
AcDbEntity
  8
0
100
AcDbLine
 10
62.15600000000001
 20
252.6585
 30
0.0
 11
62.6637
 21
253.0934999999999
 31
0.0
  0
LINE
  5
41A
330
1E
100
AcDbEntity
  8
0
100
AcDbLine
 10
62.17999999999999
 20
252.0755
 30
0.0
 11
62.7477
 21
251.6865
 31
0.0
  0
LINE
  5
41B
330
1E
100
AcDbEntity
  8
0
100
AcDbLine
 10
61.2262
 20
257.7035
 30
0.0
 11
61.9824
 21
257.7725
 31
0.0
  0
LINE
  5
41D
330
1E
100
AcDbEntity
  8
0
100
AcDbLine
 10
60.5262
 20
258.6315
 30
0.0
 11
60.6164
 21
258.0534999999999
 31
0.0
  0
LINE
  5
41E
330
1E
100
AcDbEntity
  8
0
100
AcDbLine
 10
60.5262
 20
258.6315
 30
0.0
 11
60.9824
 21
259.0994999999999
 31
0.0
  0
LINE
  5
421
330
1E
100
AcDbEntity
  8
0
100
AcDbLine
 10
61.7386
 20
259.1685
 30
0.0
 11
62.3484
 21
258.8184999999999
 31
0.0
  0
LINE
  5
422
330
1E
100
AcDbEntity
  8
0
100
AcDbLine
 10
60.9824
 20
259.0994999999999
 30
0.0
 11
61.7386
 21
259.1685
 31
0.0
  0
LINE
  5
424
330
1E
100
AcDbEntity
  8
0
100
AcDbLine
 10
60.6164
 20
258.0534999999999
 30
0.0
 11
61.2262
 21
257.7035
 31
0.0
  0
LINE
  5
425
330
1E
100
AcDbEntity
  8
0
100
AcDbLine
 10
61.9824
 20
257.7725
 30
0.0
 11
62.4386
 21
258.2395
 31
0.0
  0
LINE
  5
426
330
1E
100
AcDbEntity
  8
0
100
AcDbLine
 10
62.7477
 20
251.6865
 30
0.0
 11
63.50889999999999
 21
251.7055
 31
0.0
  0
LINE
  5
427
330
1E
100
AcDbEntity
  8
0
100
AcDbLine
 10
63.50889999999999
 20
251.7055
 30
0.0
 11
64.0165
 21
252.1395
 31
0.0
  0
LINE
  5
428
330
1E
100
AcDbEntity
  8
0
100
AcDbLine
 10
63.4249
 20
253.1115
 30
0.0
 11
63.9926
 21
252.7235
 31
0.0
  0
LINE
  5
429
330
1E
100
AcDbEntity
  8
0
100
AcDbLine
 10
62.6637
 20
253.0934999999999
 30
0.0
 11
63.4249
 21
253.1115
 31
0.0
  0
LINE
  5
42A
330
1E
100
AcDbEntity
  8
0
100
AcDbLine
 10
63.9926
 20
252.7235
 30
0.0
 11
64.0165
 21
252.1395
 31
0.0
  0
LINE
  5
42B
330
1E
100
AcDbEntity
  8
0
100
AcDbLine
 10
62.3484
 20
258.8184999999999
 30
0.0
 11
62.4386
 21
258.2395
 31
0.0
  0
LINE
  5
42D
330
1E
100
AcDbEntity
  8
0
100
AcDbLine
 10
62.2453
 20
268.6614999999999
 30
0.0
 11
62.8131
 21
269.0504999999999
 31
0.0
  0
LINE
  5
42E
330
1E
100
AcDbEntity
  8
0
100
AcDbLine
 10
62.2214
 20
268.0794999999999
 30
0.0
 11
62.72899999999999
 21
267.6445
 31
0.0
  0
LINE
  5
42F
330
1E
100
AcDbEntity
  8
0
100
AcDbLine
 10
62.2214
 20
268.0794999999999
 30
0.0
 11
62.2453
 21
268.6614999999999
 31
0.0
  0
LINE
  5
431
330
1E
100
AcDbEntity
  8
0
100
AcDbLine
 10
62.72899999999999
 20
267.6445
 30
0.0
 11
63.4902
 21
267.6254999999999
 31
0.0
  0
LINE
  5
432
330
1E
100
AcDbEntity
  8
0
100
AcDbLine
 10
63.4902
 20
267.6254999999999
 30
0.0
 11
64.05800000000001
 21
268.0144999999999
 31
0.0
  0
LINE
  5
433
330
1E
100
AcDbEntity
  8
0
100
AcDbLine
 10
64.05800000000001
 20
268.0144999999999
 30
0.0
 11
64.08190000000001
 21
268.5975
 31
0.0
  0
LINE
  5
436
330
1E
100
AcDbEntity
  8
0
100
AcDbLine
 10
62.8131
 20
269.0504999999999
 30
0.0
 11
63.5743
 21
269.0325
 31
0.0
  0
LINE
  5
438
330
1E
100
AcDbEntity
  8
0
100
AcDbLine
 10
63.5743
 20
269.0325
 30
0.0
 11
64.08190000000001
 21
268.5975
 31
0.0
  0
LINE
  5
43C
330
1E
100
AcDbEntity
  8
0
100
AcDbLine
 10
59.7925
 20
265.0235
 30
0.0
 11
60.0753
 21
264.4825
 31
0.0
  0
LINE
  5
43D
330
1E
100
AcDbEntity
  8
0
100
AcDbLine
 10
58.5093
 20
251.6415
 30
0.0
 11
58.9802
 21
251.1835
 31
0.0
  0
LINE
  5
43E
330
1E
100
AcDbEntity
  8
0
100
AcDbLine
 10
57.75549999999999
 20
251.7255
 30
0.0
 11
58.5093
 21
251.6415
 31
0.0
  0
LINE
  5
440
330
1E
100
AcDbEntity
  8
0
100
AcDbLine
 10
57.157
 20
251.3644999999999
 30
0.0
 11
57.75549999999999
 21
251.7255
 31
0.0
  0
LINE
  5
441
330
1E
100
AcDbEntity
  8
0
100
AcDbLine
 10
57.0483
 20
250.7864999999999
 30
0.0
 11
57.5193
 21
250.3284999999999
 31
0.0
  0
LINE
  5
442
330
1E
100
AcDbEntity
  8
0
100
AcDbLine
 10
57.0483
 20
250.7864999999999
 30
0.0
 11
57.157
 21
251.3644999999999
 31
0.0
  0
LINE
  5
443
330
1E
100
AcDbEntity
  8
0
100
AcDbLine
 10
58.8716
 20
250.6064999999999
 30
0.0
 11
58.9802
 21
251.1835
 31
0.0
  0
LINE
  5
444
330
1E
100
AcDbEntity
  8
0
100
AcDbLine
 10
57.0
 20
272.6034999999999
 30
0.0
 11
57.7
 21
272.8335
 31
0.0
  0
LINE
  5
445
330
1E
100
AcDbEntity
  8
0
100
AcDbLine
 10
56.29999999999999
 20
272.8335
 30
0.0
 11
57.0
 21
272.6034999999999
 31
0.0
  0
LINE
  5
446
330
1E
100
AcDbEntity
  8
0
100
AcDbLine
 10
57.7
 20
272.8335
 30
0.0
 11
58.0
 21
273.3695
 31
0.0
  0
LINE
  5
447
330
1E
100
AcDbEntity
  8
0
100
AcDbLine
 10
64.2531
 20
272.8005
 30
0.0
 11
64.9766
 21
272.6175
 31
0.0
  0
LINE
  5
449
330
1E
100
AcDbEntity
  8
0
100
AcDbLine
 10
67.1871
 20
255.0934999999999
 30
0.0
 11
67.9326
 21
255.2135
 31
0.0
  0
LINE
  5
44B
330
1E
100
AcDbEntity
  8
0
100
AcDbLine
 10
66.7858
 20
254.5984999999999
 30
0.0
 11
66.9415
 21
254.0265
 31
0.0
  0
LINE
  5
44C
330
1E
100
AcDbEntity
  8
0
100
AcDbLine
 10
66.7858
 20
254.5984999999999
 30
0.0
 11
67.1871
 21
255.0934999999999
 31
0.0
  0
LINE
  5
44D
330
1E
100
AcDbEntity
  8
0
100
AcDbLine
 10
66.9415
 20
254.0265
 30
0.0
 11
67.58880000000001
 21
253.7195
 31
0.0
  0
LINE
  5
44F
330
1E
100
AcDbEntity
  8
0
100
AcDbLine
 10
67.9326
 20
255.2135
 30
0.0
 11
68.57980000000001
 21
254.9055
 31
0.0
  0
LINE
  5
451
330
1E
100
AcDbEntity
  8
0
100
AcDbLine
 10
67.58880000000001
 20
253.7195
 30
0.0
 11
68.3342
 21
253.8394999999999
 31
0.0
  0
LINE
  5
452
330
1E
100
AcDbEntity
  8
0
100
AcDbLine
 10
66.826
 20
262.8554999999999
 30
0.0
 11
67.50579999999999
 21
263.1184999999999
 31
0.0
  0
LINE
  5
453
330
1E
100
AcDbEntity
  8
0
100
AcDbLine
 10
66.6059
 20
262.2964999999999
 30
0.0
 11
66.9492
 21
261.7764999999999
 31
0.0
  0
LINE
  5
454
330
1E
100
AcDbEntity
  8
0
100
AcDbLine
 10
66.6059
 20
262.2964999999999
 30
0.0
 11
66.826
 21
262.8554999999999
 31
0.0
  0
LINE
  5
455
330
1E
100
AcDbEntity
  8
0
100
AcDbLine
 10
67.50579999999999
 20
263.1184999999999
 30
0.0
 11
68.2348
 21
262.9494999999999
 31
0.0
  0
LINE
  5
456
330
1E
100
AcDbEntity
  8
0
100
AcDbLine
 10
66.9492
 20
261.7764999999999
 30
0.0
 11
67.6783
 21
261.6075
 31
0.0
  0
LINE
  5
457
330
1E
100
AcDbEntity
  8
0
100
AcDbLine
 10
67.6783
 20
261.6075
 30
0.0
 11
68.35809999999999
 21
261.8704999999999
 31
0.0
  0
LINE
  5
459
330
1E
100
AcDbEntity
  8
0
100
AcDbLine
 10
68.5438
 20
248.4464999999999
 30
0.0
 11
68.634
 21
247.8670999999999
 31
0.0
  0
LINE
  5
45A
330
1E
100
AcDbEntity
  8
0
100
AcDbLine
 10
68.5438
 20
248.4464999999999
 30
0.0
 11
69.0
 21
248.9145
 31
0.0
  0
LINE
  5
45D
330
1E
100
AcDbEntity
  8
0
100
AcDbLine
 10
68.3342
 20
253.8394999999999
 30
0.0
 11
68.73560000000001
 21
254.3355
 31
0.0
  0
LINE
  5
45E
330
1E
100
AcDbEntity
  8
0
100
AcDbLine
 10
69.24379999999999
 20
247.5183
 30
0.0
 11
70.0
 21
247.5867
 31
0.0
  0
LINE
  5
461
330
1E
100
AcDbEntity
  8
0
100
AcDbLine
 10
69.75620000000001
 20
248.9824999999999
 30
0.0
 11
70.36599999999999
 21
248.6334999999999
 31
0.0
  0
LINE
  5
462
330
1E
100
AcDbEntity
  8
0
100
AcDbLine
 10
69.0
 20
248.9145
 30
0.0
 11
69.75620000000001
 21
248.9824999999999
 31
0.0
  0
LINE
  5
464
330
1E
100
AcDbEntity
  8
0
100
AcDbLine
 10
68.634
 20
247.8670999999999
 30
0.0
 11
69.24379999999999
 21
247.5183
 31
0.0
  0
LINE
  5
465
330
1E
100
AcDbEntity
  8
0
100
AcDbLine
 10
70.0
 20
247.5867
 30
0.0
 11
70.45619999999999
 21
248.0539999999999
 31
0.0
  0
LINE
  5
468
330
1E
100
AcDbEntity
  8
0
100
AcDbLine
 10
70.36599999999999
 20
248.6334999999999
 30
0.0
 11
70.45619999999999
 21
248.0539999999999
 31
0.0
  0
LINE
  5
46A
330
1E
100
AcDbEntity
  8
0
100
AcDbLine
 10
71.18829999999999
 20
257.6655
 30
0.0
 11
71.8954
 21
257.8825
 31
0.0
  0
LINE
  5
46C
330
1E
100
AcDbEntity
  8
0
100
AcDbLine
 10
70.9055
 20
257.1234999999999
 30
0.0
 11
71.18829999999999
 21
256.5824999999999
 31
0.0
  0
LINE
  5
46D
330
1E
100
AcDbEntity
  8
0
100
AcDbLine
 10
70.9055
 20
257.1234999999999
 30
0.0
 11
71.18829999999999
 21
257.6655
 31
0.0
  0
LINE
  5
46E
330
1E
100
AcDbEntity
  8
0
100
AcDbLine
 10
71.18829999999999
 20
256.5824999999999
 30
0.0
 11
71.8954
 21
256.3664999999999
 31
0.0
  0
LINE
  5
46F
330
1E
100
AcDbEntity
  8
0
100
AcDbLine
 10
71.8954
 20
256.3664999999999
 30
0.0
 11
72.6025
 21
256.5824999999999
 31
0.0
  0
LINE
  5
470
330
1E
100
AcDbEntity
  8
0
100
AcDbLine
 10
72.6025
 20
256.5824999999999
 30
0.0
 11
72.88540000000001
 21
257.1234999999999
 31
0.0
  0
LINE
  5
472
330
1E
100
AcDbEntity
  8
0
100
AcDbLine
 10
71.8954
 20
257.8825
 30
0.0
 11
72.6025
 21
257.6655
 31
0.0
  0
LINE
  5
473
330
1E
100
AcDbEntity
  8
0
100
AcDbLine
 10
72.6025
 20
257.6655
 30
0.0
 11
72.88540000000001
 21
257.1234999999999
 31
0.0
  0
LINE
  5
474
330
1E
100
AcDbEntity
  8
0
100
AcDbLine
 10
68.57980000000001
 20
254.9055
 30
0.0
 11
68.73560000000001
 21
254.3355
 31
0.0
  0
LINE
  5
476
330
1E
100
AcDbEntity
  8
0
100
AcDbLine
 10
70.6401
 20
267.9164999999999
 30
0.0
 11
70.68259999999999
 21
267.3335
 31
0.0
  0
LINE
  5
477
330
1E
100
AcDbEntity
  8
0
100
AcDbLine
 10
70.6401
 20
267.9164999999999
 30
0.0
 11
71.16150000000001
 21
268.3415
 31
0.0
  0
LINE
  5
478
330
1E
100
AcDbEntity
  8
0
100
AcDbLine
 10
71.16150000000001
 20
268.3415
 30
0.0
 11
71.9219
 21
268.3745
 31
0.0
  0
LINE
  5
479
330
1E
100
AcDbEntity
  8
0
100
AcDbLine
 10
70.68259999999999
 20
267.3335
 30
0.0
 11
71.2378
 21
266.9345
 31
0.0
  0
LINE
  5
47A
330
1E
100
AcDbEntity
  8
0
100
AcDbLine
 10
71.2378
 20
266.9345
 30
0.0
 11
71.99819999999999
 21
266.9665
 31
0.0
  0
LINE
  5
47B
330
1E
100
AcDbEntity
  8
0
100
AcDbLine
 10
71.99819999999999
 20
266.9665
 30
0.0
 11
72.51949999999999
 21
267.3925
 31
0.0
  0
LINE
  5
47C
330
1E
100
AcDbEntity
  8
0
100
AcDbLine
 10
72.477
 20
267.9745
 30
0.0
 11
72.51949999999999
 21
267.3925
 31
0.0
  0
LINE
  5
47D
330
1E
100
AcDbEntity
  8
0
100
AcDbLine
 10
71.9219
 20
268.3745
 30
0.0
 11
72.477
 21
267.9745
 31
0.0
  0
LINE
  5
47E
330
1E
100
AcDbEntity
  8
0
100
AcDbLine
 10
68.35809999999999
 20
261.8704999999999
 30
0.0
 11
68.5782
 21
262.4284999999999
 31
0.0
  0
LINE
  5
47F
330
1E
100
AcDbEntity
  8
0
100
AcDbLine
 10
68.2348
 20
262.9494999999999
 30
0.0
 11
68.5782
 21
262.4284999999999
 31
0.0
  0
LINE
  5
480
330
1E
100
AcDbEntity
  8
0
100
AcDbLine
 10
65.6478
 20
272.8944999999999
 30
0.0
 11
65.8857
 21
273.4485
 31
0.0
  0
LINE
  5
481
330
1E
100
AcDbEntity
  8
0
100
AcDbLine
 10
64.9766
 20
272.6175
 30
0.0
 11
65.6478
 21
272.8944999999999
 31
0.0
  0
LINE
  5
482
330
1E
100
AcDbEntity
  8
0
100
AcDbLine
 10
72.26479999999999
 20
273.1345
 30
0.0
 11
72.96479999999999
 21
272.9044999999999
 31
0.0
  0
LINE
  5
483
330
1E
100
AcDbEntity
  8
0
100
AcDbLine
 10
73.9
 20
244.5876
 30
0.0
 11
83.9
 21
250.4855
 31
0.0
  0
LINE
  5
484
330
1E
100
AcDbEntity
  8
0
100
AcDbLine
 10
74.9824
 20
250.4824999999999
 30
0.0
 11
75.7115
 21
250.6505
 31
0.0
  0
LINE
  5
485
330
1E
100
AcDbEntity
  8
0
100
AcDbLine
 10
74.08249999999999
 20
251.3035
 30
0.0
 11
74.3027
 21
250.7454999999999
 31
0.0
  0
LINE
  5
486
330
1E
100
AcDbEntity
  8
0
100
AcDbLine
 10
74.08249999999999
 20
251.3035
 30
0.0
 11
74.4259
 21
251.8244999999999
 31
0.0
  0
LINE
  5
487
330
1E
100
AcDbEntity
  8
0
100
AcDbLine
 10
74.5457
 20
260.7314999999999
 30
0.0
 11
75.193
 21
261.0384999999999
 31
0.0
  0
LINE
  5
488
330
1E
100
AcDbEntity
  8
0
100
AcDbLine
 10
74.39
 20
260.1594999999999
 30
0.0
 11
74.79130000000001
 21
259.6644999999999
 31
0.0
  0
LINE
  5
489
330
1E
100
AcDbEntity
  8
0
100
AcDbLine
 10
74.39
 20
260.1594999999999
 30
0.0
 11
74.5457
 21
260.7314999999999
 31
0.0
  0
LINE
  5
48A
330
1E
100
AcDbEntity
  8
0
100
AcDbLine
 10
74.79130000000001
 20
259.6644999999999
 30
0.0
 11
75.53679999999999
 21
259.5455
 31
0.0
  0
LINE
  5
48B
330
1E
100
AcDbEntity
  8
0
100
AcDbLine
 10
75.193
 20
261.0384999999999
 30
0.0
 11
75.9384
 21
260.9195
 31
0.0
  0
LINE
  5
48C
330
1E
100
AcDbEntity
  8
0
100
AcDbLine
 10
75.53679999999999
 20
259.5455
 30
0.0
 11
76.184
 21
259.8525
 31
0.0
  0
LINE
  5
48E
330
1E
100
AcDbEntity
  8
0
100
AcDbLine
 10
75.155
 20
251.9925
 30
0.0
 11
75.8348
 21
251.7295
 31
0.0
  0
LINE
  5
48F
330
1E
100
AcDbEntity
  8
0
100
AcDbLine
 10
74.4259
 20
251.8244999999999
 30
0.0
 11
75.155
 21
251.9925
 31
0.0
  0
LINE
  5
490
330
1E
100
AcDbEntity
  8
0
100
AcDbLine
 10
74.3027
 20
250.7454999999999
 30
0.0
 11
74.9824
 21
250.4824999999999
 31
0.0
  0
LINE
  5
491
330
1E
100
AcDbEntity
  8
0
100
AcDbLine
 10
75.7115
 20
250.6505
 30
0.0
 11
76.0549
 21
251.1715
 31
0.0
  0
LINE
  5
492
330
1E
100
AcDbEntity
  8
0
100
AcDbLine
 10
83.9
 20
250.4855
 30
0.0
 11
85.0
 21
251.2495
 31
0.0
  0
LINE
  5
493
330
1E
100
AcDbEntity
  8
0
100
AcDbLine
 10
75.9384
 20
260.9195
 30
0.0
 11
76.3398
 21
260.4235
 31
0.0
  0
LINE
  5
494
330
1E
100
AcDbEntity
  8
0
100
AcDbLine
 10
79.1097
 20
255.4114999999999
 30
0.0
 11
79.78950000000001
 21
255.6744999999999
 31
0.0
  0
LINE
  5
495
330
1E
100
AcDbEntity
  8
0
100
AcDbLine
 10
78.8895
 20
254.8535
 30
0.0
 11
79.2329
 21
254.3325
 31
0.0
  0
LINE
  5
496
330
1E
100
AcDbEntity
  8
0
100
AcDbLine
 10
78.8895
 20
254.8535
 30
0.0
 11
79.1097
 21
255.4114999999999
 31
0.0
  0
LINE
  5
498
330
1E
100
AcDbEntity
  8
0
100
AcDbLine
 10
79.78950000000001
 20
255.6744999999999
 30
0.0
 11
80.51849999999999
 21
255.5064999999999
 31
0.0
  0
LINE
  5
499
330
1E
100
AcDbEntity
  8
0
100
AcDbLine
 10
79.2329
 20
254.3325
 30
0.0
 11
79.962
 21
254.1644999999999
 31
0.0
  0
LINE
  5
49A
330
1E
100
AcDbEntity
  8
0
100
AcDbLine
 10
79.962
 20
254.1644999999999
 30
0.0
 11
80.6418
 21
254.4275
 31
0.0
  0
LINE
  5
49B
330
1E
100
AcDbEntity
  8
0
100
AcDbLine
 10
85.0
 20
251.2495
 30
0.0
 11
92.9
 21
259.2174999999999
 31
0.0
  0
LINE
  5
49E
330
1E
100
AcDbEntity
  8
0
100
AcDbLine
 10
82.90899999999998
 20
259.5695
 30
0.0
 11
83.51879999999999
 21
259.9175
 31
0.0
  0
LINE
  5
4A0
330
1E
100
AcDbEntity
  8
0
100
AcDbLine
 10
82.81879999999999
 20
258.9895
 30
0.0
 11
83.275
 21
258.5224999999999
 31
0.0
  0
LINE
  5
4A1
330
1E
100
AcDbEntity
  8
0
100
AcDbLine
 10
82.81879999999999
 20
258.9895
 30
0.0
 11
82.90899999999998
 21
259.5695
 31
0.0
  0
LINE
  5
4A3
330
1E
100
AcDbEntity
  8
0
100
AcDbLine
 10
83.275
 20
258.5224999999999
 30
0.0
 11
84.03119999999999
 21
258.4524999999999
 31
0.0
  0
LINE
  5
4A4
330
1E
100
AcDbEntity
  8
0
100
AcDbLine
 10
84.03119999999999
 20
258.4524999999999
 30
0.0
 11
84.641
 21
258.8025
 31
0.0
  0
LINE
  5
4A7
330
1E
100
AcDbEntity
  8
0
100
AcDbLine
 10
84.641
 20
258.8025
 30
0.0
 11
84.73119999999999
 21
259.3824999999999
 31
0.0
  0
LINE
  5
4A8
330
1E
100
AcDbEntity
  8
0
100
AcDbLine
 10
84.275
 20
259.8494999999999
 30
0.0
 11
84.73119999999999
 21
259.3824999999999
 31
0.0
  0
LINE
  5
4AB
330
1E
100
AcDbEntity
  8
0
100
AcDbLine
 10
80.6418
 20
254.4275
 30
0.0
 11
80.8619
 21
254.9854999999999
 31
0.0
  0
LINE
  5
4AC
330
1E
100
AcDbEntity
  8
0
100
AcDbLine
 10
80.51849999999999
 20
255.5064999999999
 30
0.0
 11
80.8619
 21
254.9854999999999
 31
0.0
  0
LINE
  5
4AE
330
1E
100
AcDbEntity
  8
0
100
AcDbLine
 10
77.1573
 20
264.1965
 30
0.0
 11
77.72499999999999
 21
264.5855
 31
0.0
  0
LINE
  5
4AF
330
1E
100
AcDbEntity
  8
0
100
AcDbLine
 10
77.13339999999999
 20
263.6134999999999
 30
0.0
 11
77.641
 21
263.1775
 31
0.0
  0
LINE
  5
4B0
330
1E
100
AcDbEntity
  8
0
100
AcDbLine
 10
77.13339999999999
 20
263.6134999999999
 30
0.0
 11
77.1573
 21
264.1965
 31
0.0
  0
LINE
  5
4B3
330
1E
100
AcDbEntity
  8
0
100
AcDbLine
 10
77.72499999999999
 20
264.5855
 30
0.0
 11
78.4862
 21
264.5665
 31
0.0
  0
LINE
  5
4B5
330
1E
100
AcDbEntity
  8
0
100
AcDbLine
 10
77.641
 20
263.1775
 30
0.0
 11
78.40219999999999
 21
263.1604999999999
 31
0.0
  0
LINE
  5
4B6
330
1E
100
AcDbEntity
  8
0
100
AcDbLine
 10
78.40219999999999
 20
263.1604999999999
 30
0.0
 11
78.96989999999999
 21
263.5495
 31
0.0
  0
LINE
  5
4BA
330
1E
100
AcDbEntity
  8
0
100
AcDbLine
 10
83.51879999999999
 20
259.9175
 30
0.0
 11
84.275
 21
259.8494999999999
 31
0.0
  0
LINE
  5
4BC
330
1E
100
AcDbEntity
  8
0
100
AcDbLine
 10
86.30599999999999
 20
263.1854999999999
 30
0.0
 11
87.0664
 21
263.2174999999999
 31
0.0
  0
LINE
  5
4BD
330
1E
100
AcDbEntity
  8
0
100
AcDbLine
 10
87.0664
 20
263.2174999999999
 30
0.0
 11
87.5877
 21
263.6435
 31
0.0
  0
LINE
  5
4BE
330
1E
100
AcDbEntity
  8
0
100
AcDbLine
 10
79.6509
 20
267.0174999999999
 30
0.0
 11
80.4047
 21
267.1015
 31
0.0
  0
LINE
  5
4BF
330
1E
100
AcDbEntity
  8
0
100
AcDbLine
 10
78.94379999999999
 20
267.9565
 30
0.0
 11
79.0524
 21
267.3784999999999
 31
0.0
  0
LINE
  5
4C0
330
1E
100
AcDbEntity
  8
0
100
AcDbLine
 10
78.94379999999999
 20
267.9565
 30
0.0
 11
79.41469999999999
 21
268.4145
 31
0.0
  0
LINE
  5
4C2
330
1E
100
AcDbEntity
  8
0
100
AcDbLine
 10
79.0524
 20
267.3784999999999
 30
0.0
 11
79.6509
 21
267.0174999999999
 31
0.0
  0
LINE
  5
4C3
330
1E
100
AcDbEntity
  8
0
100
AcDbLine
 10
80.4047
 20
267.1015
 30
0.0
 11
80.87560000000001
 21
267.5595
 31
0.0
  0
LINE
  5
4C5
330
1E
100
AcDbEntity
  8
0
100
AcDbLine
 10
86.2296
 20
264.5924999999999
 30
0.0
 11
86.98999999999999
 21
264.6255
 31
0.0
  0
LINE
  5
4C6
330
1E
100
AcDbEntity
  8
0
100
AcDbLine
 10
85.70829999999999
 20
264.1675
 30
0.0
 11
85.75079999999999
 21
263.5855
 31
0.0
  0
LINE
  5
4C7
330
1E
100
AcDbEntity
  8
0
100
AcDbLine
 10
85.70829999999999
 20
264.1675
 30
0.0
 11
86.2296
 21
264.5924999999999
 31
0.0
  0
LINE
  5
4C8
330
1E
100
AcDbEntity
  8
0
100
AcDbLine
 10
85.75079999999999
 20
263.5855
 30
0.0
 11
86.30599999999999
 21
263.1854999999999
 31
0.0
  0
LINE
  5
4CC
330
1E
100
AcDbEntity
  8
0
100
AcDbLine
 10
87.54519999999999
 20
264.2265
 30
0.0
 11
87.5877
 21
263.6435
 31
0.0
  0
LINE
  5
4CE
330
1E
100
AcDbEntity
  8
0
100
AcDbLine
 10
86.98999999999999
 20
264.6255
 30
0.0
 11
87.54519999999999
 21
264.2265
 31
0.0
  0
LINE
  5
4D2
330
1E
100
AcDbEntity
  8
0
100
AcDbLine
 10
80.767
 20
268.1364999999999
 30
0.0
 11
80.87560000000001
 21
267.5595
 31
0.0
  0
LINE
  5
4D4
330
1E
100
AcDbEntity
  8
0
100
AcDbLine
 10
78.96989999999999
 20
263.5495
 30
0.0
 11
78.9939
 21
264.1315
 31
0.0
  0
LINE
  5
4D5
330
1E
100
AcDbEntity
  8
0
100
AcDbLine
 10
78.4862
 20
264.5665
 30
0.0
 11
78.9939
 21
264.1315
 31
0.0
  0
LINE
  5
4D7
330
1E
100
AcDbEntity
  8
0
100
AcDbLine
 10
76.184
 20
259.8525
 30
0.0
 11
76.3398
 21
260.4235
 31
0.0
  0
LINE
  5
4DA
330
1E
100
AcDbEntity
  8
0
100
AcDbLine
 10
75.8348
 20
251.7295
 30
0.0
 11
76.0549
 21
251.1715
 31
0.0
  0
LINE
  5
4DD
330
1E
100
AcDbEntity
  8
0
100
AcDbLine
 10
79.41469999999999
 20
268.4145
 30
0.0
 11
80.16849999999999
 21
268.4975
 31
0.0
  0
LINE
  5
4DF
330
1E
100
AcDbEntity
  8
0
100
AcDbLine
 10
80.16849999999999
 20
268.4975
 30
0.0
 11
80.767
 21
268.1364999999999
 31
0.0
  0
LINE
  5
4E0
330
1E
100
AcDbEntity
  8
0
100
AcDbLine
 10
79.8508
 20
271.8965
 30
0.0
 11
80.0886
 21
271.3424999999999
 31
0.0
  0
LINE
  5
4E1
330
1E
100
AcDbEntity
  8
0
100
AcDbLine
 10
79.8508
 20
271.8965
 30
0.0
 11
80.2106
 21
272.4105
 31
0.0
  0
LINE
  5
4E2
330
1E
100
AcDbEntity
  8
0
100
AcDbLine
 10
80.2106
 20
272.4105
 30
0.0
 11
80.9341
 21
272.5935
 31
0.0
  0
LINE
  5
4E3
330
1E
100
AcDbEntity
  8
0
100
AcDbLine
 10
80.0886
 20
271.3424999999999
 30
0.0
 11
80.75979999999999
 21
271.0665
 31
0.0
  0
LINE
  5
4E4
330
1E
100
AcDbEntity
  8
0
100
AcDbLine
 10
80.75979999999999
 20
271.0665
 30
0.0
 11
81.48329999999999
 21
271.2485
 31
0.0
  0
LINE
  5
4E5
330
1E
100
AcDbEntity
  8
0
100
AcDbLine
 10
81.48329999999999
 20
271.2485
 30
0.0
 11
81.84310000000001
 21
271.7624999999999
 31
0.0
  0
LINE
  5
4E6
330
1E
100
AcDbEntity
  8
0
100
AcDbLine
 10
81.60529999999999
 20
272.3174999999999
 30
0.0
 11
81.84310000000001
 21
271.7624999999999
 31
0.0
  0
LINE
  5
4E7
330
1E
100
AcDbEntity
  8
0
100
AcDbLine
 10
80.9341
 20
272.5935
 30
0.0
 11
81.60529999999999
 21
272.3174999999999
 31
0.0
  0
LINE
  5
4E8
330
1E
100
AcDbEntity
  8
0
100
AcDbLine
 10
87.42270000000001
 20
269.0684999999999
 30
0.0
 11
87.5966
 21
268.5004999999999
 31
0.0
  0
LINE
  5
4E9
330
1E
100
AcDbEntity
  8
0
100
AcDbLine
 10
87.42270000000001
 20
269.0684999999999
 30
0.0
 11
87.8397
 21
269.5565
 31
0.0
  0
LINE
  5
4EB
330
1E
100
AcDbEntity
  8
0
100
AcDbLine
 10
87.8397
 20
269.5565
 30
0.0
 11
88.58119999999999
 21
269.6905
 31
0.0
  0
LINE
  5
4EC
330
1E
100
AcDbEntity
  8
0
100
AcDbLine
 10
87.5966
 20
268.5004999999999
 30
0.0
 11
88.23390000000001
 21
268.1805
 31
0.0
  0
LINE
  5
4ED
330
1E
100
AcDbEntity
  8
0
100
AcDbLine
 10
88.23390000000001
 20
268.1805
 30
0.0
 11
88.97530000000001
 21
268.3145
 31
0.0
  0
LINE
  5
4EE
330
1E
100
AcDbEntity
  8
0
100
AcDbLine
 10
97.70000000000001
 20
268.3335
 30
0.0
 11
98.2
 21
269.8634999999999
 31
0.0
  0
LINE
  5
4EF
330
1E
100
AcDbEntity
  8
0
100
AcDbLine
 10
92.9
 20
259.2174999999999
 30
0.0
 11
97.70000000000001
 21
268.3335
 31
0.0
  0
LINE
  5
4F1
330
1E
100
AcDbEntity
  8
0
100
AcDbLine
 10
88.97530000000001
 20
268.3145
 30
0.0
 11
89.3923
 21
268.8034999999999
 31
0.0
  0
LINE
  5
4F2
330
1E
100
AcDbEntity
  8
0
100
AcDbLine
 10
98.2
 20
269.8634999999999
 30
0.0
 11
100.0
 21
279.6685
 31
0.0
  0
LINE
  5
4F5
330
1E
100
AcDbEntity
  8
0
100
AcDbLine
 10
89.21840000000001
 20
269.3705
 30
0.0
 11
89.3923
 21
268.8034999999999
 31
0.0
  0
LINE
  5
4F7
330
1E
100
AcDbEntity
  8
0
100
AcDbLine
 10
88.58119999999999
 20
269.6905
 30
0.0
 11
89.21840000000001
 21
269.3705
 31
0.0
  0
LINE
  5
4F9
330
1E
100
AcDbEntity
  8
0
100
AcDbLine
 10
73.6648
 20
273.1345
 30
0.0
 11
73.9648
 21
273.6714999999999
 31
0.0
  0
LINE
  5
4FA
330
1E
100
AcDbEntity
  8
0
100
AcDbLine
 10
72.96479999999999
 20
272.9044999999999
 30
0.0
 11
73.6648
 21
273.1345
 31
0.0
  0
LINE
  5
4FB
330
1E
100
AcDbEntity
  8
0
100
AcDbLine
 10
63.89330000000001
 20
273.3144999999999
 30
0.0
 11
64.1311
 21
273.8695
 31
0.0
  0
LINE
  5
4FC
330
1E
100
AcDbEntity
  8
0
100
AcDbLine
 10
63.89330000000001
 20
273.3144999999999
 30
0.0
 11
64.2531
 21
272.8005
 31
0.0
  0
LINE
  5
4FF
330
1E
100
AcDbEntity
  8
0
100
AcDbLine
 10
56.0
 20
273.3695
 30
0.0
 11
56.29999999999999
 21
273.9055
 31
0.0
  0
LINE
  5
500
330
1E
100
AcDbEntity
  8
0
100
AcDbLine
 10
56.0
 20
273.3695
 30
0.0
 11
56.29999999999999
 21
272.8335
 31
0.0
  0
LINE
  5
505
330
1E
100
AcDbEntity
  8
0
100
AcDbLine
 10
56.29999999999999
 20
273.9055
 30
0.0
 11
57.0
 21
274.1354999999999
 31
0.0
  0
LINE
  5
506
330
1E
100
AcDbEntity
  8
0
100
AcDbLine
 10
57.7
 20
273.9055
 30
0.0
 11
58.0
 21
273.3695
 31
0.0
  0
LINE
  5
507
330
1E
100
AcDbEntity
  8
0
100
AcDbLine
 10
64.1311
 20
273.8695
 30
0.0
 11
64.8023
 21
274.1445
 31
0.0
  0
LINE
  5
50B
330
1E
100
AcDbEntity
  8
0
100
AcDbLine
 10
65.5258
 20
273.9624999999999
 30
0.0
 11
65.8857
 21
273.4485
 31
0.0
  0
LINE
  5
50D
330
1E
100
AcDbEntity
  8
0
100
AcDbLine
 10
71.9648
 20
273.6714999999999
 30
0.0
 11
72.26479999999999
 21
274.2065
 31
0.0
  0
LINE
  5
50E
330
1E
100
AcDbEntity
  8
0
100
AcDbLine
 10
71.9648
 20
273.6714999999999
 30
0.0
 11
72.26479999999999
 21
273.1345
 31
0.0
  0
LINE
  5
510
330
1E
100
AcDbEntity
  8
0
100
AcDbLine
 10
88.3
 20
273.5874999999999
 30
0.0
 11
89.0
 21
273.3575
 31
0.0
  0
LINE
  5
511
330
1E
100
AcDbEntity
  8
0
100
AcDbLine
 10
89.7
 20
273.5874999999999
 30
0.0
 11
90.0
 21
274.1234999999999
 31
0.0
  0
LINE
  5
512
330
1E
100
AcDbEntity
  8
0
100
AcDbLine
 10
89.0
 20
273.3575
 30
0.0
 11
89.7
 21
273.5874999999999
 31
0.0
  0
LINE
  5
515
330
1E
100
AcDbEntity
  8
0
100
AcDbLine
 10
50.7
 20
273.7765
 30
0.0
 11
51.0
 21
273.2414999999999
 31
0.0
  0
LINE
  5
517
330
1E
100
AcDbEntity
  8
0
100
AcDbLine
 10
57.0
 20
274.1354999999999
 30
0.0
 11
57.7
 21
273.9055
 31
0.0
  0
LINE
  5
519
330
1E
100
AcDbEntity
  8
0
100
AcDbLine
 10
64.8023
 20
274.1445
 30
0.0
 11
65.5258
 21
273.9624999999999
 31
0.0
  0
LINE
  5
51C
330
1E
100
AcDbEntity
  8
0
100
AcDbLine
 10
72.26479999999999
 20
274.2065
 30
0.0
 11
72.96479999999999
 21
274.4365
 31
0.0
  0
LINE
  5
51F
330
1E
100
AcDbEntity
  8
0
100
AcDbLine
 10
73.6648
 20
274.2065
 30
0.0
 11
73.9648
 21
273.6714999999999
 31
0.0
  0
LINE
  5
522
330
1E
100
AcDbEntity
  8
0
100
AcDbLine
 10
88.0
 20
274.1234999999999
 30
0.0
 11
88.3
 21
274.6594999999999
 31
0.0
  0
LINE
  5
523
330
1E
100
AcDbEntity
  8
0
100
AcDbLine
 10
88.0
 20
274.1234999999999
 30
0.0
 11
88.3
 21
273.5874999999999
 31
0.0
  0
LINE
  5
525
330
1E
100
AcDbEntity
  8
0
100
AcDbLine
 10
55.5274
 20
275.4825
 30
0.0
 11
56.2565
 21
275.6514999999999
 31
0.0
  0
LINE
  5
526
330
1E
100
AcDbEntity
  8
0
100
AcDbLine
 10
54.8476
 20
275.7454999999999
 30
0.0
 11
55.5274
 21
275.4825
 31
0.0
  0
LINE
  5
527
330
1E
100
AcDbEntity
  8
0
100
AcDbLine
 10
56.2565
 20
275.6514999999999
 30
0.0
 11
56.5999
 21
276.1725
 31
0.0
  0
LINE
  5
529
330
1E
100
AcDbEntity
  8
0
100
AcDbLine
 10
72.96479999999999
 20
274.4365
 30
0.0
 11
73.6648
 21
274.2065
 31
0.0
  0
LINE
  5
52B
330
1E
100
AcDbEntity
  8
0
100
AcDbLine
 10
54.62749999999999
 20
276.3045
 30
0.0
 11
54.9709
 21
276.8254999999999
 31
0.0
  0
LINE
  5
52C
330
1E
100
AcDbEntity
  8
0
100
AcDbLine
 10
54.62749999999999
 20
276.3045
 30
0.0
 11
54.8476
 21
275.7454999999999
 31
0.0
  0
LINE
  5
52D
330
1E
100
AcDbEntity
  8
0
100
AcDbLine
 10
79.8508
 20
275.8974999999999
 30
0.0
 11
80.0886
 21
276.4515
 31
0.0
  0
LINE
  5
52E
330
1E
100
AcDbEntity
  8
0
100
AcDbLine
 10
79.8508
 20
275.8974999999999
 30
0.0
 11
80.2106
 21
275.3835
 31
0.0
  0
LINE
  5
52F
330
1E
100
AcDbEntity
  8
0
100
AcDbLine
 10
80.2106
 20
275.3835
 30
0.0
 11
80.9341
 21
275.2015
 31
0.0
  0
LINE
  5
530
330
1E
100
AcDbEntity
  8
0
100
AcDbLine
 10
80.0886
 20
276.4515
 30
0.0
 11
80.75979999999999
 21
276.7285
 31
0.0
  0
LINE
  5
531
330
1E
100
AcDbEntity
  8
0
100
AcDbLine
 10
53.1658
 20
277.6915
 30
0.0
 11
53.5828
 21
278.1804999999999
 31
0.0
  0
LINE
  5
532
330
1E
100
AcDbEntity
  8
0
100
AcDbLine
 10
52.4244
 20
277.5584999999999
 30
0.0
 11
53.1658
 21
277.6915
 31
0.0
  0
LINE
  5
533
330
1E
100
AcDbEntity
  8
0
100
AcDbLine
 10
51.7871
 20
277.8784999999999
 30
0.0
 11
52.4244
 21
277.5584999999999
 31
0.0
  0
LINE
  5
534
330
1E
100
AcDbEntity
  8
0
100
AcDbLine
 10
51.61319999999999
 20
278.4465
 30
0.0
 11
52.0302
 21
278.9345
 31
0.0
  0
LINE
  5
535
330
1E
100
AcDbEntity
  8
0
100
AcDbLine
 10
51.61319999999999
 20
278.4465
 30
0.0
 11
51.7871
 21
277.8784999999999
 31
0.0
  0
LINE
  5
536
330
1E
100
AcDbEntity
  8
0
100
AcDbLine
 10
52.0302
 20
278.9345
 30
0.0
 11
52.7717
 21
279.0674999999999
 31
0.0
  0
LINE
  5
539
330
1E
100
AcDbEntity
  8
0
100
AcDbLine
 10
54.9709
 20
276.8254999999999
 30
0.0
 11
55.7
 21
276.9934999999999
 31
0.0
  0
LINE
  5
53B
330
1E
100
AcDbEntity
  8
0
100
AcDbLine
 10
62.5658
 20
278.3525
 30
0.0
 11
63.32699999999999
 21
278.3715
 31
0.0
  0
LINE
  5
53C
330
1E
100
AcDbEntity
  8
0
100
AcDbLine
 10
63.32699999999999
 20
278.3715
 30
0.0
 11
63.8346
 21
278.8065
 31
0.0
  0
LINE
  5
53E
330
1E
100
AcDbEntity
  8
0
100
AcDbLine
 10
55.7
 20
276.9934999999999
 30
0.0
 11
56.3797
 21
276.7304999999999
 31
0.0
  0
LINE
  5
53F
330
1E
100
AcDbEntity
  8
0
100
AcDbLine
 10
56.3797
 20
276.7304999999999
 30
0.0
 11
56.5999
 21
276.1725
 31
0.0
  0
LINE
  5
541
330
1E
100
AcDbEntity
  8
0
100
AcDbLine
 10
61.9981
 20
278.7425
 30
0.0
 11
62.5658
 21
278.3525
 31
0.0
  0
LINE
  5
543
330
1E
100
AcDbEntity
  8
0
100
AcDbLine
 10
53.409
 20
278.7484999999999
 30
0.0
 11
53.5828
 21
278.1804999999999
 31
0.0
  0
LINE
  5
544
330
1E
100
AcDbEntity
  8
0
100
AcDbLine
 10
52.7717
 20
279.0674999999999
 30
0.0
 11
53.409
 21
278.7484999999999
 31
0.0
  0
LINE
  5
545
330
1E
100
AcDbEntity
  8
0
100
AcDbLine
 10
71.16150000000001
 20
279.0004999999999
 30
0.0
 11
71.9219
 21
278.9674999999999
 31
0.0
  0
LINE
  5
546
330
1E
100
AcDbEntity
  8
0
100
AcDbLine
 10
71.9219
 20
278.9674999999999
 30
0.0
 11
72.477
 21
279.3674999999999
 31
0.0
  0
LINE
  5
548
330
1E
100
AcDbEntity
  8
0
100
AcDbLine
 10
80.75979999999999
 20
276.7285
 30
0.0
 11
81.48329999999999
 21
276.5455
 31
0.0
  0
LINE
  5
54D
330
1E
100
AcDbEntity
  8
0
100
AcDbLine
 10
81.48329999999999
 20
276.5455
 30
0.0
 11
81.84310000000001
 21
276.0314999999999
 31
0.0
  0
LINE
  5
54F
330
1E
100
AcDbEntity
  8
0
100
AcDbLine
 10
81.60529999999999
 20
275.4764999999999
 30
0.0
 11
81.84310000000001
 21
276.0314999999999
 31
0.0
  0
LINE
  5
550
330
1E
100
AcDbEntity
  8
0
100
AcDbLine
 10
80.9341
 20
275.2015
 30
0.0
 11
81.60529999999999
 21
275.4764999999999
 31
0.0
  0
LINE
  5
551
330
1E
100
AcDbEntity
  8
0
100
AcDbLine
 10
61.9741
 20
279.3254999999999
 30
0.0
 11
62.4818
 21
279.7604999999999
 31
0.0
  0
LINE
  5
552
330
1E
100
AcDbEntity
  8
0
100
AcDbLine
 10
61.9741
 20
279.3254999999999
 30
0.0
 11
61.9981
 21
278.7425
 31
0.0
  0
LINE
  5
553
330
1E
100
AcDbEntity
  8
0
100
AcDbLine
 10
63.8107
 20
279.3895
 30
0.0
 11
63.8346
 21
278.8065
 31
0.0
  0
LINE
  5
555
330
1E
100
AcDbEntity
  8
0
100
AcDbLine
 10
62.4818
 20
279.7604999999999
 30
0.0
 11
63.243
 21
279.7785
 31
0.0
  0
LINE
  5
556
330
1E
100
AcDbEntity
  8
0
100
AcDbLine
 10
63.243
 20
279.7785
 30
0.0
 11
63.8107
 21
279.3895
 31
0.0
  0
LINE
  5
558
330
1E
100
AcDbEntity
  8
0
100
AcDbLine
 10
70.6401
 20
279.4264999999999
 30
0.0
 11
70.68259999999999
 21
280.0085
 31
0.0
  0
LINE
  5
559
330
1E
100
AcDbEntity
  8
0
100
AcDbLine
 10
70.6401
 20
279.4264999999999
 30
0.0
 11
71.16150000000001
 21
279.0004999999999
 31
0.0
  0
LINE
  5
55A
330
1E
100
AcDbEntity
  8
0
100
AcDbLine
 10
72.477
 20
279.3674999999999
 30
0.0
 11
72.51949999999999
 21
279.9494999999999
 31
0.0
  0
LINE
  5
55B
330
1E
100
AcDbEntity
  8
0
100
AcDbLine
 10
79.41469999999999
 20
279.3795
 30
0.0
 11
80.16849999999999
 21
279.2964999999999
 31
0.0
  0
LINE
  5
55C
330
1E
100
AcDbEntity
  8
0
100
AcDbLine
 10
70.68259999999999
 20
280.0085
 30
0.0
 11
71.2378
 21
280.4075
 31
0.0
  0
LINE
  5
55D
330
1E
100
AcDbEntity
  8
0
100
AcDbLine
 10
78.94379999999999
 20
279.8385
 30
0.0
 11
79.0524
 21
280.4155
 31
0.0
  0
LINE
  5
55E
330
1E
100
AcDbEntity
  8
0
100
AcDbLine
 10
78.94379999999999
 20
279.8385
 30
0.0
 11
79.41469999999999
 21
279.3795
 31
0.0
  0
LINE
  5
560
330
1E
100
AcDbEntity
  8
0
100
AcDbLine
 10
80.767
 20
279.6575
 30
0.0
 11
80.87560000000001
 21
280.2345
 31
0.0
  0
LINE
  5
561
330
1E
100
AcDbEntity
  8
0
100
AcDbLine
 10
80.16849999999999
 20
279.2964999999999
 30
0.0
 11
80.767
 21
279.6575
 31
0.0
  0
LINE
  5
562
330
1E
100
AcDbEntity
  8
0
100
AcDbLine
 10
87.42270000000001
 20
279.1784999999999
 30
0.0
 11
87.5966
 21
279.7465
 31
0.0
  0
LINE
  5
563
330
1E
100
AcDbEntity
  8
0
100
AcDbLine
 10
87.42270000000001
 20
279.1784999999999
 30
0.0
 11
87.8397
 21
278.6904999999999
 31
0.0
  0
LINE
  5
566
330
1E
100
AcDbEntity
  8
0
100
AcDbLine
 10
88.3
 20
274.6594999999999
 30
0.0
 11
89.0
 21
274.8895
 31
0.0
  0
LINE
  5
568
330
1E
100
AcDbEntity
  8
0
100
AcDbLine
 10
87.8397
 20
278.6904999999999
 30
0.0
 11
88.58119999999999
 21
278.5565
 31
0.0
  0
LINE
  5
569
330
1E
100
AcDbEntity
  8
0
100
AcDbLine
 10
87.5966
 20
279.7465
 30
0.0
 11
88.23390000000001
 21
280.0654999999999
 31
0.0
  0
LINE
  5
56B
330
1E
100
AcDbEntity
  8
0
100
AcDbLine
 10
59.0854
 20
281.7844999999999
 30
0.0
 11
59.7925
 21
282.0015
 31
0.0
  0
LINE
  5
56C
330
1E
100
AcDbEntity
  8
0
100
AcDbLine
 10
58.3783
 20
282.0015
 30
0.0
 11
59.0854
 21
281.7844999999999
 31
0.0
  0
LINE
  5
56D
330
1E
100
AcDbEntity
  8
0
100
AcDbLine
 10
58.0954
 20
282.5425
 30
0.0
 11
58.3783
 21
283.0845
 31
0.0
  0
LINE
  5
56E
330
1E
100
AcDbEntity
  8
0
100
AcDbLine
 10
58.0954
 20
282.5425
 30
0.0
 11
58.3783
 21
282.0015
 31
0.0
  0
LINE
  5
570
330
1E
100
AcDbEntity
  8
0
100
AcDbLine
 10
58.3783
 20
283.0845
 30
0.0
 11
59.0854
 21
283.3004999999999
 31
0.0
  0
LINE
  5
571
330
1E
100
AcDbEntity
  8
0
100
AcDbLine
 10
59.0854
 20
283.3004999999999
 30
0.0
 11
59.7925
 21
283.0845
 31
0.0
  0
LINE
  5
574
330
1E
100
AcDbEntity
  8
0
100
AcDbLine
 10
59.7925
 20
283.0845
 30
0.0
 11
60.0753
 21
282.5425
 31
0.0
  0
LINE
  5
576
330
1E
100
AcDbEntity
  8
0
100
AcDbLine
 10
59.7925
 20
282.0015
 30
0.0
 11
60.0753
 21
282.5425
 31
0.0
  0
LINE
  5
577
330
1E
100
AcDbEntity
  8
0
100
AcDbLine
 10
71.2378
 20
280.4075
 30
0.0
 11
71.99819999999999
 21
280.3754999999999
 31
0.0
  0
LINE
  5
578
330
1E
100
AcDbEntity
  8
0
100
AcDbLine
 10
71.99819999999999
 20
280.3754999999999
 30
0.0
 11
72.51949999999999
 21
279.9494999999999
 31
0.0
  0
LINE
  5
579
330
1E
100
AcDbEntity
  8
0
100
AcDbLine
 10
77.72499999999999
 20
283.2094999999999
 30
0.0
 11
78.4862
 21
283.2275
 31
0.0
  0
LINE
  5
57A
330
1E
100
AcDbEntity
  8
0
100
AcDbLine
 10
77.1573
 20
283.5984999999999
 30
0.0
 11
77.72499999999999
 21
283.2094999999999
 31
0.0
  0
LINE
  5
57D
330
1E
100
AcDbEntity
  8
0
100
AcDbLine
 10
79.0524
 20
280.4155
 30
0.0
 11
79.6509
 21
280.7764999999999
 31
0.0
  0
LINE
  5
57F
330
1E
100
AcDbEntity
  8
0
100
AcDbLine
 10
79.6509
 20
280.7764999999999
 30
0.0
 11
80.4047
 21
280.6934999999999
 31
0.0
  0
LINE
  5
580
330
1E
100
AcDbEntity
  8
0
100
AcDbLine
 10
80.4047
 20
280.6934999999999
 30
0.0
 11
80.87560000000001
 21
280.2345
 31
0.0
  0
LINE
  5
581
330
1E
100
AcDbEntity
  8
0
100
AcDbLine
 10
78.4862
 20
283.2275
 30
0.0
 11
78.9939
 21
283.6625
 31
0.0
  0
LINE
  5
582
330
1E
100
AcDbEntity
  8
0
100
AcDbLine
 10
54.1312
 20
284.0824999999999
 30
0.0
 11
54.6989
 21
284.4705
 31
0.0
  0
LINE
  5
583
330
1E
100
AcDbEntity
  8
0
100
AcDbLine
 10
53.36999999999999
 20
284.0994999999999
 30
0.0
 11
54.1312
 21
284.0824999999999
 31
0.0
  0
LINE
  5
584
330
1E
100
AcDbEntity
  8
0
100
AcDbLine
 10
54.6989
 20
284.4705
 30
0.0
 11
54.7228
 21
285.0534999999999
 31
0.0
  0
LINE
  5
585
330
1E
100
AcDbEntity
  8
0
100
AcDbLine
 10
67.50579999999999
 20
284.2235
 30
0.0
 11
68.2348
 21
284.3914999999999
 31
0.0
  0
LINE
  5
586
330
1E
100
AcDbEntity
  8
0
100
AcDbLine
 10
52.86229999999999
 20
284.5345
 30
0.0
 11
52.8863
 21
285.1185
 31
0.0
  0
LINE
  5
587
330
1E
100
AcDbEntity
  8
0
100
AcDbLine
 10
52.86229999999999
 20
284.5345
 30
0.0
 11
53.36999999999999
 21
284.0994999999999
 31
0.0
  0
LINE
  5
588
330
1E
100
AcDbEntity
  8
0
100
AcDbLine
 10
66.826
 20
284.4865
 30
0.0
 11
67.50579999999999
 21
284.2235
 31
0.0
  0
LINE
  5
589
330
1E
100
AcDbEntity
  8
0
100
AcDbLine
 10
68.2348
 20
284.3914999999999
 30
0.0
 11
68.5782
 21
284.9125
 31
0.0
  0
LINE
  5
58A
330
1E
100
AcDbEntity
  8
0
100
AcDbLine
 10
77.13339999999999
 20
284.1804999999999
 30
0.0
 11
77.641
 21
284.6164999999999
 31
0.0
  0
LINE
  5
58B
330
1E
100
AcDbEntity
  8
0
100
AcDbLine
 10
77.13339999999999
 20
284.1804999999999
 30
0.0
 11
77.1573
 21
283.5984999999999
 31
0.0
  0
LINE
  5
58C
330
1E
100
AcDbEntity
  8
0
100
AcDbLine
 10
77.641
 20
284.6164999999999
 30
0.0
 11
78.40219999999999
 21
284.6344999999999
 31
0.0
  0
LINE
  5
58D
330
1E
100
AcDbEntity
  8
0
100
AcDbLine
 10
78.40219999999999
 20
284.6344999999999
 30
0.0
 11
78.96989999999999
 21
284.2465
 31
0.0
  0
LINE
  5
58E
330
1E
100
AcDbEntity
  8
0
100
AcDbLine
 10
78.96989999999999
 20
284.2465
 30
0.0
 11
78.9939
 21
283.6625
 31
0.0
  0
LINE
  5
58F
330
1E
100
AcDbEntity
  8
0
100
AcDbLine
 10
85.70829999999999
 20
284.0794999999999
 30
0.0
 11
85.75079999999999
 21
284.6614999999999
 31
0.0
  0
LINE
  5
590
330
1E
100
AcDbEntity
  8
0
100
AcDbLine
 10
85.70829999999999
 20
284.0794999999999
 30
0.0
 11
86.2296
 21
283.6545
 31
0.0
  0
LINE
  5
591
330
1E
100
AcDbEntity
  8
0
100
AcDbLine
 10
86.2296
 20
283.6545
 30
0.0
 11
86.98999999999999
 21
283.6215
 31
0.0
  0
LINE
  5
592
330
1E
100
AcDbEntity
  8
0
100
AcDbLine
 10
85.75079999999999
 20
284.6614999999999
 30
0.0
 11
86.30599999999999
 21
285.0615
 31
0.0
  0
LINE
  5
593
330
1E
100
AcDbEntity
  8
0
100
AcDbLine
 10
52.8863
 20
285.1185
 30
0.0
 11
53.45399999999999
 21
285.5074999999999
 31
0.0
  0
LINE
  5
594
330
1E
100
AcDbEntity
  8
0
100
AcDbLine
 10
53.45399999999999
 20
285.5074999999999
 30
0.0
 11
54.21520000000001
 21
285.4884999999999
 31
0.0
  0
LINE
  5
595
330
1E
100
AcDbEntity
  8
0
100
AcDbLine
 10
54.21520000000001
 20
285.4884999999999
 30
0.0
 11
54.7228
 21
285.0534999999999
 31
0.0
  0
LINE
  5
597
330
1E
100
AcDbEntity
  8
0
100
AcDbLine
 10
66.6059
 20
285.0445
 30
0.0
 11
66.9492
 21
285.5655
 31
0.0
  0
LINE
  5
598
330
1E
100
AcDbEntity
  8
0
100
AcDbLine
 10
66.6059
 20
285.0445
 30
0.0
 11
66.826
 21
284.4865
 31
0.0
  0
LINE
  5
599
330
1E
100
AcDbEntity
  8
0
100
AcDbLine
 10
66.9492
 20
285.5655
 30
0.0
 11
67.6783
 21
285.7345
 31
0.0
  0
LINE
  5
59B
330
1E
100
AcDbEntity
  8
0
100
AcDbLine
 10
67.6783
 20
285.7345
 30
0.0
 11
68.35809999999999
 21
285.4705
 31
0.0
  0
LINE
  5
59C
330
1E
100
AcDbEntity
  8
0
100
AcDbLine
 10
68.35809999999999
 20
285.4705
 30
0.0
 11
68.5782
 21
284.9125
 31
0.0
  0
LINE
  5
59D
330
1E
100
AcDbEntity
  8
0
100
AcDbLine
 10
75.193
 20
286.7554999999999
 30
0.0
 11
75.9384
 21
286.8745
 31
0.0
  0
LINE
  5
59E
330
1E
100
AcDbEntity
  8
0
100
AcDbLine
 10
74.5457
 20
287.0634999999999
 30
0.0
 11
75.193
 21
286.7554999999999
 31
0.0
  0
LINE
  5
59F
330
1E
100
AcDbEntity
  8
0
100
AcDbLine
 10
61.7386
 20
288.1734999999999
 30
0.0
 11
62.3484
 21
288.5224999999999
 31
0.0
  0
LINE
  5
5A0
330
1E
100
AcDbEntity
  8
0
100
AcDbLine
 10
60.9824
 20
288.2424999999999
 30
0.0
 11
61.7386
 21
288.1734999999999
 31
0.0
  0
LINE
  5
5A1
330
1E
100
AcDbEntity
  8
0
100
AcDbLine
 10
74.39
 20
287.6345
 30
0.0
 11
74.79130000000001
 21
288.1304999999999
 31
0.0
  0
LINE
  5
5A2
330
1E
100
AcDbEntity
  8
0
100
AcDbLine
 10
74.39
 20
287.6345
 30
0.0
 11
74.5457
 21
287.0634999999999
 31
0.0
  0
LINE
  5
5A3
330
1E
100
AcDbEntity
  8
0
100
AcDbLine
 10
74.79130000000001
 20
288.1304999999999
 30
0.0
 11
75.53679999999999
 21
288.2495
 31
0.0
  0
LINE
  5
5A6
330
1E
100
AcDbEntity
  8
0
100
AcDbLine
 10
60.5262
 20
288.7095
 30
0.0
 11
60.6164
 21
289.2894999999999
 31
0.0
  0
LINE
  5
5A7
330
1E
100
AcDbEntity
  8
0
100
AcDbLine
 10
60.5262
 20
288.7095
 30
0.0
 11
60.9824
 21
288.2424999999999
 31
0.0
  0
LINE
  5
5A9
330
1E
100
AcDbEntity
  8
0
100
AcDbLine
 10
62.3484
 20
288.5224999999999
 30
0.0
 11
62.4386
 21
289.1025
 31
0.0
  0
LINE
  5
5AD
330
1E
100
AcDbEntity
  8
0
100
AcDbLine
 10
75.53679999999999
 20
288.2495
 30
0.0
 11
76.184
 21
287.9415
 31
0.0
  0
LINE
  5
5AF
330
1E
100
AcDbEntity
  8
0
100
AcDbLine
 10
76.184
 20
287.9415
 30
0.0
 11
76.3398
 21
287.3715
 31
0.0
  0
LINE
  5
5B1
330
1E
100
AcDbEntity
  8
0
100
AcDbLine
 10
75.9384
 20
286.8745
 30
0.0
 11
76.3398
 21
287.3715
 31
0.0
  0
LINE
  5
5B2
330
1E
100
AcDbEntity
  8
0
100
AcDbLine
 10
82.90899999999998
 20
288.6775
 30
0.0
 11
83.51879999999999
 21
288.3295
 31
0.0
  0
LINE
  5
5B3
330
1E
100
AcDbEntity
  8
0
100
AcDbLine
 10
60.6164
 20
289.2894999999999
 30
0.0
 11
61.2262
 21
289.6385
 31
0.0
  0
LINE
  5
5B4
330
1E
100
AcDbEntity
  8
0
100
AcDbLine
 10
61.2262
 20
289.6385
 30
0.0
 11
61.9824
 21
289.5694999999999
 31
0.0
  0
LINE
  5
5B5
330
1E
100
AcDbEntity
  8
0
100
AcDbLine
 10
61.9824
 20
289.5694999999999
 30
0.0
 11
62.4386
 21
289.1025
 31
0.0
  0
LINE
  5
5B7
330
1E
100
AcDbEntity
  8
0
100
AcDbLine
 10
82.81879999999999
 20
289.2574999999999
 30
0.0
 11
83.275
 21
289.7244999999999
 31
0.0
  0
LINE
  5
5B8
330
1E
100
AcDbEntity
  8
0
100
AcDbLine
 10
82.81879999999999
 20
289.2574999999999
 30
0.0
 11
82.90899999999998
 21
288.6775
 31
0.0
  0
LINE
  5
5BA
330
1E
100
AcDbEntity
  8
0
100
AcDbLine
 10
83.51879999999999
 20
288.3295
 30
0.0
 11
84.275
 21
288.3985
 31
0.0
  0
LINE
  5
5BB
330
1E
100
AcDbEntity
  8
0
100
AcDbLine
 10
83.275
 20
289.7244999999999
 30
0.0
 11
84.03119999999999
 21
289.7945
 31
0.0
  0
LINE
  5
5BD
330
1E
100
AcDbEntity
  8
0
100
AcDbLine
 10
71.8954
 20
289.9115
 30
0.0
 11
72.6025
 21
290.1284999999999
 31
0.0
  0
LINE
  5
5BE
330
1E
100
AcDbEntity
  8
0
100
AcDbLine
 10
71.18829999999999
 20
290.1284999999999
 30
0.0
 11
71.8954
 21
289.9115
 31
0.0
  0
LINE
  5
5BF
330
1E
100
AcDbEntity
  8
0
100
AcDbLine
 10
72.6025
 20
290.1284999999999
 30
0.0
 11
72.88540000000001
 21
290.6705
 31
0.0
  0
LINE
  5
5C1
330
1E
100
AcDbEntity
  8
0
100
AcDbLine
 10
54.5556
 20
290.3745
 30
0.0
 11
54.9726
 21
290.8625
 31
0.0
  0
LINE
  5
5C2
330
1E
100
AcDbEntity
  8
0
100
AcDbLine
 10
53.8141
 20
290.2414999999999
 30
0.0
 11
54.5556
 21
290.3745
 31
0.0
  0
LINE
  5
5C3
330
1E
100
AcDbEntity
  8
0
100
AcDbLine
 10
53.1769
 20
290.5604999999999
 30
0.0
 11
53.8141
 21
290.2414999999999
 31
0.0
  0
LINE
  5
5C5
330
1E
100
AcDbEntity
  8
0
100
AcDbLine
 10
53.003
 20
291.1284999999999
 30
0.0
 11
53.42
 21
291.6174999999999
 31
0.0
  0
LINE
  5
5C6
330
1E
100
AcDbEntity
  8
0
100
AcDbLine
 10
53.003
 20
291.1284999999999
 30
0.0
 11
53.1769
 21
290.5604999999999
 31
0.0
  0
LINE
  5
5C7
330
1E
100
AcDbEntity
  8
0
100
AcDbLine
 10
70.9055
 20
290.6705
 30
0.0
 11
71.18829999999999
 21
291.2115
 31
0.0
  0
LINE
  5
5C8
330
1E
100
AcDbEntity
  8
0
100
AcDbLine
 10
70.9055
 20
290.6705
 30
0.0
 11
71.18829999999999
 21
290.1284999999999
 31
0.0
  0
LINE
  5
5C9
330
1E
100
AcDbEntity
  8
0
100
AcDbLine
 10
71.18829999999999
 20
291.2115
 30
0.0
 11
71.8954
 21
291.4284999999999
 31
0.0
  0
LINE
  5
5CA
330
1E
100
AcDbEntity
  8
0
100
AcDbLine
 10
53.42
 20
291.6174999999999
 30
0.0
 11
54.1614
 21
291.7504999999999
 31
0.0
  0
LINE
  5
5CB
330
1E
100
AcDbEntity
  8
0
100
AcDbLine
 10
54.7987
 20
291.4305
 30
0.0
 11
54.9726
 21
290.8625
 31
0.0
  0
LINE
  5
5CC
330
1E
100
AcDbEntity
  8
0
100
AcDbLine
 10
71.8954
 20
291.4284999999999
 30
0.0
 11
72.6025
 21
291.2115
 31
0.0
  0
LINE
  5
5CD
330
1E
100
AcDbEntity
  8
0
100
AcDbLine
 10
72.6025
 20
291.2115
 30
0.0
 11
72.88540000000001
 21
290.6705
 31
0.0
  0
LINE
  5
5D1
330
1E
100
AcDbEntity
  8
0
100
AcDbLine
 10
84.03119999999999
 20
289.7945
 30
0.0
 11
84.641
 21
289.4445
 31
0.0
  0
LINE
  5
5D6
330
1E
100
AcDbEntity
  8
0
100
AcDbLine
 10
84.641
 20
289.4445
 30
0.0
 11
84.73119999999999
 21
288.8645
 31
0.0
  0
LINE
  5
5D8
330
1E
100
AcDbEntity
  8
0
100
AcDbLine
 10
84.275
 20
288.3985
 30
0.0
 11
84.73119999999999
 21
288.8645
 31
0.0
  0
LINE
  5
5DB
330
1E
100
AcDbEntity
  8
0
100
AcDbLine
 10
86.30599999999999
 20
285.0615
 30
0.0
 11
87.0664
 21
285.0284999999999
 31
0.0
  0
LINE
  5
5DD
330
1E
100
AcDbEntity
  8
0
100
AcDbLine
 10
87.0664
 20
285.0284999999999
 30
0.0
 11
87.5877
 21
284.6044999999999
 31
0.0
  0
LINE
  5
5E1
330
1E
100
AcDbEntity
  8
0
100
AcDbLine
 10
87.54519999999999
 20
284.0205
 30
0.0
 11
87.5877
 21
284.6044999999999
 31
0.0
  0
LINE
  5
5E2
330
1E
100
AcDbEntity
  8
0
100
AcDbLine
 10
86.98999999999999
 20
283.6215
 30
0.0
 11
87.54519999999999
 21
284.0205
 31
0.0
  0
LINE
  5
5E4
330
1E
100
AcDbEntity
  8
0
100
AcDbLine
 10
88.23390000000001
 20
280.0654999999999
 30
0.0
 11
88.97530000000001
 21
279.9325
 31
0.0
  0
LINE
  5
5E8
330
1E
100
AcDbEntity
  8
0
100
AcDbLine
 10
89.0
 20
274.8895
 30
0.0
 11
89.7
 21
274.6594999999999
 31
0.0
  0
LINE
  5
5EB
330
1E
100
AcDbEntity
  8
0
100
AcDbLine
 10
89.7
 20
274.6594999999999
 30
0.0
 11
90.0
 21
274.1234999999999
 31
0.0
  0
LINE
  5
5EE
330
1E
100
AcDbEntity
  8
0
100
AcDbLine
 10
98.2
 20
291.0814999999999
 30
0.0
 11
100.0
 21
281.2755
 31
0.0
  0
LINE
  5
5F1
330
1E
100
AcDbEntity
  8
0
100
AcDbLine
 10
88.97530000000001
 20
279.9325
 30
0.0
 11
89.3923
 21
279.4445
 31
0.0
  0
LINE
  5
5F3
330
1E
100
AcDbEntity
  8
0
100
AcDbLine
 10
89.21840000000001
 20
278.8765
 30
0.0
 11
89.3923
 21
279.4445
 31
0.0
  0
LINE
  5
5F4
330
1E
100
AcDbEntity
  8
0
100
AcDbLine
 10
88.58119999999999
 20
278.5565
 30
0.0
 11
89.21840000000001
 21
278.8765
 31
0.0
  0
LINE
  5
5F7
330
1E
100
AcDbEntity
  8
0
100
AcDbLine
 10
50.0
 20
274.0065
 30
0.0
 11
50.7
 21
273.7765
 31
0.0
  0
LINE
  5
5F9
330
1E
100
AcDbEntity
  8
0
100
AcDbLine
 10
49.29999999999999
 20
272.7044999999999
 30
0.0
 11
50.0
 21
272.4744999999999
 31
0.0
  0
LINE
  5
5FA
330
1E
100
AcDbEntity
  8
0
100
AcDbLine
 10
41.4907
 20
296.1524999999999
 30
0.0
 11
42.2445
 21
296.0695
 31
0.0
  0
LINE
  5
5FB
330
1E
100
AcDbEntity
  8
0
100
AcDbLine
 10
42.2445
 20
296.0695
 30
0.0
 11
42.843
 21
296.4304999999999
 31
0.0
  0
LINE
  5
5FC
330
1E
100
AcDbEntity
  8
0
100
AcDbLine
 10
42.843
 20
296.4304999999999
 30
0.0
 11
42.9517
 21
297.0074999999999
 31
0.0
  0
LINE
  5
5FD
330
1E
100
AcDbEntity
  8
0
100
AcDbLine
 10
41.0198
 20
296.6105
 30
0.0
 11
41.1284
 21
297.1884999999999
 31
0.0
  0
LINE
  5
5FE
330
1E
100
AcDbEntity
  8
0
100
AcDbLine
 10
41.0198
 20
296.6105
 30
0.0
 11
41.4907
 21
296.1524999999999
 31
0.0
  0
LINE
  5
5FF
330
1E
100
AcDbEntity
  8
0
100
AcDbLine
 10
45.8386
 20
291.7504999999999
 30
0.0
 11
46.58
 21
291.6174999999999
 31
0.0
  0
LINE
  5
600
330
1E
100
AcDbEntity
  8
0
100
AcDbLine
 10
47.38839999999999
 20
296.7645
 30
0.0
 11
48.0596
 21
297.0394999999999
 31
0.0
  0
LINE
  5
601
330
1E
100
AcDbEntity
  8
0
100
AcDbLine
 10
41.1284
 20
297.1884999999999
 30
0.0
 11
41.7269
 21
297.5495
 31
0.0
  0
LINE
  5
602
330
1E
100
AcDbEntity
  8
0
100
AcDbLine
 10
46.6649
 20
296.9464999999999
 30
0.0
 11
47.38839999999999
 21
296.7645
 31
0.0
  0
LINE
  5
604
330
1E
100
AcDbEntity
  8
0
100
AcDbLine
 10
48.0596
 20
297.0394999999999
 30
0.0
 11
48.29740000000001
 21
297.5935
 31
0.0
  0
LINE
  5
605
330
1E
100
AcDbEntity
  8
0
100
AcDbLine
 10
42.4807
 20
297.4655
 30
0.0
 11
42.9517
 21
297.0074999999999
 31
0.0
  0
LINE
  5
606
330
1E
100
AcDbEntity
  8
0
100
AcDbLine
 10
41.7269
 20
297.5495
 30
0.0
 11
42.4807
 21
297.4655
 31
0.0
  0
LINE
  5
608
330
1E
100
AcDbEntity
  8
0
100
AcDbLine
 10
46.305
 20
297.5463537383179
 30
0.0
 11
46.305
 21
297.4605
 31
0.0
  0
LINE
  5
60D
330
1E
100
AcDbEntity
  8
0
100
AcDbLine
 10
46.305
 20
297.4605
 30
0.0
 11
46.5429
 21
298.0144999999999
 31
0.0
  0
LINE
  5
60F
330
1E
100
AcDbEntity
  8
0
100
AcDbLine
 10
46.305
 20
297.4605
 30
0.0
 11
46.6649
 21
296.9464999999999
 31
0.0
  0
LINE
  5
610
330
1E
100
AcDbEntity
  8
0
100
AcDbLine
 10
46.305
 20
297.4605
 30
0.0
 11
46.305
 21
297.5463537383179
 31
0.0
  0
LINE
  5
611
330
1E
100
AcDbEntity
  8
0
100
AcDbLine
 10
51.9404
 20
297.0394999999999
 30
0.0
 11
52.6116
 21
296.7645
 31
0.0
  0
LINE
  5
614
330
1E
100
AcDbEntity
  8
0
100
AcDbLine
 10
52.6116
 20
296.7645
 30
0.0
 11
53.3351
 21
296.9464999999999
 31
0.0
  0
LINE
  5
615
330
1E
100
AcDbEntity
  8
0
100
AcDbLine
 10
54.1614
 20
291.7504999999999
 30
0.0
 11
54.7987
 21
291.4305
 31
0.0
  0
LINE
  5
616
330
1E
100
AcDbEntity
  8
0
100
AcDbLine
 10
66.7858
 20
293.1954999999999
 30
0.0
 11
66.9415
 21
293.7675
 31
0.0
  0
LINE
  5
617
330
1E
100
AcDbEntity
  8
0
100
AcDbLine
 10
66.7858
 20
293.1954999999999
 30
0.0
 11
67.1871
 21
292.7004999999999
 31
0.0
  0
LINE
  5
618
330
1E
100
AcDbEntity
  8
0
100
AcDbLine
 10
67.9326
 20
292.5815
 30
0.0
 11
68.57980000000001
 21
292.8885
 31
0.0
  0
LINE
  5
619
330
1E
100
AcDbEntity
  8
0
100
AcDbLine
 10
67.1871
 20
292.7004999999999
 30
0.0
 11
67.9326
 21
292.5815
 31
0.0
  0
LINE
  5
61A
330
1E
100
AcDbEntity
  8
0
100
AcDbLine
 10
66.9415
 20
293.7675
 30
0.0
 11
67.58880000000001
 21
294.0745
 31
0.0
  0
LINE
  5
61B
330
1E
100
AcDbEntity
  8
0
100
AcDbLine
 10
62.15600000000001
 20
295.1365
 30
0.0
 11
62.17999999999999
 21
295.7184999999999
 31
0.0
  0
LINE
  5
61C
330
1E
100
AcDbEntity
  8
0
100
AcDbLine
 10
62.15600000000001
 20
295.1365
 30
0.0
 11
62.6637
 21
294.7004999999999
 31
0.0
  0
LINE
  5
61D
330
1E
100
AcDbEntity
  8
0
100
AcDbLine
 10
63.4249
 20
294.6825
 30
0.0
 11
63.9926
 21
295.0715
 31
0.0
  0
LINE
  5
61E
330
1E
100
AcDbEntity
  8
0
100
AcDbLine
 10
62.6637
 20
294.7004999999999
 30
0.0
 11
63.4249
 21
294.6825
 31
0.0
  0
LINE
  5
61F
330
1E
100
AcDbEntity
  8
0
100
AcDbLine
 10
62.17999999999999
 20
295.7184999999999
 30
0.0
 11
62.7477
 21
296.1075
 31
0.0
  0
LINE
  5
621
330
1E
100
AcDbEntity
  8
0
100
AcDbLine
 10
62.7477
 20
296.1075
 30
0.0
 11
63.50889999999999
 21
296.0894999999999
 31
0.0
  0
LINE
  5
623
330
1E
100
AcDbEntity
  8
0
100
AcDbLine
 10
63.50889999999999
 20
296.0894999999999
 30
0.0
 11
64.0165
 21
295.6544999999999
 31
0.0
  0
LINE
  5
624
330
1E
100
AcDbEntity
  8
0
100
AcDbLine
 10
63.9926
 20
295.0715
 30
0.0
 11
64.0165
 21
295.6544999999999
 31
0.0
  0
LINE
  5
625
330
1E
100
AcDbEntity
  8
0
100
AcDbLine
 10
58.5093
 20
296.1524999999999
 30
0.0
 11
58.9802
 21
296.6105
 31
0.0
  0
LINE
  5
626
330
1E
100
AcDbEntity
  8
0
100
AcDbLine
 10
57.75549999999999
 20
296.0695
 30
0.0
 11
58.5093
 21
296.1524999999999
 31
0.0
  0
LINE
  5
628
330
1E
100
AcDbEntity
  8
0
100
AcDbLine
 10
57.157
 20
296.4304999999999
 30
0.0
 11
57.75549999999999
 21
296.0695
 31
0.0
  0
LINE
  5
629
330
1E
100
AcDbEntity
  8
0
100
AcDbLine
 10
67.58880000000001
 20
294.0745
 30
0.0
 11
68.3342
 21
293.9555
 31
0.0
  0
LINE
  5
62A
330
1E
100
AcDbEntity
  8
0
100
AcDbLine
 10
68.3342
 20
293.9555
 30
0.0
 11
68.73560000000001
 21
293.4594999999999
 31
0.0
  0
LINE
  5
62B
330
1E
100
AcDbEntity
  8
0
100
AcDbLine
 10
68.57980000000001
 20
292.8885
 30
0.0
 11
68.73560000000001
 21
293.4594999999999
 31
0.0
  0
LINE
  5
62D
330
1E
100
AcDbEntity
  8
0
100
AcDbLine
 10
75.155
 20
296.2545
 30
0.0
 11
75.8348
 21
296.5174999999999
 31
0.0
  0
LINE
  5
62E
330
1E
100
AcDbEntity
  8
0
100
AcDbLine
 10
74.4259
 20
296.4225
 30
0.0
 11
75.155
 21
296.2545
 31
0.0
  0
LINE
  5
62F
330
1E
100
AcDbEntity
  8
0
100
AcDbLine
 10
74.08249999999999
 20
296.9434999999999
 30
0.0
 11
74.3027
 21
297.5015
 31
0.0
  0
LINE
  5
630
330
1E
100
AcDbEntity
  8
0
100
AcDbLine
 10
74.08249999999999
 20
296.9434999999999
 30
0.0
 11
74.4259
 21
296.4225
 31
0.0
  0
LINE
  5
631
330
1E
100
AcDbEntity
  8
0
100
AcDbLine
 10
79.78950000000001
 20
292.5724999999999
 30
0.0
 11
80.51849999999999
 21
292.7404999999999
 31
0.0
  0
LINE
  5
632
330
1E
100
AcDbEntity
  8
0
100
AcDbLine
 10
79.1097
 20
292.8355
 30
0.0
 11
79.78950000000001
 21
292.5724999999999
 31
0.0
  0
LINE
  5
633
330
1E
100
AcDbEntity
  8
0
100
AcDbLine
 10
78.8895
 20
293.3935
 30
0.0
 11
79.2329
 21
293.9144999999999
 31
0.0
  0
LINE
  5
634
330
1E
100
AcDbEntity
  8
0
100
AcDbLine
 10
78.8895
 20
293.3935
 30
0.0
 11
79.1097
 21
292.8355
 31
0.0
  0
LINE
  5
635
330
1E
100
AcDbEntity
  8
0
100
AcDbLine
 10
79.2329
 20
293.9144999999999
 30
0.0
 11
79.962
 21
294.0824999999999
 31
0.0
  0
LINE
  5
63A
330
1E
100
AcDbEntity
  8
0
100
AcDbLine
 10
79.962
 20
294.0824999999999
 30
0.0
 11
80.6418
 21
293.8194999999999
 31
0.0
  0
LINE
  5
63E
330
1E
100
AcDbEntity
  8
0
100
AcDbLine
 10
80.6418
 20
293.8194999999999
 30
0.0
 11
80.8619
 21
293.2615
 31
0.0
  0
LINE
  5
640
330
1E
100
AcDbEntity
  8
0
100
AcDbLine
 10
80.51849999999999
 20
292.7404999999999
 30
0.0
 11
80.8619
 21
293.2615
 31
0.0
  0
LINE
  5
641
330
1E
100
AcDbEntity
  8
0
100
AcDbLine
 10
75.8348
 20
296.5174999999999
 30
0.0
 11
76.0549
 21
297.0755
 31
0.0
  0
LINE
  5
642
330
1E
100
AcDbEntity
  8
0
100
AcDbLine
 10
53.695
 20
297.5463537383179
 30
0.0
 11
53.695
 21
297.4605
 31
0.0
  0
LINE
  5
644
330
1E
100
AcDbEntity
  8
0
100
AcDbLine
 10
57.0483
 20
297.0074999999999
 30
0.0
 11
57.5193
 21
297.4655
 31
0.0
  0
LINE
  5
645
330
1E
100
AcDbEntity
  8
0
100
AcDbLine
 10
57.0483
 20
297.0074999999999
 30
0.0
 11
57.157
 21
296.4304999999999
 31
0.0
  0
LINE
  5
646
330
1E
100
AcDbEntity
  8
0
100
AcDbLine
 10
57.5193
 20
297.4655
 30
0.0
 11
58.2731
 21
297.5495
 31
0.0
  0
LINE
  5
647
330
1E
100
AcDbEntity
  8
0
100
AcDbLine
 10
58.8716
 20
297.1884999999999
 30
0.0
 11
58.9802
 21
296.6105
 31
0.0
  0
LINE
  5
649
330
1E
100
AcDbEntity
  8
0
100
AcDbLine
 10
58.2731
 20
297.5495
 30
0.0
 11
58.8716
 21
297.1884999999999
 31
0.0
  0
LINE
  5
64B
330
1E
100
AcDbEntity
  8
0
100
AcDbLine
 10
74.3027
 20
297.5015
 30
0.0
 11
74.9824
 21
297.7644999999999
 31
0.0
  0
LINE
  5
64D
330
1E
100
AcDbEntity
  8
0
100
AcDbLine
 10
53.695
 20
297.4605
 30
0.0
 11
53.695
 21
297.5463537383179
 31
0.0
  0
LINE
  5
64E
330
1E
100
AcDbEntity
  8
0
100
AcDbLine
 10
53.3351
 20
296.9464999999999
 30
0.0
 11
53.695
 21
297.4605
 31
0.0
  0
LINE
  5
654
330
1E
100
AcDbEntity
  8
0
100
AcDbLine
 10
47.9376
 20
298.1084999999999
 30
0.0
 11
48.29740000000001
 21
297.5935
 31
0.0
  0
LINE
  5
656
330
1E
100
AcDbEntity
  8
0
100
AcDbLine
 10
47.2141
 20
298.2905
 30
0.0
 11
47.9376
 21
298.1084999999999
 31
0.0
  0
LINE
  5
658
330
1E
100
AcDbEntity
  8
0
100
AcDbLine
 10
46.5429
 20
298.0144999999999
 30
0.0
 11
47.2141
 21
298.2905
 31
0.0
  0
LINE
  5
65A
330
1E
100
AcDbEntity
  8
0
100
AcDbLine
 10
74.9824
 20
297.7644999999999
 30
0.0
 11
75.7115
 21
297.5965
 31
0.0
  0
LINE
  5
65C
330
1E
100
AcDbEntity
  8
0
100
AcDbLine
 10
75.7115
 20
297.5965
 30
0.0
 11
76.0549
 21
297.0755
 31
0.0
  0
LINE
  5
65E
330
1E
100
AcDbEntity
  8
0
100
AcDbLine
 10
53.4571
 20
298.0144999999999
 30
0.0
 11
53.695
 21
297.4605
 31
0.0
  0
LINE
  5
660
330
1E
100
AcDbEntity
  8
0
100
AcDbLine
 10
69.75620000000001
 20
299.2644999999999
 30
0.0
 11
70.36599999999999
 21
299.6134999999999
 31
0.0
  0
LINE
  5
661
330
1E
100
AcDbEntity
  8
0
100
AcDbLine
 10
69.0
 20
299.3325
 30
0.0
 11
69.75620000000001
 21
299.2644999999999
 31
0.0
  0
LINE
  5
662
330
1E
100
AcDbEntity
  8
0
100
AcDbLine
 10
68.5438
 20
299.8005
 30
0.0
 11
68.634
 21
300.3795
 31
0.0
  0
LINE
  5
663
330
1E
100
AcDbEntity
  8
0
100
AcDbLine
 10
68.5438
 20
299.8005
 30
0.0
 11
69.0
 21
299.3325
 31
0.0
  0
LINE
  5
665
330
1E
100
AcDbEntity
  8
0
100
AcDbLine
 10
68.634
 20
300.3795
 30
0.0
 11
69.24379999999999
 21
300.7294999999999
 31
0.0
  0
LINE
  5
668
330
1E
100
AcDbEntity
  8
0
100
AcDbLine
 10
69.24379999999999
 20
300.7294999999999
 30
0.0
 11
70.0
 21
300.6605
 31
0.0
  0
LINE
  5
66B
330
1E
100
AcDbEntity
  8
0
100
AcDbLine
 10
70.0
 20
300.6605
 30
0.0
 11
70.45619999999999
 21
300.1924999999999
 31
0.0
  0
LINE
  5
66D
330
1E
100
AcDbEntity
  8
0
100
AcDbLine
 10
70.36599999999999
 20
299.6134999999999
 30
0.0
 11
70.45619999999999
 21
300.1924999999999
 31
0.0
  0
LINE
  5
670
330
1E
100
AcDbEntity
  8
0
100
AcDbLine
 10
93.3
 20
300.3505
 30
0.0
 11
98.2
 21
291.0814999999999
 31
0.0
  0
LINE
  5
672
330
1E
100
AcDbEntity
  8
0
100
AcDbLine
 10
52.7859
 20
298.2905
 30
0.0
 11
53.4571
 21
298.0144999999999
 31
0.0
  0
LINE
  5
674
330
1E
100
AcDbEntity
  8
0
100
AcDbLine
 10
52.0624
 20
298.1084999999999
 30
0.0
 11
52.7859
 21
298.2905
 31
0.0
  0
LINE
  5
676
330
1E
100
AcDbEntity
  8
0
100
AcDbLine
 10
51.70259999999999
 20
297.5935
 30
0.0
 11
52.0624
 21
298.1084999999999
 31
0.0
  0
LINE
  5
677
330
1E
100
AcDbEntity
  8
0
100
AcDbLine
 10
51.70259999999999
 20
297.5935
 30
0.0
 11
51.9404
 21
297.0394999999999
 31
0.0
  0
LINE
  5
678
330
1E
100
AcDbEntity
  8
0
100
AcDbLine
 10
93.3
 20
300.9935
 30
0.0
 11
98.2
 21
291.7235
 31
0.0
  0
LINE
  5
679
330
1E
100
AcDbEntity
  8
0
100
AcDbLine
 10
98.2
 20
291.7235
 30
0.0
 11
100.0
 21
281.9185
 31
0.0
  0
LINE
  5
67A
330
1E
100
AcDbEntity
  8
0
100
AcDbLine
 10
100.0
 20
279.6685
 30
0.0
 11
100.0
 21
281.2755
 31
0.0
  0
LINE
  5
67B
330
1E
100
AcDbEntity
  8
0
100
AcDbLine
 10
100.0
 20
281.2755
 30
0.0
 11
100.0
 21
279.6685
 31
0.0
  0
LINE
  5
67C
330
1E
100
AcDbEntity
  8
0
100
AcDbLine
 10
99.94098210188161
 20
281.5970163938609
 30
0.0
 11
100.0
 21
281.9185
 31
0.0
  0
LINE
  5
67D
330
1E
100
AcDbEntity
  8
0
100
AcDbLine
 10
100.0
 20
288.6684999999999
 30
0.0
 11
100.0
 21
281.9185
 31
0.0
  0
LINE
  5
67E
330
1E
100
AcDbEntity
  8
0
100
AcDbLine
 10
100.0
 20
281.9185
 30
0.0
 11
100.0
 21
288.6684999999999
 31
0.0
  0
LINE
  5
67F
330
1E
100
AcDbEntity
  8
0
100
AcDbLine
 10
98.2
 20
298.4725
 30
0.0
 11
100.0
 21
288.6684999999999
 31
0.0
  0
LINE
  5
680
330
1E
100
AcDbEntity
  8
0
100
AcDbLine
 10
62.0
 20
240.6369
 30
0.0
 11
62.0
 21
230.3157
 31
0.0
  0
LINE
  5
681
330
1E
100
AcDbEntity
  8
0
100
AcDbLine
 10
62.0
 20
240.6369
 30
0.0
 11
62.08326510920049
 21
240.964054294732
 31
0.0
  0
LINE
  5
682
330
1E
100
AcDbEntity
  8
0
100
AcDbLine
 10
38.10337569936929
 20
116.112856405019
 30
0.0
 11
38.288
 21
115.7413
 31
0.0
  0
LINE
  5
683
330
1E
100
AcDbEntity
  8
0
100
AcDbLine
 10
38.288
 20
115.7413
 30
0.0
 11
38.669205167191
 21
115.0507186022139
 31
0.0
  0
LINE
  5
684
330
1E
100
AcDbEntity
  8
0
100
AcDbLine
 10
38.0
 20
120.5708999999999
 30
0.0
 11
38.0
 21
116.3208999999999
 31
0.0
  0
LINE
  5
685
330
1E
100
AcDbEntity
  8
0
100
AcDbLine
 10
38.0
 20
120.5708999999999
 30
0.0
 11
38.0
 21
136.7634999999999
 31
0.0
  0
LINE
  5
68A
330
1E
100
AcDbEntity
  8
0
100
AcDbLine
 10
36.2428
 20
301.5095
 30
0.0
 11
37.0032
 21
301.4775
 31
0.0
  0
LINE
  5
68B
330
1E
100
AcDbEntity
  8
0
100
AcDbLine
 10
37.0032
 20
301.4775
 30
0.0
 11
37.5584
 21
301.8775
 31
0.0
  0
LINE
  5
68D
330
1E
100
AcDbEntity
  8
0
100
AcDbLine
 10
37.5584
 20
301.8775
 30
0.0
 11
37.6009
 21
302.4595
 31
0.0
  0
LINE
  5
68E
330
1E
100
AcDbEntity
  8
0
100
AcDbLine
 10
35.764
 20
302.5185
 30
0.0
 11
36.3192
 21
302.9175
 31
0.0
  0
LINE
  5
690
330
1E
100
AcDbEntity
  8
0
100
AcDbLine
 10
35.7215
 20
301.9355
 30
0.0
 11
35.764
 21
302.5185
 31
0.0
  0
LINE
  5
691
330
1E
100
AcDbEntity
  8
0
100
AcDbLine
 10
35.7215
 20
301.9355
 30
0.0
 11
36.2428
 21
301.5095
 31
0.0
  0
LINE
  5
693
330
1E
100
AcDbEntity
  8
0
100
AcDbLine
 10
37.07959999999999
 20
302.8855
 30
0.0
 11
37.6009
 21
302.4595
 31
0.0
  0
LINE
  5
696
330
1E
100
AcDbEntity
  8
0
100
AcDbLine
 10
36.3192
 20
302.9175
 30
0.0
 11
37.07959999999999
 21
302.8855
 31
0.0
  0
LINE
  5
698
330
1E
100
AcDbEntity
  8
0
100
AcDbLine
 10
42.6599
 20
302.9245
 30
0.0
 11
43.4014
 21
302.7905
 31
0.0
  0
LINE
  5
699
330
1E
100
AcDbEntity
  8
0
100
AcDbLine
 10
43.4014
 20
302.7905
 30
0.0
 11
44.0386
 21
303.1095
 31
0.0
  0
LINE
  5
69A
330
1E
100
AcDbEntity
  8
0
100
AcDbLine
 10
44.0386
 20
303.1095
 30
0.0
 11
44.21249999999999
 21
303.6785
 31
0.0
  0
LINE
  5
69E
330
1E
100
AcDbEntity
  8
0
100
AcDbLine
 10
42.4168
 20
303.9805
 30
0.0
 11
43.0541
 21
304.2995
 31
0.0
  0
LINE
  5
6A0
330
1E
100
AcDbEntity
  8
0
100
AcDbLine
 10
42.24289999999999
 20
303.4125
 30
0.0
 11
42.4168
 21
303.9805
 31
0.0
  0
LINE
  5
6A1
330
1E
100
AcDbEntity
  8
0
100
AcDbLine
 10
42.24289999999999
 20
303.4125
 30
0.0
 11
42.6599
 21
302.9245
 31
0.0
  0
LINE
  5
6A3
330
1E
100
AcDbEntity
  8
0
100
AcDbLine
 10
49.29999999999999
 20
303.4635
 30
0.0
 11
50.0
 21
303.2325
 31
0.0
  0
LINE
  5
6A5
330
1E
100
AcDbEntity
  8
0
100
AcDbLine
 10
50.0
 20
303.2325
 30
0.0
 11
50.7
 21
303.4635
 31
0.0
  0
LINE
  5
6A7
330
1E
100
AcDbEntity
  8
0
100
AcDbLine
 10
62.9968
 20
301.4775
 30
0.0
 11
63.7572
 21
301.5095
 31
0.0
  0
LINE
  5
6AA
330
1E
100
AcDbEntity
  8
0
100
AcDbLine
 10
62.4416
 20
301.8775
 30
0.0
 11
62.9968
 21
301.4775
 31
0.0
  0
LINE
  5
6AB
330
1E
100
AcDbEntity
  8
0
100
AcDbLine
 10
56.5986
 20
302.7905
 30
0.0
 11
57.3401
 21
302.9245
 31
0.0
  0
LINE
  5
6AC
330
1E
100
AcDbEntity
  8
0
100
AcDbLine
 10
62.3991
 20
302.4595
 30
0.0
 11
62.9204
 21
302.8855
 31
0.0
  0
LINE
  5
6AD
330
1E
100
AcDbEntity
  8
0
100
AcDbLine
 10
62.3991
 20
302.4595
 30
0.0
 11
62.4416
 21
301.8775
 31
0.0
  0
LINE
  5
6AF
330
1E
100
AcDbEntity
  8
0
100
AcDbLine
 10
63.7572
 20
301.5095
 30
0.0
 11
64.27849999999999
 21
301.9355
 31
0.0
  0
LINE
  5
6B0
330
1E
100
AcDbEntity
  8
0
100
AcDbLine
 10
62.9204
 20
302.8855
 30
0.0
 11
63.68079999999999
 21
302.9175
 31
0.0
  0
LINE
  5
6B3
330
1E
100
AcDbEntity
  8
0
100
AcDbLine
 10
57.3401
 20
302.9245
 30
0.0
 11
57.7571
 21
303.4125
 31
0.0
  0
LINE
  5
6B4
330
1E
100
AcDbEntity
  8
0
100
AcDbLine
 10
55.9614
 20
303.1095
 30
0.0
 11
56.5986
 21
302.7905
 31
0.0
  0
LINE
  5
6B5
330
1E
100
AcDbEntity
  8
0
100
AcDbLine
 10
63.68079999999999
 20
302.9175
 30
0.0
 11
64.236
 21
302.5185
 31
0.0
  0
LINE
  5
6B9
330
1E
100
AcDbEntity
  8
0
100
AcDbLine
 10
64.236
 20
302.5185
 30
0.0
 11
64.27849999999999
 21
301.9355
 31
0.0
  0
LINE
  5
6BD
330
1E
100
AcDbEntity
  8
0
100
AcDbLine
 10
55.7875
 20
303.6785
 30
0.0
 11
56.2045
 21
304.1665
 31
0.0
  0
LINE
  5
6BE
330
1E
100
AcDbEntity
  8
0
100
AcDbLine
 10
55.7875
 20
303.6785
 30
0.0
 11
55.9614
 21
303.1095
 31
0.0
  0
LINE
  5
6C1
330
1E
100
AcDbEntity
  8
0
100
AcDbLine
 10
57.5832
 20
303.9805
 30
0.0
 11
57.7571
 21
303.4125
 31
0.0
  0
LINE
  5
6C5
330
1E
100
AcDbEntity
  8
0
100
AcDbLine
 10
50.7
 20
303.4635
 30
0.0
 11
51.0
 21
303.9995
 31
0.0
  0
LINE
  5
6D0
330
1E
100
AcDbEntity
  8
0
100
AcDbLine
 10
43.7955
 20
304.1665
 30
0.0
 11
44.21249999999999
 21
303.6785
 31
0.0
  0
LINE
  5
6D2
330
1E
100
AcDbEntity
  8
0
100
AcDbLine
 10
43.0541
 20
304.2995
 30
0.0
 11
43.7955
 21
304.1665
 31
0.0
  0
LINE
  5
6D8
330
1E
100
AcDbEntity
  8
0
100
AcDbLine
 10
56.2045
 20
304.1665
 30
0.0
 11
56.9459
 21
304.2995
 31
0.0
  0
LINE
  5
6DC
330
1E
100
AcDbEntity
  8
0
100
AcDbLine
 10
56.9459
 20
304.2995
 30
0.0
 11
57.5832
 21
303.9805
 31
0.0
  0
LINE
  5
6DF
330
1E
100
AcDbEntity
  8
0
100
AcDbLine
 10
50.7
 20
304.5355
 30
0.0
 11
51.0
 21
303.9995
 31
0.0
  0
LINE
  5
6E9
330
1E
100
AcDbEntity
  8
0
100
AcDbLine
 10
50.0
 20
304.7654999999999
 30
0.0
 11
50.7
 21
304.5355
 31
0.0
  0
LINE
  5
6EC
330
1E
100
AcDbEntity
  8
0
100
AcDbLine
 10
49.29999999999999
 20
304.5355
 30
0.0
 11
50.0
 21
304.7654999999999
 31
0.0
  0
LINE
  5
6EF
330
1E
100
AcDbEntity
  8
0
100
AcDbLine
 10
49.0
 20
303.9995
 30
0.0
 11
49.29999999999999
 21
304.5355
 31
0.0
  0
LINE
  5
6F0
330
1E
100
AcDbEntity
  8
0
100
AcDbLine
 10
49.0
 20
303.9995
 30
0.0
 11
49.29999999999999
 21
303.4635
 31
0.0
  0
LINE
  5
6F2
330
1E
100
AcDbEntity
  8
0
100
AcDbLine
 10
93.3
 20
307.7425
 30
0.0
 11
98.2
 21
298.4725
 31
0.0
  0
LINE
  5
6F3
330
1E
100
AcDbEntity
  8
0
100
AcDbLine
 10
6.7
 20
300.9935
 30
0.0
 11
14.69999999999999
 21
308.9605
 31
0.0
  0
LINE
  5
6F4
330
1E
100
AcDbEntity
  8
0
100
AcDbLine
 10
1.8
 20
298.4725
 30
0.0
 11
6.7
 21
307.7425
 31
0.0
  0
LINE
  5
6F5
330
1E
100
AcDbEntity
  8
0
100
AcDbLine
 10
14.69999999999999
 20
308.3175
 30
0.0
 11
25.1
 21
314.4454999999999
 31
0.0
  0
LINE
  5
6F6
330
1E
100
AcDbEntity
  8
0
100
AcDbLine
 10
25.1
 20
314.4454999999999
 30
0.0
 11
37.2
 21
318.1995
 31
0.0
  0
LINE
  5
6F7
330
1E
100
AcDbEntity
  8
0
100
AcDbLine
 10
14.69999999999999
 20
308.9605
 30
0.0
 11
25.1
 21
315.0885
 31
0.0
  0
LINE
  5
6F8
330
1E
100
AcDbEntity
  8
0
100
AcDbLine
 10
25.1
 20
315.0885
 30
0.0
 11
37.2
 21
318.8424999999999
 31
0.0
  0
LINE
  5
6F9
330
1E
100
AcDbEntity
  8
0
100
AcDbLine
 10
15.0
 20
316.1224999999999
 30
0.0
 11
25.4
 21
322.1734999999999
 31
0.0
  0
LINE
  5
6FA
330
1E
100
AcDbEntity
  8
0
100
AcDbLine
 10
62.8
 20
318.1995
 30
0.0
 11
74.90000000000001
 21
314.4454999999999
 31
0.0
  0
LINE
  5
6FB
330
1E
100
AcDbEntity
  8
0
100
AcDbLine
 10
37.2
 20
318.1995
 30
0.0
 11
50.0
 21
319.5774999999999
 31
0.0
  0
LINE
  5
6FC
330
1E
100
AcDbEntity
  8
0
100
AcDbLine
 10
85.29999999999999
 20
308.3175
 30
0.0
 11
93.3
 21
300.3505
 31
0.0
  0
LINE
  5
6FD
330
1E
100
AcDbEntity
  8
0
100
AcDbLine
 10
74.90000000000001
 20
314.4454999999999
 30
0.0
 11
85.29999999999999
 21
308.3175
 31
0.0
  0
LINE
  5
6FE
330
1E
100
AcDbEntity
  8
0
100
AcDbLine
 10
85.29999999999999
 20
308.9605
 30
0.0
 11
93.3
 21
300.9935
 31
0.0
  0
LINE
  5
6FF
330
1E
100
AcDbEntity
  8
0
100
AcDbLine
 10
92.9
 20
308.1555
 30
0.0
 11
93.3
 21
307.7425
 31
0.0
  0
LINE
  5
700
330
1E
100
AcDbEntity
  8
0
100
AcDbLine
 10
85.0
 20
316.1224999999999
 30
0.0
 11
92.9
 21
308.1555
 31
0.0
  0
LINE
  5
701
330
1E
100
AcDbEntity
  8
0
100
AcDbLine
 10
74.90000000000001
 20
315.0885
 30
0.0
 11
85.29999999999999
 21
308.9605
 31
0.0
  0
LINE
  5
702
330
1E
100
AcDbEntity
  8
0
100
AcDbLine
 10
62.8
 20
318.8424999999999
 30
0.0
 11
74.90000000000001
 21
315.0885
 31
0.0
  0
LINE
  5
703
330
1E
100
AcDbEntity
  8
0
100
AcDbLine
 10
50.0
 20
319.5774999999999
 30
0.0
 11
62.8
 21
318.1995
 31
0.0
  0
LINE
  5
704
330
1E
100
AcDbEntity
  8
0
100
AcDbLine
 10
74.59999999999999
 20
322.1734999999999
 30
0.0
 11
85.0
 21
316.1224999999999
 31
0.0
  0
LINE
  5
705
330
1E
100
AcDbEntity
  8
0
100
AcDbLine
 10
62.7
 20
325.8504999999999
 30
0.0
 11
74.59999999999999
 21
322.1734999999999
 31
0.0
  0
LINE
  5
706
330
1E
100
AcDbEntity
  8
0
100
AcDbLine
 10
50.0
 20
320.2205
 30
0.0
 11
62.8
 21
318.8424999999999
 31
0.0
  0
LINE
  5
707
330
1E
100
AcDbEntity
  8
0
100
AcDbLine
 10
37.2
 20
318.8424999999999
 30
0.0
 11
50.0
 21
320.2205
 31
0.0
  0
LINE
  5
708
330
1E
100
AcDbEntity
  8
0
100
AcDbLine
 10
25.4
 20
322.1734999999999
 30
0.0
 11
37.29999999999999
 21
325.8504999999999
 31
0.0
  0
LINE
  5
709
330
1E
100
AcDbEntity
  8
0
100
AcDbLine
 10
50.0
 20
327.2305
 30
0.0
 11
62.7
 21
325.8504999999999
 31
0.0
  0
LINE
  5
70A
330
1E
100
AcDbEntity
  8
0
100
AcDbLine
 10
37.29999999999999
 20
325.8504999999999
 30
0.0
 11
50.0
 21
327.2305
 31
0.0
  0
LINE
  5
70B
330
1E
100
AcDbEntity
  8
0
100
AcDbLine
 10
7.099999999999999
 20
308.1555
 30
0.0
 11
15.0
 21
316.1224999999999
 31
0.0
  0
LINE
  5
70C
330
1E
100
AcDbEntity
  8
0
100
AcDbLine
 10
6.7
 20
307.7425
 30
0.0
 11
7.099999999999999
 21
308.1555
 31
0.0
  0
LINE
  5
70D
330
1E
100
AcDbEntity
  8
0
100
AcDbLine
 10
-0.000000000000001
 20
281.9185
 30
0.0
 11
0.0590178981183986
 21
281.5970163938609
 31
0.0
  0
LINE
  5
70E
330
1E
100
AcDbEntity
  8
0
100
AcDbLine
 10
-0.000000000000001
 20
281.9185
 30
0.0
 11
-0.000000000000001
 21
288.6684999999999
 31
0.0
  0
LINE
  5
70F
330
1E
100
AcDbEntity
  8
0
100
AcDbLine
 10
-0.000000000000001
 20
281.9185
 30
0.0
 11
0.0590178981183985
 21
281.5970163938609
 31
0.0
  0
LINE
  5
710
330
1E
100
AcDbEntity
  8
0
100
AcDbLine
 10
-0.000000000000001
 20
281.9185
 30
0.0
 11
1.8
 21
291.7235
 31
0.0
  0
LINE
  5
715
330
1E
100
AcDbEntity
  8
0
100
AcDbLine
 10
38.669205167191
 20
115.0507186022139
 30
0.0
 11
39.4097
 21
114.6748
 31
0.0
  0
LINE
  5
716
330
1E
100
AcDbEntity
  8
0
100
AcDbLine
 10
61.3308337662116
 20
115.050789132956
 30
0.0
 11
60.5902
 21
114.6748
 31
0.0
  0
ENDSEC
  0
SECTION
  2
OBJECTS
  0
DICTIONARY
  5
C
330
0
100
AcDbDictionary
281
     1
  3
ACAD_GROUP
350
D
  3
ACAD_LAYOUT
350
19
  3
ACAD_MLINESTYLE
350
16
  3
ACAD_PLOTSETTINGS
350
18
  3
ACAD_PLOTSTYLENAME
350
E
  3
AcDbVariableDictionary
350
717
  0
DICTIONARY
  5
D
102
{ACAD_REACTORS
330
C
102
}
330
C
100
AcDbDictionary
281
     1
  0
DICTIONARY
  5
19
102
{ACAD_REACTORS
330
C
102
}
330
C
100
AcDbDictionary
281
     1
  3
Layout1
350
1D
  3
Model
350
21
  0
DICTIONARY
  5
16
102
{ACAD_REACTORS
330
C
102
}
330
C
100
AcDbDictionary
281
     1
  3
Standard
350
17
  0
DICTIONARY
  5
18
102
{ACAD_REACTORS
330
C
102
}
330
C
100
AcDbDictionary
281
     1
  0
ACDBDICTIONARYWDFLT
  5
E
102
{ACAD_REACTORS
330
C
102
}
330
C
100
AcDbDictionary
281
     1
  3
Normal
350
F
100
AcDbDictionaryWithDefault
340
F
  0
DICTIONARY
  5
717
102
{ACAD_REACTORS
330
C
102
}
330
C
100
AcDbDictionary
281
     1
  3
DIMASSOC
350
718
  0
LAYOUT
  5
1D
102
{ACAD_REACTORS
330
19
102
}
330
19
100
AcDbPlotSettings
  1

  2
hp deskjet 980c series
  4

  6

 40
0.0
 41
0.0
 42
0.0
 43
0.0
 44
0.0
 45
0.0
 46
0.0
 47
0.0
 48
0.0
 49
0.0
140
0.0
141
0.0
142
1.0
143
1.0
 70
   688
 72
     0
 73
     0
 74
     5
  7

 75
    16
147
1.0
148
0.0
149
0.0
100
AcDbLayout
  1
Layout1
 70
     1
 71
     1
 10
0.0
 20
0.0
 11
12.0
 21
9.0
 12
0.0
 22
0.0
 32
0.0
 14
1.000000000000000E+20
 24
1.000000000000000E+20
 34
1.000000000000000E+20
 15
-1.000000000000000E+20
 25
-1.000000000000000E+20
 35
-1.000000000000000E+20
146
0.0
 13
0.0
 23
0.0
 33
0.0
 16
1.0
 26
0.0
 36
0.0
 17
0.0
 27
1.0
 37
0.0
 76
     0
330
1A
  0
LAYOUT
  5
21
102
{ACAD_REACTORS
330
19
102
}
330
19
100
AcDbPlotSettings
  1

  2
hp deskjet 980c series
  4

  6

 40
0.0
 41
0.0
 42
0.0
 43
0.0
 44
0.0
 45
0.0
 46
0.0
 47
0.0
 48
0.0
 49
0.0
140
0.0
141
0.0
142
1.0
143
1.0
 70
  1712
 72
     0
 73
     0
 74
     0
  7

 75
     0
147
1.0
148
0.0
149
0.0
100
AcDbLayout
  1
Model
 70
     1
 71
     0
 10
0.0
 20
0.0
 11
12.0
 21
9.0
 12
0.0
 22
0.0
 32
0.0
 14
0.0
 24
0.0
 34
0.0
 15
0.0
 25
0.0
 35
0.0
146
0.0
 13
0.0
 23
0.0
 33
0.0
 16
1.0
 26
0.0
 36
0.0
 17
0.0
 27
1.0
 37
0.0
 76
     0
330
1E
  0
MLINESTYLE
  5
17
102
{ACAD_REACTORS
330
16
102
}
330
16
100
AcDbMlineStyle
  2
STANDARD
 70
     0
  3

 62
   256
 51
90.0
 52
90.0
 71
     2
 49
0.5
 62
   256
  6
BYLAYER
 49
-0.5
 62
   256
  6
BYLAYER
  0
ACDBPLACEHOLDER
  5
F
102
{ACAD_REACTORS
330
E
102
}
330
E
  0
DICTIONARYVAR
  5
718
102
{ACAD_REACTORS
330
717
102
}
330
717
100
DictionaryVariables
280
     0
  1
1
  0
ENDSEC
  0
EOF
