  0
SECTION
  2
HEADER
  9
$ACADVER
  1
AC1015
  9
$ACADMAINTVER
 70
    13
  9
$DWGCODEPAGE
  3
ANSI_1252
  9
$INSBASE
 10
0.0
 20
0.0
 30
0.0
  9
$EXTMIN
 10
-0.0000000000000043
 20
0.9999999999999969
 30
0.0
  9
$EXTMAX
 10
160.0
 20
45.0
 30
0.0
  9
$LIMMIN
 10
0.0
 20
0.0
  9
$LIMMAX
 10
12.0
 20
9.0
  9
$ORTHOMODE
 70
     0
  9
$REGENMODE
 70
     1
  9
$FILLMODE
 70
     1
  9
$QTEXTMODE
 70
     0
  9
$MIRRTEXT
 70
     1
  9
$LTSCALE
 40
1.0
  9
$ATTMODE
 70
     1
  9
$TEXTSIZE
 40
0.2
  9
$TRACEWID
 40
0.05
  9
$TEXTSTYLE
  7
Standard
  9
$CLAYER
  8
0
  9
$CELTYPE
  6
Continuous
  9
$CECOLOR
 62
   256
  9
$CELTSCALE
 40
1.0
  9
$DISPSILH
 70
     0
  9
$DIMSCALE
 40
1.0
  9
$DIMASZ
 40
0.18
  9
$DIMEXO
 40
0.0625
  9
$DIMDLI
 40
0.38
  9
$DIMRND
 40
0.0
  9
$DIMDLE
 40
0.0
  9
$DIMEXE
 40
0.18
  9
$DIMTP
 40
0.0
  9
$DIMTM
 40
0.0
  9
$DIMTXT
 40
0.18
  9
$DIMCEN
 40
0.09
  9
$DIMTSZ
 40
0.0
  9
$DIMTOL
 70
     0
  9
$DIMLIM
 70
     0
  9
$DIMTIH
 70
     1
  9
$DIMTOH
 70
     1
  9
$DIMSE1
 70
     0
  9
$DIMSE2
 70
     0
  9
$DIMTAD
 70
     0
  9
$DIMZIN
 70
     0
  9
$DIMBLK
  1

  9
$DIMASO
 70
     1
  9
$DIMSHO
 70
     1
  9
$DIMPOST
  1

  9
$DIMAPOST
  1

  9
$DIMALT
 70
     0
  9
$DIMALTD
 70
     2
  9
$DIMALTF
 40
25.4
  9
$DIMLFAC
 40
1.0
  9
$DIMTOFL
 70
     0
  9
$DIMTVP
 40
0.0
  9
$DIMTIX
 70
     0
  9
$DIMSOXD
 70
     0
  9
$DIMSAH
 70
     0
  9
$DIMBLK1
  1

  9
$DIMBLK2
  1

  9
$DIMSTYLE
  2
Standard
  9
$DIMCLRD
 70
     0
  9
$DIMCLRE
 70
     0
  9
$DIMCLRT
 70
     0
  9
$DIMTFAC
 40
1.0
  9
$DIMGAP
 40
0.09
  9
$DIMJUST
 70
     0
  9
$DIMSD1
 70
     0
  9
$DIMSD2
 70
     0
  9
$DIMTOLJ
 70
     1
  9
$DIMTZIN
 70
     0
  9
$DIMALTZ
 70
     0
  9
$DIMALTTZ
 70
     0
  9
$DIMUPT
 70
     0
  9
$DIMDEC
 70
     4
  9
$DIMTDEC
 70
     4
  9
$DIMALTU
 70
     2
  9
$DIMALTTD
 70
     2
  9
$DIMTXSTY
  7
Standard
  9
$DIMAUNIT
 70
     0
  9
$DIMADEC
 70
     0
  9
$DIMALTRND
 40
0.0
  9
$DIMAZIN
 70
     0
  9
$DIMDSEP
 70
    46
  9
$DIMATFIT
 70
     3
  9
$DIMFRAC
 70
     0
  9
$DIMLDRBLK
  1

  9
$DIMLUNIT
 70
     2
  9
$DIMLWD
 70
    -2
  9
$DIMLWE
 70
    -2
  9
$DIMTMOVE
 70
     0
  9
$LUNITS
 70
     2
  9
$LUPREC
 70
     4
  9
$SKETCHINC
 40
0.1
  9
$FILLETRAD
 40
0.0
  9
$AUNITS
 70
     0
  9
$AUPREC
 70
     0
  9
$MENU
  1
.
  9
$ELEVATION
 40
0.0
  9
$PELEVATION
 40
0.0
  9
$THICKNESS
 40
0.0
  9
$LIMCHECK
 70
     0
  9
$CHAMFERA
 40
0.0
  9
$CHAMFERB
 40
0.0
  9
$CHAMFERC
 40
0.0
  9
$CHAMFERD
 40
0.0
  9
$SKPOLY
 70
     0
  9
$TDCREATE
 40
2454739.459163044
  9
$TDUCREATE
 40
2454739.375829710
  9
$TDUPDATE
 40
2454739.459661087
  9
$TDUUPDATE
 40
2454739.376327754
  9
$TDINDWG
 40
0.0004980440
  9
$TDUSRTIMER
 40
0.0004980440
  9
$USRTIMER
 70
     1
  9
$ANGBASE
 50
0.0
  9
$ANGDIR
 70
     0
  9
$PDMODE
 70
     0
  9
$PDSIZE
 40
0.0
  9
$PLINEWID
 40
0.0
  9
$SPLFRAME
 70
     0
  9
$SPLINETYPE
 70
     6
  9
$SPLINESEGS
 70
     8
  9
$HANDSEED
  5
657
  9
$SURFTAB1
 70
     6
  9
$SURFTAB2
 70
     6
  9
$SURFTYPE
 70
     6
  9
$SURFU
 70
     6
  9
$SURFV
 70
     6
  9
$UCSBASE
  2

  9
$UCSNAME
  2

  9
$UCSORG
 10
0.0
 20
0.0
 30
0.0
  9
$UCSXDIR
 10
1.0
 20
0.0
 30
0.0
  9
$UCSYDIR
 10
0.0
 20
1.0
 30
0.0
  9
$UCSORTHOREF
  2

  9
$UCSORTHOVIEW
 70
     1
  9
$UCSORGTOP
 10
0.0
 20
0.0
 30
0.0
  9
$UCSORGBOTTOM
 10
0.0
 20
0.0
 30
0.0
  9
$UCSORGLEFT
 10
0.0
 20
0.0
 30
0.0
  9
$UCSORGRIGHT
 10
0.0
 20
0.0
 30
0.0
  9
$UCSORGFRONT
 10
0.0
 20
0.0
 30
0.0
  9
$UCSORGBACK
 10
0.0
 20
0.0
 30
0.0
  9
$PUCSBASE
  2

  9
$PUCSNAME
  2

  9
$PUCSORG
 10
0.0
 20
0.0
 30
0.0
  9
$PUCSXDIR
 10
1.0
 20
0.0
 30
0.0
  9
$PUCSYDIR
 10
0.0
 20
1.0
 30
0.0
  9
$PUCSORTHOREF
  2

  9
$PUCSORTHOVIEW
 70
     0
  9
$PUCSORGTOP
 10
0.0
 20
0.0
 30
0.0
  9
$PUCSORGBOTTOM
 10
0.0
 20
0.0
 30
0.0
  9
$PUCSORGLEFT
 10
0.0
 20
0.0
 30
0.0
  9
$PUCSORGRIGHT
 10
0.0
 20
0.0
 30
0.0
  9
$PUCSORGFRONT
 10
0.0
 20
0.0
 30
0.0
  9
$PUCSORGBACK
 10
0.0
 20
0.0
 30
0.0
  9
$USERI1
 70
     0
  9
$USERI2
 70
     0
  9
$USERI3
 70
     0
  9
$USERI4
 70
     0
  9
$USERI5
 70
     0
  9
$USERR1
 40
0.0
  9
$USERR2
 40
0.0
  9
$USERR3
 40
0.0
  9
$USERR4
 40
0.0
  9
$USERR5
 40
0.0
  9
$WORLDVIEW
 70
     1
  9
$SHADEDGE
 70
     3
  9
$SHADEDIF
 70
    70
  9
$TILEMODE
 70
     1
  9
$MAXACTVP
 70
    64
  9
$PINSBASE
 10
0.0
 20
0.0
 30
0.0
  9
$PLIMCHECK
 70
     0
  9
$PEXTMIN
 10
1.000000000000000E+20
 20
1.000000000000000E+20
 30
1.000000000000000E+20
  9
$PEXTMAX
 10
-1.000000000000000E+20
 20
-1.000000000000000E+20
 30
-1.000000000000000E+20
  9
$PLIMMIN
 10
0.0
 20
0.0
  9
$PLIMMAX
 10
12.0
 20
9.0
  9
$UNITMODE
 70
     0
  9
$VISRETAIN
 70
     1
  9
$PLINEGEN
 70
     0
  9
$PSLTSCALE
 70
     1
  9
$TREEDEPTH
 70
  3020
  9
$CMLSTYLE
  2
Standard
  9
$CMLJUST
 70
     0
  9
$CMLSCALE
 40
1.0
  9
$PROXYGRAPHICS
 70
     1
  9
$MEASUREMENT
 70
     0
  9
$CELWEIGHT
370
    -1
  9
$ENDCAPS
280
     0
  9
$JOINSTYLE
280
     0
  9
$LWDISPLAY
290
     0
  9
$INSUNITS
 70
     0
  9
$HYPERLINKBASE
  1

  9
$STYLESHEET
  1

  9
$XEDIT
290
     1
  9
$CEPSNTYPE
380
     0
  9
$PSTYLEMODE
290
     1
  9
$FINGERPRINTGUID
  2
{AAEFF757-ECEA-4346-B7E3-573D7561C5E7}
  9
$VERSIONGUID
  2
{10A9DFA0-157A-45CA-87DB-2CA0136D332A}
  9
$EXTNAMES
290
     1
  9
$PSVPSCALE
 40
0.0
  9
$OLESTARTUP
290
     0
  0
ENDSEC
  0
SECTION
  2
CLASSES
  0
CLASS
  1
ACDBDICTIONARYWDFLT
  2
AcDbDictionaryWithDefault
  3
AutoCAD 2000
 90
        0
280
     0
281
     0
  0
CLASS
  1
ACDBPLACEHOLDER
  2
AcDbPlaceHolder
  3
AutoCAD 2000
 90
        0
280
     0
281
     0
  0
CLASS
  1
LAYOUT
  2
AcDbLayout
  3
AutoCAD 2000
 90
        0
280
     0
281
     0
  0
CLASS
  1
DICTIONARYVAR
  2
AcDbDictionaryVar
  3
AutoCAD 2000
 90
        0
280
     0
281
     0
  0
ENDSEC
  0
SECTION
  2
TABLES
  0
TABLE
  2
VPORT
  5
8
330
0
100
AcDbSymbolTable
 70
     2
  0
VPORT
  5
656
330
8
100
AcDbSymbolTableRecord
100
AcDbViewportTableRecord
  2
*Active
 70
     0
 10
0.0
 20
0.0
 11
1.0
 21
1.0
 12
80.0
 22
22.99999999999999
 13
0.0
 23
0.0
 14
1.0
 24
1.0
 15
0.0
 25
0.0
 16
0.0
 26
0.0
 36
1.0
 17
0.0
 27
0.0
 37
0.0
 40
77.2776801459318
 41
2.078104993597951
 42
50.0
 43
0.0
 44
0.0
 50
0.0
 51
0.0
 71
     0
 72
   100
 73
     1
 74
     3
 75
     0
 76
     0
 77
     0
 78
     0
281
     0
 65
     1
110
0.0
120
0.0
130
0.0
111
1.0
121
0.0
131
0.0
112
0.0
122
1.0
132
0.0
 79
     1
146
0.0
  0
ENDTAB
  0
TABLE
  2
LTYPE
  5
5
330
0
100
AcDbSymbolTable
 70
     1
  0
LTYPE
  5
13
330
5
100
AcDbSymbolTableRecord
100
AcDbLinetypeTableRecord
  2
ByBlock
 70
     0
  3

 72
    65
 73
     0
 40
0.0
  0
LTYPE
  5
14
330
5
100
AcDbSymbolTableRecord
100
AcDbLinetypeTableRecord
  2
ByLayer
 70
     0
  3

 72
    65
 73
     0
 40
0.0
  0
LTYPE
  5
15
330
5
100
AcDbSymbolTableRecord
100
AcDbLinetypeTableRecord
  2
Continuous
 70
     0
  3
Solid line
 72
    65
 73
     0
 40
0.0
  0
ENDTAB
  0
TABLE
  2
LAYER
  5
2
330
0
100
AcDbSymbolTable
 70
     1
  0
LAYER
  5
10
330
2
100
AcDbSymbolTableRecord
100
AcDbLayerTableRecord
  2
0
 70
     0
 62
     7
  6
Continuous
370
    -3
390
F
  0
ENDTAB
  0
TABLE
  2
STYLE
  5
3
330
0
100
AcDbSymbolTable
 70
     1
  0
STYLE
  5
11
330
3
100
AcDbSymbolTableRecord
100
AcDbTextStyleTableRecord
  2
Standard
 70
     0
 40
0.0
 41
1.0
 50
0.0
 71
     0
 42
0.2
  3
txt
  4

  0
ENDTAB
  0
TABLE
  2
VIEW
  5
6
330
0
100
AcDbSymbolTable
 70
     0
  0
ENDTAB
  0
TABLE
  2
UCS
  5
7
330
0
100
AcDbSymbolTable
 70
     0
  0
ENDTAB
  0
TABLE
  2
APPID
  5
9
330
0
100
AcDbSymbolTable
 70
     1
  0
APPID
  5
12
330
9
100
AcDbSymbolTableRecord
100
AcDbRegAppTableRecord
  2
ACAD
 70
     0
  0
ENDTAB
  0
TABLE
  2
DIMSTYLE
  5
A
330
0
100
AcDbSymbolTable
 70
     1
100
AcDbDimStyleTable
 71
     0
  0
DIMSTYLE
105
650
330
A
100
AcDbSymbolTableRecord
100
AcDbDimStyleTableRecord
  2
Standard
 70
     0
340
11
  0
ENDTAB
  0
TABLE
  2
BLOCK_RECORD
  5
1
330
0
100
AcDbSymbolTable
 70
     0
  0
BLOCK_RECORD
  5
1E
330
1
100
AcDbSymbolTableRecord
100
AcDbBlockTableRecord
  2
*Model_Space
340
21
  0
BLOCK_RECORD
  5
1A
330
1
100
AcDbSymbolTableRecord
100
AcDbBlockTableRecord
  2
*Paper_Space
340
1D
  0
ENDTAB
  0
ENDSEC
  0
SECTION
  2
BLOCKS
  0
BLOCK
  5
1F
330
1E
100
AcDbEntity
  8
0
100
AcDbBlockBegin
  2
*Model_Space
 70
     0
 10
0.0
 20
0.0
 30
0.0
  3
*Model_Space
  1

  0
ENDBLK
  5
20
330
1E
100
AcDbEntity
  8
0
100
AcDbBlockEnd
  0
BLOCK
  5
1B
330
1A
100
AcDbEntity
 67
     1
  8
0
100
AcDbBlockBegin
  2
*Paper_Space
 70
     0
 10
0.0
 20
0.0
 30
0.0
  3
*Paper_Space
  1

  0
ENDBLK
  5
1C
330
1A
100
AcDbEntity
 67
     1
  8
0
100
AcDbBlockEnd
  0
ENDSEC
  0
SECTION
  2
ENTITIES
  0
LINE
  5
20B
330
1E
100
AcDbEntity
  8
0
100
AcDbLine
 10
59.6
 20
1.0
 30
0.0
 11
69.7
 21
1.0
 31
0.0
  0
LINE
  5
21C
330
1E
100
AcDbEntity
  8
0
100
AcDbLine
 10
24.19999999999999
 20
1.0
 30
0.0
 11
32.0
 21
1.0
 31
0.0
  0
LINE
  5
21D
330
1E
100
AcDbEntity
  8
0
100
AcDbLine
 10
31.13599999999999
 20
1.0
 30
0.0
 11
32.0
 21
1.0
 31
0.0
  0
LINE
  5
21E
330
1E
100
AcDbEntity
  8
0
100
AcDbLine
 10
0.799999999999996
 20
2.00000000000001
 30
0.0
 11
2.9
 21
2.00000000000001
 31
0.0
  0
LINE
  5
21F
330
1E
100
AcDbEntity
  8
0
100
AcDbLine
 10
-0.0000000000000043
 20
2.00000000000001
 30
0.0
 11
-0.0000000000000036
 21
13.0
 31
0.0
  0
LINE
  5
220
330
1E
100
AcDbEntity
  8
0
100
AcDbLine
 10
-0.0000000000000043
 20
2.00000000000001
 30
0.0
 11
0.999999999999996
 21
1.000000000000009
 31
0.0
  0
LINE
  5
221
330
1E
100
AcDbEntity
  8
0
100
AcDbLine
 10
-0.0000000000000043
 20
2.00000000000001
 30
0.0
 11
0.799999999999996
 21
2.00000000000001
 31
0.0
  0
LINE
  5
222
330
1E
100
AcDbEntity
  8
0
100
AcDbLine
 10
-0.0000000000000043
 20
2.00000000000001
 30
0.0
 11
-0.0000000000000036
 21
13.0
 31
0.0
  0
LINE
  5
223
330
1E
100
AcDbEntity
  8
0
100
AcDbLine
 10
0.799999999999996
 20
13.0
 30
0.0
 11
2.9
 21
13.0
 31
0.0
  0
LINE
  5
224
330
1E
100
AcDbEntity
  8
0
100
AcDbLine
 10
0.799999999999996
 20
13.0
 30
0.0
 11
2.9
 21
13.0
 31
0.0
  0
LINE
  5
225
330
1E
100
AcDbEntity
  8
0
100
AcDbLine
 10
-0.0000000000000036
 20
13.0
 30
0.0
 11
0.799999999999996
 21
13.0
 31
0.0
  0
LINE
  5
226
330
1E
100
AcDbEntity
  8
0
100
AcDbLine
 10
-0.0000000000000036
 20
13.0
 30
0.0
 11
0.999999999999996
 21
14.0
 31
0.0
  0
LINE
  5
227
330
1E
100
AcDbEntity
  8
0
100
AcDbLine
 10
-0.0000000000000036
 20
13.0
 30
0.0
 11
0.999999999999996
 21
14.0
 31
0.0
  0
LINE
  5
228
330
1E
100
AcDbEntity
  8
0
100
AcDbLine
 10
-0.0000000000000036
 20
13.0
 30
0.0
 11
0.799999999999996
 21
13.0
 31
0.0
  0
LINE
  5
229
330
1E
100
AcDbEntity
  8
0
100
AcDbLine
 10
-0.0000000000000043
 20
2.00000000000001
 30
0.0
 11
0.999999999999996
 21
1.000000000000009
 31
0.0
  0
LINE
  5
22A
330
1E
100
AcDbEntity
  8
0
100
AcDbLine
 10
-0.0000000000000043
 20
2.00000000000001
 30
0.0
 11
0.799999999999996
 21
2.00000000000001
 31
0.0
  0
LINE
  5
244
330
1E
100
AcDbEntity
  8
0
100
AcDbLine
 10
17.4
 20
1.000000000000009
 30
0.0
 11
24.19999999999999
 21
1.0
 31
0.0
  0
LINE
  5
245
330
1E
100
AcDbEntity
  8
0
100
AcDbLine
 10
11.59999999999999
 20
1.000000000000009
 30
0.0
 11
17.4
 21
1.000000000000009
 31
0.0
  0
LINE
  5
248
330
1E
100
AcDbEntity
  8
0
100
AcDbLine
 10
7.2
 20
1.000000000000009
 30
0.0
 11
11.59999999999999
 21
1.000000000000009
 31
0.0
  0
LINE
  5
249
330
1E
100
AcDbEntity
  8
0
100
AcDbLine
 10
3.799999999999999
 20
1.000000000000009
 30
0.0
 11
6.0
 21
1.000000000000009
 31
0.0
  0
LINE
  5
24A
330
1E
100
AcDbEntity
  8
0
100
AcDbLine
 10
3.799999999999999
 20
1.000000000000009
 30
0.0
 11
7.2
 21
1.000000000000009
 31
0.0
  0
LINE
  5
24B
330
1E
100
AcDbEntity
  8
0
100
AcDbLine
 10
1.8
 20
14.0
 30
0.0
 11
3.799999999999999
 21
14.0
 31
0.0
  0
LINE
  5
24C
330
1E
100
AcDbEntity
  8
0
100
AcDbLine
 10
0.999999999999996
 20
14.0
 30
0.0
 11
1.8
 21
14.0
 31
0.0
  0
LINE
  5
24D
330
1E
100
AcDbEntity
  8
0
100
AcDbLine
 10
23.5
 20
2.0
 30
0.0
 11
31.4
 21
2.0
 31
0.0
  0
LINE
  5
24E
330
1E
100
AcDbEntity
  8
0
100
AcDbLine
 10
31.4
 20
2.0
 30
0.0
 11
40.2
 21
2.0
 31
0.0
  0
LINE
  5
24F
330
1E
100
AcDbEntity
  8
0
100
AcDbLine
 10
16.6
 20
2.00000000000001
 30
0.0
 11
23.5
 21
2.0
 31
0.0
  0
LINE
  5
250
330
1E
100
AcDbEntity
  8
0
100
AcDbLine
 10
10.7
 20
2.00000000000001
 30
0.0
 11
16.6
 21
2.00000000000001
 31
0.0
  0
LINE
  5
251
330
1E
100
AcDbEntity
  8
0
100
AcDbLine
 10
23.5
 20
13.0
 30
0.0
 11
31.4
 21
13.0
 31
0.0
  0
LINE
  5
252
330
1E
100
AcDbEntity
  8
0
100
AcDbLine
 10
31.4
 20
13.0
 30
0.0
 11
40.2
 21
13.0
 31
0.0
  0
LINE
  5
253
330
1E
100
AcDbEntity
  8
0
100
AcDbLine
 10
16.6
 20
13.0
 30
0.0
 11
23.5
 21
13.0
 31
0.0
  0
LINE
  5
254
330
1E
100
AcDbEntity
  8
0
100
AcDbLine
 10
10.7
 20
13.0
 30
0.0
 11
16.6
 21
13.0
 31
0.0
  0
LINE
  5
255
330
1E
100
AcDbEntity
  8
0
100
AcDbLine
 10
24.19999999999999
 20
14.0
 30
0.0
 11
32.0
 21
14.0
 31
0.0
  0
LINE
  5
256
330
1E
100
AcDbEntity
  8
0
100
AcDbLine
 10
32.0
 20
14.0
 30
0.0
 11
40.7
 21
14.0
 31
0.0
  0
LINE
  5
257
330
1E
100
AcDbEntity
  8
0
100
AcDbLine
 10
17.4
 20
14.0
 30
0.0
 11
24.19999999999999
 21
14.0
 31
0.0
  0
LINE
  5
258
330
1E
100
AcDbEntity
  8
0
100
AcDbLine
 10
11.59999999999999
 20
14.0
 30
0.0
 11
17.4
 21
14.0
 31
0.0
  0
LINE
  5
259
330
1E
100
AcDbEntity
  8
0
100
AcDbLine
 10
7.2
 20
14.0
 30
0.0
 11
11.59999999999999
 21
14.0
 31
0.0
  0
LINE
  5
25A
330
1E
100
AcDbEntity
  8
0
100
AcDbLine
 10
3.799999999999999
 20
14.0
 30
0.0
 11
7.2
 21
14.0
 31
0.0
  0
LINE
  5
25B
330
1E
100
AcDbEntity
  8
0
100
AcDbLine
 10
6.2
 20
13.0
 30
0.0
 11
10.7
 21
13.0
 31
0.0
  0
LINE
  5
25C
330
1E
100
AcDbEntity
  8
0
100
AcDbLine
 10
2.9
 20
13.0
 30
0.0
 11
6.2
 21
13.0
 31
0.0
  0
LINE
  5
25D
330
1E
100
AcDbEntity
  8
0
100
AcDbLine
 10
6.2
 20
2.00000000000001
 30
0.0
 11
10.7
 21
2.00000000000001
 31
0.0
  0
LINE
  5
25E
330
1E
100
AcDbEntity
  8
0
100
AcDbLine
 10
2.9
 20
2.00000000000001
 30
0.0
 11
6.2
 21
2.00000000000001
 31
0.0
  0
LINE
  5
25F
330
1E
100
AcDbEntity
  8
0
100
AcDbLine
 10
1.8
 20
1.000000000000009
 30
0.0
 11
3.799999999999999
 21
1.000000000000009
 31
0.0
  0
LINE
  5
260
330
1E
100
AcDbEntity
  8
0
100
AcDbLine
 10
0.999999999999996
 20
1.000000000000009
 30
0.0
 11
1.8
 21
1.000000000000009
 31
0.0
  0
LINE
  5
261
330
1E
100
AcDbEntity
  8
0
100
AcDbLine
 10
25.0649
 20
1.0
 30
0.0
 11
26.0
 21
1.0
 31
0.0
  0
LINE
  5
28B
330
1E
100
AcDbEntity
  8
0
100
AcDbLine
 10
40.2
 20
13.0
 30
0.0
 11
49.4
 21
13.0
 31
0.0
  0
LINE
  5
28C
330
1E
100
AcDbEntity
  8
0
100
AcDbLine
 10
49.4
 20
13.0
 30
0.0
 11
59.4
 21
13.0
 31
0.0
  0
LINE
  5
28D
330
1E
100
AcDbEntity
  8
0
100
AcDbLine
 10
40.2
 20
2.0
 30
0.0
 11
49.4
 21
2.0
 31
0.0
  0
LINE
  5
28E
330
1E
100
AcDbEntity
  8
0
100
AcDbLine
 10
49.8
 20
14.0
 30
0.0
 11
59.6
 21
14.0
 31
0.0
  0
LINE
  5
28F
330
1E
100
AcDbEntity
  8
0
100
AcDbLine
 10
49.4
 20
2.0
 30
0.0
 11
59.4
 21
2.0
 31
0.0
  0
LINE
  5
290
330
1E
100
AcDbEntity
  8
0
100
AcDbLine
 10
40.7
 20
1.0
 30
0.0
 11
49.8
 21
1.0
 31
0.0
  0
LINE
  5
2A2
330
1E
100
AcDbEntity
  8
0
100
AcDbLine
 10
59.6
 20
14.0
 30
0.0
 11
69.7
 21
14.0
 31
0.0
  0
LINE
  5
2A3
330
1E
100
AcDbEntity
  8
0
100
AcDbLine
 10
59.4
 20
13.0
 30
0.0
 11
69.59999999999999
 21
13.0
 31
0.0
  0
LINE
  5
2A4
330
1E
100
AcDbEntity
  8
0
100
AcDbLine
 10
59.4
 20
2.0
 30
0.0
 11
69.59999999999999
 21
2.0
 31
0.0
  0
LINE
  5
2A5
330
1E
100
AcDbEntity
  8
0
100
AcDbLine
 10
49.8
 20
1.0
 30
0.0
 11
59.6
 21
1.0
 31
0.0
  0
LINE
  5
2A6
330
1E
100
AcDbEntity
  8
0
100
AcDbLine
 10
40.7
 20
14.0
 30
0.0
 11
49.8
 21
14.0
 31
0.0
  0
LINE
  5
2A7
330
1E
100
AcDbEntity
  8
0
100
AcDbLine
 10
32.0
 20
1.0
 30
0.0
 11
32.0903
 21
1.0
 31
0.0
  0
LINE
  5
2A8
330
1E
100
AcDbEntity
  8
0
100
AcDbLine
 10
32.0
 20
1.0
 30
0.0
 11
40.7
 21
1.0
 31
0.0
  0
LINE
  5
2A9
330
1E
100
AcDbEntity
  8
0
100
AcDbLine
 10
60.0852
 20
1.0
 30
0.0
 11
60.18460000000001
 21
1.0
 31
0.0
  0
LINE
  5
2B7
330
1E
100
AcDbEntity
  8
0
100
AcDbLine
 10
66.0
 20
16.625
 30
0.0
 11
66.50399999999999
 21
16.625
 31
0.0
  0
LINE
  5
2B8
330
1E
100
AcDbEntity
  8
0
100
AcDbLine
 10
66.0
 20
16.625
 30
0.0
 11
66.0
 21
14.0
 31
0.0
  0
LINE
  5
2B9
330
1E
100
AcDbEntity
  8
0
100
AcDbLine
 10
66.0
 20
16.625
 30
0.0
 11
66.336
 21
17.0
 31
0.0
  0
LINE
  5
2BA
330
1E
100
AcDbEntity
  8
0
100
AcDbLine
 10
66.84000000000001
 20
17.0
 30
0.0
 11
68.184
 21
17.0
 31
0.0
  0
LINE
  5
2BB
330
1E
100
AcDbEntity
  8
0
100
AcDbLine
 10
66.336
 20
17.0
 30
0.0
 11
66.84000000000001
 21
17.0
 31
0.0
  0
LINE
  5
2BC
330
1E
100
AcDbEntity
  8
0
100
AcDbLine
 10
66.50399999999999
 20
16.625
 30
0.0
 11
67.848
 21
16.625
 31
0.0
  0
LINE
  5
2BD
330
1E
100
AcDbEntity
  8
0
100
AcDbLine
 10
66.0
 20
14.0
 30
0.0
 11
66.0
 21
16.625
 31
0.0
  0
LINE
  5
2BE
330
1E
100
AcDbEntity
  8
0
100
AcDbLine
 10
67.0
 20
24.5714
 30
0.0
 11
67.468
 21
24.5714
 31
0.0
  0
LINE
  5
2BF
330
1E
100
AcDbEntity
  8
0
100
AcDbLine
 10
67.0
 20
24.5714
 30
0.0
 11
67.0
 21
17.4286
 31
0.0
  0
LINE
  5
2C0
330
1E
100
AcDbEntity
  8
0
100
AcDbLine
 10
67.0
 20
24.5714
 30
0.0
 11
67.312
 21
25.0
 31
0.0
  0
LINE
  5
2C1
330
1E
100
AcDbEntity
  8
0
100
AcDbLine
 10
67.0
 20
17.4286
 30
0.0
 11
67.0
 21
24.5714
 31
0.0
  0
LINE
  5
2C2
330
1E
100
AcDbEntity
  8
0
100
AcDbLine
 10
67.0
 20
17.4286
 30
0.0
 11
67.468
 21
17.4286
 31
0.0
  0
LINE
  5
2C3
330
1E
100
AcDbEntity
  8
0
100
AcDbLine
 10
67.0
 20
17.4286
 30
0.0
 11
67.312
 21
17.0
 31
0.0
  0
LINE
  5
2C4
330
1E
100
AcDbEntity
  8
0
100
AcDbLine
 10
67.0
 20
30.5714
 30
0.0
 11
67.468
 21
30.5714
 31
0.0
  0
LINE
  5
2C5
330
1E
100
AcDbEntity
  8
0
100
AcDbLine
 10
67.0
 20
30.5714
 30
0.0
 11
67.0
 21
25.4286
 31
0.0
  0
LINE
  5
2C6
330
1E
100
AcDbEntity
  8
0
100
AcDbLine
 10
67.0
 20
30.5714
 30
0.0
 11
67.312
 21
31.0
 31
0.0
  0
LINE
  5
2C7
330
1E
100
AcDbEntity
  8
0
100
AcDbLine
 10
67.468
 20
24.5714
 30
0.0
 11
68.716
 21
24.5714
 31
0.0
  0
LINE
  5
2C8
330
1E
100
AcDbEntity
  8
0
100
AcDbLine
 10
67.848
 20
16.625
 30
0.0
 11
70.088
 21
16.625
 31
0.0
  0
LINE
  5
2C9
330
1E
100
AcDbEntity
  8
0
100
AcDbLine
 10
67.468
 20
17.4286
 30
0.0
 11
68.716
 21
17.4286
 31
0.0
  0
LINE
  5
2CA
330
1E
100
AcDbEntity
  8
0
100
AcDbLine
 10
67.78
 20
25.0
 30
0.0
 11
69.028
 21
25.0
 31
0.0
  0
LINE
  5
2CB
330
1E
100
AcDbEntity
  8
0
100
AcDbLine
 10
67.312
 20
25.0
 30
0.0
 11
67.78
 21
25.0
 31
0.0
  0
LINE
  5
2CC
330
1E
100
AcDbEntity
  8
0
100
AcDbLine
 10
67.312
 20
31.0
 30
0.0
 11
67.78
 21
31.0
 31
0.0
  0
LINE
  5
2CD
330
1E
100
AcDbEntity
  8
0
100
AcDbLine
 10
67.78
 20
31.0
 30
0.0
 11
69.028
 21
31.0
 31
0.0
  0
LINE
  5
2CE
330
1E
100
AcDbEntity
  8
0
100
AcDbLine
 10
67.468
 20
30.5714
 30
0.0
 11
68.716
 21
30.5714
 31
0.0
  0
LINE
  5
2CF
330
1E
100
AcDbEntity
  8
0
100
AcDbLine
 10
67.468
 20
25.4286
 30
0.0
 11
68.716
 21
25.4286
 31
0.0
  0
LINE
  5
2D0
330
1E
100
AcDbEntity
  8
0
100
AcDbLine
 10
67.0
 20
25.4286
 30
0.0
 11
67.0
 21
30.5714
 31
0.0
  0
LINE
  5
2D1
330
1E
100
AcDbEntity
  8
0
100
AcDbLine
 10
67.0
 20
25.4286
 30
0.0
 11
67.468
 21
25.4286
 31
0.0
  0
LINE
  5
2D2
330
1E
100
AcDbEntity
  8
0
100
AcDbLine
 10
67.0
 20
25.4286
 30
0.0
 11
67.312
 21
25.0
 31
0.0
  0
LINE
  5
2D3
330
1E
100
AcDbEntity
  8
0
100
AcDbLine
 10
68.0
 20
44.6154
 30
0.0
 11
68.432
 21
44.6154
 31
0.0
  0
LINE
  5
2D4
330
1E
100
AcDbEntity
  8
0
100
AcDbLine
 10
68.0
 20
44.6154
 30
0.0
 11
68.0
 21
35.3846
 31
0.0
  0
LINE
  5
2D5
330
1E
100
AcDbEntity
  8
0
100
AcDbLine
 10
68.0
 20
44.6154
 30
0.0
 11
68.288
 21
45.0
 31
0.0
  0
LINE
  5
2D6
330
1E
100
AcDbEntity
  8
0
100
AcDbLine
 10
68.184
 20
17.0
 30
0.0
 11
70.36799999999999
 21
17.0
 31
0.0
  0
LINE
  5
2D7
330
1E
100
AcDbEntity
  8
0
100
AcDbLine
 10
68.716
 20
24.5714
 30
0.0
 11
70.79600000000001
 21
24.5714
 31
0.0
  0
LINE
  5
2D8
330
1E
100
AcDbEntity
  8
0
100
AcDbLine
 10
68.716
 20
17.4286
 30
0.0
 11
70.79600000000001
 21
17.4286
 31
0.0
  0
LINE
  5
2D9
330
1E
100
AcDbEntity
  8
0
100
AcDbLine
 10
68.716
 20
30.5714
 30
0.0
 11
70.79600000000001
 21
30.5714
 31
0.0
  0
LINE
  5
2DA
330
1E
100
AcDbEntity
  8
0
100
AcDbLine
 10
68.716
 20
25.4286
 30
0.0
 11
70.79600000000001
 21
25.4286
 31
0.0
  0
LINE
  5
2DB
330
1E
100
AcDbEntity
  8
0
100
AcDbLine
 10
69.0
 20
31.0
 30
0.0
 11
71.2
 21
35.0
 31
0.0
  0
LINE
  5
2DC
330
1E
100
AcDbEntity
  8
0
100
AcDbLine
 10
69.028
 20
31.0
 30
0.0
 11
71.05599999999999
 21
31.0
 31
0.0
  0
LINE
  5
2DD
330
1E
100
AcDbEntity
  8
0
100
AcDbLine
 10
69.028
 20
25.0
 30
0.0
 11
71.05599999999999
 21
25.0
 31
0.0
  0
LINE
  5
2DE
330
1E
100
AcDbEntity
  8
0
100
AcDbLine
 10
68.71999999999999
 20
35.0
 30
0.0
 11
69.872
 21
35.0
 31
0.0
  0
LINE
  5
2DF
330
1E
100
AcDbEntity
  8
0
100
AcDbLine
 10
68.288
 20
35.0
 30
0.0
 11
68.71999999999999
 21
35.0
 31
0.0
  0
LINE
  5
2E0
330
1E
100
AcDbEntity
  8
0
100
AcDbLine
 10
69.58400000000001
 20
35.3846
 30
0.0
 11
71.50399999999999
 21
35.3846
 31
0.0
  0
LINE
  5
2E1
330
1E
100
AcDbEntity
  8
0
100
AcDbLine
 10
68.288
 20
45.0
 30
0.0
 11
68.71999999999999
 21
45.0
 31
0.0
  0
LINE
  5
2E2
330
1E
100
AcDbEntity
  8
0
100
AcDbLine
 10
68.71999999999999
 20
45.0
 30
0.0
 11
69.872
 21
45.0
 31
0.0
  0
LINE
  5
2E3
330
1E
100
AcDbEntity
  8
0
100
AcDbLine
 10
69.58400000000001
 20
44.6154
 30
0.0
 11
71.50399999999999
 21
44.6154
 31
0.0
  0
LINE
  5
2E4
330
1E
100
AcDbEntity
  8
0
100
AcDbLine
 10
68.432
 20
44.6154
 30
0.0
 11
69.58400000000001
 21
44.6154
 31
0.0
  0
LINE
  5
2E5
330
1E
100
AcDbEntity
  8
0
100
AcDbLine
 10
68.432
 20
35.3846
 30
0.0
 11
69.58400000000001
 21
35.3846
 31
0.0
  0
LINE
  5
2E6
330
1E
100
AcDbEntity
  8
0
100
AcDbLine
 10
68.0
 20
35.3846
 30
0.0
 11
68.0
 21
44.6154
 31
0.0
  0
LINE
  5
2E7
330
1E
100
AcDbEntity
  8
0
100
AcDbLine
 10
68.0
 20
35.3846
 30
0.0
 11
68.432
 21
35.3846
 31
0.0
  0
LINE
  5
2E8
330
1E
100
AcDbEntity
  8
0
100
AcDbLine
 10
68.0
 20
35.3846
 30
0.0
 11
68.288
 21
35.0
 31
0.0
  0
LINE
  5
2E9
330
1E
100
AcDbEntity
  8
0
100
AcDbLine
 10
69.59999999999999
 20
13.0
 30
0.0
 11
80.0
 21
13.0
 31
0.0
  0
LINE
  5
2EA
330
1E
100
AcDbEntity
  8
0
100
AcDbLine
 10
70.36799999999999
 20
17.0
 30
0.0
 11
73.22399999999999
 21
17.0
 31
0.0
  0
LINE
  5
2EB
330
1E
100
AcDbEntity
  8
0
100
AcDbLine
 10
70.088
 20
16.625
 30
0.0
 11
73.056
 21
16.625
 31
0.0
  0
LINE
  5
2EC
330
1E
100
AcDbEntity
  8
0
100
AcDbLine
 10
70.79600000000001
 20
17.4286
 30
0.0
 11
73.55199999999999
 21
17.4286
 31
0.0
  0
LINE
  5
2ED
330
1E
100
AcDbEntity
  8
0
100
AcDbLine
 10
70.79600000000001
 20
24.5714
 30
0.0
 11
73.55199999999999
 21
24.5714
 31
0.0
  0
LINE
  5
2EE
330
1E
100
AcDbEntity
  8
0
100
AcDbLine
 10
71.05599999999999
 20
25.0
 30
0.0
 11
73.708
 21
25.0
 31
0.0
  0
LINE
  5
2EF
330
1E
100
AcDbEntity
  8
0
100
AcDbLine
 10
70.79600000000001
 20
25.4286
 30
0.0
 11
73.55199999999999
 21
25.4286
 31
0.0
  0
LINE
  5
2F0
330
1E
100
AcDbEntity
  8
0
100
AcDbLine
 10
71.2
 20
35.0
 30
0.0
 11
71.55199999999999
 21
35.0
 31
0.0
  0
LINE
  5
2F1
330
1E
100
AcDbEntity
  8
0
100
AcDbLine
 10
71.05599999999999
 20
31.0
 30
0.0
 11
73.708
 21
31.0
 31
0.0
  0
LINE
  5
2F2
330
1E
100
AcDbEntity
  8
0
100
AcDbLine
 10
70.79600000000001
 20
30.5714
 30
0.0
 11
73.55199999999999
 21
30.5714
 31
0.0
  0
LINE
  5
2F3
330
1E
100
AcDbEntity
  8
0
100
AcDbLine
 10
69.872
 20
35.0
 30
0.0
 11
71.744
 21
35.0
 31
0.0
  0
LINE
  5
2F4
330
1E
100
AcDbEntity
  8
0
100
AcDbLine
 10
69.872
 20
35.0
 30
0.0
 11
71.2
 21
35.0
 31
0.0
  0
LINE
  5
2F5
330
1E
100
AcDbEntity
  8
0
100
AcDbLine
 10
69.872
 20
45.0
 30
0.0
 11
71.744
 21
45.0
 31
0.0
  0
LINE
  5
2F6
330
1E
100
AcDbEntity
  8
0
100
AcDbLine
 10
71.50399999999999
 20
35.3846
 30
0.0
 11
74.048
 21
35.3846
 31
0.0
  0
LINE
  5
2F7
330
1E
100
AcDbEntity
  8
0
100
AcDbLine
 10
73.22399999999999
 20
17.0
 30
0.0
 11
76.47199999999999
 21
17.0
 31
0.0
  0
LINE
  5
2F8
330
1E
100
AcDbEntity
  8
0
100
AcDbLine
 10
73.056
 20
16.625
 30
0.0
 11
76.416
 21
16.625
 31
0.0
  0
LINE
  5
2F9
330
1E
100
AcDbEntity
  8
0
100
AcDbLine
 10
73.55199999999999
 20
17.4286
 30
0.0
 11
76.672
 21
17.4286
 31
0.0
  0
LINE
  5
2FA
330
1E
100
AcDbEntity
  8
0
100
AcDbLine
 10
73.55199999999999
 20
24.5714
 30
0.0
 11
76.672
 21
24.5714
 31
0.0
  0
LINE
  5
2FB
330
1E
100
AcDbEntity
  8
0
100
AcDbLine
 10
71.55199999999999
 20
35.0
 30
0.0
 11
71.744
 21
35.0
 31
0.0
  0
LINE
  5
2FC
330
1E
100
AcDbEntity
  8
0
100
AcDbLine
 10
73.55199999999999
 20
25.4286
 30
0.0
 11
76.672
 21
25.4286
 31
0.0
  0
LINE
  5
2FD
330
1E
100
AcDbEntity
  8
0
100
AcDbLine
 10
73.708
 20
31.0
 30
0.0
 11
76.72399999999999
 21
31.0
 31
0.0
  0
LINE
  5
2FE
330
1E
100
AcDbEntity
  8
0
100
AcDbLine
 10
73.708
 20
25.0
 30
0.0
 11
76.72399999999999
 21
25.0
 31
0.0
  0
LINE
  5
2FF
330
1E
100
AcDbEntity
  8
0
100
AcDbLine
 10
73.55199999999999
 20
30.5714
 30
0.0
 11
76.672
 21
30.5714
 31
0.0
  0
LINE
  5
300
330
1E
100
AcDbEntity
  8
0
100
AcDbLine
 10
71.744
 20
35.0
 30
0.0
 11
74.192
 21
35.0
 31
0.0
  0
LINE
  5
301
330
1E
100
AcDbEntity
  8
0
100
AcDbLine
 10
76.47199999999999
 20
17.0
 30
0.0
 11
80.0
 21
17.0
 31
0.0
  0
LINE
  5
302
330
1E
100
AcDbEntity
  8
0
100
AcDbLine
 10
76.416
 20
16.625
 30
0.0
 11
80.0
 21
16.625
 31
0.0
  0
LINE
  5
303
330
1E
100
AcDbEntity
  8
0
100
AcDbLine
 10
76.672
 20
17.4286
 30
0.0
 11
80.0
 21
17.4286
 31
0.0
  0
LINE
  5
304
330
1E
100
AcDbEntity
  8
0
100
AcDbLine
 10
76.672
 20
24.5714
 30
0.0
 11
80.0
 21
24.5714
 31
0.0
  0
LINE
  5
305
330
1E
100
AcDbEntity
  8
0
100
AcDbLine
 10
75.59999999999999
 20
35.0
 30
0.0
 11
77.712
 21
35.0
 31
0.0
  0
LINE
  5
306
330
1E
100
AcDbEntity
  8
0
100
AcDbLine
 10
76.672
 20
25.4286
 30
0.0
 11
80.0
 21
25.4286
 31
0.0
  0
LINE
  5
307
330
1E
100
AcDbEntity
  8
0
100
AcDbLine
 10
76.72399999999999
 20
31.0
 30
0.0
 11
80.0
 21
31.0
 31
0.0
  0
LINE
  5
308
330
1E
100
AcDbEntity
  8
0
100
AcDbLine
 10
76.72399999999999
 20
25.0
 30
0.0
 11
80.0
 21
25.0
 31
0.0
  0
LINE
  5
309
330
1E
100
AcDbEntity
  8
0
100
AcDbLine
 10
76.672
 20
30.5714
 30
0.0
 11
80.0
 21
30.5714
 31
0.0
  0
LINE
  5
30A
330
1E
100
AcDbEntity
  8
0
100
AcDbLine
 10
74.192
 20
35.0
 30
0.0
 11
75.59999999999999
 21
35.0
 31
0.0
  0
LINE
  5
30B
330
1E
100
AcDbEntity
  8
0
100
AcDbLine
 10
74.192
 20
35.0
 30
0.0
 11
76.976
 21
35.0
 31
0.0
  0
LINE
  5
30C
330
1E
100
AcDbEntity
  8
0
100
AcDbLine
 10
77.712
 20
35.0
 30
0.0
 11
80.0
 21
35.0
 31
0.0
  0
LINE
  5
30D
330
1E
100
AcDbEntity
  8
0
100
AcDbLine
 10
76.976
 20
35.0
 30
0.0
 11
80.0
 21
35.0
 31
0.0
  0
LINE
  5
30E
330
1E
100
AcDbEntity
  8
0
100
AcDbLine
 10
76.928
 20
35.3846
 30
0.0
 11
80.0
 21
35.3846
 31
0.0
  0
LINE
  5
30F
330
1E
100
AcDbEntity
  8
0
100
AcDbLine
 10
76.928
 20
44.6154
 30
0.0
 11
80.0
 21
44.6154
 31
0.0
  0
LINE
  5
310
330
1E
100
AcDbEntity
  8
0
100
AcDbLine
 10
74.048
 20
35.3846
 30
0.0
 11
76.928
 21
35.3846
 31
0.0
  0
LINE
  5
311
330
1E
100
AcDbEntity
  8
0
100
AcDbLine
 10
76.976
 20
45.0
 30
0.0
 11
80.0
 21
45.0
 31
0.0
  0
LINE
  5
312
330
1E
100
AcDbEntity
  8
0
100
AcDbLine
 10
74.192
 20
45.0
 30
0.0
 11
76.976
 21
45.0
 31
0.0
  0
LINE
  5
313
330
1E
100
AcDbEntity
  8
0
100
AcDbLine
 10
71.744
 20
45.0
 30
0.0
 11
74.192
 21
45.0
 31
0.0
  0
LINE
  5
314
330
1E
100
AcDbEntity
  8
0
100
AcDbLine
 10
74.048
 20
44.6154
 30
0.0
 11
76.928
 21
44.6154
 31
0.0
  0
LINE
  5
315
330
1E
100
AcDbEntity
  8
0
100
AcDbLine
 10
71.50399999999999
 20
44.6154
 30
0.0
 11
74.048
 21
44.6154
 31
0.0
  0
LINE
  5
316
330
1E
100
AcDbEntity
  8
0
100
AcDbLine
 10
69.7
 20
14.0
 30
0.0
 11
80.0
 21
14.0
 31
0.0
  0
LINE
  5
317
330
1E
100
AcDbEntity
  8
0
100
AcDbLine
 10
69.59999999999999
 20
2.0
 30
0.0
 11
80.0
 21
2.0
 31
0.0
  0
LINE
  5
318
330
1E
100
AcDbEntity
  8
0
100
AcDbLine
 10
69.7
 20
1.0
 30
0.0
 11
80.0
 21
1.0
 31
0.0
  0
LINE
  5
319
330
1E
100
AcDbEntity
  8
0
100
AcDbLine
 10
64.7265
 20
1.0
 30
0.0
 11
65.83280000000001
 21
1.0
 31
0.0
  0
LINE
  5
31B
330
1E
100
AcDbEntity
  8
0
100
AcDbLine
 10
72.62990000000001
 20
1.0
 30
0.0
 11
73.08119999999999
 21
1.0
 31
0.0
  0
LINE
  5
445
330
1E
100
AcDbEntity
  8
0
100
AcDbLine
 10
99.8154
 20
1.0
 30
0.0
 11
99.91480000000001
 21
1.0
 31
0.0
  0
LINE
  5
4D4
330
1E
100
AcDbEntity
  8
0
100
AcDbLine
 10
127.9099999999999
 20
0.9999999999999978
 30
0.0
 11
128.0
 21
0.9999999999999978
 31
0.0
  0
LINE
  5
55D
330
1E
100
AcDbEntity
  8
0
100
AcDbLine
 10
159.0
 20
0.9999999999999969
 30
0.0
 11
160.0
 21
2.0
 31
0.0
  0
LINE
  5
562
330
1E
100
AcDbEntity
  8
0
100
AcDbLine
 10
154.0
 20
0.9999999999999969
 30
0.0
 11
156.1999999999999
 21
0.9999999999999969
 31
0.0
  0
LINE
  5
56E
330
1E
100
AcDbEntity
  8
0
100
AcDbLine
 10
144.176
 20
0.9999999999999969
 30
0.0
 11
147.658
 21
0.9999999999999969
 31
0.0
  0
LINE
  5
587
330
1E
100
AcDbEntity
  8
0
100
AcDbLine
 10
138.0279999999999
 20
0.9999999999999978
 30
0.0
 11
139.887
 21
0.9999999999999978
 31
0.0
  0
LINE
  5
589
330
1E
100
AcDbEntity
  8
0
100
AcDbLine
 10
135.8
 20
0.9999999999999978
 30
0.0
 11
142.5999999999999
 21
0.9999999999999978
 31
0.0
  0
LINE
  5
58A
330
1E
100
AcDbEntity
  8
0
100
AcDbLine
 10
142.5999999999999
 20
0.9999999999999978
 30
0.0
 11
148.3999999999999
 21
0.9999999999999969
 31
0.0
  0
LINE
  5
590
330
1E
100
AcDbEntity
  8
0
100
AcDbLine
 10
148.3999999999999
 20
0.9999999999999969
 30
0.0
 11
152.8
 21
0.9999999999999969
 31
0.0
  0
LINE
  5
591
330
1E
100
AcDbEntity
  8
0
100
AcDbLine
 10
152.8
 20
0.9999999999999969
 30
0.0
 11
156.1999999999999
 21
0.9999999999999969
 31
0.0
  0
LINE
  5
592
330
1E
100
AcDbEntity
  8
0
100
AcDbLine
 10
156.1999999999999
 20
0.9999999999999969
 30
0.0
 11
158.1999999999999
 21
0.9999999999999969
 31
0.0
  0
LINE
  5
593
330
1E
100
AcDbEntity
  8
0
100
AcDbLine
 10
158.1999999999999
 20
0.9999999999999969
 30
0.0
 11
159.0
 21
0.9999999999999969
 31
0.0
  0
LINE
  5
594
330
1E
100
AcDbEntity
  8
0
100
AcDbLine
 10
128.0
 20
0.9999999999999978
 30
0.0
 11
135.8
 21
0.9999999999999978
 31
0.0
  0
LINE
  5
5A9
330
1E
100
AcDbEntity
  8
0
100
AcDbLine
 10
117.456
 20
0.9999999999999989
 30
0.0
 11
118.0409999999999
 21
0.9999999999999989
 31
0.0
  0
LINE
  5
5AB
330
1E
100
AcDbEntity
  8
0
100
AcDbLine
 10
119.3
 20
0.9999999999999989
 30
0.0
 11
128.0
 21
0.9999999999999978
 31
0.0
  0
LINE
  5
5AC
330
1E
100
AcDbEntity
  8
0
100
AcDbLine
 10
110.2
 20
1.0
 30
0.0
 11
119.3
 21
0.9999999999999989
 31
0.0
  0
LINE
  5
5C3
330
1E
100
AcDbEntity
  8
0
100
AcDbLine
 10
94.16719999999999
 20
1.0
 30
0.0
 11
95.2735
 21
1.0
 31
0.0
  0
LINE
  5
5C4
330
1E
100
AcDbEntity
  8
0
100
AcDbLine
 10
100.4
 20
1.0
 30
0.0
 11
110.2
 21
1.0
 31
0.0
  0
LINE
  5
5C5
330
1E
100
AcDbEntity
  8
0
100
AcDbLine
 10
90.29999999999999
 20
1.0
 30
0.0
 11
100.4
 21
1.0
 31
0.0
  0
LINE
  5
5C7
330
1E
100
AcDbEntity
  8
0
100
AcDbLine
 10
80.0
 20
16.625
 30
0.0
 11
83.58400000000001
 21
16.625
 31
0.0
  0
LINE
  5
5C8
330
1E
100
AcDbEntity
  8
0
100
AcDbLine
 10
80.0
 20
17.0
 30
0.0
 11
83.528
 21
17.0
 31
0.0
  0
LINE
  5
5C9
330
1E
100
AcDbEntity
  8
0
100
AcDbLine
 10
80.0
 20
17.4286
 30
0.0
 11
83.32799999999998
 21
17.4286
 31
0.0
  0
LINE
  5
5CA
330
1E
100
AcDbEntity
  8
0
100
AcDbLine
 10
80.0
 20
24.5714
 30
0.0
 11
83.32799999999998
 21
24.5714
 31
0.0
  0
LINE
  5
5CB
330
1E
100
AcDbEntity
  8
0
100
AcDbLine
 10
80.0
 20
25.0
 30
0.0
 11
83.27600000000002
 21
25.0
 31
0.0
  0
LINE
  5
5CC
330
1E
100
AcDbEntity
  8
0
100
AcDbLine
 10
80.0
 20
25.4286
 30
0.0
 11
83.32799999999998
 21
25.4286
 31
0.0
  0
LINE
  5
5CD
330
1E
100
AcDbEntity
  8
0
100
AcDbLine
 10
80.0
 20
30.5714
 30
0.0
 11
83.32799999999998
 21
30.5714
 31
0.0
  0
LINE
  5
5CE
330
1E
100
AcDbEntity
  8
0
100
AcDbLine
 10
80.0
 20
31.0
 30
0.0
 11
83.27600000000002
 21
31.0
 31
0.0
  0
LINE
  5
5CF
330
1E
100
AcDbEntity
  8
0
100
AcDbLine
 10
80.0
 20
35.0
 30
0.0
 11
83.024
 21
35.0
 31
0.0
  0
LINE
  5
5D0
330
1E
100
AcDbEntity
  8
0
100
AcDbLine
 10
80.0
 20
35.0
 30
0.0
 11
82.28799999999999
 21
35.0
 31
0.0
  0
LINE
  5
5D1
330
1E
100
AcDbEntity
  8
0
100
AcDbLine
 10
80.0
 20
35.3846
 30
0.0
 11
83.07199999999999
 21
35.3846
 31
0.0
  0
LINE
  5
5D2
330
1E
100
AcDbEntity
  8
0
100
AcDbLine
 10
80.0
 20
44.6154
 30
0.0
 11
83.07199999999999
 21
44.6154
 31
0.0
  0
LINE
  5
5D3
330
1E
100
AcDbEntity
  8
0
100
AcDbLine
 10
80.0
 20
45.0
 30
0.0
 11
83.024
 21
45.0
 31
0.0
  0
LINE
  5
5D4
330
1E
100
AcDbEntity
  8
0
100
AcDbLine
 10
80.0
 20
14.0
 30
0.0
 11
90.29999999999999
 21
14.0
 31
0.0
  0
LINE
  5
5D5
330
1E
100
AcDbEntity
  8
0
100
AcDbLine
 10
80.0
 20
14.0
 30
0.0
 11
83.58400000000001
 21
14.0
 31
0.0
  0
LINE
  5
5D6
330
1E
100
AcDbEntity
  8
0
100
AcDbLine
 10
80.0
 20
13.0
 30
0.0
 11
90.4
 21
13.0
 31
0.0
  0
LINE
  5
5D7
330
1E
100
AcDbEntity
  8
0
100
AcDbLine
 10
136.4999999999999
 20
2.0
 30
0.0
 11
143.4
 21
2.0
 31
0.0
  0
LINE
  5
5D8
330
1E
100
AcDbEntity
  8
0
100
AcDbLine
 10
143.4
 20
2.0
 30
0.0
 11
149.3
 21
2.0
 31
0.0
  0
LINE
  5
5D9
330
1E
100
AcDbEntity
  8
0
100
AcDbLine
 10
149.3
 20
2.0
 30
0.0
 11
153.8
 21
2.0
 31
0.0
  0
LINE
  5
5DA
330
1E
100
AcDbEntity
  8
0
100
AcDbLine
 10
153.8
 20
2.0
 30
0.0
 11
157.0999999999999
 21
2.0
 31
0.0
  0
LINE
  5
5DB
330
1E
100
AcDbEntity
  8
0
100
AcDbLine
 10
157.0999999999999
 20
2.0
 30
0.0
 11
159.1999999999999
 21
2.0
 31
0.0
  0
LINE
  5
5DC
330
1E
100
AcDbEntity
  8
0
100
AcDbLine
 10
160.0
 20
2.0
 30
0.0
 11
160.0
 21
13.0
 31
0.0
  0
LINE
  5
5DD
330
1E
100
AcDbEntity
  8
0
100
AcDbLine
 10
159.1999999999999
 20
2.0
 30
0.0
 11
160.0
 21
2.0
 31
0.0
  0
LINE
  5
5DE
330
1E
100
AcDbEntity
  8
0
100
AcDbLine
 10
128.6
 20
2.0
 30
0.0
 11
136.4999999999999
 21
2.0
 31
0.0
  0
LINE
  5
5DF
330
1E
100
AcDbEntity
  8
0
100
AcDbLine
 10
119.7999999999999
 20
2.0
 30
0.0
 11
128.6
 21
2.0
 31
0.0
  0
LINE
  5
5E0
330
1E
100
AcDbEntity
  8
0
100
AcDbLine
 10
110.5999999999999
 20
2.0
 30
0.0
 11
119.7999999999999
 21
2.0
 31
0.0
  0
LINE
  5
5E1
330
1E
100
AcDbEntity
  8
0
100
AcDbLine
 10
100.6
 20
2.0
 30
0.0
 11
110.5999999999999
 21
2.0
 31
0.0
  0
LINE
  5
5E2
330
1E
100
AcDbEntity
  8
0
100
AcDbLine
 10
82.28799999999999
 20
35.0
 30
0.0
 11
84.40000000000001
 21
35.0
 31
0.0
  0
LINE
  5
5E3
330
1E
100
AcDbEntity
  8
0
100
AcDbLine
 10
83.27600000000002
 20
25.0
 30
0.0
 11
86.292
 21
25.0
 31
0.0
  0
LINE
  5
5E4
330
1E
100
AcDbEntity
  8
0
100
AcDbLine
 10
83.32799999999998
 20
17.4286
 30
0.0
 11
86.448
 21
17.4286
 31
0.0
  0
LINE
  5
5E5
330
1E
100
AcDbEntity
  8
0
100
AcDbLine
 10
83.32799999999998
 20
24.5714
 30
0.0
 11
86.448
 21
24.5714
 31
0.0
  0
LINE
  5
5E6
330
1E
100
AcDbEntity
  8
0
100
AcDbLine
 10
83.58400000000001
 20
16.625
 30
0.0
 11
86.94399999999999
 21
16.625
 31
0.0
  0
LINE
  5
5E7
330
1E
100
AcDbEntity
  8
0
100
AcDbLine
 10
83.528
 20
17.0
 30
0.0
 11
86.77600000000001
 21
17.0
 31
0.0
  0
LINE
  5
5E8
330
1E
100
AcDbEntity
  8
0
100
AcDbLine
 10
83.32799999999998
 20
25.4286
 30
0.0
 11
86.448
 21
25.4286
 31
0.0
  0
LINE
  5
5E9
330
1E
100
AcDbEntity
  8
0
100
AcDbLine
 10
84.40000000000001
 20
35.0
 30
0.0
 11
86.226
 21
35.0
 31
0.0
  0
LINE
  5
5EA
330
1E
100
AcDbEntity
  8
0
100
AcDbLine
 10
83.32799999999998
 20
30.5714
 30
0.0
 11
86.448
 21
30.5714
 31
0.0
  0
LINE
  5
5EB
330
1E
100
AcDbEntity
  8
0
100
AcDbLine
 10
83.27600000000002
 20
31.0
 30
0.0
 11
86.292
 21
31.0
 31
0.0
  0
LINE
  5
5EC
330
1E
100
AcDbEntity
  8
0
100
AcDbLine
 10
83.024
 20
35.0
 30
0.0
 11
85.80799999999999
 21
35.0
 31
0.0
  0
LINE
  5
5ED
330
1E
100
AcDbEntity
  8
0
100
AcDbLine
 10
85.80799999999999
 20
35.0
 30
0.0
 11
88.25599999999999
 21
35.0
 31
0.0
  0
LINE
  5
5EE
330
1E
100
AcDbEntity
  8
0
100
AcDbLine
 10
83.07199999999999
 20
35.3846
 30
0.0
 11
85.95200000000001
 21
35.3846
 31
0.0
  0
LINE
  5
5EF
330
1E
100
AcDbEntity
  8
0
100
AcDbLine
 10
85.95200000000001
 20
35.3846
 30
0.0
 11
88.496
 21
35.3846
 31
0.0
  0
LINE
  5
5F0
330
1E
100
AcDbEntity
  8
0
100
AcDbLine
 10
83.07199999999999
 20
44.6154
 30
0.0
 11
85.95200000000001
 21
44.6154
 31
0.0
  0
LINE
  5
5F1
330
1E
100
AcDbEntity
  8
0
100
AcDbLine
 10
86.448
 20
17.4286
 30
0.0
 11
89.20399999999998
 21
17.4286
 31
0.0
  0
LINE
  5
5F2
330
1E
100
AcDbEntity
  8
0
100
AcDbLine
 10
86.448
 20
24.5714
 30
0.0
 11
89.20399999999998
 21
24.5714
 31
0.0
  0
LINE
  5
5F3
330
1E
100
AcDbEntity
  8
0
100
AcDbLine
 10
86.292
 20
25.0
 30
0.0
 11
88.944
 21
25.0
 31
0.0
  0
LINE
  5
5F4
330
1E
100
AcDbEntity
  8
0
100
AcDbLine
 10
86.448
 20
25.4286
 30
0.0
 11
89.20399999999998
 21
25.4286
 31
0.0
  0
LINE
  5
5F5
330
1E
100
AcDbEntity
  8
0
100
AcDbLine
 10
86.94399999999999
 20
16.625
 30
0.0
 11
89.912
 21
16.625
 31
0.0
  0
LINE
  5
5F6
330
1E
100
AcDbEntity
  8
0
100
AcDbLine
 10
86.77600000000001
 20
17.0
 30
0.0
 11
89.632
 21
17.0
 31
0.0
  0
LINE
  5
5F7
330
1E
100
AcDbEntity
  8
0
100
AcDbLine
 10
86.448
 20
30.5714
 30
0.0
 11
89.20399999999998
 21
30.5714
 31
0.0
  0
LINE
  5
5F8
330
1E
100
AcDbEntity
  8
0
100
AcDbLine
 10
88.44799999999999
 20
35.0
 30
0.0
 11
88.8
 21
35.0
 31
0.0
  0
LINE
  5
5F9
330
1E
100
AcDbEntity
  8
0
100
AcDbLine
 10
87.634
 20
35.0
 30
0.0
 11
88.44799999999999
 21
35.0
 31
0.0
  0
LINE
  5
5FA
330
1E
100
AcDbEntity
  8
0
100
AcDbLine
 10
86.226
 20
35.0
 30
0.0
 11
87.634
 21
35.0
 31
0.0
  0
LINE
  5
5FB
330
1E
100
AcDbEntity
  8
0
100
AcDbLine
 10
86.292
 20
31.0
 30
0.0
 11
88.944
 21
31.0
 31
0.0
  0
LINE
  5
5FC
330
1E
100
AcDbEntity
  8
0
100
AcDbLine
 10
89.20399999999998
 20
17.4286
 30
0.0
 11
91.28399999999999
 21
17.4286
 31
0.0
  0
LINE
  5
5FD
330
1E
100
AcDbEntity
  8
0
100
AcDbLine
 10
89.20399999999998
 20
24.5714
 30
0.0
 11
91.28399999999999
 21
24.5714
 31
0.0
  0
LINE
  5
5FE
330
1E
100
AcDbEntity
  8
0
100
AcDbLine
 10
88.944
 20
25.0
 30
0.0
 11
90.972
 21
25.0
 31
0.0
  0
LINE
  5
5FF
330
1E
100
AcDbEntity
  8
0
100
AcDbLine
 10
89.632
 20
17.0
 30
0.0
 11
91.81600000000001
 21
17.0
 31
0.0
  0
LINE
  5
600
330
1E
100
AcDbEntity
  8
0
100
AcDbLine
 10
89.912
 20
16.625
 30
0.0
 11
92.15200000000001
 21
16.625
 31
0.0
  0
LINE
  5
601
330
1E
100
AcDbEntity
  8
0
100
AcDbLine
 10
89.20399999999998
 20
25.4286
 30
0.0
 11
91.28399999999999
 21
25.4286
 31
0.0
  0
LINE
  5
602
330
1E
100
AcDbEntity
  8
0
100
AcDbLine
 10
88.944
 20
31.0
 30
0.0
 11
90.972
 21
31.0
 31
0.0
  0
LINE
  5
603
330
1E
100
AcDbEntity
  8
0
100
AcDbLine
 10
89.20399999999998
 20
30.5714
 30
0.0
 11
91.28399999999999
 21
30.5714
 31
0.0
  0
LINE
  5
604
330
1E
100
AcDbEntity
  8
0
100
AcDbLine
 10
88.8
 20
35.0
 30
0.0
 11
90.12799999999998
 21
35.0
 31
0.0
  0
LINE
  5
605
330
1E
100
AcDbEntity
  8
0
100
AcDbLine
 10
88.8
 20
35.0
 30
0.0
 11
91.0
 21
31.0
 31
0.0
  0
LINE
  5
606
330
1E
100
AcDbEntity
  8
0
100
AcDbLine
 10
88.25599999999999
 20
35.0
 30
0.0
 11
90.12799999999998
 21
35.0
 31
0.0
  0
LINE
  5
607
330
1E
100
AcDbEntity
  8
0
100
AcDbLine
 10
90.12799999999998
 20
35.0
 30
0.0
 11
91.28
 21
35.0
 31
0.0
  0
LINE
  5
608
330
1E
100
AcDbEntity
  8
0
100
AcDbLine
 10
88.496
 20
35.3846
 30
0.0
 11
90.416
 21
35.3846
 31
0.0
  0
LINE
  5
609
330
1E
100
AcDbEntity
  8
0
100
AcDbLine
 10
85.95200000000001
 20
44.6154
 30
0.0
 11
88.496
 21
44.6154
 31
0.0
  0
LINE
  5
60A
330
1E
100
AcDbEntity
  8
0
100
AcDbLine
 10
83.024
 20
45.0
 30
0.0
 11
85.80799999999999
 21
45.0
 31
0.0
  0
LINE
  5
60B
330
1E
100
AcDbEntity
  8
0
100
AcDbLine
 10
85.80799999999999
 20
45.0
 30
0.0
 11
88.25599999999999
 21
45.0
 31
0.0
  0
LINE
  5
60C
330
1E
100
AcDbEntity
  8
0
100
AcDbLine
 10
88.25599999999999
 20
45.0
 30
0.0
 11
90.12799999999998
 21
45.0
 31
0.0
  0
LINE
  5
60D
330
1E
100
AcDbEntity
  8
0
100
AcDbLine
 10
88.496
 20
44.6154
 30
0.0
 11
90.416
 21
44.6154
 31
0.0
  0
LINE
  5
60E
330
1E
100
AcDbEntity
  8
0
100
AcDbLine
 10
90.12799999999998
 20
45.0
 30
0.0
 11
91.28
 21
45.0
 31
0.0
  0
LINE
  5
60F
330
1E
100
AcDbEntity
  8
0
100
AcDbLine
 10
90.29999999999999
 20
14.0
 30
0.0
 11
100.4
 21
14.0
 31
0.0
  0
LINE
  5
610
330
1E
100
AcDbEntity
  8
0
100
AcDbLine
 10
153.8
 20
13.0
 30
0.0
 11
157.0999999999999
 21
13.0
 31
0.0
  0
LINE
  5
611
330
1E
100
AcDbEntity
  8
0
100
AcDbLine
 10
160.0
 20
13.0
 30
0.0
 11
160.0
 21
2.0
 31
0.0
  0
LINE
  5
612
330
1E
100
AcDbEntity
  8
0
100
AcDbLine
 10
157.0999999999999
 20
13.0
 30
0.0
 11
159.1999999999999
 21
13.0
 31
0.0
  0
LINE
  5
613
330
1E
100
AcDbEntity
  8
0
100
AcDbLine
 10
136.4999999999999
 20
13.0
 30
0.0
 11
143.4
 21
13.0
 31
0.0
  0
LINE
  5
614
330
1E
100
AcDbEntity
  8
0
100
AcDbLine
 10
143.4
 20
13.0
 30
0.0
 11
149.3
 21
13.0
 31
0.0
  0
LINE
  5
615
330
1E
100
AcDbEntity
  8
0
100
AcDbLine
 10
149.3
 20
13.0
 30
0.0
 11
153.8
 21
13.0
 31
0.0
  0
LINE
  5
616
330
1E
100
AcDbEntity
  8
0
100
AcDbLine
 10
159.1999999999999
 20
13.0
 30
0.0
 11
160.0
 21
13.0
 31
0.0
  0
LINE
  5
617
330
1E
100
AcDbEntity
  8
0
100
AcDbLine
 10
128.6
 20
13.0
 30
0.0
 11
136.4999999999999
 21
13.0
 31
0.0
  0
LINE
  5
618
330
1E
100
AcDbEntity
  8
0
100
AcDbLine
 10
119.7999999999999
 20
13.0
 30
0.0
 11
128.6
 21
13.0
 31
0.0
  0
LINE
  5
619
330
1E
100
AcDbEntity
  8
0
100
AcDbLine
 10
110.5999999999999
 20
13.0
 30
0.0
 11
119.7999999999999
 21
13.0
 31
0.0
  0
LINE
  5
61A
330
1E
100
AcDbEntity
  8
0
100
AcDbLine
 10
90.416
 20
35.3846
 30
0.0
 11
91.568
 21
35.3846
 31
0.0
  0
LINE
  5
61B
330
1E
100
AcDbEntity
  8
0
100
AcDbLine
 10
90.972
 20
25.0
 30
0.0
 11
92.21999999999999
 21
25.0
 31
0.0
  0
LINE
  5
61C
330
1E
100
AcDbEntity
  8
0
100
AcDbLine
 10
90.972
 20
31.0
 30
0.0
 11
92.21999999999999
 21
31.0
 31
0.0
  0
LINE
  5
61D
330
1E
100
AcDbEntity
  8
0
100
AcDbLine
 10
91.28399999999999
 20
17.4286
 30
0.0
 11
92.53200000000001
 21
17.4286
 31
0.0
  0
LINE
  5
61E
330
1E
100
AcDbEntity
  8
0
100
AcDbLine
 10
91.28399999999999
 20
24.5714
 30
0.0
 11
92.53200000000001
 21
24.5714
 31
0.0
  0
LINE
  5
61F
330
1E
100
AcDbEntity
  8
0
100
AcDbLine
 10
91.28399999999999
 20
25.4286
 30
0.0
 11
92.53200000000001
 21
25.4286
 31
0.0
  0
LINE
  5
620
330
1E
100
AcDbEntity
  8
0
100
AcDbLine
 10
91.81600000000001
 20
17.0
 30
0.0
 11
93.16
 21
17.0
 31
0.0
  0
LINE
  5
621
330
1E
100
AcDbEntity
  8
0
100
AcDbLine
 10
92.15200000000001
 20
16.625
 30
0.0
 11
93.496
 21
16.625
 31
0.0
  0
LINE
  5
622
330
1E
100
AcDbEntity
  8
0
100
AcDbLine
 10
92.53200000000001
 20
17.4286
 30
0.0
 11
93.0
 21
17.4286
 31
0.0
  0
LINE
  5
623
330
1E
100
AcDbEntity
  8
0
100
AcDbLine
 10
92.53200000000001
 20
24.5714
 30
0.0
 11
93.0
 21
24.5714
 31
0.0
  0
LINE
  5
624
330
1E
100
AcDbEntity
  8
0
100
AcDbLine
 10
92.21999999999999
 20
25.0
 30
0.0
 11
92.68799999999998
 21
25.0
 31
0.0
  0
LINE
  5
625
330
1E
100
AcDbEntity
  8
0
100
AcDbLine
 10
92.53200000000001
 20
25.4286
 30
0.0
 11
93.0
 21
25.4286
 31
0.0
  0
LINE
  5
626
330
1E
100
AcDbEntity
  8
0
100
AcDbLine
 10
91.28399999999999
 20
30.5714
 30
0.0
 11
92.53200000000001
 21
30.5714
 31
0.0
  0
LINE
  5
627
330
1E
100
AcDbEntity
  8
0
100
AcDbLine
 10
92.21999999999999
 20
31.0
 30
0.0
 11
92.68799999999998
 21
31.0
 31
0.0
  0
LINE
  5
628
330
1E
100
AcDbEntity
  8
0
100
AcDbLine
 10
93.0
 20
17.4286
 30
0.0
 11
93.0
 21
24.5714
 31
0.0
  0
LINE
  5
629
330
1E
100
AcDbEntity
  8
0
100
AcDbLine
 10
92.68799999999998
 20
17.0
 30
0.0
 11
93.0
 21
17.4286
 31
0.0
  0
LINE
  5
62A
330
1E
100
AcDbEntity
  8
0
100
AcDbLine
 10
93.0
 20
24.5714
 30
0.0
 11
93.0
 21
17.4286
 31
0.0
  0
LINE
  5
62B
330
1E
100
AcDbEntity
  8
0
100
AcDbLine
 10
93.0
 20
25.4286
 30
0.0
 11
93.0
 21
30.5714
 31
0.0
  0
LINE
  5
62C
330
1E
100
AcDbEntity
  8
0
100
AcDbLine
 10
92.68799999999998
 20
25.0
 30
0.0
 11
93.0
 21
25.4286
 31
0.0
  0
LINE
  5
62D
330
1E
100
AcDbEntity
  8
0
100
AcDbLine
 10
92.68799999999998
 20
25.0
 30
0.0
 11
93.0
 21
24.5714
 31
0.0
  0
LINE
  5
62E
330
1E
100
AcDbEntity
  8
0
100
AcDbLine
 10
94.0
 20
14.0
 30
0.0
 11
94.0
 21
16.625
 31
0.0
  0
LINE
  5
62F
330
1E
100
AcDbEntity
  8
0
100
AcDbLine
 10
94.0
 20
16.625
 30
0.0
 11
94.0
 21
14.0
 31
0.0
  0
LINE
  5
630
330
1E
100
AcDbEntity
  8
0
100
AcDbLine
 10
93.16
 20
17.0
 30
0.0
 11
93.664
 21
17.0
 31
0.0
  0
LINE
  5
631
330
1E
100
AcDbEntity
  8
0
100
AcDbLine
 10
93.664
 20
17.0
 30
0.0
 11
94.0
 21
16.625
 31
0.0
  0
LINE
  5
632
330
1E
100
AcDbEntity
  8
0
100
AcDbLine
 10
93.496
 20
16.625
 30
0.0
 11
94.0
 21
16.625
 31
0.0
  0
LINE
  5
633
330
1E
100
AcDbEntity
  8
0
100
AcDbLine
 10
93.0
 20
30.5714
 30
0.0
 11
93.0
 21
25.4286
 31
0.0
  0
LINE
  5
634
330
1E
100
AcDbEntity
  8
0
100
AcDbLine
 10
92.68799999999998
 20
31.0
 30
0.0
 11
93.0
 21
30.5714
 31
0.0
  0
LINE
  5
635
330
1E
100
AcDbEntity
  8
0
100
AcDbLine
 10
92.53200000000001
 20
30.5714
 30
0.0
 11
93.0
 21
30.5714
 31
0.0
  0
LINE
  5
636
330
1E
100
AcDbEntity
  8
0
100
AcDbLine
 10
92.0
 20
35.3846
 30
0.0
 11
92.0
 21
44.6154
 31
0.0
  0
LINE
  5
637
330
1E
100
AcDbEntity
  8
0
100
AcDbLine
 10
91.712
 20
35.0
 30
0.0
 11
92.0
 21
35.3846
 31
0.0
  0
LINE
  5
638
330
1E
100
AcDbEntity
  8
0
100
AcDbLine
 10
91.28
 20
35.0
 30
0.0
 11
91.712
 21
35.0
 31
0.0
  0
LINE
  5
639
330
1E
100
AcDbEntity
  8
0
100
AcDbLine
 10
92.0
 20
44.6154
 30
0.0
 11
92.0
 21
35.3846
 31
0.0
  0
LINE
  5
63A
330
1E
100
AcDbEntity
  8
0
100
AcDbLine
 10
91.568
 20
35.3846
 30
0.0
 11
92.0
 21
35.3846
 31
0.0
  0
LINE
  5
63B
330
1E
100
AcDbEntity
  8
0
100
AcDbLine
 10
90.416
 20
44.6154
 30
0.0
 11
91.568
 21
44.6154
 31
0.0
  0
LINE
  5
63C
330
1E
100
AcDbEntity
  8
0
100
AcDbLine
 10
91.28
 20
45.0
 30
0.0
 11
91.712
 21
45.0
 31
0.0
  0
LINE
  5
63D
330
1E
100
AcDbEntity
  8
0
100
AcDbLine
 10
91.712
 20
45.0
 30
0.0
 11
92.0
 21
44.6154
 31
0.0
  0
LINE
  5
63E
330
1E
100
AcDbEntity
  8
0
100
AcDbLine
 10
91.568
 20
44.6154
 30
0.0
 11
92.0
 21
44.6154
 31
0.0
  0
LINE
  5
63F
330
1E
100
AcDbEntity
  8
0
100
AcDbLine
 10
135.8
 20
14.0
 30
0.0
 11
142.5999999999999
 21
14.0
 31
0.0
  0
LINE
  5
640
330
1E
100
AcDbEntity
  8
0
100
AcDbLine
 10
142.5999999999999
 20
14.0
 30
0.0
 11
148.3999999999999
 21
14.0
 31
0.0
  0
LINE
  5
641
330
1E
100
AcDbEntity
  8
0
100
AcDbLine
 10
148.3999999999999
 20
14.0
 30
0.0
 11
152.8
 21
14.0
 31
0.0
  0
LINE
  5
642
330
1E
100
AcDbEntity
  8
0
100
AcDbLine
 10
152.8
 20
14.0
 30
0.0
 11
156.1999999999999
 21
14.0
 31
0.0
  0
LINE
  5
643
330
1E
100
AcDbEntity
  8
0
100
AcDbLine
 10
156.1999999999999
 20
14.0
 30
0.0
 11
158.1999999999999
 21
14.0
 31
0.0
  0
LINE
  5
644
330
1E
100
AcDbEntity
  8
0
100
AcDbLine
 10
158.1999999999999
 20
14.0
 30
0.0
 11
159.0
 21
14.0
 31
0.0
  0
LINE
  5
645
330
1E
100
AcDbEntity
  8
0
100
AcDbLine
 10
159.0
 20
14.0
 30
0.0
 11
160.0
 21
13.0
 31
0.0
  0
LINE
  5
646
330
1E
100
AcDbEntity
  8
0
100
AcDbLine
 10
128.0
 20
14.0
 30
0.0
 11
135.8
 21
14.0
 31
0.0
  0
LINE
  5
647
330
1E
100
AcDbEntity
  8
0
100
AcDbLine
 10
119.3
 20
14.0
 30
0.0
 11
128.0
 21
14.0
 31
0.0
  0
LINE
  5
648
330
1E
100
AcDbEntity
  8
0
100
AcDbLine
 10
110.2
 20
14.0
 30
0.0
 11
119.3
 21
14.0
 31
0.0
  0
LINE
  5
649
330
1E
100
AcDbEntity
  8
0
100
AcDbLine
 10
100.4
 20
14.0
 30
0.0
 11
110.2
 21
14.0
 31
0.0
  0
LINE
  5
64A
330
1E
100
AcDbEntity
  8
0
100
AcDbLine
 10
100.6
 20
13.0
 30
0.0
 11
110.5999999999999
 21
13.0
 31
0.0
  0
LINE
  5
64B
330
1E
100
AcDbEntity
  8
0
100
AcDbLine
 10
90.4
 20
13.0
 30
0.0
 11
100.6
 21
13.0
 31
0.0
  0
LINE
  5
64C
330
1E
100
AcDbEntity
  8
0
100
AcDbLine
 10
90.4
 20
2.0
 30
0.0
 11
100.6
 21
2.0
 31
0.0
  0
LINE
  5
64D
330
1E
100
AcDbEntity
  8
0
100
AcDbLine
 10
80.0
 20
2.0
 30
0.0
 11
90.4
 21
2.0
 31
0.0
  0
LINE
  5
64E
330
1E
100
AcDbEntity
  8
0
100
AcDbLine
 10
80.0
 20
1.0
 30
0.0
 11
90.29999999999999
 21
1.0
 31
0.0
  0
ENDSEC
  0
SECTION
  2
OBJECTS
  0
DICTIONARY
  5
C
330
0
100
AcDbDictionary
281
     1
  3
ACAD_GROUP
350
D
  3
ACAD_LAYOUT
350
19
  3
ACAD_MLINESTYLE
350
16
  3
ACAD_PLOTSETTINGS
350
18
  3
ACAD_PLOTSTYLENAME
350
E
  3
AcDbVariableDictionary
350
654
  0
DICTIONARY
  5
D
102
{ACAD_REACTORS
330
C
102
}
330
C
100
AcDbDictionary
281
     1
  0
DICTIONARY
  5
19
102
{ACAD_REACTORS
330
C
102
}
330
C
100
AcDbDictionary
281
     1
  3
Layout1
350
1D
  3
Model
350
21
  0
DICTIONARY
  5
16
102
{ACAD_REACTORS
330
C
102
}
330
C
100
AcDbDictionary
281
     1
  3
Standard
350
17
  0
DICTIONARY
  5
18
102
{ACAD_REACTORS
330
C
102
}
330
C
100
AcDbDictionary
281
     1
  0
ACDBDICTIONARYWDFLT
  5
E
102
{ACAD_REACTORS
330
C
102
}
330
C
100
AcDbDictionary
281
     1
  3
Normal
350
F
100
AcDbDictionaryWithDefault
340
F
  0
DICTIONARY
  5
654
102
{ACAD_REACTORS
330
C
102
}
330
C
100
AcDbDictionary
281
     1
  3
DIMASSOC
350
655
  0
LAYOUT
  5
1D
102
{ACAD_REACTORS
330
19
102
}
330
19
100
AcDbPlotSettings
  1

  2
hp deskjet 980c series
  4

  6

 40
0.0
 41
0.0
 42
0.0
 43
0.0
 44
0.0
 45
0.0
 46
0.0
 47
0.0
 48
0.0
 49
0.0
140
0.0
141
0.0
142
1.0
143
1.0
 70
   688
 72
     0
 73
     0
 74
     5
  7

 75
    16
147
1.0
148
0.0
149
0.0
100
AcDbLayout
  1
Layout1
 70
     1
 71
     1
 10
0.0
 20
0.0
 11
12.0
 21
9.0
 12
0.0
 22
0.0
 32
0.0
 14
1.000000000000000E+20
 24
1.000000000000000E+20
 34
1.000000000000000E+20
 15
-1.000000000000000E+20
 25
-1.000000000000000E+20
 35
-1.000000000000000E+20
146
0.0
 13
0.0
 23
0.0
 33
0.0
 16
1.0
 26
0.0
 36
0.0
 17
0.0
 27
1.0
 37
0.0
 76
     0
330
1A
  0
LAYOUT
  5
21
102
{ACAD_REACTORS
330
19
102
}
330
19
100
AcDbPlotSettings
  1

  2
hp deskjet 980c series
  4

  6

 40
0.0
 41
0.0
 42
0.0
 43
0.0
 44
0.0
 45
0.0
 46
0.0
 47
0.0
 48
0.0
 49
0.0
140
0.0
141
0.0
142
1.0
143
1.0
 70
  1712
 72
     0
 73
     0
 74
     0
  7

 75
     0
147
1.0
148
0.0
149
0.0
100
AcDbLayout
  1
Model
 70
     1
 71
     0
 10
0.0
 20
0.0
 11
12.0
 21
9.0
 12
0.0
 22
0.0
 32
0.0
 14
0.0
 24
0.0
 34
0.0
 15
0.0
 25
0.0
 35
0.0
146
0.0
 13
0.0
 23
0.0
 33
0.0
 16
1.0
 26
0.0
 36
0.0
 17
0.0
 27
1.0
 37
0.0
 76
     0
330
1E
  0
MLINESTYLE
  5
17
102
{ACAD_REACTORS
330
16
102
}
330
16
100
AcDbMlineStyle
  2
STANDARD
 70
     0
  3

 62
   256
 51
90.0
 52
90.0
 71
     2
 49
0.5
 62
   256
  6
BYLAYER
 49
-0.5
 62
   256
  6
BYLAYER
  0
ACDBPLACEHOLDER
  5
F
102
{ACAD_REACTORS
330
E
102
}
330
E
  0
DICTIONARYVAR
  5
655
102
{ACAD_REACTORS
330
654
102
}
330
654
100
DictionaryVariables
280
     0
  1
1
  0
ENDSEC
  0
EOF
