  0
SECTION
  2
HEADER
  9
$ACADVER
  1
AC1014
  9
$ACADMAINTVER
 70
     9
  9
$DWGCODEPAGE
  3
ANSI_1252
  9
$INSBASE
 10
0.0
 20
0.0
 30
0.0
  9
$EXTMIN
 10
0.0000000000000015
 20
-0.0000000000000024
 30
0.0
  9
$EXTMAX
 10
108.0
 20
79.0
 30
0.0
  9
$LIMMIN
 10
0.0
 20
0.0
  9
$LIMMAX
 10
12.0
 20
9.0
  9
$ORTHOMODE
 70
     0
  9
$REGENMODE
 70
     1
  9
$FILLMODE
 70
     1
  9
$QTEXTMODE
 70
     0
  9
$MIRRTEXT
 70
     1
  9
$DRAGMODE
 70
     2
  9
$LTSCALE
 40
1.0
  9
$OSMODE
 70
    37
  9
$ATTMODE
 70
     1
  9
$TEXTSIZE
 40
0.2
  9
$TRACEWID
 40
0.05
  9
$TEXTSTYLE
  7
STANDARD
  9
$CLAYER
  8
0
  9
$CELTYPE
  6
CONTINUOUS
  9
$CECOLOR
 62
   256
  9
$CELTSCALE
 40
1.0
  9
$DELOBJ
 70
     1
  9
$DISPSILH
 70
     0
  9
$DIMSCALE
 40
1.0
  9
$DIMASZ
 40
0.18
  9
$DIMEXO
 40
0.0625
  9
$DIMDLI
 40
0.38
  9
$DIMRND
 40
0.0
  9
$DIMDLE
 40
0.0
  9
$DIMEXE
 40
0.18
  9
$DIMTP
 40
0.0
  9
$DIMTM
 40
0.0
  9
$DIMTXT
 40
0.18
  9
$DIMCEN
 40
0.09
  9
$DIMTSZ
 40
0.0
  9
$DIMTOL
 70
     0
  9
$DIMLIM
 70
     0
  9
$DIMTIH
 70
     1
  9
$DIMTOH
 70
     1
  9
$DIMSE1
 70
     0
  9
$DIMSE2
 70
     0
  9
$DIMTAD
 70
     0
  9
$DIMZIN
 70
     0
  9
$DIMBLK
  1

  9
$DIMASO
 70
     1
  9
$DIMSHO
 70
     1
  9
$DIMPOST
  1

  9
$DIMAPOST
  1

  9
$DIMALT
 70
     0
  9
$DIMALTD
 70
     2
  9
$DIMALTF
 40
25.4
  9
$DIMLFAC
 40
1.0
  9
$DIMTOFL
 70
     0
  9
$DIMTVP
 40
0.0
  9
$DIMTIX
 70
     0
  9
$DIMSOXD
 70
     0
  9
$DIMSAH
 70
     0
  9
$DIMBLK1
  1

  9
$DIMBLK2
  1

  9
$DIMSTYLE
  2
STANDARD
  9
$DIMCLRD
 70
     0
  9
$DIMCLRE
 70
     0
  9
$DIMCLRT
 70
     0
  9
$DIMTFAC
 40
1.0
  9
$DIMGAP
 40
0.09
  9
$DIMJUST
 70
     0
  9
$DIMSD1
 70
     0
  9
$DIMSD2
 70
     0
  9
$DIMTOLJ
 70
     1
  9
$DIMTZIN
 70
     0
  9
$DIMALTZ
 70
     0
  9
$DIMALTTZ
 70
     0
  9
$DIMFIT
 70
     3
  9
$DIMUPT
 70
     0
  9
$DIMUNIT
 70
     2
  9
$DIMDEC
 70
     4
  9
$DIMTDEC
 70
     4
  9
$DIMALTU
 70
     2
  9
$DIMALTTD
 70
     2
  9
$DIMTXSTY
  7
STANDARD
  9
$DIMAUNIT
 70
     0
  9
$LUNITS
 70
     2
  9
$LUPREC
 70
     4
  9
$SKETCHINC
 40
0.1
  9
$FILLETRAD
 40
0.0
  9
$AUNITS
 70
     0
  9
$AUPREC
 70
     0
  9
$MENU
  1
.
  9
$ELEVATION
 40
0.0
  9
$PELEVATION
 40
0.0
  9
$THICKNESS
 40
0.0
  9
$LIMCHECK
 70
     0
  9
$BLIPMODE
 70
     0
  9
$CHAMFERA
 40
0.0
  9
$CHAMFERB
 40
0.0
  9
$CHAMFERC
 40
0.0
  9
$CHAMFERD
 40
0.0
  9
$SKPOLY
 70
     0
  9
$TDCREATE
 40
2454697.406741169
  9
$TDUPDATE
 40
2454697.410405625
  9
$TDINDWG
 40
0.0036644560
  9
$TDUSRTIMER
 40
0.0036644560
  9
$USRTIMER
 70
     1
  9
$ANGBASE
 50
0.0
  9
$ANGDIR
 70
     0
  9
$PDMODE
 70
     0
  9
$PDSIZE
 40
0.0
  9
$PLINEWID
 40
0.0
  9
$COORDS
 70
     1
  9
$SPLFRAME
 70
     0
  9
$SPLINETYPE
 70
     6
  9
$SPLINESEGS
 70
     8
  9
$ATTDIA
 70
     0
  9
$ATTREQ
 70
     1
  9
$HANDLING
 70
 22529
  9
$HANDSEED
  5
610
  9
$SURFTAB1
 70
     6
  9
$SURFTAB2
 70
     6
  9
$SURFTYPE
 70
     6
  9
$SURFU
 70
     6
  9
$SURFV
 70
     6
  9
$UCSNAME
  2

  9
$UCSORG
 10
0.0
 20
0.0
 30
0.0
  9
$UCSXDIR
 10
1.0
 20
0.0
 30
0.0
  9
$UCSYDIR
 10
0.0
 20
1.0
 30
0.0
  9
$PUCSNAME
  2

  9
$PUCSORG
 10
0.0
 20
0.0
 30
0.0
  9
$PUCSXDIR
 10
1.0
 20
0.0
 30
0.0
  9
$PUCSYDIR
 10
0.0
 20
1.0
 30
0.0
  9
$USERI1
 70
     0
  9
$USERI2
 70
     0
  9
$USERI3
 70
     0
  9
$USERI4
 70
     0
  9
$USERI5
 70
     0
  9
$USERR1
 40
0.0
  9
$USERR2
 40
0.0
  9
$USERR3
 40
0.0
  9
$USERR4
 40
0.0
  9
$USERR5
 40
0.0
  9
$WORLDVIEW
 70
     1
  9
$SHADEDGE
 70
     3
  9
$SHADEDIF
 70
    70
  9
$TILEMODE
 70
     1
  9
$MAXACTVP
 70
    64
  9
$PINSBASE
 10
0.0
 20
0.0
 30
0.0
  9
$PLIMCHECK
 70
     0
  9
$PEXTMIN
 10
1.000000000000000E+20
 20
1.000000000000000E+20
 30
1.000000000000000E+20
  9
$PEXTMAX
 10
-1.000000000000000E+20
 20
-1.000000000000000E+20
 30
-1.000000000000000E+20
  9
$PLIMMIN
 10
0.0
 20
0.0
  9
$PLIMMAX
 10
12.0
 20
9.0
  9
$UNITMODE
 70
     0
  9
$VISRETAIN
 70
     1
  9
$PLINEGEN
 70
     0
  9
$PSLTSCALE
 70
     1
  9
$TREEDEPTH
 70
  3020
  9
$PICKSTYLE
 70
     1
  9
$CMLSTYLE
  2
STANDARD
  9
$CMLJUST
 70
     0
  9
$CMLSCALE
 40
1.0
  9
$PROXYGRAPHICS
 70
     1
  9
$MEASUREMENT
 70
     0
  0
ENDSEC
  0
SECTION
  2
CLASSES
  0
CLASS
  1
ACDBDICTIONARYWDFLT
  2
AcDbDictionaryWithDefault
  3
AutoCAD 2000
 90
        0
280
     0
281
     0
  0
CLASS
  1
ACDBPLACEHOLDER
  2
AcDbPlaceHolder
  3
AutoCAD 2000
 90
        0
280
     0
281
     0
  0
CLASS
  1
LAYOUT
  2
AcDbLayout
  3
AutoCAD 2000
 90
        0
280
     0
281
     0
  0
CLASS
  1
DICTIONARYVAR
  2
AcDbDictionaryVar
  3
AutoCAD 2000
 90
        0
280
     0
281
     0
  0
CLASS
  1
LONG_TRANSACTION
  2
AcDbLongTransaction
  3
AutoCAD 2000
 90
        0
280
     0
281
     0
  0
CLASS
  1
LWPOLYLINE
  2
AcDbPolyline
  3
AutoCAD 2000
 90
        0
280
     0
281
     1
  0
CLASS
  1
HATCH
  2
AcDbHatch
  3
AutoCAD 2000
 90
        0
280
     0
281
     1
  0
CLASS
  1
XRECORD
  2
AcDbXrecord
  3
AutoCAD 2000
 90
        0
280
     0
281
     0
  0
ENDSEC
  0
SECTION
  2
TABLES
  0
TABLE
  2
VPORT
  5
8
330
0
100
AcDbSymbolTable
 70
     2
  0
VPORT
  5
5EB
330
8
100
AcDbSymbolTableRecord
100
AcDbViewportTableRecord
  2
*ACTIVE
 70
     0
 10
0.0
 20
0.0
 11
1.0
 21
1.0
 12
54.0
 22
39.5
 13
0.0
 23
0.0
 14
1.0
 24
1.0
 15
0.0
 25
0.0
 16
0.0
 26
0.0
 36
1.0
 17
0.0
 27
0.0
 37
0.0
 40
79.60613810741688
 41
2.078104993597951
 42
50.0
 43
0.0
 44
0.0
 50
0.0
 51
0.0
 71
     0
 72
   100
 73
     1
 74
     3
 75
     0
 76
     0
 77
     0
 78
     0
  0
ENDTAB
  0
TABLE
  2
LTYPE
  5
5
330
0
100
AcDbSymbolTable
 70
     1
  0
LTYPE
  5
13
330
5
100
AcDbSymbolTableRecord
100
AcDbLinetypeTableRecord
  2
BYBLOCK
 70
     0
  3

 72
    65
 73
     0
 40
0.0
  0
LTYPE
  5
14
330
5
100
AcDbSymbolTableRecord
100
AcDbLinetypeTableRecord
  2
BYLAYER
 70
     0
  3

 72
    65
 73
     0
 40
0.0
  0
LTYPE
  5
15
330
5
100
AcDbSymbolTableRecord
100
AcDbLinetypeTableRecord
  2
CONTINUOUS
 70
     0
  3
Solid line
 72
    65
 73
     0
 40
0.0
  0
ENDTAB
  0
TABLE
  2
LAYER
  5
2
330
0
100
AcDbSymbolTable
 70
     1
  0
LAYER
  5
10
330
2
100
AcDbSymbolTableRecord
100
AcDbLayerTableRecord
  2
0
 70
     0
 62
     7
  6
CONTINUOUS
  0
ENDTAB
  0
TABLE
  2
STYLE
  5
3
330
0
100
AcDbSymbolTable
 70
     1
  0
STYLE
  5
11
330
3
100
AcDbSymbolTableRecord
100
AcDbTextStyleTableRecord
  2
STANDARD
 70
     0
 40
0.0
 41
1.0
 50
0.0
 71
     0
 42
0.2
  3
txt
  4

  0
ENDTAB
  0
TABLE
  2
VIEW
  5
6
330
0
100
AcDbSymbolTable
 70
     0
  0
ENDTAB
  0
TABLE
  2
UCS
  5
7
330
0
100
AcDbSymbolTable
 70
     0
  0
ENDTAB
  0
TABLE
  2
APPID
  5
9
330
0
100
AcDbSymbolTable
 70
     1
  0
APPID
  5
12
330
9
100
AcDbSymbolTableRecord
100
AcDbRegAppTableRecord
  2
ACAD
 70
     0
  0
ENDTAB
  0
TABLE
  2
DIMSTYLE
  5
A
330
0
100
AcDbSymbolTable
 70
     1
  0
DIMSTYLE
105
5E5
330
A
100
AcDbSymbolTableRecord
100
AcDbDimStyleTableRecord
  2
STANDARD
 70
     0
  3

  4

  5

  6

  7

 40
1.0
 41
0.18
 42
0.0625
 43
0.38
 44
0.18
 45
0.0
 46
0.0
 47
0.0
 48
0.0
140
0.18
141
0.09
142
0.0
143
25.4
144
1.0
145
0.0
146
1.0
147
0.09
 71
     0
 72
     0
 73
     1
 74
     1
 75
     0
 76
     0
 77
     0
 78
     0
170
     0
171
     2
172
     0
173
     0
174
     0
175
     0
176
     0
177
     0
178
     0
270
     2
271
     4
272
     4
273
     2
274
     2
340
11
275
     0
280
     0
281
     0
282
     0
283
     1
284
     0
285
     0
286
     0
287
     3
288
     0
  0
ENDTAB
  0
TABLE
  2
BLOCK_RECORD
  5
1
330
0
100
AcDbSymbolTable
 70
     0
  0
BLOCK_RECORD
  5
1E
102
{ACAD_XDICTIONARY
360
60E
102
}
330
1
100
AcDbSymbolTableRecord
100
AcDbBlockTableRecord
  2
*MODEL_SPACE
  0
BLOCK_RECORD
  5
1A
102
{ACAD_XDICTIONARY
360
60C
102
}
330
1
100
AcDbSymbolTableRecord
100
AcDbBlockTableRecord
  2
*PAPER_SPACE
  0
ENDTAB
  0
ENDSEC
  0
SECTION
  2
BLOCKS
  0
BLOCK
  5
1F
330
1E
100
AcDbEntity
  8
0
100
AcDbBlockBegin
  2
*MODEL_SPACE
 70
     0
 10
0.0
 20
0.0
 30
0.0
  3
*MODEL_SPACE
  1

  0
ENDBLK
  5
20
330
1E
100
AcDbEntity
  8
0
100
AcDbBlockEnd
  0
BLOCK
  5
1B
330
1A
100
AcDbEntity
 67
     1
  8
0
100
AcDbBlockBegin
  2
*PAPER_SPACE
 70
     0
 10
0.0
 20
0.0
 30
0.0
  3
*PAPER_SPACE
  1

  0
ENDBLK
  5
1C
330
1A
100
AcDbEntity
 67
     1
  8
0
100
AcDbBlockEnd
  0
ENDSEC
  0
SECTION
  2
ENTITIES
  0
LINE
  5
22
330
1E
100
AcDbEntity
  8
0
100
AcDbLine
 10
0.0000000000000015
 20
-0.0000000000000024
 30
0.0
 11
0.0000000000000015
 21
0.5999999999999979
 31
0.0
  0
LINE
  5
23
330
1E
100
AcDbEntity
  8
0
100
AcDbLine
 10
0.0000000000000015
 20
-0.0000000000000024
 30
0.0
 11
0.0000000000000015
 21
0.5999999999999979
 31
0.0
  0
LINE
  5
24
330
1E
100
AcDbEntity
  8
0
100
AcDbLine
 10
0.0000000000000015
 20
-0.0000000000000024
 30
0.0
 11
8.0
 21
-0.0000000000000024
 31
0.0
  0
LINE
  5
25
330
1E
100
AcDbEntity
  8
0
100
AcDbLine
 10
0.0000000000000015
 20
0.5999999999999979
 30
0.0
 11
0.0000000000000015
 21
2.0
 31
0.0
  0
LINE
  5
26
330
1E
100
AcDbEntity
  8
0
100
AcDbLine
 10
0.0000000000000015
 20
0.5999999999999979
 30
0.0
 11
0.0000000000000015
 21
-0.0000000000000024
 31
0.0
  0
LINE
  5
27
330
1E
100
AcDbEntity
  8
0
100
AcDbLine
 10
0.0000000000000015
 20
0.5999999999999979
 30
0.0
 11
0.0000000000000015
 21
-0.0000000000000024
 31
0.0
  0
LINE
  5
28
330
1E
100
AcDbEntity
  8
0
100
AcDbLine
 10
0.0000000000000015
 20
0.5999999999999979
 30
0.0
 11
0.0000000000000015
 21
2.0
 31
0.0
  0
LINE
  5
29
330
1E
100
AcDbEntity
  8
0
100
AcDbLine
 10
0.0000000000000015
 20
0.5999999999999979
 30
0.0
 11
8.0
 21
0.5999999999999979
 31
0.0
  0
LINE
  5
2A
330
1E
100
AcDbEntity
  8
0
100
AcDbLine
 10
0.0000000000000015
 20
2.0
 30
0.0
 11
0.0000000000000015
 21
0.5999999999999979
 31
0.0
  0
LINE
  5
2B
330
1E
100
AcDbEntity
  8
0
100
AcDbLine
 10
0.0000000000000015
 20
2.0
 30
0.0
 11
1.159899999999999
 21
6.111069999999999
 31
0.0
  0
LINE
  5
2C
330
1E
100
AcDbEntity
  8
0
100
AcDbLine
 10
8.0
 20
2.0
 30
0.0
 11
8.53373
 21
3.400326999999999
 31
0.0
  0
LINE
  5
2D
330
1E
100
AcDbEntity
  8
0
100
AcDbLine
 10
8.0
 20
-0.0000000000000024
 30
0.0
 11
8.0
 21
0.5999999999999979
 31
0.0
  0
LINE
  5
2E
330
1E
100
AcDbEntity
  8
0
100
AcDbLine
 10
8.0
 20
0.5999999999999979
 30
0.0
 11
8.0
 21
-0.0000000000000024
 31
0.0
  0
LINE
  5
2F
330
1E
100
AcDbEntity
  8
0
100
AcDbLine
 10
8.0
 20
0.5999999999999979
 30
0.0
 11
8.0
 21
2.0
 31
0.0
  0
LINE
  5
30
330
1E
100
AcDbEntity
  8
0
100
AcDbLine
 10
1.159899999999999
 20
6.111069999999999
 30
0.0
 11
3.06919
 21
9.592
 31
0.0
  0
LINE
  5
31
330
1E
100
AcDbEntity
  8
0
100
AcDbLine
 10
1.787039051094879
 20
7.254441167883189
 30
0.0
 11
3.06919
 21
9.611319999999999
 31
0.0
  0
LINE
  5
32
330
1E
100
AcDbEntity
  8
0
100
AcDbLine
 10
3.06919
 20
9.592
 30
0.0
 11
6.09773
 21
12.99171999999999
 31
0.0
  0
LINE
  5
33
330
1E
100
AcDbEntity
  8
0
100
AcDbLine
 10
6.09773
 20
12.99171999999999
 30
0.0
 11
8.572579819547319
 21
14.7047502506287
 31
0.0
  0
LINE
  5
34
330
1E
100
AcDbEntity
  8
0
100
AcDbLine
 10
3.06919
 20
9.611319999999999
 30
0.0
 11
6.09773
 21
12.99171999999999
 31
0.0
  0
LINE
  5
35
330
1E
100
AcDbEntity
  8
0
100
AcDbLine
 10
1.787039051094879
 20
7.254441167883189
 30
0.0
 11
3.06919
 21
9.611319999999999
 31
0.0
  0
LINE
  5
36
330
1E
100
AcDbEntity
  8
0
100
AcDbLine
 10
8.0
 20
2.0
 30
0.0
 11
8.0
 21
0.5999999999999979
 31
0.0
  0
LINE
  5
37
330
1E
100
AcDbEntity
  8
0
100
AcDbLine
 10
8.0
 20
2.0
 30
0.0
 11
8.53373
 21
3.400326999999999
 31
0.0
  0
LINE
  5
38
330
1E
100
AcDbEntity
  8
0
100
AcDbLine
 10
0.0000000000000015
 20
2.0
 30
0.0
 11
0.0000000000000015
 21
0.5999999999999979
 31
0.0
  0
LINE
  5
39
330
1E
100
AcDbEntity
  8
0
100
AcDbLine
 10
0.0000000000000015
 20
2.0
 30
0.0
 11
1.159899999999999
 21
6.111069999999999
 31
0.0
  0
LINE
  5
3A
330
1E
100
AcDbEntity
  8
0
100
AcDbLine
 10
8.0
 20
14.3084245649095
 30
0.0
 11
8.0
 21
15.5
 31
0.0
  0
LINE
  5
3B
330
1E
100
AcDbEntity
  8
0
100
AcDbLine
 10
8.0
 20
15.5
 30
0.0
 11
8.0
 21
14.3084245649095
 31
0.0
  0
LINE
  5
3C
330
1E
100
AcDbEntity
  8
0
100
AcDbLine
 10
8.0
 20
15.5
 30
0.0
 11
9.8
 21
15.5
 31
0.0
  0
LINE
  5
3D
330
1E
100
AcDbEntity
  8
0
100
AcDbLine
 10
8.0
 20
15.5
 30
0.0
 11
9.0
 21
16.0
 31
0.0
  0
LINE
  5
3E
330
1E
100
AcDbEntity
  8
0
100
AcDbLine
 10
8.0
 20
27.0
 30
0.0
 11
8.0
 21
16.5
 31
0.0
  0
LINE
  5
3F
330
1E
100
AcDbEntity
  8
0
100
AcDbLine
 10
8.0
 20
27.0
 30
0.0
 11
8.5
 21
28.0
 31
0.0
  0
LINE
  5
40
330
1E
100
AcDbEntity
  8
0
100
AcDbLine
 10
8.53373
 20
3.400326999999999
 30
0.0
 11
9.98216
 21
5.043769999999999
 31
0.0
  0
LINE
  5
41
330
1E
100
AcDbEntity
  8
0
100
AcDbLine
 10
9.98216
 20
5.043769999999999
 30
0.0
 11
11.16724
 21
6.25274
 31
0.0
  0
LINE
  5
42
330
1E
100
AcDbEntity
  8
0
100
AcDbLine
 10
10.45624219398559
 20
5.527409205844969
 30
0.0
 11
11.16724
 21
6.224409999999999
 31
0.0
  0
LINE
  5
43
330
1E
100
AcDbEntity
  8
0
100
AcDbLine
 10
9.8
 20
15.5
 30
0.0
 11
14.69999999999999
 21
15.5
 31
0.0
  0
LINE
  5
44
330
1E
100
AcDbEntity
  8
0
100
AcDbLine
 10
26.3947
 20
4.020909999999999
 30
0.0
 11
27.1531
 21
4.020909999999999
 31
0.0
  0
LINE
  5
45
330
1E
100
AcDbEntity
  8
0
100
AcDbLine
 10
26.3947
 20
4.020909999999999
 30
0.0
 11
27.0659
 21
4.020909999999999
 31
0.0
  0
LINE
  5
46
330
1E
100
AcDbEntity
  8
0
100
AcDbLine
 10
26.1569
 20
4.020909999999999
 30
0.0
 11
26.5167
 21
4.020909999999999
 31
0.0
  0
LINE
  5
47
330
1E
100
AcDbEntity
  8
0
100
AcDbLine
 10
26.1569
 20
4.020909999999999
 30
0.0
 11
27.1531
 21
4.020909999999999
 31
0.0
  0
LINE
  5
48
330
1E
100
AcDbEntity
  8
0
100
AcDbLine
 10
26.1569
 20
4.020909999999999
 30
0.0
 11
26.3947
 21
4.020909999999999
 31
0.0
  0
LINE
  5
49
330
1E
100
AcDbEntity
  8
0
100
AcDbLine
 10
26.1569
 20
4.020909999999999
 30
0.0
 11
26.1569
 21
4.914733333333329
 31
0.0
  0
LINE
  5
4A
330
1E
100
AcDbEntity
  8
0
100
AcDbLine
 10
26.5167
 20
4.020909999999999
 30
0.0
 11
27.2402
 21
4.020909999999999
 31
0.0
  0
LINE
  5
4B
330
1E
100
AcDbEntity
  8
0
100
AcDbLine
 10
26.5167
 20
4.020909999999999
 30
0.0
 11
27.1531
 21
4.020909999999999
 31
0.0
  0
LINE
  5
4C
330
1E
100
AcDbEntity
  8
0
100
AcDbLine
 10
27.0659
 20
4.020909999999999
 30
0.0
 11
27.1531
 21
4.020909999999999
 31
0.0
  0
LINE
  5
4D
330
1E
100
AcDbEntity
  8
0
100
AcDbLine
 10
27.0659
 20
4.020909999999999
 30
0.0
 11
27.7894
 21
4.020909999999999
 31
0.0
  0
LINE
  5
4E
330
1E
100
AcDbEntity
  8
0
100
AcDbLine
 10
26.5167
 20
4.020909999999999
 30
0.0
 11
27.1531
 21
4.020909999999999
 31
0.0
  0
LINE
  5
4F
330
1E
100
AcDbEntity
  8
0
100
AcDbLine
 10
26.5167
 20
4.020909999999999
 30
0.0
 11
27.2402
 21
4.020909999999999
 31
0.0
  0
LINE
  5
51
330
1E
100
AcDbEntity
  8
0
100
AcDbLine
 10
26.1569
 20
4.020909999999999
 30
0.0
 11
26.3947
 21
4.020909999999999
 31
0.0
  0
LINE
  5
52
330
1E
100
AcDbEntity
  8
0
100
AcDbLine
 10
26.1569
 20
4.020909999999999
 30
0.0
 11
27.1531
 21
4.020909999999999
 31
0.0
  0
LINE
  5
53
330
1E
100
AcDbEntity
  8
0
100
AcDbLine
 10
26.1569
 20
4.020909999999999
 30
0.0
 11
26.5167
 21
4.020909999999999
 31
0.0
  0
LINE
  5
54
330
1E
100
AcDbEntity
  8
0
100
AcDbLine
 10
26.1569
 20
4.020909999999999
 30
0.0
 11
26.1569
 21
4.945005747126429
 31
0.0
  0
LINE
  5
55
330
1E
100
AcDbEntity
  8
0
100
AcDbLine
 10
27.1244
 20
4.020909999999999
 30
0.0
 11
27.5953
 21
4.020909999999999
 31
0.0
  0
LINE
  5
56
330
1E
100
AcDbEntity
  8
0
100
AcDbLine
 10
27.1244
 20
4.020909999999999
 30
0.0
 11
27.233
 21
4.020909999999999
 31
0.0
  0
LINE
  5
57
330
1E
100
AcDbEntity
  8
0
100
AcDbLine
 10
27.0659
 20
4.020909999999999
 30
0.0
 11
27.1531
 21
4.020909999999999
 31
0.0
  0
LINE
  5
58
330
1E
100
AcDbEntity
  8
0
100
AcDbLine
 10
27.0659
 20
4.020909999999999
 30
0.0
 11
27.7894
 21
4.020909999999999
 31
0.0
  0
LINE
  5
59
330
1E
100
AcDbEntity
  8
0
100
AcDbLine
 10
26.3947
 20
4.020909999999999
 30
0.0
 11
27.0659
 21
4.020909999999999
 31
0.0
  0
LINE
  5
5A
330
1E
100
AcDbEntity
  8
0
100
AcDbLine
 10
26.3947
 20
4.020909999999999
 30
0.0
 11
27.1531
 21
4.020909999999999
 31
0.0
  0
LINE
  5
5B
330
1E
100
AcDbEntity
  8
0
100
AcDbLine
 10
27.2402
 20
4.020909999999999
 30
0.0
 11
27.9114
 21
4.020909999999999
 31
0.0
  0
LINE
  5
5C
330
1E
100
AcDbEntity
  8
0
100
AcDbLine
 10
27.1531
 20
4.020909999999999
 30
0.0
 11
27.2402
 21
4.020909999999999
 31
0.0
  0
LINE
  5
5D
330
1E
100
AcDbEntity
  8
0
100
AcDbLine
 10
27.1531
 20
4.020909999999999
 30
0.0
 11
27.7894
 21
4.020909999999999
 31
0.0
  0
LINE
  5
5E
330
1E
100
AcDbEntity
  8
0
100
AcDbLine
 10
27.1531
 20
4.020909999999999
 30
0.0
 11
28.1492
 21
4.020909999999999
 31
0.0
  0
LINE
  5
5F
330
1E
100
AcDbEntity
  8
0
100
AcDbLine
 10
27.1531
 20
4.020909999999999
 30
0.0
 11
27.9114
 21
4.020909999999999
 31
0.0
  0
LINE
  5
60
330
1E
100
AcDbEntity
  8
0
100
AcDbLine
 10
27.233
 20
4.020909999999999
 30
0.0
 11
27.8315
 21
4.020909999999999
 31
0.0
  0
LINE
  5
61
330
1E
100
AcDbEntity
  8
0
100
AcDbLine
 10
27.7894
 20
4.020909999999999
 30
0.0
 11
28.1492
 21
4.020909999999999
 31
0.0
  0
LINE
  5
62
330
1E
100
AcDbEntity
  8
0
100
AcDbLine
 10
27.8315
 20
4.020909999999999
 30
0.0
 11
28.5853
 21
4.020909999999999
 31
0.0
  0
LINE
  5
63
330
1E
100
AcDbEntity
  8
0
100
AcDbLine
 10
27.5953
 20
4.020909999999999
 30
0.0
 11
28.3491
 21
4.020909999999999
 31
0.0
  0
LINE
  5
64
330
1E
100
AcDbEntity
  8
0
100
AcDbLine
 10
27.7894
 20
4.020909999999999
 30
0.0
 11
28.1492
 21
4.020909999999999
 31
0.0
  0
LINE
  5
65
330
1E
100
AcDbEntity
  8
0
100
AcDbLine
 10
27.2402
 20
4.020909999999999
 30
0.0
 11
27.9114
 21
4.020909999999999
 31
0.0
  0
LINE
  5
66
330
1E
100
AcDbEntity
  8
0
100
AcDbLine
 10
27.1531
 20
4.020909999999999
 30
0.0
 11
27.2402
 21
4.020909999999999
 31
0.0
  0
LINE
  5
67
330
1E
100
AcDbEntity
  8
0
100
AcDbLine
 10
27.1531
 20
4.020909999999999
 30
0.0
 11
27.9114
 21
4.020909999999999
 31
0.0
  0
LINE
  5
68
330
1E
100
AcDbEntity
  8
0
100
AcDbLine
 10
27.1531
 20
4.020909999999999
 30
0.0
 11
28.1492
 21
4.020909999999999
 31
0.0
  0
LINE
  5
69
330
1E
100
AcDbEntity
  8
0
100
AcDbLine
 10
27.1531
 20
4.020909999999999
 30
0.0
 11
27.7894
 21
4.020909999999999
 31
0.0
  0
LINE
  5
6A
330
1E
100
AcDbEntity
  8
0
100
AcDbLine
 10
27.9114
 20
4.020909999999999
 30
0.0
 11
28.1492
 21
4.020909999999999
 31
0.0
  0
LINE
  5
6B
330
1E
100
AcDbEntity
  8
0
100
AcDbLine
 10
28.3491
 20
4.020909999999999
 30
0.0
 11
28.9476
 21
4.020909999999999
 31
0.0
  0
LINE
  5
6C
330
1E
100
AcDbEntity
  8
0
100
AcDbLine
 10
28.9476
 20
4.020909999999999
 30
0.0
 11
29.0562
 21
4.020909999999999
 31
0.0
  0
LINE
  5
6D
330
1E
100
AcDbEntity
  8
0
100
AcDbLine
 10
28.5853
 20
4.020909999999999
 30
0.0
 11
29.0562
 21
4.020909999999999
 31
0.0
  0
LINE
  5
6E
330
1E
100
AcDbEntity
  8
0
100
AcDbLine
 10
27.9114
 20
4.020909999999999
 30
0.0
 11
28.1492
 21
4.020909999999999
 31
0.0
  0
LINE
  5
6F
330
1E
100
AcDbEntity
  8
0
100
AcDbLine
 10
29.0061
 20
4.020909999999999
 30
0.0
 11
29.5138
 21
4.020909999999999
 31
0.0
  0
LINE
  5
70
330
1E
100
AcDbEntity
  8
0
100
AcDbLine
 10
29.0301
 20
4.020909999999999
 30
0.0
 11
29.5978
 21
4.020909999999999
 31
0.0
  0
LINE
  5
71
330
1E
100
AcDbEntity
  8
0
100
AcDbLine
 10
30.359
 20
4.020909999999999
 30
0.0
 11
30.8666
 21
4.020909999999999
 31
0.0
  0
LINE
  5
72
330
1E
100
AcDbEntity
  8
0
100
AcDbLine
 10
31.6602
 20
4.020909999999999
 30
0.0
 11
31.81599999999999
 21
4.020909999999999
 31
0.0
  0
LINE
  5
73
330
1E
100
AcDbEntity
  8
0
100
AcDbLine
 10
31.6602
 20
4.020909999999999
 30
0.0
 11
32.0616
 21
4.020909999999999
 31
0.0
  0
LINE
  5
74
330
1E
100
AcDbEntity
  8
0
100
AcDbLine
 10
31.6602
 20
4.020909999999999
 30
0.0
 11
31.6602
 21
4.581199999999999
 31
0.0
  0
LINE
  5
75
330
1E
100
AcDbEntity
  8
0
100
AcDbLine
 10
30.27499999999999
 20
4.020909999999999
 30
0.0
 11
30.8427
 21
4.020909999999999
 31
0.0
  0
LINE
  5
76
330
1E
100
AcDbEntity
  8
0
100
AcDbLine
 10
29.5138
 20
4.020909999999999
 30
0.0
 11
30.27499999999999
 21
4.020909999999999
 31
0.0
  0
LINE
  5
77
330
1E
100
AcDbEntity
  8
0
100
AcDbLine
 10
29.5978
 20
4.020909999999999
 30
0.0
 11
30.359
 21
4.020909999999999
 31
0.0
  0
LINE
  5
78
330
1E
100
AcDbEntity
  8
0
100
AcDbLine
 10
28.9476
 20
4.020909999999999
 30
0.0
 11
29.0562
 21
4.020909999999999
 31
0.0
  0
LINE
  5
79
330
1E
100
AcDbEntity
  8
0
100
AcDbLine
 10
28.9476
 20
4.020909999999999
 30
0.0
 11
28.9476
 21
4.372939999999999
 31
0.0
  0
LINE
  5
7A
330
1E
100
AcDbEntity
  8
0
100
AcDbLine
 10
28.5853
 20
4.020909999999999
 30
0.0
 11
29.0562
 21
4.020909999999999
 31
0.0
  0
LINE
  5
7B
330
1E
100
AcDbEntity
  8
0
100
AcDbLine
 10
27.8315
 20
4.020909999999999
 30
0.0
 11
28.5853
 21
4.020909999999999
 31
0.0
  0
LINE
  5
7C
330
1E
100
AcDbEntity
  8
0
100
AcDbLine
 10
29.0061
 20
4.020909999999999
 30
0.0
 11
29.5138
 21
4.020909999999999
 31
0.0
  0
LINE
  5
7E
330
1E
100
AcDbEntity
  8
0
100
AcDbLine
 10
30.8666
 20
4.020909999999999
 30
0.0
 11
30.8666
 21
4.8826338028169
 31
0.0
  0
LINE
  5
7F
330
1E
100
AcDbEntity
  8
0
100
AcDbLine
 10
30.359
 20
4.020909999999999
 30
0.0
 11
30.8666
 21
4.020909999999999
 31
0.0
  0
LINE
  5
81
330
1E
100
AcDbEntity
  8
0
100
AcDbLine
 10
30.27499999999999
 20
4.020909999999999
 30
0.0
 11
30.8427
 21
4.020909999999999
 31
0.0
  0
LINE
  5
82
330
1E
100
AcDbEntity
  8
0
100
AcDbLine
 10
29.5138
 20
4.020909999999999
 30
0.0
 11
30.27499999999999
 21
4.020909999999999
 31
0.0
  0
LINE
  5
83
330
1E
100
AcDbEntity
  8
0
100
AcDbLine
 10
29.0301
 20
4.020909999999999
 30
0.0
 11
29.5978
 21
4.020909999999999
 31
0.0
  0
LINE
  5
85
330
1E
100
AcDbEntity
  8
0
100
AcDbLine
 10
29.5978
 20
4.020909999999999
 30
0.0
 11
30.359
 21
4.020909999999999
 31
0.0
  0
LINE
  5
87
330
1E
100
AcDbEntity
  8
0
100
AcDbLine
 10
28.3491
 20
4.020909999999999
 30
0.0
 11
28.9476
 21
4.020909999999999
 31
0.0
  0
LINE
  5
89
330
1E
100
AcDbEntity
  8
0
100
AcDbLine
 10
27.233
 20
4.020909999999999
 30
0.0
 11
27.8315
 21
4.020909999999999
 31
0.0
  0
LINE
  5
8A
330
1E
100
AcDbEntity
  8
0
100
AcDbLine
 10
27.1244
 20
4.020909999999999
 30
0.0
 11
27.5953
 21
4.020909999999999
 31
0.0
  0
LINE
  5
8B
330
1E
100
AcDbEntity
  8
0
100
AcDbLine
 10
27.1244
 20
4.020909999999999
 30
0.0
 11
27.233
 21
4.020909999999999
 31
0.0
  0
LINE
  5
8D
330
1E
100
AcDbEntity
  8
0
100
AcDbLine
 10
27.5953
 20
4.020909999999999
 30
0.0
 11
28.3491
 21
4.020909999999999
 31
0.0
  0
LINE
  5
8F
330
1E
100
AcDbEntity
  8
0
100
AcDbLine
 10
32.0616
 20
4.020909999999999
 30
0.0
 11
32.80699999999999
 21
4.020909999999999
 31
0.0
  0
LINE
  5
90
330
1E
100
AcDbEntity
  8
0
100
AcDbLine
 10
31.81599999999999
 20
4.020909999999999
 30
0.0
 11
32.4632
 21
4.020909999999999
 31
0.0
  0
LINE
  5
91
330
1E
100
AcDbEntity
  8
0
100
AcDbLine
 10
32.4632
 20
4.020909999999999
 30
0.0
 11
33.2087
 21
4.020909999999999
 31
0.0
  0
LINE
  5
92
330
1E
100
AcDbEntity
  8
0
100
AcDbLine
 10
32.0616
 20
4.020909999999999
 30
0.0
 11
32.80699999999999
 21
4.020909999999999
 31
0.0
  0
LINE
  5
93
330
1E
100
AcDbEntity
  8
0
100
AcDbLine
 10
31.6602
 20
4.020909999999999
 30
0.0
 11
31.81599999999999
 21
4.020909999999999
 31
0.0
  0
LINE
  5
94
330
1E
100
AcDbEntity
  8
0
100
AcDbLine
 10
31.6602
 20
4.020909999999999
 30
0.0
 11
32.0616
 21
4.020909999999999
 31
0.0
  0
LINE
  5
95
330
1E
100
AcDbEntity
  8
0
100
AcDbLine
 10
31.6602
 20
4.020909999999999
 30
0.0
 11
31.6602
 21
4.97471428571428
 31
0.0
  0
LINE
  5
96
330
1E
100
AcDbEntity
  8
0
100
AcDbLine
 10
31.81599999999999
 20
4.020909999999999
 30
0.0
 11
32.4632
 21
4.020909999999999
 31
0.0
  0
LINE
  5
98
330
1E
100
AcDbEntity
  8
0
100
AcDbLine
 10
33.2087
 20
4.020909999999999
 30
0.0
 11
33.61
 21
4.020909999999999
 31
0.0
  0
LINE
  5
99
330
1E
100
AcDbEntity
  8
0
100
AcDbLine
 10
33.4543
 20
4.020909999999999
 30
0.0
 11
33.61
 21
4.020909999999999
 31
0.0
  0
LINE
  5
9A
330
1E
100
AcDbEntity
  8
0
100
AcDbLine
 10
32.80699999999999
 20
4.020909999999999
 30
0.0
 11
33.4543
 21
4.020909999999999
 31
0.0
  0
LINE
  5
9B
330
1E
100
AcDbEntity
  8
0
100
AcDbLine
 10
34.39929999999999
 20
3.668869
 30
0.0
 11
34.8163
 21
3.668869
 31
0.0
  0
LINE
  5
9C
330
1E
100
AcDbEntity
  8
0
100
AcDbLine
 10
34.39929999999999
 20
3.668869
 30
0.0
 11
34.5732
 21
3.668869
 31
0.0
  0
LINE
  5
9D
330
1E
100
AcDbEntity
  8
0
100
AcDbLine
 10
34.39929999999999
 20
3.668869
 30
0.0
 11
34.39929999999999
 21
4.453356666666659
 31
0.0
  0
LINE
  5
9E
330
1E
100
AcDbEntity
  8
0
100
AcDbLine
 10
35.2105
 20
3.668869
 30
0.0
 11
35.9519
 21
3.668869
 31
0.0
  0
LINE
  5
9F
330
1E
100
AcDbEntity
  8
0
100
AcDbLine
 10
34.5732
 20
3.668869
 30
0.0
 11
35.2105
 21
3.668869
 31
0.0
  0
LINE
  5
A0
330
1E
100
AcDbEntity
  8
0
100
AcDbLine
 10
34.8163
 20
3.668869
 30
0.0
 11
35.5578
 21
3.668869
 31
0.0
  0
LINE
  5
A1
330
1E
100
AcDbEntity
  8
0
100
AcDbLine
 10
35.2105
 20
3.668869
 30
0.0
 11
35.9519
 21
3.668869
 31
0.0
  0
LINE
  5
A2
330
1E
100
AcDbEntity
  8
0
100
AcDbLine
 10
34.5732
 20
3.668869
 30
0.0
 11
35.2105
 21
3.668869
 31
0.0
  0
LINE
  5
A3
330
1E
100
AcDbEntity
  8
0
100
AcDbLine
 10
34.39929999999999
 20
3.668869
 30
0.0
 11
34.8163
 21
3.668869
 31
0.0
  0
LINE
  5
A4
330
1E
100
AcDbEntity
  8
0
100
AcDbLine
 10
34.39929999999999
 20
3.668869
 30
0.0
 11
34.5732
 21
3.668869
 31
0.0
  0
LINE
  5
A5
330
1E
100
AcDbEntity
  8
0
100
AcDbLine
 10
34.39929999999999
 20
3.668869
 30
0.0
 11
34.39929999999999
 21
4.48278275862069
 31
0.0
  0
LINE
  5
A6
330
1E
100
AcDbEntity
  8
0
100
AcDbLine
 10
34.8163
 20
3.668869
 30
0.0
 11
35.5578
 21
3.668869
 31
0.0
  0
LINE
  5
A8
330
1E
100
AcDbEntity
  8
0
100
AcDbLine
 10
33.4543
 20
4.020909999999999
 30
0.0
 11
33.61
 21
4.020909999999999
 31
0.0
  0
LINE
  5
A9
330
1E
100
AcDbEntity
  8
0
100
AcDbLine
 10
33.61
 20
4.020909999999999
 30
0.0
 11
33.61
 21
4.372939999999999
 31
0.0
  0
LINE
  5
AA
330
1E
100
AcDbEntity
  8
0
100
AcDbLine
 10
33.2087
 20
4.020909999999999
 30
0.0
 11
33.61
 21
4.020909999999999
 31
0.0
  0
LINE
  5
AC
330
1E
100
AcDbEntity
  8
0
100
AcDbLine
 10
32.80699999999999
 20
4.020909999999999
 30
0.0
 11
33.4543
 21
4.020909999999999
 31
0.0
  0
LINE
  5
AD
330
1E
100
AcDbEntity
  8
0
100
AcDbLine
 10
32.4632
 20
4.020909999999999
 30
0.0
 11
33.2087
 21
4.020909999999999
 31
0.0
  0
LINE
  5
AF
330
1E
100
AcDbEntity
  8
0
100
AcDbLine
 10
35.1146
 20
4.020909999999999
 30
0.0
 11
35.3975
 21
4.020909999999999
 31
0.0
  0
LINE
  5
B0
330
1E
100
AcDbEntity
  8
0
100
AcDbLine
 10
35.1146
 20
4.020909999999999
 30
0.0
 11
35.1146
 21
4.947017241379309
 31
0.0
  0
LINE
  5
B1
330
1E
100
AcDbEntity
  8
0
100
AcDbLine
 10
35.5578
 20
3.668869
 30
0.0
 11
36.195
 21
3.668869
 31
0.0
  0
LINE
  5
B2
330
1E
100
AcDbEntity
  8
0
100
AcDbLine
 10
36.195
 20
3.668869
 30
0.0
 11
36.36889999999999
 21
3.668869
 31
0.0
  0
LINE
  5
B3
330
1E
100
AcDbEntity
  8
0
100
AcDbLine
 10
35.9519
 20
3.668869
 30
0.0
 11
36.36889999999999
 21
3.668869
 31
0.0
  0
LINE
  5
B4
330
1E
100
AcDbEntity
  8
0
100
AcDbLine
 10
35.5578
 20
3.668869
 30
0.0
 11
36.195
 21
3.668869
 31
0.0
  0
LINE
  5
B6
330
1E
100
AcDbEntity
  8
0
100
AcDbLine
 10
36.36889999999999
 20
3.668869
 30
0.0
 11
36.36889999999999
 21
4.020909999999999
 31
0.0
  0
LINE
  5
B7
330
1E
100
AcDbEntity
  8
0
100
AcDbLine
 10
36.195
 20
3.668869
 30
0.0
 11
36.36889999999999
 21
3.668869
 31
0.0
  0
LINE
  5
B9
330
1E
100
AcDbEntity
  8
0
100
AcDbLine
 10
36.8117
 20
4.020909999999999
 30
0.0
 11
37.09449999999999
 21
4.020909999999999
 31
0.0
  0
LINE
  5
BA
330
1E
100
AcDbEntity
  8
0
100
AcDbLine
 10
36.36889999999999
 20
4.020909999999999
 30
0.0
 11
36.8117
 21
4.020909999999999
 31
0.0
  0
LINE
  5
BC
330
1E
100
AcDbEntity
  8
0
100
AcDbLine
 10
36.36889999999999
 20
4.020909999999999
 30
0.0
 11
36.36889999999999
 21
3.668869
 31
0.0
  0
LINE
  5
BE
330
1E
100
AcDbEntity
  8
0
100
AcDbLine
 10
35.9519
 20
3.668869
 30
0.0
 11
36.36889999999999
 21
3.668869
 31
0.0
  0
LINE
  5
BF
330
1E
100
AcDbEntity
  8
0
100
AcDbLine
 10
37.1557
 20
3.668869
 30
0.0
 11
37.2459
 21
3.668869
 31
0.0
  0
LINE
  5
C0
330
1E
100
AcDbEntity
  8
0
100
AcDbLine
 10
37.1557
 20
3.668869
 30
0.0
 11
37.6119
 21
3.668869
 31
0.0
  0
LINE
  5
C1
330
1E
100
AcDbEntity
  8
0
100
AcDbLine
 10
37.1557
 20
3.668869
 30
0.0
 11
37.1557
 21
4.36147666666666
 31
0.0
  0
LINE
  5
C2
330
1E
100
AcDbEntity
  8
0
100
AcDbLine
 10
37.2459
 20
3.668869
 30
0.0
 11
37.85569999999999
 21
3.668869
 31
0.0
  0
LINE
  5
C3
330
1E
100
AcDbEntity
  8
0
100
AcDbLine
 10
37.1557
 20
3.668869
 30
0.0
 11
37.2459
 21
3.668869
 31
0.0
  0
LINE
  5
C4
330
1E
100
AcDbEntity
  8
0
100
AcDbLine
 10
37.1557
 20
3.668869
 30
0.0
 11
37.6119
 21
3.668869
 31
0.0
  0
LINE
  5
C5
330
1E
100
AcDbEntity
  8
0
100
AcDbLine
 10
37.1557
 20
3.668869
 30
0.0
 11
37.1557
 21
4.46708846153846
 31
0.0
  0
LINE
  5
C6
330
1E
100
AcDbEntity
  8
0
100
AcDbLine
 10
38.36809999999999
 20
3.668869
 30
0.0
 11
38.9779
 21
3.668869
 31
0.0
  0
LINE
  5
C7
330
1E
100
AcDbEntity
  8
0
100
AcDbLine
 10
37.6119
 20
3.668869
 30
0.0
 11
38.36809999999999
 21
3.668869
 31
0.0
  0
LINE
  5
C8
330
1E
100
AcDbEntity
  8
0
100
AcDbLine
 10
37.85569999999999
 20
3.668869
 30
0.0
 11
38.6119
 21
3.668869
 31
0.0
  0
LINE
  5
C9
330
1E
100
AcDbEntity
  8
0
100
AcDbLine
 10
38.6119
 20
3.668869
 30
0.0
 11
39.0681
 21
3.668869
 31
0.0
  0
LINE
  5
CA
330
1E
100
AcDbEntity
  8
0
100
AcDbLine
 10
38.9779
 20
3.668869
 30
0.0
 11
39.0681
 21
3.668869
 31
0.0
  0
LINE
  5
CB
330
1E
100
AcDbEntity
  8
0
100
AcDbLine
 10
39.0681
 20
3.668869
 30
0.0
 11
39.0681
 21
4.372939999999999
 31
0.0
  0
LINE
  5
CC
330
1E
100
AcDbEntity
  8
0
100
AcDbLine
 10
38.6119
 20
3.668869
 30
0.0
 11
39.0681
 21
3.668869
 31
0.0
  0
LINE
  5
CE
330
1E
100
AcDbEntity
  8
0
100
AcDbLine
 10
38.9779
 20
3.668869
 30
0.0
 11
39.0681
 21
3.668869
 31
0.0
  0
LINE
  5
CF
330
1E
100
AcDbEntity
  8
0
100
AcDbLine
 10
38.36809999999999
 20
3.668869
 30
0.0
 11
38.9779
 21
3.668869
 31
0.0
  0
LINE
  5
D0
330
1E
100
AcDbEntity
  8
0
100
AcDbLine
 10
37.6119
 20
3.668869
 30
0.0
 11
38.36809999999999
 21
3.668869
 31
0.0
  0
LINE
  5
D1
330
1E
100
AcDbEntity
  8
0
100
AcDbLine
 10
37.2459
 20
3.668869
 30
0.0
 11
37.85569999999999
 21
3.668869
 31
0.0
  0
LINE
  5
D3
330
1E
100
AcDbEntity
  8
0
100
AcDbLine
 10
39.4202
 20
4.020909999999999
 30
0.0
 11
40.06739999999999
 21
4.020909999999999
 31
0.0
  0
LINE
  5
D4
330
1E
100
AcDbEntity
  8
0
100
AcDbLine
 10
39.2644
 20
4.020909999999999
 30
0.0
 11
39.6658
 21
4.020909999999999
 31
0.0
  0
LINE
  5
D5
330
1E
100
AcDbEntity
  8
0
100
AcDbLine
 10
39.2644
 20
4.020909999999999
 30
0.0
 11
39.4202
 21
4.020909999999999
 31
0.0
  0
LINE
  5
D6
330
1E
100
AcDbEntity
  8
0
100
AcDbLine
 10
39.2644
 20
4.020909999999999
 30
0.0
 11
39.2644
 21
4.29118666666666
 31
0.0
  0
LINE
  5
D7
330
1E
100
AcDbEntity
  8
0
100
AcDbLine
 10
37.85569999999999
 20
3.668869
 30
0.0
 11
38.6119
 21
3.668869
 31
0.0
  0
LINE
  5
D9
330
1E
100
AcDbEntity
  8
0
100
AcDbLine
 10
37.09449999999999
 20
4.020909999999999
 30
0.0
 11
37.09449999999999
 21
4.77633620689655
 31
0.0
  0
LINE
  5
DA
330
1E
100
AcDbEntity
  8
0
100
AcDbLine
 10
36.8117
 20
4.020909999999999
 30
0.0
 11
37.09449999999999
 21
4.020909999999999
 31
0.0
  0
LINE
  5
DC
330
1E
100
AcDbEntity
  8
0
100
AcDbLine
 10
35.3975
 20
4.020909999999999
 30
0.0
 11
36.10459999999999
 21
4.020909999999999
 31
0.0
  0
LINE
  5
DE
330
1E
100
AcDbEntity
  8
0
100
AcDbLine
 10
36.10459999999999
 20
4.020909999999999
 30
0.0
 11
36.8117
 21
4.020909999999999
 31
0.0
  0
LINE
  5
E0
330
1E
100
AcDbEntity
  8
0
100
AcDbLine
 10
39.6658
 20
4.020909999999999
 30
0.0
 11
40.4112
 21
4.020909999999999
 31
0.0
  0
LINE
  5
E1
330
1E
100
AcDbEntity
  8
0
100
AcDbLine
 10
39.4202
 20
4.020909999999999
 30
0.0
 11
40.06739999999999
 21
4.020909999999999
 31
0.0
  0
LINE
  5
E2
330
1E
100
AcDbEntity
  8
0
100
AcDbLine
 10
39.2644
 20
4.020909999999999
 30
0.0
 11
39.6658
 21
4.020909999999999
 31
0.0
  0
LINE
  5
E3
330
1E
100
AcDbEntity
  8
0
100
AcDbLine
 10
39.2644
 20
4.020909999999999
 30
0.0
 11
39.4202
 21
4.020909999999999
 31
0.0
  0
LINE
  5
E4
330
1E
100
AcDbEntity
  8
0
100
AcDbLine
 10
39.2644
 20
4.020909999999999
 30
0.0
 11
39.2644
 21
4.372939999999999
 31
0.0
  0
LINE
  5
E5
330
1E
100
AcDbEntity
  8
0
100
AcDbLine
 10
40.8129
 20
4.020909999999999
 30
0.0
 11
41.21419999999999
 21
4.020909999999999
 31
0.0
  0
LINE
  5
E6
330
1E
100
AcDbEntity
  8
0
100
AcDbLine
 10
40.06739999999999
 20
4.020909999999999
 30
0.0
 11
40.8129
 21
4.020909999999999
 31
0.0
  0
LINE
  5
E7
330
1E
100
AcDbEntity
  8
0
100
AcDbLine
 10
40.4112
 20
4.020909999999999
 30
0.0
 11
41.0585
 21
4.020909999999999
 31
0.0
  0
LINE
  5
E8
330
1E
100
AcDbEntity
  8
0
100
AcDbLine
 10
41.0585
 20
4.020909999999999
 30
0.0
 11
41.21419999999999
 21
4.020909999999999
 31
0.0
  0
LINE
  5
E9
330
1E
100
AcDbEntity
  8
0
100
AcDbLine
 10
42.34239999999999
 20
3.422442999999999
 30
0.0
 11
42.85009999999999
 21
3.422442999999999
 31
0.0
  0
LINE
  5
EA
330
1E
100
AcDbEntity
  8
0
100
AcDbLine
 10
42.3664
 20
3.422442999999999
 30
0.0
 11
42.9341
 21
3.422442999999999
 31
0.0
  0
LINE
  5
EB
330
1E
100
AcDbEntity
  8
0
100
AcDbLine
 10
42.15379999999999
 20
3.422442999999999
 30
0.0
 11
42.6614
 21
3.422442999999999
 31
0.0
  0
LINE
  5
EC
330
1E
100
AcDbEntity
  8
0
100
AcDbLine
 10
42.15379999999999
 20
3.422442999999999
 30
0.0
 11
42.15379999999999
 21
4.21538620689655
 31
0.0
  0
LINE
  5
ED
330
1E
100
AcDbEntity
  8
0
100
AcDbLine
 10
42.1777
 20
3.422442999999999
 30
0.0
 11
42.7455
 21
3.422442999999999
 31
0.0
  0
LINE
  5
EF
330
1E
100
AcDbEntity
  8
0
100
AcDbLine
 10
42.4725
 20
3.668869
 30
0.0
 11
43.1522
 21
3.668869
 31
0.0
  0
LINE
  5
F0
330
1E
100
AcDbEntity
  8
0
100
AcDbLine
 10
42.25229999999999
 20
3.668869
 30
0.0
 11
42.5957
 21
3.668869
 31
0.0
  0
LINE
  5
F1
330
1E
100
AcDbEntity
  8
0
100
AcDbLine
 10
42.25229999999999
 20
3.668869
 30
0.0
 11
42.4725
 21
3.668869
 31
0.0
  0
LINE
  5
F2
330
1E
100
AcDbEntity
  8
0
100
AcDbLine
 10
42.25229999999999
 20
3.668869
 30
0.0
 11
42.25229999999999
 21
4.5
 31
0.0
  0
LINE
  5
F3
330
1E
100
AcDbEntity
  8
0
100
AcDbLine
 10
42.85009999999999
 20
3.422442999999999
 30
0.0
 11
43.6113
 21
3.422442999999999
 31
0.0
  0
LINE
  5
F4
330
1E
100
AcDbEntity
  8
0
100
AcDbLine
 10
42.9341
 20
3.422442999999999
 30
0.0
 11
43.6953
 21
3.422442999999999
 31
0.0
  0
LINE
  5
F5
330
1E
100
AcDbEntity
  8
0
100
AcDbLine
 10
43.6953
 20
3.422442999999999
 30
0.0
 11
44.2029
 21
3.422442999999999
 31
0.0
  0
LINE
  5
F6
330
1E
100
AcDbEntity
  8
0
100
AcDbLine
 10
43.6113
 20
3.422442999999999
 30
0.0
 11
44.17899999999999
 21
3.422442999999999
 31
0.0
  0
LINE
  5
F7
330
1E
100
AcDbEntity
  8
0
100
AcDbLine
 10
43.5067
 20
3.422442999999999
 30
0.0
 11
44.0143
 21
3.422442999999999
 31
0.0
  0
LINE
  5
F9
330
1E
100
AcDbEntity
  8
0
100
AcDbLine
 10
43.4226
 20
3.422442999999999
 30
0.0
 11
43.9904
 21
3.422442999999999
 31
0.0
  0
LINE
  5
FA
330
1E
100
AcDbEntity
  8
0
100
AcDbLine
 10
42.6614
 20
3.422442999999999
 30
0.0
 11
43.4226
 21
3.422442999999999
 31
0.0
  0
LINE
  5
FD
330
1E
100
AcDbEntity
  8
0
100
AcDbLine
 10
42.7455
 20
3.422442999999999
 30
0.0
 11
43.5067
 21
3.422442999999999
 31
0.0
  0
LINE
  5
FF
330
1E
100
AcDbEntity
  8
0
100
AcDbLine
 10
45.2219
 20
3.422442999999999
 30
0.0
 11
45.50469999999999
 21
3.422442999999999
 31
0.0
  0
LINE
  5
100
330
1E
100
AcDbEntity
  8
0
100
AcDbLine
 10
45.2219
 20
3.422442999999999
 30
0.0
 11
45.2219
 21
4.020909999999999
 31
0.0
  0
LINE
  5
101
330
1E
100
AcDbEntity
  8
0
100
AcDbLine
 10
45.50469999999999
 20
3.422442999999999
 30
0.0
 11
46.21179999999999
 21
3.422442999999999
 31
0.0
  0
LINE
  5
103
330
1E
100
AcDbEntity
  8
0
100
AcDbLine
 10
44.2029
 20
3.422442999999999
 30
0.0
 11
44.2029
 21
3.668869
 31
0.0
  0
LINE
  5
106
330
1E
100
AcDbEntity
  8
0
100
AcDbLine
 10
46.21179999999999
 20
3.422442999999999
 30
0.0
 11
46.91899999999999
 21
3.422442999999999
 31
0.0
  0
LINE
  5
107
330
1E
100
AcDbEntity
  8
0
100
AcDbLine
 10
45.7878
 20
3.422442999999999
 30
0.0
 11
46.07059999999999
 21
3.422442999999999
 31
0.0
  0
LINE
  5
109
330
1E
100
AcDbEntity
  8
0
100
AcDbLine
 10
44.2029
 20
3.668869
 30
0.0
 11
44.2029
 21
3.422442999999999
 31
0.0
  0
LINE
  5
10C
330
1E
100
AcDbEntity
  8
0
100
AcDbLine
 10
46.07059999999999
 20
3.422442999999999
 30
0.0
 11
46.7777
 21
3.422442999999999
 31
0.0
  0
LINE
  5
10E
330
1E
100
AcDbEntity
  8
0
100
AcDbLine
 10
46.91899999999999
 20
3.422442999999999
 30
0.0
 11
47.2018
 21
3.422442999999999
 31
0.0
  0
LINE
  5
10F
330
1E
100
AcDbEntity
  8
0
100
AcDbLine
 10
47.76769999999999
 20
3.422442999999999
 30
0.0
 11
47.76769999999999
 21
4.14775
 31
0.0
  0
LINE
  5
110
330
1E
100
AcDbEntity
  8
0
100
AcDbLine
 10
47.48479999999999
 20
3.422442999999999
 30
0.0
 11
47.76769999999999
 21
3.422442999999999
 31
0.0
  0
LINE
  5
112
330
1E
100
AcDbEntity
  8
0
100
AcDbLine
 10
46.7777
 20
3.422442999999999
 30
0.0
 11
47.48479999999999
 21
3.422442999999999
 31
0.0
  0
LINE
  5
114
330
1E
100
AcDbEntity
  8
0
100
AcDbLine
 10
44.22469999999999
 20
3.668869
 30
0.0
 11
44.22469999999999
 21
4.020909999999999
 31
0.0
  0
LINE
  5
115
330
1E
100
AcDbEntity
  8
0
100
AcDbLine
 10
43.8813
 20
3.668869
 30
0.0
 11
44.22469999999999
 21
3.668869
 31
0.0
  0
LINE
  5
116
330
1E
100
AcDbEntity
  8
0
100
AcDbLine
 10
44.0046
 20
3.668869
 30
0.0
 11
44.22469999999999
 21
3.668869
 31
0.0
  0
LINE
  5
118
330
1E
100
AcDbEntity
  8
0
100
AcDbLine
 10
43.1522
 20
3.668869
 30
0.0
 11
43.8813
 21
3.668869
 31
0.0
  0
LINE
  5
119
330
1E
100
AcDbEntity
  8
0
100
AcDbLine
 10
42.5957
 20
3.668869
 30
0.0
 11
43.3248
 21
3.668869
 31
0.0
  0
LINE
  5
11B
330
1E
100
AcDbEntity
  8
0
100
AcDbLine
 10
44.22469999999999
 20
4.020909999999999
 30
0.0
 11
44.4911
 21
4.020909999999999
 31
0.0
  0
LINE
  5
11C
330
1E
100
AcDbEntity
  8
0
100
AcDbLine
 10
44.22469999999999
 20
4.020909999999999
 30
0.0
 11
44.5751
 21
4.020909999999999
 31
0.0
  0
LINE
  5
11D
330
1E
100
AcDbEntity
  8
0
100
AcDbLine
 10
44.5751
 20
4.020909999999999
 30
0.0
 11
45.2219
 21
4.020909999999999
 31
0.0
  0
LINE
  5
11E
330
1E
100
AcDbEntity
  8
0
100
AcDbLine
 10
44.4911
 20
4.020909999999999
 30
0.0
 11
45.2219
 21
4.020909999999999
 31
0.0
  0
LINE
  5
11F
330
1E
100
AcDbEntity
  8
0
100
AcDbLine
 10
43.3248
 20
3.668869
 30
0.0
 11
44.0046
 21
3.668869
 31
0.0
  0
LINE
  5
121
330
1E
100
AcDbEntity
  8
0
100
AcDbLine
 10
41.21419999999999
 20
4.020909999999999
 30
0.0
 11
41.21419999999999
 21
4.75951479289941
 31
0.0
  0
LINE
  5
122
330
1E
100
AcDbEntity
  8
0
100
AcDbLine
 10
41.0585
 20
4.020909999999999
 30
0.0
 11
41.21419999999999
 21
4.020909999999999
 31
0.0
  0
LINE
  5
124
330
1E
100
AcDbEntity
  8
0
100
AcDbLine
 10
40.8129
 20
4.020909999999999
 30
0.0
 11
41.21419999999999
 21
4.020909999999999
 31
0.0
  0
LINE
  5
125
330
1E
100
AcDbEntity
  8
0
100
AcDbLine
 10
40.06739999999999
 20
4.020909999999999
 30
0.0
 11
40.8129
 21
4.020909999999999
 31
0.0
  0
LINE
  5
126
330
1E
100
AcDbEntity
  8
0
100
AcDbLine
 10
39.6658
 20
4.020909999999999
 30
0.0
 11
40.4112
 21
4.020909999999999
 31
0.0
  0
LINE
  5
128
330
1E
100
AcDbEntity
  8
0
100
AcDbLine
 10
44.22469999999999
 20
4.020909999999999
 30
0.0
 11
44.22469999999999
 21
3.668869
 31
0.0
  0
LINE
  5
12A
330
1E
100
AcDbEntity
  8
0
100
AcDbLine
 10
45.2219
 20
4.020909999999999
 30
0.0
 11
45.2219
 21
3.422442999999999
 31
0.0
  0
LINE
  5
12B
330
1E
100
AcDbEntity
  8
0
100
AcDbLine
 10
44.5751
 20
4.020909999999999
 30
0.0
 11
45.3363
 21
4.020909999999999
 31
0.0
  0
LINE
  5
12C
330
1E
100
AcDbEntity
  8
0
100
AcDbLine
 10
44.00739999999999
 20
4.020909999999999
 30
0.0
 11
44.5751
 21
4.020909999999999
 31
0.0
  0
LINE
  5
12D
330
1E
100
AcDbEntity
  8
0
100
AcDbLine
 10
43.98349999999999
 20
4.020909999999999
 30
0.0
 11
44.4911
 21
4.020909999999999
 31
0.0
  0
LINE
  5
12E
330
1E
100
AcDbEntity
  8
0
100
AcDbLine
 10
43.98349999999999
 20
4.020909999999999
 30
0.0
 11
43.98349999999999
 21
4.372939999999999
 31
0.0
  0
LINE
  5
12F
330
1E
100
AcDbEntity
  8
0
100
AcDbLine
 10
42.15379999999999
 20
4.21538620689655
 30
0.0
 11
42.15379999999999
 21
3.422442999999999
 31
0.0
  0
LINE
  5
131
330
1E
100
AcDbEntity
  8
0
100
AcDbLine
 10
44.4911
 20
4.020909999999999
 30
0.0
 11
45.25229999999999
 21
4.020909999999999
 31
0.0
  0
LINE
  5
135
330
1E
100
AcDbEntity
  8
0
100
AcDbLine
 10
45.84399999999999
 20
4.020909999999999
 30
0.0
 11
45.84399999999999
 21
4.905352112676059
 31
0.0
  0
LINE
  5
138
330
1E
100
AcDbEntity
  8
0
100
AcDbLine
 10
47.76769999999999
 20
4.14775
 30
0.0
 11
47.76769999999999
 21
3.422442999999999
 31
0.0
  0
LINE
  5
13A
330
1E
100
AcDbEntity
  8
0
100
AcDbLine
 10
45.3363
 20
4.020909999999999
 30
0.0
 11
45.84399999999999
 21
4.020909999999999
 31
0.0
  0
LINE
  5
13B
330
1E
100
AcDbEntity
  8
0
100
AcDbLine
 10
45.25229999999999
 20
4.020909999999999
 30
0.0
 11
45.81999999999999
 21
4.020909999999999
 31
0.0
  0
LINE
  5
13D
330
1E
100
AcDbEntity
  8
0
100
AcDbLine
 10
40.4112
 20
4.020909999999999
 30
0.0
 11
41.0585
 21
4.020909999999999
 31
0.0
  0
LINE
  5
13F
330
1E
100
AcDbEntity
  8
0
100
AcDbLine
 10
50.6667
 20
3.0
 30
0.0
 11
50.9333
 21
3.0
 31
0.0
  0
LINE
  5
140
330
1E
100
AcDbEntity
  8
0
100
AcDbLine
 10
50.6667
 20
3.0
 30
0.0
 11
50.9333
 21
3.0
 31
0.0
  0
LINE
  5
141
330
1E
100
AcDbEntity
  8
0
100
AcDbLine
 10
50.6
 20
3.0
 30
0.0
 11
51.3333
 21
3.0
 31
0.0
  0
LINE
  5
142
330
1E
100
AcDbEntity
  8
0
100
AcDbLine
 10
50.6
 20
3.0
 30
0.0
 11
51.3333
 21
3.0
 31
0.0
  0
LINE
  5
143
330
1E
100
AcDbEntity
  8
0
100
AcDbLine
 10
50.3333
 20
3.0
 30
0.0
 11
50.6
 21
3.0
 31
0.0
  0
LINE
  5
144
330
1E
100
AcDbEntity
  8
0
100
AcDbLine
 10
50.3333
 20
3.0
 30
0.0
 11
50.6
 21
3.0
 31
0.0
  0
LINE
  5
145
330
1E
100
AcDbEntity
  8
0
100
AcDbLine
 10
50.2845
 20
3.422442999999999
 30
0.0
 11
50.8522
 21
3.422442999999999
 31
0.0
  0
LINE
  5
146
330
1E
100
AcDbEntity
  8
0
100
AcDbLine
 10
50.2606
 20
3.422442999999999
 30
0.0
 11
50.7682
 21
3.422442999999999
 31
0.0
  0
LINE
  5
147
330
1E
100
AcDbEntity
  8
0
100
AcDbLine
 10
50.2606
 20
3.422442999999999
 30
0.0
 11
50.2606
 21
3.668869
 31
0.0
  0
LINE
  5
148
330
1E
100
AcDbEntity
  8
0
100
AcDbLine
 10
50.9333
 20
3.0
 30
0.0
 11
51.66669999999999
 21
3.0
 31
0.0
  0
LINE
  5
149
330
1E
100
AcDbEntity
  8
0
100
AcDbLine
 10
50.9333
 20
3.0
 30
0.0
 11
51.66669999999999
 21
3.0
 31
0.0
  0
LINE
  5
14A
330
1E
100
AcDbEntity
  8
0
100
AcDbLine
 10
51.3333
 20
3.0
 30
0.0
 11
52.6
 21
3.0
 31
0.0
  0
LINE
  5
14B
330
1E
100
AcDbEntity
  8
0
100
AcDbLine
 10
51.3333
 20
3.0
 30
0.0
 11
52.6
 21
3.0
 31
0.0
  0
LINE
  5
14C
330
1E
100
AcDbEntity
  8
0
100
AcDbLine
 10
51.66669999999999
 20
3.0
 30
0.0
 11
52.8
 21
3.0
 31
0.0
  0
LINE
  5
14D
330
1E
100
AcDbEntity
  8
0
100
AcDbLine
 10
51.66669999999999
 20
3.0
 30
0.0
 11
52.8
 21
3.0
 31
0.0
  0
LINE
  5
14E
330
1E
100
AcDbEntity
  8
0
100
AcDbLine
 10
52.8
 20
3.0
 30
0.0
 11
54.3333
 21
3.0
 31
0.0
  0
LINE
  5
14F
330
1E
100
AcDbEntity
  8
0
100
AcDbLine
 10
52.8
 20
3.0
 30
0.0
 11
54.3333
 21
3.0
 31
0.0
  0
LINE
  5
150
330
1E
100
AcDbEntity
  8
0
100
AcDbLine
 10
52.6
 20
3.0
 30
0.0
 11
54.2
 21
3.0
 31
0.0
  0
LINE
  5
151
330
1E
100
AcDbEntity
  8
0
100
AcDbLine
 10
54.2
 20
3.0
 30
0.0
 11
56.0
 21
3.0
 31
0.0
  0
LINE
  5
152
330
1E
100
AcDbEntity
  8
0
100
AcDbLine
 10
52.6
 20
3.0
 30
0.0
 11
54.2
 21
3.0
 31
0.0
  0
LINE
  5
153
330
1E
100
AcDbEntity
  8
0
100
AcDbLine
 10
54.3333
 20
3.0
 30
0.0
 11
56.1333
 21
3.0
 31
0.0
  0
LINE
  5
154
330
1E
100
AcDbEntity
  8
0
100
AcDbLine
 10
56.1333
 20
3.0
 30
0.0
 11
58.0
 21
3.0
 31
0.0
  0
LINE
  5
155
330
1E
100
AcDbEntity
  8
0
100
AcDbLine
 10
54.3333
 20
3.0
 30
0.0
 11
56.1333
 21
3.0
 31
0.0
  0
LINE
  5
156
330
1E
100
AcDbEntity
  8
0
100
AcDbLine
 10
56.1333
 20
3.0
 30
0.0
 11
58.0
 21
3.0
 31
0.0
  0
LINE
  5
157
330
1E
100
AcDbEntity
  8
0
100
AcDbLine
 10
56.0
 20
3.0
 30
0.0
 11
58.0
 21
3.0
 31
0.0
  0
LINE
  5
158
330
1E
100
AcDbEntity
  8
0
100
AcDbLine
 10
58.0
 20
3.0
 30
0.0
 11
60.0
 21
3.0
 31
0.0
  0
LINE
  5
159
330
1E
100
AcDbEntity
  8
0
100
AcDbLine
 10
58.0
 20
3.0
 30
0.0
 11
59.8667
 21
3.0
 31
0.0
  0
LINE
  5
15A
330
1E
100
AcDbEntity
  8
0
100
AcDbLine
 10
58.0
 20
3.0
 30
0.0
 11
60.0
 21
3.0
 31
0.0
  0
LINE
  5
15B
330
1E
100
AcDbEntity
  8
0
100
AcDbLine
 10
58.0
 20
3.0
 30
0.0
 11
59.8667
 21
3.0
 31
0.0
  0
LINE
  5
15C
330
1E
100
AcDbEntity
  8
0
100
AcDbLine
 10
54.2
 20
3.0
 30
0.0
 11
56.0
 21
3.0
 31
0.0
  0
LINE
  5
15D
330
1E
100
AcDbEntity
  8
0
100
AcDbLine
 10
56.0
 20
3.0
 30
0.0
 11
58.0
 21
3.0
 31
0.0
  0
LINE
  5
15E
330
1E
100
AcDbEntity
  8
0
100
AcDbLine
 10
59.8667
 20
3.0
 30
0.0
 11
61.66669999999999
 21
3.0
 31
0.0
  0
LINE
  5
15F
330
1E
100
AcDbEntity
  8
0
100
AcDbLine
 10
59.8667
 20
3.0
 30
0.0
 11
61.66669999999999
 21
3.0
 31
0.0
  0
LINE
  5
160
330
1E
100
AcDbEntity
  8
0
100
AcDbLine
 10
60.0
 20
3.0
 30
0.0
 11
61.79999999999999
 21
3.0
 31
0.0
  0
LINE
  5
161
330
1E
100
AcDbEntity
  8
0
100
AcDbLine
 10
61.66669999999999
 20
3.0
 30
0.0
 11
63.2
 21
3.0
 31
0.0
  0
LINE
  5
162
330
1E
100
AcDbEntity
  8
0
100
AcDbLine
 10
63.2
 20
3.0
 30
0.0
 11
64.33329999999999
 21
3.0
 31
0.0
  0
LINE
  5
163
330
1E
100
AcDbEntity
  8
0
100
AcDbLine
 10
61.79999999999999
 20
3.0
 30
0.0
 11
63.39999999999999
 21
3.0
 31
0.0
  0
LINE
  5
164
330
1E
100
AcDbEntity
  8
0
100
AcDbLine
 10
63.2
 20
3.0
 30
0.0
 11
64.33329999999999
 21
3.0
 31
0.0
  0
LINE
  5
165
330
1E
100
AcDbEntity
  8
0
100
AcDbLine
 10
61.66669999999999
 20
3.0
 30
0.0
 11
63.2
 21
3.0
 31
0.0
  0
LINE
  5
166
330
1E
100
AcDbEntity
  8
0
100
AcDbLine
 10
63.39999999999999
 20
3.0
 30
0.0
 11
64.6667
 21
3.0
 31
0.0
  0
LINE
  5
167
330
1E
100
AcDbEntity
  8
0
100
AcDbLine
 10
63.39999999999999
 20
3.0
 30
0.0
 11
64.6667
 21
3.0
 31
0.0
  0
LINE
  5
168
330
1E
100
AcDbEntity
  8
0
100
AcDbLine
 10
61.79999999999999
 20
3.0
 30
0.0
 11
63.39999999999999
 21
3.0
 31
0.0
  0
LINE
  5
169
330
1E
100
AcDbEntity
  8
0
100
AcDbLine
 10
60.0
 20
3.0
 30
0.0
 11
61.79999999999999
 21
3.0
 31
0.0
  0
LINE
  5
16A
330
1E
100
AcDbEntity
  8
0
100
AcDbLine
 10
58.6819
 20
3.422442999999999
 30
0.0
 11
58.9198
 21
3.422442999999999
 31
0.0
  0
LINE
  5
16B
330
1E
100
AcDbEntity
  8
0
100
AcDbLine
 10
58.0107
 20
3.422442999999999
 30
0.0
 11
58.6819
 21
3.422442999999999
 31
0.0
  0
LINE
  5
16C
330
1E
100
AcDbEntity
  8
0
100
AcDbLine
 10
57.2872
 20
3.422442999999999
 30
0.0
 11
58.0107
 21
3.422442999999999
 31
0.0
  0
LINE
  5
16D
330
1E
100
AcDbEntity
  8
0
100
AcDbLine
 10
52.1211
 20
3.422442999999999
 30
0.0
 11
52.1211
 21
4.16729081632653
 31
0.0
  0
LINE
  5
16F
330
1E
100
AcDbEntity
  8
0
100
AcDbLine
 10
51.6135
 20
3.422442999999999
 30
0.0
 11
52.1211
 21
3.422442999999999
 31
0.0
  0
LINE
  5
170
330
1E
100
AcDbEntity
  8
0
100
AcDbLine
 10
50.8522
 20
3.422442999999999
 30
0.0
 11
51.6135
 21
3.422442999999999
 31
0.0
  0
LINE
  5
171
330
1E
100
AcDbEntity
  8
0
100
AcDbLine
 10
50.7682
 20
3.422442999999999
 30
0.0
 11
51.5294
 21
3.422442999999999
 31
0.0
  0
LINE
  5
173
330
1E
100
AcDbEntity
  8
0
100
AcDbLine
 10
51.5294
 20
3.422442999999999
 30
0.0
 11
52.0971
 21
3.422442999999999
 31
0.0
  0
LINE
  5
175
330
1E
100
AcDbEntity
  8
0
100
AcDbLine
 10
64.33329999999999
 20
3.0
 30
0.0
 11
65.06669999999999
 21
3.0
 31
0.0
  0
LINE
  5
176
330
1E
100
AcDbEntity
  8
0
100
AcDbLine
 10
64.33329999999999
 20
3.0
 30
0.0
 11
65.06669999999999
 21
3.0
 31
0.0
  0
LINE
  5
177
330
1E
100
AcDbEntity
  8
0
100
AcDbLine
 10
63.8789
 20
3.422442999999999
 30
0.0
 11
64.38649999999999
 21
3.422442999999999
 31
0.0
  0
LINE
  5
178
330
1E
100
AcDbEntity
  8
0
100
AcDbLine
 10
63.8789
 20
3.422442999999999
 30
0.0
 11
63.8789
 21
4.16729081632653
 31
0.0
  0
LINE
  5
179
330
1E
100
AcDbEntity
  8
0
100
AcDbLine
 10
64.38649999999999
 20
3.422442999999999
 30
0.0
 11
65.1478
 21
3.422442999999999
 31
0.0
  0
LINE
  5
17A
330
1E
100
AcDbEntity
  8
0
100
AcDbLine
 10
64.6667
 20
3.0
 30
0.0
 11
65.4
 21
3.0
 31
0.0
  0
LINE
  5
17B
330
1E
100
AcDbEntity
  8
0
100
AcDbLine
 10
64.6667
 20
3.0
 30
0.0
 11
65.4
 21
3.0
 31
0.0
  0
LINE
  5
17C
330
1E
100
AcDbEntity
  8
0
100
AcDbLine
 10
64.4706
 20
3.422442999999999
 30
0.0
 11
65.2318
 21
3.422442999999999
 31
0.0
  0
LINE
  5
17E
330
1E
100
AcDbEntity
  8
0
100
AcDbLine
 10
49.2059
 20
3.668869
 30
0.0
 11
49.7272
 21
3.668869
 31
0.0
  0
LINE
  5
17F
330
1E
100
AcDbEntity
  8
0
100
AcDbLine
 10
49.2059
 20
3.668869
 30
0.0
 11
49.2059
 21
4.0
 31
0.0
  0
LINE
  5
180
330
1E
100
AcDbEntity
  8
0
100
AcDbLine
 10
49.24839999999999
 20
3.668869
 30
0.0
 11
49.80360000000001
 21
3.668869
 31
0.0
  0
LINE
  5
181
330
1E
100
AcDbEntity
  8
0
100
AcDbLine
 10
49.2059
 20
3.668869
 30
0.0
 11
49.7272
 21
3.668869
 31
0.0
  0
LINE
  5
182
330
1E
100
AcDbEntity
  8
0
100
AcDbLine
 10
49.2059
 20
3.668869
 30
0.0
 11
49.2059
 21
4.020909999999999
 31
0.0
  0
LINE
  5
183
330
1E
100
AcDbEntity
  8
0
100
AcDbLine
 10
49.7272
 20
3.668869
 30
0.0
 11
50.0
 21
3.668869
 31
0.0
  0
LINE
  5
184
330
1E
100
AcDbEntity
  8
0
100
AcDbLine
 10
50.0
 20
3.5
 30
0.0
 11
50.3333
 21
3.0
 31
0.0
  0
LINE
  5
185
330
1E
100
AcDbEntity
  8
0
100
AcDbLine
 10
50.0
 20
3.5
 30
0.0
 11
50.0
 21
3.668869
 31
0.0
  0
LINE
  5
186
330
1E
100
AcDbEntity
  8
0
100
AcDbLine
 10
50.0
 20
3.668869
 30
0.0
 11
50.0
 21
3.5
 31
0.0
  0
LINE
  5
187
330
1E
100
AcDbEntity
  8
0
100
AcDbLine
 10
49.80360000000001
 20
3.668869
 30
0.0
 11
50.0
 21
3.668869
 31
0.0
  0
LINE
  5
188
330
1E
100
AcDbEntity
  8
0
100
AcDbLine
 10
49.7272
 20
3.668869
 30
0.0
 11
50.4876
 21
3.668869
 31
0.0
  0
LINE
  5
189
330
1E
100
AcDbEntity
  8
0
100
AcDbLine
 10
49.24839999999999
 20
3.668869
 30
0.0
 11
49.80360000000001
 21
3.668869
 31
0.0
  0
LINE
  5
18B
330
1E
100
AcDbEntity
  8
0
100
AcDbLine
 10
49.80360000000001
 20
3.668869
 30
0.0
 11
50.564
 21
3.668869
 31
0.0
  0
LINE
  5
18D
330
1E
100
AcDbEntity
  8
0
100
AcDbLine
 10
50.4876
 20
3.668869
 30
0.0
 11
51.0428
 21
3.668869
 31
0.0
  0
LINE
  5
18E
330
1E
100
AcDbEntity
  8
0
100
AcDbLine
 10
52.3333
 20
3.5
 30
0.0
 11
54.0
 21
3.5
 31
0.0
  0
LINE
  5
18F
330
1E
100
AcDbEntity
  8
0
100
AcDbLine
 10
52.1211
 20
3.5
 30
0.0
 11
52.3333
 21
3.5
 31
0.0
  0
LINE
  5
190
330
1E
100
AcDbEntity
  8
0
100
AcDbLine
 10
51.0853
 20
3.668869
 30
0.0
 11
51.0853
 21
4.372939999999999
 31
0.0
  0
LINE
  5
191
330
1E
100
AcDbEntity
  8
0
100
AcDbLine
 10
50.564
 20
3.668869
 30
0.0
 11
51.0853
 21
3.668869
 31
0.0
  0
LINE
  5
193
330
1E
100
AcDbEntity
  8
0
100
AcDbLine
 10
56.9274
 20
3.422442999999999
 30
0.0
 11
57.1652
 21
3.422442999999999
 31
0.0
  0
LINE
  5
194
330
1E
100
AcDbEntity
  8
0
100
AcDbLine
 10
56.9274
 20
3.422442999999999
 30
0.0
 11
57.2872
 21
3.422442999999999
 31
0.0
  0
LINE
  5
195
330
1E
100
AcDbEntity
  8
0
100
AcDbLine
 10
56.9274
 20
3.422442999999999
 30
0.0
 11
56.9274
 21
4.083796874999999
 31
0.0
  0
LINE
  5
196
330
1E
100
AcDbEntity
  8
0
100
AcDbLine
 10
50.2606
 20
3.668869
 30
0.0
 11
50.2606
 21
3.422442999999999
 31
0.0
  0
LINE
  5
197
330
1E
100
AcDbEntity
  8
0
100
AcDbLine
 10
49.2059
 20
4.0
 30
0.0
 11
49.2059
 21
3.668869
 31
0.0
  0
LINE
  5
199
330
1E
100
AcDbEntity
  8
0
100
AcDbLine
 10
57.1652
 20
3.422442999999999
 30
0.0
 11
57.8364
 21
3.422442999999999
 31
0.0
  0
LINE
  5
19D
330
1E
100
AcDbEntity
  8
0
100
AcDbLine
 10
57.8364
 20
3.422442999999999
 30
0.0
 11
58.5599
 21
3.422442999999999
 31
0.0
  0
LINE
  5
19F
330
1E
100
AcDbEntity
  8
0
100
AcDbLine
 10
58.9198
 20
3.422442999999999
 30
0.0
 11
58.9198
 21
3.668869
 31
0.0
  0
LINE
  5
1A1
330
1E
100
AcDbEntity
  8
0
100
AcDbLine
 10
58.9198
 20
3.668869
 30
0.0
 11
58.9198
 21
3.422442999999999
 31
0.0
  0
LINE
  5
1A2
330
1E
100
AcDbEntity
  8
0
100
AcDbLine
 10
58.5599
 20
3.422442999999999
 30
0.0
 11
58.9198
 21
3.422442999999999
 31
0.0
  0
LINE
  5
1A4
330
1E
100
AcDbEntity
  8
0
100
AcDbLine
 10
63.6667
 20
3.5
 30
0.0
 11
63.8789
 21
3.5
 31
0.0
  0
LINE
  5
1A5
330
1E
100
AcDbEntity
  8
0
100
AcDbLine
 10
62.0
 20
3.5
 30
0.0
 11
63.6667
 21
3.5
 31
0.0
  0
LINE
  5
1A6
330
1E
100
AcDbEntity
  8
0
100
AcDbLine
 10
59.0
 20
3.668869
 30
0.0
 11
59.0
 21
4.372939999999999
 31
0.0
  0
LINE
  5
1A7
330
1E
100
AcDbEntity
  8
0
100
AcDbLine
 10
58.7
 20
3.668869
 30
0.0
 11
59.0
 21
3.668869
 31
0.0
  0
LINE
  5
1A9
330
1E
100
AcDbEntity
  8
0
100
AcDbLine
 10
58.0
 20
3.668869
 30
0.0
 11
58.7
 21
3.668869
 31
0.0
  0
LINE
  5
1AB
330
1E
100
AcDbEntity
  8
0
100
AcDbLine
 10
57.3
 20
3.668869
 30
0.0
 11
58.0
 21
3.668869
 31
0.0
  0
LINE
  5
1AD
330
1E
100
AcDbEntity
  8
0
100
AcDbLine
 10
57.0
 20
3.668869
 30
0.0
 11
57.3
 21
3.668869
 31
0.0
  0
LINE
  5
1AE
330
1E
100
AcDbEntity
  8
0
100
AcDbLine
 10
57.0
 20
3.668869
 30
0.0
 11
57.0
 21
4.5
 31
0.0
  0
LINE
  5
1AF
330
1E
100
AcDbEntity
  8
0
100
AcDbLine
 10
63.9029
 20
3.422442999999999
 30
0.0
 11
64.4706
 21
3.422442999999999
 31
0.0
  0
LINE
  5
1B1
330
1E
100
AcDbEntity
  8
0
100
AcDbLine
 10
65.06669999999999
 20
3.0
 30
0.0
 11
65.33329999999999
 21
3.0
 31
0.0
  0
LINE
  5
1B2
330
1E
100
AcDbEntity
  8
0
100
AcDbLine
 10
65.06669999999999
 20
3.0
 30
0.0
 11
65.33329999999999
 21
3.0
 31
0.0
  0
LINE
  5
1B3
330
1E
100
AcDbEntity
  8
0
100
AcDbLine
 10
65.4
 20
3.0
 30
0.0
 11
65.66670000000001
 21
3.0
 31
0.0
  0
LINE
  5
1B4
330
1E
100
AcDbEntity
  8
0
100
AcDbLine
 10
65.4
 20
3.0
 30
0.0
 11
65.66670000000001
 21
3.0
 31
0.0
  0
LINE
  5
1B5
330
1E
100
AcDbEntity
  8
0
100
AcDbLine
 10
65.66670000000001
 20
3.0
 30
0.0
 11
66.0
 21
3.5
 31
0.0
  0
LINE
  5
1B6
330
1E
100
AcDbEntity
  8
0
100
AcDbLine
 10
65.1478
 20
3.422442999999999
 30
0.0
 11
65.71550000000001
 21
3.422442999999999
 31
0.0
  0
LINE
  5
1B7
330
1E
100
AcDbEntity
  8
0
100
AcDbLine
 10
66.1795
 20
3.422442999999999
 30
0.0
 11
66.1795
 21
3.668869
 31
0.0
  0
LINE
  5
1B9
330
1E
100
AcDbEntity
  8
0
100
AcDbLine
 10
65.9483005038
 20
3.422442999999999
 30
0.0
 11
66.1795
 21
3.422442999999999
 31
0.0
  0
LINE
  5
1BA
330
1E
100
AcDbEntity
  8
0
100
AcDbLine
 10
65.9483005038
 20
3.422442999999999
 30
0.0
 11
66.15560000000001
 21
3.422442999999999
 31
0.0
  0
LINE
  5
1BB
330
1E
100
AcDbEntity
  8
0
100
AcDbLine
 10
65.7394
 20
3.422442999999999
 30
0.0
 11
65.7394
 21
3.668869
 31
0.0
  0
LINE
  5
1BC
330
1E
100
AcDbEntity
  8
0
100
AcDbLine
 10
66.0
 20
3.668869
 30
0.0
 11
66.0
 21
3.5
 31
0.0
  0
LINE
  5
1BD
330
1E
100
AcDbEntity
  8
0
100
AcDbLine
 10
66.0
 20
3.5
 30
0.0
 11
66.0
 21
3.668869
 31
0.0
  0
LINE
  5
1BF
330
1E
100
AcDbEntity
  8
0
100
AcDbLine
 10
66.1795
 20
3.668869
 30
0.0
 11
66.1795
 21
3.422442999999999
 31
0.0
  0
LINE
  5
1C0
330
1E
100
AcDbEntity
  8
0
100
AcDbLine
 10
66.1964
 20
3.668869
 30
0.0
 11
66.75159999999999
 21
3.668869
 31
0.0
  0
LINE
  5
1C1
330
1E
100
AcDbEntity
  8
0
100
AcDbLine
 10
66.1795
 20
3.668869
 30
0.0
 11
66.2728
 21
3.668869
 31
0.0
  0
LINE
  5
1C2
330
1E
100
AcDbEntity
  8
0
100
AcDbLine
 10
65.7394
 20
3.668869
 30
0.0
 11
65.7394
 21
3.422442999999999
 31
0.0
  0
LINE
  5
1C4
330
1E
100
AcDbEntity
  8
0
100
AcDbLine
 10
65.2318
 20
3.422442999999999
 30
0.0
 11
65.7394
 21
3.422442999999999
 31
0.0
  0
LINE
  5
1C6
330
1E
100
AcDbEntity
  8
0
100
AcDbLine
 10
64.9572
 20
3.668869
 30
0.0
 11
65.51239999999999
 21
3.668869
 31
0.0
  0
LINE
  5
1C7
330
1E
100
AcDbEntity
  8
0
100
AcDbLine
 10
65.51239999999999
 20
3.668869
 30
0.0
 11
66.2728
 21
3.668869
 31
0.0
  0
LINE
  5
1C8
330
1E
100
AcDbEntity
  8
0
100
AcDbLine
 10
66.2728
 20
3.668869
 30
0.0
 11
66.7941
 21
3.668869
 31
0.0
  0
LINE
  5
1C9
330
1E
100
AcDbEntity
  8
0
100
AcDbLine
 10
66.7941
 20
3.668869
 30
0.0
 11
66.7941
 21
4.020909999999999
 31
0.0
  0
LINE
  5
1CA
330
1E
100
AcDbEntity
  8
0
100
AcDbLine
 10
66.2728
 20
3.668869
 30
0.0
 11
66.7941
 21
3.668869
 31
0.0
  0
LINE
  5
1CC
330
1E
100
AcDbEntity
  8
0
100
AcDbLine
 10
66.1964
 20
3.668869
 30
0.0
 11
66.75159999999999
 21
3.668869
 31
0.0
  0
LINE
  5
1CE
330
1E
100
AcDbEntity
  8
0
100
AcDbLine
 10
65.43600000000001
 20
3.668869
 30
0.0
 11
66.1964
 21
3.668869
 31
0.0
  0
LINE
  5
1D0
330
1E
100
AcDbEntity
  8
0
100
AcDbLine
 10
64.91469999999999
 20
3.668869
 30
0.0
 11
65.43600000000001
 21
3.668869
 31
0.0
  0
LINE
  5
1D1
330
1E
100
AcDbEntity
  8
0
100
AcDbLine
 10
64.91469999999999
 20
3.668869
 30
0.0
 11
64.91469999999999
 21
4.372939999999999
 31
0.0
  0
LINE
  5
1D2
330
1E
100
AcDbEntity
  8
0
100
AcDbLine
 10
66.7941
 20
4.0
 30
0.0
 11
67.59999999999999
 21
4.0
 31
0.0
  0
LINE
  5
1D3
330
1E
100
AcDbEntity
  8
0
100
AcDbLine
 10
68.79819999999999
 20
3.422442999999999
 30
0.0
 11
69.08100000000001
 21
3.422442999999999
 31
0.0
  0
LINE
  5
1D4
330
1E
100
AcDbEntity
  8
0
100
AcDbLine
 10
69.08100000000001
 20
3.422442999999999
 30
0.0
 11
69.7882
 21
3.422442999999999
 31
0.0
  0
LINE
  5
1D5
330
1E
100
AcDbEntity
  8
0
100
AcDbLine
 10
68.23229999999999
 20
3.422442999999999
 30
0.0
 11
68.51519999999999
 21
3.422442999999999
 31
0.0
  0
LINE
  5
1D6
330
1E
100
AcDbEntity
  8
0
100
AcDbLine
 10
68.23229999999999
 20
3.422442999999999
 30
0.0
 11
68.23229999999999
 21
4.14775
 31
0.0
  0
LINE
  5
1D7
330
1E
100
AcDbEntity
  8
0
100
AcDbLine
 10
69.7882
 20
3.422442999999999
 30
0.0
 11
70.4953
 21
3.422442999999999
 31
0.0
  0
LINE
  5
1D8
330
1E
100
AcDbEntity
  8
0
100
AcDbLine
 10
71.7971
 20
3.422442999999999
 30
0.0
 11
72.3047
 21
3.422442999999999
 31
0.0
  0
LINE
  5
1D9
330
1E
100
AcDbEntity
  8
0
100
AcDbLine
 10
71.7971
 20
3.422442999999999
 30
0.0
 11
71.7971
 21
3.668869
 31
0.0
  0
LINE
  5
1DA
330
1E
100
AcDbEntity
  8
0
100
AcDbLine
 10
71.821
 20
3.422442999999999
 30
0.0
 11
72.3887
 21
3.422442999999999
 31
0.0
  0
LINE
  5
1DC
330
1E
100
AcDbEntity
  8
0
100
AcDbLine
 10
70.77809999999999
 20
3.422442999999999
 30
0.0
 11
70.77809999999999
 21
4.020909999999999
 31
0.0
  0
LINE
  5
1DD
330
1E
100
AcDbEntity
  8
0
100
AcDbLine
 10
70.4953
 20
3.422442999999999
 30
0.0
 11
70.77809999999999
 21
3.422442999999999
 31
0.0
  0
LINE
  5
1DF
330
1E
100
AcDbEntity
  8
0
100
AcDbLine
 10
71.9857
 20
3.422442999999999
 30
0.0
 11
72.4933
 21
3.422442999999999
 31
0.0
  0
LINE
  5
1E1
330
1E
100
AcDbEntity
  8
0
100
AcDbLine
 10
73.06589999999999
 20
3.422442999999999
 30
0.0
 11
73.6336
 21
3.422442999999999
 31
0.0
  0
LINE
  5
1E2
330
1E
100
AcDbEntity
  8
0
100
AcDbLine
 10
72.3887
 20
3.422442999999999
 30
0.0
 11
73.1499
 21
3.422442999999999
 31
0.0
  0
LINE
  5
1E3
330
1E
100
AcDbEntity
  8
0
100
AcDbLine
 10
73.1499
 20
3.422442999999999
 30
0.0
 11
73.6576
 21
3.422442999999999
 31
0.0
  0
LINE
  5
1E4
330
1E
100
AcDbEntity
  8
0
100
AcDbLine
 10
72.3047
 20
3.422442999999999
 30
0.0
 11
73.06589999999999
 21
3.422442999999999
 31
0.0
  0
LINE
  5
1E5
330
1E
100
AcDbEntity
  8
0
100
AcDbLine
 10
72.00960000000001
 20
3.422442999999999
 30
0.0
 11
72.5774
 21
3.422442999999999
 31
0.0
  0
LINE
  5
1E6
330
1E
100
AcDbEntity
  8
0
100
AcDbLine
 10
72.5774
 20
3.422442999999999
 30
0.0
 11
73.3386
 21
3.422442999999999
 31
0.0
  0
LINE
  5
1E7
330
1E
100
AcDbEntity
  8
0
100
AcDbLine
 10
73.84619999999999
 20
3.422442999999999
 30
0.0
 11
73.84619999999999
 21
4.21538620689655
 31
0.0
  0
LINE
  5
1E8
330
1E
100
AcDbEntity
  8
0
100
AcDbLine
 10
73.3386
 20
3.422442999999999
 30
0.0
 11
73.84619999999999
 21
3.422442999999999
 31
0.0
  0
LINE
  5
1EA
330
1E
100
AcDbEntity
  8
0
100
AcDbLine
 10
73.2545
 20
3.422442999999999
 30
0.0
 11
73.82229999999999
 21
3.422442999999999
 31
0.0
  0
LINE
  5
1EC
330
1E
100
AcDbEntity
  8
0
100
AcDbLine
 10
72.4933
 20
3.422442999999999
 30
0.0
 11
73.2545
 21
3.422442999999999
 31
0.0
  0
LINE
  5
1EF
330
1E
100
AcDbEntity
  8
0
100
AcDbLine
 10
69.9294
 20
3.422442999999999
 30
0.0
 11
70.21219999999999
 21
3.422442999999999
 31
0.0
  0
LINE
  5
1F1
330
1E
100
AcDbEntity
  8
0
100
AcDbLine
 10
69.2223
 20
3.422442999999999
 30
0.0
 11
69.9294
 21
3.422442999999999
 31
0.0
  0
LINE
  5
1F3
330
1E
100
AcDbEntity
  8
0
100
AcDbLine
 10
76.9319
 20
3.668869
 30
0.0
 11
77.0221
 21
3.668869
 31
0.0
  0
LINE
  5
1F4
330
1E
100
AcDbEntity
  8
0
100
AcDbLine
 10
76.9319
 20
3.668869
 30
0.0
 11
77.38809999999999
 21
3.668869
 31
0.0
  0
LINE
  5
1F5
330
1E
100
AcDbEntity
  8
0
100
AcDbLine
 10
76.9319
 20
3.668869
 30
0.0
 11
76.9319
 21
4.29773
 31
0.0
  0
LINE
  5
1F6
330
1E
100
AcDbEntity
  8
0
100
AcDbLine
 10
77.0221
 20
3.668869
 30
0.0
 11
77.6319
 21
3.668869
 31
0.0
  0
LINE
  5
1F7
330
1E
100
AcDbEntity
  8
0
100
AcDbLine
 10
77.6319
 20
3.668869
 30
0.0
 11
78.38809999999999
 21
3.668869
 31
0.0
  0
LINE
  5
1F8
330
1E
100
AcDbEntity
  8
0
100
AcDbLine
 10
78.38809999999999
 20
3.668869
 30
0.0
 11
78.8443
 21
3.668869
 31
0.0
  0
LINE
  5
1F9
330
1E
100
AcDbEntity
  8
0
100
AcDbLine
 10
78.75409999999999
 20
3.668869
 30
0.0
 11
78.8443
 21
3.668869
 31
0.0
  0
LINE
  5
1FA
330
1E
100
AcDbEntity
  8
0
100
AcDbLine
 10
78.1443
 20
3.668869
 30
0.0
 11
78.75409999999999
 21
3.668869
 31
0.0
  0
LINE
  5
1FB
330
1E
100
AcDbEntity
  8
0
100
AcDbLine
 10
79.80500000000001
 20
3.668869
 30
0.0
 11
80.44220000000001
 21
3.668869
 31
0.0
  0
LINE
  5
1FC
330
1E
100
AcDbEntity
  8
0
100
AcDbLine
 10
79.6311
 20
3.668869
 30
0.0
 11
80.0481
 21
3.668869
 31
0.0
  0
LINE
  5
1FD
330
1E
100
AcDbEntity
  8
0
100
AcDbLine
 10
79.6311
 20
3.668869
 30
0.0
 11
79.80500000000001
 21
3.668869
 31
0.0
  0
LINE
  5
1FE
330
1E
100
AcDbEntity
  8
0
100
AcDbLine
 10
79.6311
 20
3.668869
 30
0.0
 11
79.6311
 21
4.020909999999999
 31
0.0
  0
LINE
  5
1FF
330
1E
100
AcDbEntity
  8
0
100
AcDbLine
 10
77.38809999999999
 20
3.668869
 30
0.0
 11
78.1443
 21
3.668869
 31
0.0
  0
LINE
  5
200
330
1E
100
AcDbEntity
  8
0
100
AcDbLine
 10
71.7753
 20
3.668869
 30
0.0
 11
71.7753
 21
4.020909999999999
 31
0.0
  0
LINE
  5
201
330
1E
100
AcDbEntity
  8
0
100
AcDbLine
 10
68.51519999999999
 20
3.422442999999999
 30
0.0
 11
69.2223
 21
3.422442999999999
 31
0.0
  0
LINE
  5
203
330
1E
100
AcDbEntity
  8
0
100
AcDbLine
 10
80.0481
 20
3.668869
 30
0.0
 11
80.7895
 21
3.668869
 31
0.0
  0
LINE
  5
204
330
1E
100
AcDbEntity
  8
0
100
AcDbLine
 10
79.80500000000001
 20
3.668869
 30
0.0
 11
80.44220000000001
 21
3.668869
 31
0.0
  0
LINE
  5
206
330
1E
100
AcDbEntity
  8
0
100
AcDbLine
 10
79.6311
 20
3.668869
 30
0.0
 11
80.0481
 21
3.668869
 31
0.0
  0
LINE
  5
207
330
1E
100
AcDbEntity
  8
0
100
AcDbLine
 10
79.6311
 20
3.668869
 30
0.0
 11
79.80500000000001
 21
3.668869
 31
0.0
  0
LINE
  5
208
330
1E
100
AcDbEntity
  8
0
100
AcDbLine
 10
79.6311
 20
3.668869
 30
0.0
 11
79.6311
 21
4.020909999999999
 31
0.0
  0
LINE
  5
209
330
1E
100
AcDbEntity
  8
0
100
AcDbLine
 10
80.7895
 20
3.668869
 30
0.0
 11
81.4268
 21
3.668869
 31
0.0
  0
LINE
  5
20A
330
1E
100
AcDbEntity
  8
0
100
AcDbLine
 10
81.1837
 20
3.668869
 30
0.0
 11
81.60070000000001
 21
3.668869
 31
0.0
  0
LINE
  5
20B
330
1E
100
AcDbEntity
  8
0
100
AcDbLine
 10
80.44220000000001
 20
3.668869
 30
0.0
 11
81.1837
 21
3.668869
 31
0.0
  0
LINE
  5
20C
330
1E
100
AcDbEntity
  8
0
100
AcDbLine
 10
80.0481
 20
3.668869
 30
0.0
 11
80.7895
 21
3.668869
 31
0.0
  0
LINE
  5
20D
330
1E
100
AcDbEntity
  8
0
100
AcDbLine
 10
80.7895
 20
3.668869
 30
0.0
 11
81.4268
 21
3.668869
 31
0.0
  0
LINE
  5
20E
330
1E
100
AcDbEntity
  8
0
100
AcDbLine
 10
81.4268
 20
3.668869
 30
0.0
 11
81.60070000000001
 21
3.668869
 31
0.0
  0
LINE
  5
20F
330
1E
100
AcDbEntity
  8
0
100
AcDbLine
 10
81.60070000000001
 20
3.668869
 30
0.0
 11
81.60070000000001
 21
4.48278275862069
 31
0.0
  0
LINE
  5
210
330
1E
100
AcDbEntity
  8
0
100
AcDbLine
 10
81.4268
 20
3.668869
 30
0.0
 11
81.60070000000001
 21
3.668869
 31
0.0
  0
LINE
  5
211
330
1E
100
AcDbEntity
  8
0
100
AcDbLine
 10
81.1837
 20
3.668869
 30
0.0
 11
81.60070000000001
 21
3.668869
 31
0.0
  0
LINE
  5
213
330
1E
100
AcDbEntity
  8
0
100
AcDbLine
 10
71.7971
 20
3.668869
 30
0.0
 11
71.7971
 21
3.422442999999999
 31
0.0
  0
LINE
  5
216
330
1E
100
AcDbEntity
  8
0
100
AcDbLine
 10
71.7753
 20
3.668869
 30
0.0
 11
72.11870000000001
 21
3.668869
 31
0.0
  0
LINE
  5
217
330
1E
100
AcDbEntity
  8
0
100
AcDbLine
 10
71.7753
 20
3.668869
 30
0.0
 11
71.9954
 21
3.668869
 31
0.0
  0
LINE
  5
218
330
1E
100
AcDbEntity
  8
0
100
AcDbLine
 10
71.7753
 20
3.668869
 30
0.0
 11
71.7753
 21
4.020909999999999
 31
0.0
  0
LINE
  5
21B
330
1E
100
AcDbEntity
  8
0
100
AcDbLine
 10
72.11870000000001
 20
3.668869
 30
0.0
 11
72.84780000000001
 21
3.668869
 31
0.0
  0
LINE
  5
21C
330
1E
100
AcDbEntity
  8
0
100
AcDbLine
 10
72.84780000000001
 20
3.668869
 30
0.0
 11
73.5275
 21
3.668869
 31
0.0
  0
LINE
  5
21D
330
1E
100
AcDbEntity
  8
0
100
AcDbLine
 10
76.9319
 20
3.668869
 30
0.0
 11
77.0221
 21
3.668869
 31
0.0
  0
LINE
  5
21E
330
1E
100
AcDbEntity
  8
0
100
AcDbLine
 10
76.9319
 20
3.668869
 30
0.0
 11
77.38809999999999
 21
3.668869
 31
0.0
  0
LINE
  5
21F
330
1E
100
AcDbEntity
  8
0
100
AcDbLine
 10
76.9319
 20
3.668869
 30
0.0
 11
76.9319
 21
4.372939999999999
 31
0.0
  0
LINE
  5
220
330
1E
100
AcDbEntity
  8
0
100
AcDbLine
 10
77.0221
 20
3.668869
 30
0.0
 11
77.6319
 21
3.668869
 31
0.0
  0
LINE
  5
221
330
1E
100
AcDbEntity
  8
0
100
AcDbLine
 10
77.6319
 20
3.668869
 30
0.0
 11
78.38809999999999
 21
3.668869
 31
0.0
  0
LINE
  5
222
330
1E
100
AcDbEntity
  8
0
100
AcDbLine
 10
78.8443
 20
3.668869
 30
0.0
 11
78.8443
 21
4.46708846153846
 31
0.0
  0
LINE
  5
223
330
1E
100
AcDbEntity
  8
0
100
AcDbLine
 10
78.38809999999999
 20
3.668869
 30
0.0
 11
78.8443
 21
3.668869
 31
0.0
  0
LINE
  5
224
330
1E
100
AcDbEntity
  8
0
100
AcDbLine
 10
78.75409999999999
 20
3.668869
 30
0.0
 11
78.8443
 21
3.668869
 31
0.0
  0
LINE
  5
226
330
1E
100
AcDbEntity
  8
0
100
AcDbLine
 10
78.1443
 20
3.668869
 30
0.0
 11
78.75409999999999
 21
3.668869
 31
0.0
  0
LINE
  5
228
330
1E
100
AcDbEntity
  8
0
100
AcDbLine
 10
77.38809999999999
 20
3.668869
 30
0.0
 11
78.1443
 21
3.668869
 31
0.0
  0
LINE
  5
22A
330
1E
100
AcDbEntity
  8
0
100
AcDbLine
 10
73.74769999999999
 20
3.668869
 30
0.0
 11
73.74769999999999
 21
4.5
 31
0.0
  0
LINE
  5
22B
330
1E
100
AcDbEntity
  8
0
100
AcDbLine
 10
73.5275
 20
3.668869
 30
0.0
 11
73.74769999999999
 21
3.668869
 31
0.0
  0
LINE
  5
22C
330
1E
100
AcDbEntity
  8
0
100
AcDbLine
 10
73.40430000000001
 20
3.668869
 30
0.0
 11
73.74769999999999
 21
3.668869
 31
0.0
  0
LINE
  5
22E
330
1E
100
AcDbEntity
  8
0
100
AcDbLine
 10
72.67520000000001
 20
3.668869
 30
0.0
 11
73.40430000000001
 21
3.668869
 31
0.0
  0
LINE
  5
230
330
1E
100
AcDbEntity
  8
0
100
AcDbLine
 10
71.9954
 20
3.668869
 30
0.0
 11
72.67520000000001
 21
3.668869
 31
0.0
  0
LINE
  5
232
330
1E
100
AcDbEntity
  8
0
100
AcDbLine
 10
80.44220000000001
 20
3.668869
 30
0.0
 11
81.1837
 21
3.668869
 31
0.0
  0
LINE
  5
234
330
1E
100
AcDbEntity
  8
0
100
AcDbLine
 10
67.59999999999999
 20
4.0
 30
0.0
 11
68.0
 21
4.0
 31
0.0
  0
LINE
  5
235
330
1E
100
AcDbEntity
  8
0
100
AcDbLine
 10
48.39999999999999
 20
4.0
 30
0.0
 11
49.2059
 21
4.0
 31
0.0
  0
LINE
  5
236
330
1E
100
AcDbEntity
  8
0
100
AcDbLine
 10
48.0
 20
4.0
 30
0.0
 11
48.39999999999999
 21
4.0
 31
0.0
  0
LINE
  5
237
330
1E
100
AcDbEntity
  8
0
100
AcDbLine
 10
49.0198
 20
4.020909999999999
 30
0.0
 11
49.1284
 21
4.020909999999999
 31
0.0
  0
LINE
  5
238
330
1E
100
AcDbEntity
  8
0
100
AcDbLine
 10
49.0198
 20
4.020909999999999
 30
0.0
 11
49.49069999999999
 21
4.020909999999999
 31
0.0
  0
LINE
  5
239
330
1E
100
AcDbEntity
  8
0
100
AcDbLine
 10
49.0198
 20
4.020909999999999
 30
0.0
 11
49.0198
 21
4.68170422535211
 31
0.0
  0
LINE
  5
23A
330
1E
100
AcDbEntity
  8
0
100
AcDbLine
 10
49.2059
 20
4.020909999999999
 30
0.0
 11
49.2059
 21
3.668869
 31
0.0
  0
LINE
  5
23D
330
1E
100
AcDbEntity
  8
0
100
AcDbLine
 10
50.2445
 20
4.020909999999999
 30
0.0
 11
50.843
 21
4.020909999999999
 31
0.0
  0
LINE
  5
23E
330
1E
100
AcDbEntity
  8
0
100
AcDbLine
 10
49.49069999999999
 20
4.020909999999999
 30
0.0
 11
50.2445
 21
4.020909999999999
 31
0.0
  0
LINE
  5
23F
330
1E
100
AcDbEntity
  8
0
100
AcDbLine
 10
49.1284
 20
4.020909999999999
 30
0.0
 11
49.7269
 21
4.020909999999999
 31
0.0
  0
LINE
  5
241
330
1E
100
AcDbEntity
  8
0
100
AcDbLine
 10
49.7269
 20
4.020909999999999
 30
0.0
 11
50.4807
 21
4.020909999999999
 31
0.0
  0
LINE
  5
244
330
1E
100
AcDbEntity
  8
0
100
AcDbLine
 10
50.9517
 20
4.020909999999999
 30
0.0
 11
50.9517
 21
4.372939999999999
 31
0.0
  0
LINE
  5
245
330
1E
100
AcDbEntity
  8
0
100
AcDbLine
 10
50.843
 20
4.020909999999999
 30
0.0
 11
50.9517
 21
4.020909999999999
 31
0.0
  0
LINE
  5
246
330
1E
100
AcDbEntity
  8
0
100
AcDbLine
 10
50.4807
 20
4.020909999999999
 30
0.0
 11
50.9517
 21
4.020909999999999
 31
0.0
  0
LINE
  5
248
330
1E
100
AcDbEntity
  8
0
100
AcDbLine
 10
54.305
 20
4.020909999999999
 30
0.0
 11
54.5429
 21
4.020909999999999
 31
0.0
  0
LINE
  5
249
330
1E
100
AcDbEntity
  8
0
100
AcDbLine
 10
54.305
 20
4.020909999999999
 30
0.0
 11
54.6649
 21
4.020909999999999
 31
0.0
  0
LINE
  5
24A
330
1E
100
AcDbEntity
  8
0
100
AcDbLine
 10
54.305
 20
4.020909999999999
 30
0.0
 11
54.305
 21
4.84532710280374
 31
0.0
  0
LINE
  5
24B
330
1E
100
AcDbEntity
  8
0
100
AcDbLine
 10
55.3884
 20
4.020909999999999
 30
0.0
 11
56.0596
 21
4.020909999999999
 31
0.0
  0
LINE
  5
24C
330
1E
100
AcDbEntity
  8
0
100
AcDbLine
 10
54.6649
 20
4.020909999999999
 30
0.0
 11
55.3884
 21
4.020909999999999
 31
0.0
  0
LINE
  5
24D
330
1E
100
AcDbEntity
  8
0
100
AcDbLine
 10
54.5429
 20
4.020909999999999
 30
0.0
 11
55.2141
 21
4.020909999999999
 31
0.0
  0
LINE
  5
24F
330
1E
100
AcDbEntity
  8
0
100
AcDbLine
 10
55.2141
 20
4.020909999999999
 30
0.0
 11
55.9376
 21
4.020909999999999
 31
0.0
  0
LINE
  5
251
330
1E
100
AcDbEntity
  8
0
100
AcDbLine
 10
56.2974
 20
4.020909999999999
 30
0.0
 11
56.2974
 21
4.659121495327099
 31
0.0
  0
LINE
  5
252
330
1E
100
AcDbEntity
  8
0
100
AcDbLine
 10
56.0596
 20
4.020909999999999
 30
0.0
 11
56.2974
 21
4.020909999999999
 31
0.0
  0
LINE
  5
253
330
1E
100
AcDbEntity
  8
0
100
AcDbLine
 10
55.9376
 20
4.020909999999999
 30
0.0
 11
56.2974
 21
4.020909999999999
 31
0.0
  0
LINE
  5
255
330
1E
100
AcDbEntity
  8
0
100
AcDbLine
 10
59.9404
 20
4.020909999999999
 30
0.0
 11
60.6116
 21
4.020909999999999
 31
0.0
  0
LINE
  5
256
330
1E
100
AcDbEntity
  8
0
100
AcDbLine
 10
60.6116
 20
4.020909999999999
 30
0.0
 11
61.3351
 21
4.020909999999999
 31
0.0
  0
LINE
  5
257
330
1E
100
AcDbEntity
  8
0
100
AcDbLine
 10
61.3351
 20
4.020909999999999
 30
0.0
 11
61.695
 21
4.020909999999999
 31
0.0
  0
LINE
  5
258
330
1E
100
AcDbEntity
  8
0
100
AcDbLine
 10
61.695
 20
4.020909999999999
 30
0.0
 11
61.695
 21
4.84532710280374
 31
0.0
  0
LINE
  5
259
330
1E
100
AcDbEntity
  8
0
100
AcDbLine
 10
61.4571
 20
4.020909999999999
 30
0.0
 11
61.695
 21
4.020909999999999
 31
0.0
  0
LINE
  5
25B
330
1E
100
AcDbEntity
  8
0
100
AcDbLine
 10
60.7859
 20
4.020909999999999
 30
0.0
 11
61.4571
 21
4.020909999999999
 31
0.0
  0
LINE
  5
25D
330
1E
100
AcDbEntity
  8
0
100
AcDbLine
 10
60.0624
 20
4.020909999999999
 30
0.0
 11
60.7859
 21
4.020909999999999
 31
0.0
  0
LINE
  5
25F
330
1E
100
AcDbEntity
  8
0
100
AcDbLine
 10
59.70259999999999
 20
4.020909999999999
 30
0.0
 11
60.0624
 21
4.020909999999999
 31
0.0
  0
LINE
  5
260
330
1E
100
AcDbEntity
  8
0
100
AcDbLine
 10
59.70259999999999
 20
4.020909999999999
 30
0.0
 11
59.9404
 21
4.020909999999999
 31
0.0
  0
LINE
  5
261
330
1E
100
AcDbEntity
  8
0
100
AcDbLine
 10
59.70259999999999
 20
4.020909999999999
 30
0.0
 11
59.70259999999999
 21
4.659121495327099
 31
0.0
  0
LINE
  5
263
330
1E
100
AcDbEntity
  8
0
100
AcDbLine
 10
65.15699999999999
 20
4.020909999999999
 30
0.0
 11
65.75549999999999
 21
4.020909999999999
 31
0.0
  0
LINE
  5
264
330
1E
100
AcDbEntity
  8
0
100
AcDbLine
 10
66.7941
 20
4.020909999999999
 30
0.0
 11
66.7941
 21
3.668869
 31
0.0
  0
LINE
  5
267
330
1E
100
AcDbEntity
  8
0
100
AcDbLine
 10
65.75549999999999
 20
4.020909999999999
 30
0.0
 11
66.50929999999999
 21
4.020909999999999
 31
0.0
  0
LINE
  5
268
330
1E
100
AcDbEntity
  8
0
100
AcDbLine
 10
66.50929999999999
 20
4.020909999999999
 30
0.0
 11
66.98019999999999
 21
4.020909999999999
 31
0.0
  0
LINE
  5
269
330
1E
100
AcDbEntity
  8
0
100
AcDbLine
 10
70.156
 20
4.020909999999999
 30
0.0
 11
70.6637
 21
4.020909999999999
 31
0.0
  0
LINE
  5
26A
330
1E
100
AcDbEntity
  8
0
100
AcDbLine
 10
70.156
 20
4.020909999999999
 30
0.0
 11
70.156
 21
4.905352112676059
 31
0.0
  0
LINE
  5
26D
330
1E
100
AcDbEntity
  8
0
100
AcDbLine
 10
71.5089
 20
4.020909999999999
 30
0.0
 11
71.7753
 21
4.020909999999999
 31
0.0
  0
LINE
  5
26E
330
1E
100
AcDbEntity
  8
0
100
AcDbLine
 10
70.77809999999999
 20
4.020909999999999
 30
0.0
 11
70.77809999999999
 21
3.422442999999999
 31
0.0
  0
LINE
  5
26F
330
1E
100
AcDbEntity
  8
0
100
AcDbLine
 10
70.77809999999999
 20
4.020909999999999
 30
0.0
 11
71.42489999999999
 21
4.020909999999999
 31
0.0
  0
LINE
  5
270
330
1E
100
AcDbEntity
  8
0
100
AcDbLine
 10
71.42489999999999
 20
4.020909999999999
 30
0.0
 11
71.7753
 21
4.020909999999999
 31
0.0
  0
LINE
  5
271
330
1E
100
AcDbEntity
  8
0
100
AcDbLine
 10
70.77809999999999
 20
4.020909999999999
 30
0.0
 11
71.5089
 21
4.020909999999999
 31
0.0
  0
LINE
  5
272
330
1E
100
AcDbEntity
  8
0
100
AcDbLine
 10
70.6637
 20
4.020909999999999
 30
0.0
 11
71.42489999999999
 21
4.020909999999999
 31
0.0
  0
LINE
  5
273
330
1E
100
AcDbEntity
  8
0
100
AcDbLine
 10
71.42489999999999
 20
4.020909999999999
 30
0.0
 11
71.99259999999999
 21
4.020909999999999
 31
0.0
  0
LINE
  5
274
330
1E
100
AcDbEntity
  8
0
100
AcDbLine
 10
71.7753
 20
4.020909999999999
 30
0.0
 11
71.7753
 21
3.668869
 31
0.0
  0
LINE
  5
275
330
1E
100
AcDbEntity
  8
0
100
AcDbLine
 10
71.7753
 20
4.020909999999999
 30
0.0
 11
71.7753
 21
3.668869
 31
0.0
  0
LINE
  5
277
330
1E
100
AcDbEntity
  8
0
100
AcDbLine
 10
72.01649999999999
 20
4.020909999999999
 30
0.0
 11
72.01649999999999
 21
4.372939999999999
 31
0.0
  0
LINE
  5
278
330
1E
100
AcDbEntity
  8
0
100
AcDbLine
 10
71.5089
 20
4.020909999999999
 30
0.0
 11
72.01649999999999
 21
4.020909999999999
 31
0.0
  0
LINE
  5
27A
330
1E
100
AcDbEntity
  8
0
100
AcDbLine
 10
70.7477
 20
4.020909999999999
 30
0.0
 11
71.5089
 21
4.020909999999999
 31
0.0
  0
LINE
  5
27C
330
1E
100
AcDbEntity
  8
0
100
AcDbLine
 10
70.18
 20
4.020909999999999
 30
0.0
 11
70.7477
 21
4.020909999999999
 31
0.0
  0
LINE
  5
27E
330
1E
100
AcDbEntity
  8
0
100
AcDbLine
 10
66.98019999999999
 20
4.020909999999999
 30
0.0
 11
66.98019999999999
 21
4.68170422535211
 31
0.0
  0
LINE
  5
27F
330
1E
100
AcDbEntity
  8
0
100
AcDbLine
 10
66.8716
 20
4.020909999999999
 30
0.0
 11
66.98019999999999
 21
4.020909999999999
 31
0.0
  0
LINE
  5
281
330
1E
100
AcDbEntity
  8
0
100
AcDbLine
 10
66.2731
 20
4.020909999999999
 30
0.0
 11
66.8716
 21
4.020909999999999
 31
0.0
  0
LINE
  5
283
330
1E
100
AcDbEntity
  8
0
100
AcDbLine
 10
65.5193
 20
4.020909999999999
 30
0.0
 11
66.2731
 21
4.020909999999999
 31
0.0
  0
LINE
  5
285
330
1E
100
AcDbEntity
  8
0
100
AcDbLine
 10
56.9274
 20
4.083796874999999
 30
0.0
 11
56.9274
 21
3.422442999999999
 31
0.0
  0
LINE
  5
287
330
1E
100
AcDbEntity
  8
0
100
AcDbLine
 10
52.1211
 20
4.16729081632653
 30
0.0
 11
52.1211
 21
3.422442999999999
 31
0.0
  0
LINE
  5
289
330
1E
100
AcDbEntity
  8
0
100
AcDbLine
 10
63.8789
 20
4.16729081632653
 30
0.0
 11
63.8789
 21
3.422442999999999
 31
0.0
  0
LINE
  5
28A
330
1E
100
AcDbEntity
  8
0
100
AcDbLine
 10
68.23229999999999
 20
4.14775
 30
0.0
 11
68.23229999999999
 21
3.422442999999999
 31
0.0
  0
LINE
  5
28D
330
1E
100
AcDbEntity
  8
0
100
AcDbLine
 10
73.84619999999999
 20
4.21538620689655
 30
0.0
 11
73.84619999999999
 21
3.422442999999999
 31
0.0
  0
LINE
  5
291
330
1E
100
AcDbEntity
  8
0
100
AcDbLine
 10
65.0483
 20
4.020909999999999
 30
0.0
 11
65.5193
 21
4.020909999999999
 31
0.0
  0
LINE
  5
292
330
1E
100
AcDbEntity
  8
0
100
AcDbLine
 10
65.0483
 20
4.020909999999999
 30
0.0
 11
65.15699999999999
 21
4.020909999999999
 31
0.0
  0
LINE
  5
293
330
1E
100
AcDbEntity
  8
0
100
AcDbLine
 10
65.0483
 20
4.020909999999999
 30
0.0
 11
65.0483
 21
4.372939999999999
 31
0.0
  0
LINE
  5
294
330
1E
100
AcDbEntity
  8
0
100
AcDbLine
 10
74.7858
 20
4.020909999999999
 30
0.0
 11
75.1871
 21
4.020909999999999
 31
0.0
  0
LINE
  5
295
330
1E
100
AcDbEntity
  8
0
100
AcDbLine
 10
74.7858
 20
4.020909999999999
 30
0.0
 11
74.94150000000001
 21
4.020909999999999
 31
0.0
  0
LINE
  5
296
330
1E
100
AcDbEntity
  8
0
100
AcDbLine
 10
74.7858
 20
4.020909999999999
 30
0.0
 11
74.7858
 21
4.22619333333333
 31
0.0
  0
LINE
  5
297
330
1E
100
AcDbEntity
  8
0
100
AcDbLine
 10
75.1871
 20
4.020909999999999
 30
0.0
 11
75.93259999999999
 21
4.020909999999999
 31
0.0
  0
LINE
  5
298
330
1E
100
AcDbEntity
  8
0
100
AcDbLine
 10
75.93259999999999
 20
4.020909999999999
 30
0.0
 11
76.57980000000001
 21
4.020909999999999
 31
0.0
  0
LINE
  5
299
330
1E
100
AcDbEntity
  8
0
100
AcDbLine
 10
84.184
 20
4.020909999999999
 30
0.0
 11
84.3398
 21
4.020909999999999
 31
0.0
  0
LINE
  5
29A
330
1E
100
AcDbEntity
  8
0
100
AcDbLine
 10
83.5368
 20
4.020909999999999
 30
0.0
 11
84.184
 21
4.020909999999999
 31
0.0
  0
LINE
  5
29B
330
1E
100
AcDbEntity
  8
0
100
AcDbLine
 10
82.7913
 20
4.020909999999999
 30
0.0
 11
83.5368
 21
4.020909999999999
 31
0.0
  0
LINE
  5
29C
330
1E
100
AcDbEntity
  8
0
100
AcDbLine
 10
78.90550000000001
 20
4.020909999999999
 30
0.0
 11
79.18829999999999
 21
4.020909999999999
 31
0.0
  0
LINE
  5
29D
330
1E
100
AcDbEntity
  8
0
100
AcDbLine
 10
78.90550000000001
 20
4.020909999999999
 30
0.0
 11
78.90550000000001
 21
4.36351666666666
 31
0.0
  0
LINE
  5
29E
330
1E
100
AcDbEntity
  8
0
100
AcDbLine
 10
79.18829999999999
 20
4.020909999999999
 30
0.0
 11
79.6311
 21
4.020909999999999
 31
0.0
  0
LINE
  5
29F
330
1E
100
AcDbEntity
  8
0
100
AcDbLine
 10
76.57980000000001
 20
4.020909999999999
 30
0.0
 11
76.73560000000001
 21
4.020909999999999
 31
0.0
  0
LINE
  5
2A0
330
1E
100
AcDbEntity
  8
0
100
AcDbLine
 10
76.3342
 20
4.020909999999999
 30
0.0
 11
76.73560000000001
 21
4.020909999999999
 31
0.0
  0
LINE
  5
2A1
330
1E
100
AcDbEntity
  8
0
100
AcDbLine
 10
82.39
 20
4.020909999999999
 30
0.0
 11
82.54569999999999
 21
4.020909999999999
 31
0.0
  0
LINE
  5
2A2
330
1E
100
AcDbEntity
  8
0
100
AcDbLine
 10
82.39
 20
4.020909999999999
 30
0.0
 11
82.7913
 21
4.020909999999999
 31
0.0
  0
LINE
  5
2A3
330
1E
100
AcDbEntity
  8
0
100
AcDbLine
 10
82.39
 20
4.020909999999999
 30
0.0
 11
82.39
 21
4.372939999999999
 31
0.0
  0
LINE
  5
2A4
330
1E
100
AcDbEntity
  8
0
100
AcDbLine
 10
82.54569999999999
 20
4.020909999999999
 30
0.0
 11
83.193
 21
4.020909999999999
 31
0.0
  0
LINE
  5
2A5
330
1E
100
AcDbEntity
  8
0
100
AcDbLine
 10
83.193
 20
4.020909999999999
 30
0.0
 11
83.9384
 21
4.020909999999999
 31
0.0
  0
LINE
  5
2A6
330
1E
100
AcDbEntity
  8
0
100
AcDbLine
 10
85.13339999999999
 20
4.020909999999999
 30
0.0
 11
85.64100000000001
 21
4.020909999999999
 31
0.0
  0
LINE
  5
2A7
330
1E
100
AcDbEntity
  8
0
100
AcDbLine
 10
85.13339999999999
 20
4.020909999999999
 30
0.0
 11
85.13339999999999
 21
4.629296969696969
 31
0.0
  0
LINE
  5
2A8
330
1E
100
AcDbEntity
  8
0
100
AcDbLine
 10
85.15730000000001
 20
4.020909999999999
 30
0.0
 11
85.72499999999999
 21
4.020909999999999
 31
0.0
  0
LINE
  5
2A9
330
1E
100
AcDbEntity
  8
0
100
AcDbLine
 10
85.72499999999999
 20
4.020909999999999
 30
0.0
 11
86.48619999999999
 21
4.020909999999999
 31
0.0
  0
LINE
  5
2AA
330
1E
100
AcDbEntity
  8
0
100
AcDbLine
 10
86.48619999999999
 20
4.020909999999999
 30
0.0
 11
86.99389999999999
 21
4.020909999999999
 31
0.0
  0
LINE
  5
2AB
330
1E
100
AcDbEntity
  8
0
100
AcDbLine
 10
86.40219999999999
 20
4.020909999999999
 30
0.0
 11
86.96989999999999
 21
4.020909999999999
 31
0.0
  0
LINE
  5
2AC
330
1E
100
AcDbEntity
  8
0
100
AcDbLine
 10
85.64100000000001
 20
4.020909999999999
 30
0.0
 11
86.40219999999999
 21
4.020909999999999
 31
0.0
  0
LINE
  5
2AD
330
1E
100
AcDbEntity
  8
0
100
AcDbLine
 10
87.05240000000001
 20
4.020909999999999
 30
0.0
 11
87.65089999999998
 21
4.020909999999999
 31
0.0
  0
LINE
  5
2AE
330
1E
100
AcDbEntity
  8
0
100
AcDbLine
 10
86.9438
 20
4.020909999999999
 30
0.0
 11
87.41469999999999
 21
4.020909999999999
 31
0.0
  0
LINE
  5
2AF
330
1E
100
AcDbEntity
  8
0
100
AcDbLine
 10
86.9438
 20
4.020909999999999
 30
0.0
 11
87.05240000000001
 21
4.020909999999999
 31
0.0
  0
LINE
  5
2B0
330
1E
100
AcDbEntity
  8
0
100
AcDbLine
 10
87.41469999999999
 20
4.020909999999999
 30
0.0
 11
88.1685
 21
4.020909999999999
 31
0.0
  0
LINE
  5
2B1
330
1E
100
AcDbEntity
  8
0
100
AcDbLine
 10
87.65089999999998
 20
4.020909999999999
 30
0.0
 11
88.40470000000001
 21
4.020909999999999
 31
0.0
  0
LINE
  5
2B2
330
1E
100
AcDbEntity
  8
0
100
AcDbLine
 10
83.9384
 20
4.020909999999999
 30
0.0
 11
84.3398
 21
4.020909999999999
 31
0.0
  0
LINE
  5
2B3
330
1E
100
AcDbEntity
  8
0
100
AcDbLine
 10
75.58880000000001
 20
4.020909999999999
 30
0.0
 11
76.3342
 21
4.020909999999999
 31
0.0
  0
LINE
  5
2B4
330
1E
100
AcDbEntity
  8
0
100
AcDbLine
 10
74.94150000000001
 20
4.020909999999999
 30
0.0
 11
75.58880000000001
 21
4.020909999999999
 31
0.0
  0
LINE
  5
2B5
330
1E
100
AcDbEntity
  8
0
100
AcDbLine
 10
87.8508
 20
4.020909999999999
 30
0.0
 11
88.08860000000001
 21
4.020909999999999
 31
0.0
  0
LINE
  5
2B6
330
1E
100
AcDbEntity
  8
0
100
AcDbLine
 10
87.8508
 20
4.020909999999999
 30
0.0
 11
88.8469
 21
4.020909999999999
 31
0.0
  0
LINE
  5
2B7
330
1E
100
AcDbEntity
  8
0
100
AcDbLine
 10
87.8508
 20
4.020909999999999
 30
0.0
 11
88.21060000000001
 21
4.020909999999999
 31
0.0
  0
LINE
  5
2B8
330
1E
100
AcDbEntity
  8
0
100
AcDbLine
 10
88.1685
 20
4.020909999999999
 30
0.0
 11
88.76700000000001
 21
4.020909999999999
 31
0.0
  0
LINE
  5
2B9
330
1E
100
AcDbEntity
  8
0
100
AcDbLine
 10
88.76700000000001
 20
4.020909999999999
 30
0.0
 11
88.8756
 21
4.020909999999999
 31
0.0
  0
LINE
  5
2BA
330
1E
100
AcDbEntity
  8
0
100
AcDbLine
 10
88.40470000000001
 20
4.020909999999999
 30
0.0
 11
88.8756
 21
4.020909999999999
 31
0.0
  0
LINE
  5
2BB
330
1E
100
AcDbEntity
  8
0
100
AcDbLine
 10
88.21060000000001
 20
4.020909999999999
 30
0.0
 11
88.8469
 21
4.020909999999999
 31
0.0
  0
LINE
  5
2BC
330
1E
100
AcDbEntity
  8
0
100
AcDbLine
 10
88.21060000000001
 20
4.020909999999999
 30
0.0
 11
88.93410000000001
 21
4.020909999999999
 31
0.0
  0
LINE
  5
2BD
330
1E
100
AcDbEntity
  8
0
100
AcDbLine
 10
88.08860000000001
 20
4.020909999999999
 30
0.0
 11
88.7598
 21
4.020909999999999
 31
0.0
  0
LINE
  5
2BE
330
1E
100
AcDbEntity
  8
0
100
AcDbLine
 10
88.08860000000001
 20
4.020909999999999
 30
0.0
 11
88.8469
 21
4.020909999999999
 31
0.0
  0
LINE
  5
2BF
330
1E
100
AcDbEntity
  8
0
100
AcDbLine
 10
88.7598
 20
4.020909999999999
 30
0.0
 11
88.8469
 21
4.020909999999999
 31
0.0
  0
LINE
  5
2C0
330
1E
100
AcDbEntity
  8
0
100
AcDbLine
 10
88.7598
 20
4.020909999999999
 30
0.0
 11
89.4833
 21
4.020909999999999
 31
0.0
  0
LINE
  5
2C1
330
1E
100
AcDbEntity
  8
0
100
AcDbLine
 10
89.4833
 20
4.020909999999999
 30
0.0
 11
89.8431
 21
4.020909999999999
 31
0.0
  0
LINE
  5
2C2
330
1E
100
AcDbEntity
  8
0
100
AcDbLine
 10
89.6053
 20
4.020909999999999
 30
0.0
 11
89.8431
 21
4.020909999999999
 31
0.0
  0
LINE
  5
2C3
330
1E
100
AcDbEntity
  8
0
100
AcDbLine
 10
88.93410000000001
 20
4.020909999999999
 30
0.0
 11
89.6053
 21
4.020909999999999
 31
0.0
  0
LINE
  5
2C4
330
1E
100
AcDbEntity
  8
0
100
AcDbLine
 10
87.05240000000001
 20
4.020909999999999
 30
0.0
 11
87.65089999999998
 21
4.020909999999999
 31
0.0
  0
LINE
  5
2C6
330
1E
100
AcDbEntity
  8
0
100
AcDbLine
 10
86.9438
 20
4.020909999999999
 30
0.0
 11
87.41469999999999
 21
4.020909999999999
 31
0.0
  0
LINE
  5
2C7
330
1E
100
AcDbEntity
  8
0
100
AcDbLine
 10
86.9438
 20
4.020909999999999
 30
0.0
 11
87.05240000000001
 21
4.020909999999999
 31
0.0
  0
LINE
  5
2C8
330
1E
100
AcDbEntity
  8
0
100
AcDbLine
 10
87.41469999999999
 20
4.020909999999999
 30
0.0
 11
88.1685
 21
4.020909999999999
 31
0.0
  0
LINE
  5
2C9
330
1E
100
AcDbEntity
  8
0
100
AcDbLine
 10
88.1685
 20
4.020909999999999
 30
0.0
 11
88.76700000000001
 21
4.020909999999999
 31
0.0
  0
LINE
  5
2CA
330
1E
100
AcDbEntity
  8
0
100
AcDbLine
 10
88.08860000000001
 20
4.020909999999999
 30
0.0
 11
88.8469
 21
4.020909999999999
 31
0.0
  0
LINE
  5
2CB
330
1E
100
AcDbEntity
  8
0
100
AcDbLine
 10
88.08860000000001
 20
4.020909999999999
 30
0.0
 11
88.7598
 21
4.020909999999999
 31
0.0
  0
LINE
  5
2CC
330
1E
100
AcDbEntity
  8
0
100
AcDbLine
 10
87.8508
 20
4.020909999999999
 30
0.0
 11
88.21060000000001
 21
4.020909999999999
 31
0.0
  0
LINE
  5
2CD
330
1E
100
AcDbEntity
  8
0
100
AcDbLine
 10
87.8508
 20
4.020909999999999
 30
0.0
 11
88.8469
 21
4.020909999999999
 31
0.0
  0
LINE
  5
2CE
330
1E
100
AcDbEntity
  8
0
100
AcDbLine
 10
87.8508
 20
4.020909999999999
 30
0.0
 11
88.08860000000001
 21
4.020909999999999
 31
0.0
  0
LINE
  5
2CF
330
1E
100
AcDbEntity
  8
0
100
AcDbLine
 10
74.7858
 20
4.020909999999999
 30
0.0
 11
75.1871
 21
4.020909999999999
 31
0.0
  0
LINE
  5
2D0
330
1E
100
AcDbEntity
  8
0
100
AcDbLine
 10
74.7858
 20
4.020909999999999
 30
0.0
 11
74.94150000000001
 21
4.020909999999999
 31
0.0
  0
LINE
  5
2D1
330
1E
100
AcDbEntity
  8
0
100
AcDbLine
 10
74.7858
 20
4.020909999999999
 30
0.0
 11
74.7858
 21
4.75951479289941
 31
0.0
  0
LINE
  5
2D2
330
1E
100
AcDbEntity
  8
0
100
AcDbLine
 10
75.1871
 20
4.020909999999999
 30
0.0
 11
75.93259999999999
 21
4.020909999999999
 31
0.0
  0
LINE
  5
2D3
330
1E
100
AcDbEntity
  8
0
100
AcDbLine
 10
75.93259999999999
 20
4.020909999999999
 30
0.0
 11
76.57980000000001
 21
4.020909999999999
 31
0.0
  0
LINE
  5
2D4
330
1E
100
AcDbEntity
  8
0
100
AcDbLine
 10
78.90550000000001
 20
4.020909999999999
 30
0.0
 11
79.18829999999999
 21
4.020909999999999
 31
0.0
  0
LINE
  5
2D5
330
1E
100
AcDbEntity
  8
0
100
AcDbLine
 10
78.90550000000001
 20
4.020909999999999
 30
0.0
 11
78.90550000000001
 21
4.77633620689655
 31
0.0
  0
LINE
  5
2D6
330
1E
100
AcDbEntity
  8
0
100
AcDbLine
 10
79.18829999999999
 20
4.020909999999999
 30
0.0
 11
79.89539999999999
 21
4.020909999999999
 31
0.0
  0
LINE
  5
2D8
330
1E
100
AcDbEntity
  8
0
100
AcDbLine
 10
76.73560000000001
 20
4.020909999999999
 30
0.0
 11
76.73560000000001
 21
4.372939999999999
 31
0.0
  0
LINE
  5
2D9
330
1E
100
AcDbEntity
  8
0
100
AcDbLine
 10
76.57980000000001
 20
4.020909999999999
 30
0.0
 11
76.73560000000001
 21
4.020909999999999
 31
0.0
  0
LINE
  5
2DA
330
1E
100
AcDbEntity
  8
0
100
AcDbLine
 10
76.3342
 20
4.020909999999999
 30
0.0
 11
76.73560000000001
 21
4.020909999999999
 31
0.0
  0
LINE
  5
2DC
330
1E
100
AcDbEntity
  8
0
100
AcDbLine
 10
75.58880000000001
 20
4.020909999999999
 30
0.0
 11
76.3342
 21
4.020909999999999
 31
0.0
  0
LINE
  5
2DE
330
1E
100
AcDbEntity
  8
0
100
AcDbLine
 10
74.94150000000001
 20
4.020909999999999
 30
0.0
 11
75.58880000000001
 21
4.020909999999999
 31
0.0
  0
LINE
  5
2E0
330
1E
100
AcDbEntity
  8
0
100
AcDbLine
 10
79.89539999999999
 20
4.020909999999999
 30
0.0
 11
80.60250000000001
 21
4.020909999999999
 31
0.0
  0
LINE
  5
2E3
330
1E
100
AcDbEntity
  8
0
100
AcDbLine
 10
74.7858
 20
4.22619333333333
 30
0.0
 11
74.7858
 21
4.020909999999999
 31
0.0
  0
LINE
  5
2E4
330
1E
100
AcDbEntity
  8
0
100
AcDbLine
 10
79.6311
 20
4.020909999999999
 30
0.0
 11
79.6311
 21
3.668869
 31
0.0
  0
LINE
  5
2E5
330
1E
100
AcDbEntity
  8
0
100
AcDbLine
 10
79.6311
 20
4.020909999999999
 30
0.0
 11
79.6311
 21
3.668869
 31
0.0
  0
LINE
  5
2E6
330
1E
100
AcDbEntity
  8
0
100
AcDbLine
 10
82.54569999999999
 20
4.020909999999999
 30
0.0
 11
83.193
 21
4.020909999999999
 31
0.0
  0
LINE
  5
2E7
330
1E
100
AcDbEntity
  8
0
100
AcDbLine
 10
85.13339999999999
 20
4.020909999999999
 30
0.0
 11
85.64100000000001
 21
4.020909999999999
 31
0.0
  0
LINE
  5
2E8
330
1E
100
AcDbEntity
  8
0
100
AcDbLine
 10
85.13339999999999
 20
4.020909999999999
 30
0.0
 11
85.13339999999999
 21
4.8826338028169
 31
0.0
  0
LINE
  5
2E9
330
1E
100
AcDbEntity
  8
0
100
AcDbLine
 10
85.15730000000001
 20
4.020909999999999
 30
0.0
 11
85.72499999999999
 21
4.020909999999999
 31
0.0
  0
LINE
  5
2EA
330
1E
100
AcDbEntity
  8
0
100
AcDbLine
 10
85.72499999999999
 20
4.020909999999999
 30
0.0
 11
86.48619999999999
 21
4.020909999999999
 31
0.0
  0
LINE
  5
2EC
330
1E
100
AcDbEntity
  8
0
100
AcDbLine
 10
86.48619999999999
 20
4.020909999999999
 30
0.0
 11
86.99389999999999
 21
4.020909999999999
 31
0.0
  0
LINE
  5
2ED
330
1E
100
AcDbEntity
  8
0
100
AcDbLine
 10
86.96989999999999
 20
4.020909999999999
 30
0.0
 11
86.96989999999999
 21
4.372939999999999
 31
0.0
  0
LINE
  5
2EE
330
1E
100
AcDbEntity
  8
0
100
AcDbLine
 10
86.40219999999999
 20
4.020909999999999
 30
0.0
 11
86.96989999999999
 21
4.020909999999999
 31
0.0
  0
LINE
  5
2F0
330
1E
100
AcDbEntity
  8
0
100
AcDbLine
 10
85.64100000000001
 20
4.020909999999999
 30
0.0
 11
86.40219999999999
 21
4.020909999999999
 31
0.0
  0
LINE
  5
2F2
330
1E
100
AcDbEntity
  8
0
100
AcDbLine
 10
83.193
 20
4.020909999999999
 30
0.0
 11
83.9384
 21
4.020909999999999
 31
0.0
  0
LINE
  5
2F3
330
1E
100
AcDbEntity
  8
0
100
AcDbLine
 10
83.9384
 20
4.020909999999999
 30
0.0
 11
84.3398
 21
4.020909999999999
 31
0.0
  0
LINE
  5
2F4
330
1E
100
AcDbEntity
  8
0
100
AcDbLine
 10
88.40470000000001
 20
4.020909999999999
 30
0.0
 11
88.8756
 21
4.020909999999999
 31
0.0
  0
LINE
  5
2F6
330
1E
100
AcDbEntity
  8
0
100
AcDbLine
 10
82.39
 20
4.020909999999999
 30
0.0
 11
82.54569999999999
 21
4.020909999999999
 31
0.0
  0
LINE
  5
2F7
330
1E
100
AcDbEntity
  8
0
100
AcDbLine
 10
82.39
 20
4.020909999999999
 30
0.0
 11
82.7913
 21
4.020909999999999
 31
0.0
  0
LINE
  5
2F8
330
1E
100
AcDbEntity
  8
0
100
AcDbLine
 10
82.39
 20
4.020909999999999
 30
0.0
 11
82.39
 21
4.372939999999999
 31
0.0
  0
LINE
  5
2F9
330
1E
100
AcDbEntity
  8
0
100
AcDbLine
 10
84.3398
 20
4.020909999999999
 30
0.0
 11
84.3398
 21
4.97471428571428
 31
0.0
  0
LINE
  5
2FA
330
1E
100
AcDbEntity
  8
0
100
AcDbLine
 10
84.184
 20
4.020909999999999
 30
0.0
 11
84.3398
 21
4.020909999999999
 31
0.0
  0
LINE
  5
2FC
330
1E
100
AcDbEntity
  8
0
100
AcDbLine
 10
83.5368
 20
4.020909999999999
 30
0.0
 11
84.184
 21
4.020909999999999
 31
0.0
  0
LINE
  5
2FE
330
1E
100
AcDbEntity
  8
0
100
AcDbLine
 10
82.7913
 20
4.020909999999999
 30
0.0
 11
83.5368
 21
4.020909999999999
 31
0.0
  0
LINE
  5
300
330
1E
100
AcDbEntity
  8
0
100
AcDbLine
 10
80.8854
 20
4.020909999999999
 30
0.0
 11
80.8854
 21
4.947017241379309
 31
0.0
  0
LINE
  5
301
330
1E
100
AcDbEntity
  8
0
100
AcDbLine
 10
80.60250000000001
 20
4.020909999999999
 30
0.0
 11
80.8854
 21
4.020909999999999
 31
0.0
  0
LINE
  5
303
330
1E
100
AcDbEntity
  8
0
100
AcDbLine
 10
87.65089999999998
 20
4.020909999999999
 30
0.0
 11
88.40470000000001
 21
4.020909999999999
 31
0.0
  0
LINE
  5
306
330
1E
100
AcDbEntity
  8
0
100
AcDbLine
 10
88.21060000000001
 20
4.020909999999999
 30
0.0
 11
88.93410000000001
 21
4.020909999999999
 31
0.0
  0
LINE
  5
307
330
1E
100
AcDbEntity
  8
0
100
AcDbLine
 10
88.21060000000001
 20
4.020909999999999
 30
0.0
 11
88.8469
 21
4.020909999999999
 31
0.0
  0
LINE
  5
309
330
1E
100
AcDbEntity
  8
0
100
AcDbLine
 10
88.76700000000001
 20
4.020909999999999
 30
0.0
 11
88.8756
 21
4.020909999999999
 31
0.0
  0
LINE
  5
30A
330
1E
100
AcDbEntity
  8
0
100
AcDbLine
 10
88.93410000000001
 20
4.020909999999999
 30
0.0
 11
89.6053
 21
4.020909999999999
 31
0.0
  0
LINE
  5
30B
330
1E
100
AcDbEntity
  8
0
100
AcDbLine
 10
89.8431
 20
4.020909999999999
 30
0.0
 11
89.8431
 21
4.94500574712644
 31
0.0
  0
LINE
  5
30C
330
1E
100
AcDbEntity
  8
0
100
AcDbLine
 10
89.6053
 20
4.020909999999999
 30
0.0
 11
89.8431
 21
4.020909999999999
 31
0.0
  0
LINE
  5
30D
330
1E
100
AcDbEntity
  8
0
100
AcDbLine
 10
89.4833
 20
4.020909999999999
 30
0.0
 11
89.8431
 21
4.020909999999999
 31
0.0
  0
LINE
  5
30F
330
1E
100
AcDbEntity
  8
0
100
AcDbLine
 10
88.8469
 20
4.020909999999999
 30
0.0
 11
89.4833
 21
4.020909999999999
 31
0.0
  0
LINE
  5
310
330
1E
100
AcDbEntity
  8
0
100
AcDbLine
 10
88.8469
 20
4.020909999999999
 30
0.0
 11
89.8431
 21
4.020909999999999
 31
0.0
  0
LINE
  5
311
330
1E
100
AcDbEntity
  8
0
100
AcDbLine
 10
88.8469
 20
4.020909999999999
 30
0.0
 11
89.6053
 21
4.020909999999999
 31
0.0
  0
LINE
  5
312
330
1E
100
AcDbEntity
  8
0
100
AcDbLine
 10
88.8469
 20
4.020909999999999
 30
0.0
 11
88.93410000000001
 21
4.020909999999999
 31
0.0
  0
LINE
  5
313
330
1E
100
AcDbEntity
  8
0
100
AcDbLine
 10
88.7598
 20
4.020909999999999
 30
0.0
 11
88.8469
 21
4.020909999999999
 31
0.0
  0
LINE
  5
314
330
1E
100
AcDbEntity
  8
0
100
AcDbLine
 10
88.7598
 20
4.020909999999999
 30
0.0
 11
89.4833
 21
4.020909999999999
 31
0.0
  0
LINE
  5
315
330
1E
100
AcDbEntity
  8
0
100
AcDbLine
 10
88.8469
 20
4.020909999999999
 30
0.0
 11
88.93410000000001
 21
4.020909999999999
 31
0.0
  0
LINE
  5
316
330
1E
100
AcDbEntity
  8
0
100
AcDbLine
 10
88.8469
 20
4.020909999999999
 30
0.0
 11
89.6053
 21
4.020909999999999
 31
0.0
  0
LINE
  5
317
330
1E
100
AcDbEntity
  8
0
100
AcDbLine
 10
88.8469
 20
4.020909999999999
 30
0.0
 11
89.8431
 21
4.020909999999999
 31
0.0
  0
LINE
  5
318
330
1E
100
AcDbEntity
  8
0
100
AcDbLine
 10
88.8469
 20
4.020909999999999
 30
0.0
 11
89.4833
 21
4.020909999999999
 31
0.0
  0
LINE
  5
319
330
1E
100
AcDbEntity
  8
0
100
AcDbLine
 10
73.84619999999999
 20
4.19487333333333
 30
0.0
 11
74.7858
 21
4.22619333333333
 31
0.0
  0
LINE
  5
31A
330
1E
100
AcDbEntity
  8
0
100
AcDbLine
 10
68.0
 20
4.0
 30
0.0
 11
68.23229999999999
 21
4.00774333333333
 31
0.0
  0
LINE
  5
31B
330
1E
100
AcDbEntity
  8
0
100
AcDbLine
 10
47.76769999999999
 20
4.00774333333333
 30
0.0
 11
48.0
 21
4.0
 31
0.0
  0
LINE
  5
31C
330
1E
100
AcDbEntity
  8
0
100
AcDbLine
 10
18.6077
 20
4.372939999999999
 30
0.0
 11
19.0247
 21
4.372939999999999
 31
0.0
  0
LINE
  5
31D
330
1E
100
AcDbEntity
  8
0
100
AcDbLine
 10
18.6077
 20
4.372939999999999
 30
0.0
 11
18.7816
 21
4.372939999999999
 31
0.0
  0
LINE
  5
31E
330
1E
100
AcDbEntity
  8
0
100
AcDbLine
 10
18.7816
 20
4.372939999999999
 30
0.0
 11
19.4188
 21
4.372939999999999
 31
0.0
  0
LINE
  5
31F
330
1E
100
AcDbEntity
  8
0
100
AcDbLine
 10
18.7816
 20
4.372939999999999
 30
0.0
 11
19.4188
 21
4.372939999999999
 31
0.0
  0
LINE
  5
320
330
1E
100
AcDbEntity
  8
0
100
AcDbLine
 10
18.6077
 20
4.372939999999999
 30
0.0
 11
19.0247
 21
4.372939999999999
 31
0.0
  0
LINE
  5
321
330
1E
100
AcDbEntity
  8
0
100
AcDbLine
 10
18.6077
 20
4.372939999999999
 30
0.0
 11
18.7816
 21
4.372939999999999
 31
0.0
  0
LINE
  5
323
330
1E
100
AcDbEntity
  8
0
100
AcDbLine
 10
18.0
 20
4.372939999999999
 30
0.0
 11
18.3
 21
4.372939999999999
 31
0.0
  0
LINE
  5
324
330
1E
100
AcDbEntity
  8
0
100
AcDbLine
 10
18.0
 20
4.372939999999999
 30
0.0
 11
19.0
 21
4.372939999999999
 31
0.0
  0
LINE
  5
325
330
1E
100
AcDbEntity
  8
0
100
AcDbLine
 10
18.0
 20
4.372939999999999
 30
0.0
 11
18.0
 21
5.413793103448269
 31
0.0
  0
LINE
  5
326
330
1E
100
AcDbEntity
  8
0
100
AcDbLine
 10
19.0247
 20
4.372939999999999
 30
0.0
 11
19.7661
 21
4.372939999999999
 31
0.0
  0
LINE
  5
327
330
1E
100
AcDbEntity
  8
0
100
AcDbLine
 10
19.7661
 20
4.372939999999999
 30
0.0
 11
20.4034
 21
4.372939999999999
 31
0.0
  0
LINE
  5
328
330
1E
100
AcDbEntity
  8
0
100
AcDbLine
 10
20.1603
 20
4.372939999999999
 30
0.0
 11
20.5773
 21
4.372939999999999
 31
0.0
  0
LINE
  5
329
330
1E
100
AcDbEntity
  8
0
100
AcDbLine
 10
19.4188
 20
4.372939999999999
 30
0.0
 11
20.1603
 21
4.372939999999999
 31
0.0
  0
LINE
  5
32A
330
1E
100
AcDbEntity
  8
0
100
AcDbLine
 10
19.7661
 20
4.372939999999999
 30
0.0
 11
20.4034
 21
4.372939999999999
 31
0.0
  0
LINE
  5
32C
330
1E
100
AcDbEntity
  8
0
100
AcDbLine
 10
20.45479999999999
 20
4.372939999999999
 30
0.0
 11
21.01
 21
4.372939999999999
 31
0.0
  0
LINE
  5
32D
330
1E
100
AcDbEntity
  8
0
100
AcDbLine
 10
20.4123
 20
4.372939999999999
 30
0.0
 11
20.9336
 21
4.372939999999999
 31
0.0
  0
LINE
  5
32E
330
1E
100
AcDbEntity
  8
0
100
AcDbLine
 10
20.4034
 20
4.372939999999999
 30
0.0
 11
20.5773
 21
4.372939999999999
 31
0.0
  0
LINE
  5
32F
330
1E
100
AcDbEntity
  8
0
100
AcDbLine
 10
21.694
 20
4.372939999999999
 30
0.0
 11
22.2492
 21
4.372939999999999
 31
0.0
  0
LINE
  5
330
330
1E
100
AcDbEntity
  8
0
100
AcDbLine
 10
23.2688
 20
4.372939999999999
 30
0.0
 11
23.359
 21
4.372939999999999
 31
0.0
  0
LINE
  5
331
330
1E
100
AcDbEntity
  8
0
100
AcDbLine
 10
23.2688
 20
4.372939999999999
 30
0.0
 11
23.725
 21
4.372939999999999
 31
0.0
  0
LINE
  5
332
330
1E
100
AcDbEntity
  8
0
100
AcDbLine
 10
23.2688
 20
4.372939999999999
 30
0.0
 11
23.2688
 21
5.08976969696969
 31
0.0
  0
LINE
  5
333
330
1E
100
AcDbEntity
  8
0
100
AcDbLine
 10
23.725
 20
4.372939999999999
 30
0.0
 11
24.4812
 21
4.372939999999999
 31
0.0
  0
LINE
  5
334
330
1E
100
AcDbEntity
  8
0
100
AcDbLine
 10
23.359
 20
4.372939999999999
 30
0.0
 11
23.9688
 21
4.372939999999999
 31
0.0
  0
LINE
  5
335
330
1E
100
AcDbEntity
  8
0
100
AcDbLine
 10
24.725
 20
4.372939999999999
 30
0.0
 11
25.1812
 21
4.372939999999999
 31
0.0
  0
LINE
  5
336
330
1E
100
AcDbEntity
  8
0
100
AcDbLine
 10
25.091
 20
4.372939999999999
 30
0.0
 11
25.1812
 21
4.372939999999999
 31
0.0
  0
LINE
  5
337
330
1E
100
AcDbEntity
  8
0
100
AcDbLine
 10
24.4812
 20
4.372939999999999
 30
0.0
 11
25.091
 21
4.372939999999999
 31
0.0
  0
LINE
  5
338
330
1E
100
AcDbEntity
  8
0
100
AcDbLine
 10
23.9688
 20
4.372939999999999
 30
0.0
 11
24.725
 21
4.372939999999999
 31
0.0
  0
LINE
  5
339
330
1E
100
AcDbEntity
  8
0
100
AcDbLine
 10
21.77039999999999
 20
4.372939999999999
 30
0.0
 11
22.29169999999999
 21
4.372939999999999
 31
0.0
  0
LINE
  5
33A
330
1E
100
AcDbEntity
  8
0
100
AcDbLine
 10
21.01
 20
4.372939999999999
 30
0.0
 11
21.77039999999999
 21
4.372939999999999
 31
0.0
  0
LINE
  5
33B
330
1E
100
AcDbEntity
  8
0
100
AcDbLine
 10
20.9336
 20
4.372939999999999
 30
0.0
 11
21.694
 21
4.372939999999999
 31
0.0
  0
LINE
  5
33C
330
1E
100
AcDbEntity
  8
0
100
AcDbLine
 10
20.4034
 20
4.372939999999999
 30
0.0
 11
20.5773
 21
4.372939999999999
 31
0.0
  0
LINE
  5
33E
330
1E
100
AcDbEntity
  8
0
100
AcDbLine
 10
20.1603
 20
4.372939999999999
 30
0.0
 11
20.5773
 21
4.372939999999999
 31
0.0
  0
LINE
  5
33F
330
1E
100
AcDbEntity
  8
0
100
AcDbLine
 10
19.4188
 20
4.372939999999999
 30
0.0
 11
20.1603
 21
4.372939999999999
 31
0.0
  0
LINE
  5
340
330
1E
100
AcDbEntity
  8
0
100
AcDbLine
 10
19.0247
 20
4.372939999999999
 30
0.0
 11
19.7661
 21
4.372939999999999
 31
0.0
  0
LINE
  5
342
330
1E
100
AcDbEntity
  8
0
100
AcDbLine
 10
19.69999999999999
 20
4.372939999999999
 30
0.0
 11
20.0
 21
4.372939999999999
 31
0.0
  0
LINE
  5
343
330
1E
100
AcDbEntity
  8
0
100
AcDbLine
 10
19.0
 20
4.372939999999999
 30
0.0
 11
19.69999999999999
 21
4.372939999999999
 31
0.0
  0
LINE
  5
344
330
1E
100
AcDbEntity
  8
0
100
AcDbLine
 10
19.0
 20
4.372939999999999
 30
0.0
 11
20.0
 21
4.372939999999999
 31
0.0
  0
LINE
  5
345
330
1E
100
AcDbEntity
  8
0
100
AcDbLine
 10
21.694
 20
4.372939999999999
 30
0.0
 11
22.2492
 21
4.372939999999999
 31
0.0
  0
LINE
  5
347
330
1E
100
AcDbEntity
  8
0
100
AcDbLine
 10
22.29169999999999
 20
4.372939999999999
 30
0.0
 11
22.29169999999999
 21
5.265480874316939
 31
0.0
  0
LINE
  5
349
330
1E
100
AcDbEntity
  8
0
100
AcDbLine
 10
21.77039999999999
 20
4.372939999999999
 30
0.0
 11
22.29169999999999
 21
4.372939999999999
 31
0.0
  0
LINE
  5
34A
330
1E
100
AcDbEntity
  8
0
100
AcDbLine
 10
21.01
 20
4.372939999999999
 30
0.0
 11
21.77039999999999
 21
4.372939999999999
 31
0.0
  0
LINE
  5
34B
330
1E
100
AcDbEntity
  8
0
100
AcDbLine
 10
20.45479999999999
 20
4.372939999999999
 30
0.0
 11
21.01
 21
4.372939999999999
 31
0.0
  0
LINE
  5
34C
330
1E
100
AcDbEntity
  8
0
100
AcDbLine
 10
20.4123
 20
4.372939999999999
 30
0.0
 11
20.9336
 21
4.372939999999999
 31
0.0
  0
LINE
  5
34E
330
1E
100
AcDbEntity
  8
0
100
AcDbLine
 10
20.9336
 20
4.372939999999999
 30
0.0
 11
21.694
 21
4.372939999999999
 31
0.0
  0
LINE
  5
350
330
1E
100
AcDbEntity
  8
0
100
AcDbLine
 10
23.725
 20
4.372939999999999
 30
0.0
 11
24.4812
 21
4.372939999999999
 31
0.0
  0
LINE
  5
351
330
1E
100
AcDbEntity
  8
0
100
AcDbLine
 10
23.2688
 20
4.372939999999999
 30
0.0
 11
23.359
 21
4.372939999999999
 31
0.0
  0
LINE
  5
352
330
1E
100
AcDbEntity
  8
0
100
AcDbLine
 10
23.2688
 20
4.372939999999999
 30
0.0
 11
23.725
 21
4.372939999999999
 31
0.0
  0
LINE
  5
353
330
1E
100
AcDbEntity
  8
0
100
AcDbLine
 10
23.2688
 20
4.372939999999999
 30
0.0
 11
23.2688
 21
5.41769014084507
 31
0.0
  0
LINE
  5
354
330
1E
100
AcDbEntity
  8
0
100
AcDbLine
 10
23.2688
 20
5.08976969696969
 30
0.0
 11
23.2688
 21
4.372939999999999
 31
0.0
  0
LINE
  5
355
330
1E
100
AcDbEntity
  8
0
100
AcDbLine
 10
23.359
 20
4.372939999999999
 30
0.0
 11
23.9688
 21
4.372939999999999
 31
0.0
  0
LINE
  5
357
330
1E
100
AcDbEntity
  8
0
100
AcDbLine
 10
24.725
 20
4.372939999999999
 30
0.0
 11
25.1812
 21
4.372939999999999
 31
0.0
  0
LINE
  5
359
330
1E
100
AcDbEntity
  8
0
100
AcDbLine
 10
25.1812
 20
4.372939999999999
 30
0.0
 11
25.1812
 21
5.330703296703299
 31
0.0
  0
LINE
  5
35A
330
1E
100
AcDbEntity
  8
0
100
AcDbLine
 10
25.091
 20
4.372939999999999
 30
0.0
 11
25.1812
 21
4.372939999999999
 31
0.0
  0
LINE
  5
35B
330
1E
100
AcDbEntity
  8
0
100
AcDbLine
 10
24.4812
 20
4.372939999999999
 30
0.0
 11
25.091
 21
4.372939999999999
 31
0.0
  0
LINE
  5
35C
330
1E
100
AcDbEntity
  8
0
100
AcDbLine
 10
23.9688
 20
4.372939999999999
 30
0.0
 11
24.725
 21
4.372939999999999
 31
0.0
  0
LINE
  5
35E
330
1E
100
AcDbEntity
  8
0
100
AcDbLine
 10
18.3
 20
4.372939999999999
 30
0.0
 11
19.0
 21
4.372939999999999
 31
0.0
  0
LINE
  5
360
330
1E
100
AcDbEntity
  8
0
100
AcDbLine
 10
25.1812
 20
4.973866666666669
 30
0.0
 11
26.1569
 21
4.914733333333329
 31
0.0
  0
LINE
  5
362
330
1E
100
AcDbEntity
  8
0
100
AcDbLine
 10
22.29169999999999
 20
5.265480874316939
 30
0.0
 11
22.29169999999999
 21
4.372939999999999
 31
0.0
  0
LINE
  5
366
330
1E
100
AcDbEntity
  8
0
100
AcDbLine
 10
25.1812
 20
5.330703296703299
 30
0.0
 11
25.1812
 21
4.372939999999999
 31
0.0
  0
LINE
  5
368
330
1E
100
AcDbEntity
  8
0
100
AcDbLine
 10
23.2688
 20
5.41769014084507
 30
0.0
 11
23.2688
 21
4.372939999999999
 31
0.0
  0
LINE
  5
36E
330
1E
100
AcDbEntity
  8
0
100
AcDbLine
 10
18.0
 20
5.413793103448269
 30
0.0
 11
18.0
 21
4.372939999999999
 31
0.0
  0
LINE
  5
36F
330
1E
100
AcDbEntity
  8
0
100
AcDbLine
 10
22.29169999999999
 20
5.148987878787879
 30
0.0
 11
23.2688
 21
5.08976969696969
 31
0.0
  0
LINE
  5
371
330
1E
100
AcDbEntity
  8
0
100
AcDbLine
 10
27.4815
 20
4.372939999999999
 30
0.0
 11
28.21049999999999
 21
4.372939999999999
 31
0.0
  0
LINE
  5
372
330
1E
100
AcDbEntity
  8
0
100
AcDbLine
 10
27.1381
 20
4.372939999999999
 30
0.0
 11
27.3582
 21
4.372939999999999
 31
0.0
  0
LINE
  5
373
330
1E
100
AcDbEntity
  8
0
100
AcDbLine
 10
27.1381
 20
4.372939999999999
 30
0.0
 11
27.4815
 21
4.372939999999999
 31
0.0
  0
LINE
  5
375
330
1E
100
AcDbEntity
  8
0
100
AcDbLine
 10
27.3582
 20
4.372939999999999
 30
0.0
 11
28.038
 21
4.372939999999999
 31
0.0
  0
LINE
  5
378
330
1E
100
AcDbEntity
  8
0
100
AcDbLine
 10
33.6973
 20
4.372939999999999
 30
0.0
 11
33.9175
 21
4.372939999999999
 31
0.0
  0
LINE
  5
379
330
1E
100
AcDbEntity
  8
0
100
AcDbLine
 10
33.61
 20
4.372939999999999
 30
0.0
 11
33.6973
 21
4.372939999999999
 31
0.0
  0
LINE
  5
37A
330
1E
100
AcDbEntity
  8
0
100
AcDbLine
 10
33.61
 20
4.372939999999999
 30
0.0
 11
33.9175
 21
4.372939999999999
 31
0.0
  0
LINE
  5
37D
330
1E
100
AcDbEntity
  8
0
100
AcDbLine
 10
28.9476
 20
4.372939999999999
 30
0.0
 11
28.9476
 21
4.020909999999999
 31
0.0
  0
LINE
  5
37E
330
1E
100
AcDbEntity
  8
0
100
AcDbLine
 10
29.11039999999999
 20
4.372939999999999
 30
0.0
 11
29.11039999999999
 21
5.46462068965517
 31
0.0
  0
LINE
  5
37F
330
1E
100
AcDbEntity
  8
0
100
AcDbLine
 10
28.89029999999999
 20
4.372939999999999
 30
0.0
 11
29.11039999999999
 21
4.372939999999999
 31
0.0
  0
LINE
  5
380
330
1E
100
AcDbEntity
  8
0
100
AcDbLine
 10
32.1652
 20
4.372939999999999
 30
0.0
 11
32.84499999999999
 21
4.372939999999999
 31
0.0
  0
LINE
  5
381
330
1E
100
AcDbEntity
  8
0
100
AcDbLine
 10
31.9451
 20
4.372939999999999
 30
0.0
 11
32.28849999999999
 21
4.372939999999999
 31
0.0
  0
LINE
  5
382
330
1E
100
AcDbEntity
  8
0
100
AcDbLine
 10
31.9451
 20
4.372939999999999
 30
0.0
 11
32.1652
 21
4.372939999999999
 31
0.0
  0
LINE
  5
383
330
1E
100
AcDbEntity
  8
0
100
AcDbLine
 10
31.9451
 20
4.372939999999999
 30
0.0
 11
31.9451
 21
5.5
 31
0.0
  0
LINE
  5
386
330
1E
100
AcDbEntity
  8
0
100
AcDbLine
 10
33.61
 20
4.372939999999999
 30
0.0
 11
33.61
 21
4.020909999999999
 31
0.0
  0
LINE
  5
387
330
1E
100
AcDbEntity
  8
0
100
AcDbLine
 10
33.9175
 20
4.372939999999999
 30
0.0
 11
33.9175
 21
5.19127218934911
 31
0.0
  0
LINE
  5
388
330
1E
100
AcDbEntity
  8
0
100
AcDbLine
 10
33.6973
 20
4.372939999999999
 30
0.0
 11
33.9175
 21
4.372939999999999
 31
0.0
  0
LINE
  5
38A
330
1E
100
AcDbEntity
  8
0
100
AcDbLine
 10
33.5741
 20
4.372939999999999
 30
0.0
 11
33.9175
 21
4.372939999999999
 31
0.0
  0
LINE
  5
38B
330
1E
100
AcDbEntity
  8
0
100
AcDbLine
 10
32.84499999999999
 20
4.372939999999999
 30
0.0
 11
33.5741
 21
4.372939999999999
 31
0.0
  0
LINE
  5
38C
330
1E
100
AcDbEntity
  8
0
100
AcDbLine
 10
32.28849999999999
 20
4.372939999999999
 30
0.0
 11
33.0176
 21
4.372939999999999
 31
0.0
  0
LINE
  5
38E
330
1E
100
AcDbEntity
  8
0
100
AcDbLine
 10
31.6602
 20
4.581199999999999
 30
0.0
 11
31.6602
 21
4.020909999999999
 31
0.0
  0
LINE
  5
38F
330
1E
100
AcDbEntity
  8
0
100
AcDbLine
 10
33.0176
 20
4.372939999999999
 30
0.0
 11
33.6973
 21
4.372939999999999
 31
0.0
  0
LINE
  5
391
330
1E
100
AcDbEntity
  8
0
100
AcDbLine
 10
28.7671
 20
4.372939999999999
 30
0.0
 11
29.11039999999999
 21
4.372939999999999
 31
0.0
  0
LINE
  5
393
330
1E
100
AcDbEntity
  8
0
100
AcDbLine
 10
28.21049999999999
 20
4.372939999999999
 30
0.0
 11
28.89029999999999
 21
4.372939999999999
 31
0.0
  0
LINE
  5
394
330
1E
100
AcDbEntity
  8
0
100
AcDbLine
 10
28.038
 20
4.372939999999999
 30
0.0
 11
28.7671
 21
4.372939999999999
 31
0.0
  0
LINE
  5
396
330
1E
100
AcDbEntity
  8
0
100
AcDbLine
 10
26.1569
 20
4.914733333333329
 30
0.0
 11
26.1569
 21
4.020909999999999
 31
0.0
  0
LINE
  5
398
330
1E
100
AcDbEntity
  8
0
100
AcDbLine
 10
26.1569
 20
4.945005747126429
 30
0.0
 11
26.1569
 21
4.020909999999999
 31
0.0
  0
LINE
  5
39A
330
1E
100
AcDbEntity
  8
0
100
AcDbLine
 10
30.8666
 20
4.8826338028169
 30
0.0
 11
30.8666
 21
4.020909999999999
 31
0.0
  0
LINE
  5
39D
330
1E
100
AcDbEntity
  8
0
100
AcDbLine
 10
31.6602
 20
4.97471428571428
 30
0.0
 11
31.6602
 21
4.020909999999999
 31
0.0
  0
LINE
  5
39F
330
1E
100
AcDbEntity
  8
0
100
AcDbLine
 10
33.9175
 20
5.19127218934911
 30
0.0
 11
33.9175
 21
4.372939999999999
 31
0.0
  0
LINE
  5
3A0
330
1E
100
AcDbEntity
  8
0
100
AcDbLine
 10
29.11039999999999
 20
5.46462068965517
 30
0.0
 11
29.11039999999999
 21
4.372939999999999
 31
0.0
  0
LINE
  5
3A2
330
1E
100
AcDbEntity
  8
0
100
AcDbLine
 10
30.8666
 20
4.629296969696969
 30
0.0
 11
31.6602
 21
4.581199999999999
 31
0.0
  0
LINE
  5
3A3
330
1E
100
AcDbEntity
  8
0
100
AcDbLine
 10
25.1812
 20
4.97386666666666
 30
0.0
 11
26.1569
 21
4.914733333333329
 31
0.0
  0
LINE
  5
3A4
330
1E
100
AcDbEntity
  8
0
100
AcDbLine
 10
11.16724
 20
6.25274
 30
0.0
 11
12.0671376896167
 21
6.75971738622995
 31
0.0
  0
LINE
  5
3A5
330
1E
100
AcDbEntity
  8
0
100
AcDbLine
 10
11.16724
 20
6.224409999999999
 30
0.0
 11
12.07490484651249
 21
6.755057092092481
 31
0.0
  0
LINE
  5
3A6
330
1E
100
AcDbEntity
  8
0
100
AcDbLine
 10
14.69999999999999
 20
15.5
 30
0.0
 11
22.7
 21
15.5
 31
0.0
  0
LINE
  5
3A7
330
1E
100
AcDbEntity
  8
0
100
AcDbLine
 10
12.0671376896167
 20
6.75971738622995
 30
0.0
 11
12.5
 21
6.5
 31
0.0
  0
LINE
  5
3A8
330
1E
100
AcDbEntity
  8
0
100
AcDbLine
 10
12.5
 20
6.5
 30
0.0
 11
15.0
 21
6.0
 31
0.0
  0
LINE
  5
3AC
330
1E
100
AcDbEntity
  8
0
100
AcDbLine
 10
31.9451
 20
5.5
 30
0.0
 11
31.9451
 21
4.372939999999999
 31
0.0
  0
LINE
  5
3B2
330
1E
100
AcDbEntity
  8
0
100
AcDbLine
 10
22.7
 20
15.5
 30
0.0
 11
33.1
 21
15.5
 31
0.0
  0
LINE
  5
3B3
330
1E
100
AcDbEntity
  8
0
100
AcDbLine
 10
33.1
 20
15.5
 30
0.0
 11
45.2
 21
15.5
 31
0.0
  0
LINE
  5
3B4
330
1E
100
AcDbEntity
  8
0
100
AcDbLine
 10
15.0
 20
6.0
 30
0.0
 11
16.5
 21
5.5
 31
0.0
  0
LINE
  5
3B5
330
1E
100
AcDbEntity
  8
0
100
AcDbLine
 10
16.5
 20
5.5
 30
0.0
 11
18.0
 21
5.40909090909091
 31
0.0
  0
LINE
  5
3B6
330
1E
100
AcDbEntity
  8
0
100
AcDbLine
 10
37.1557
 20
4.36147666666666
 30
0.0
 11
37.1557
 21
3.668869
 31
0.0
  0
LINE
  5
3B9
330
1E
100
AcDbEntity
  8
0
100
AcDbLine
 10
39.2644
 20
4.29118666666666
 30
0.0
 11
39.2644
 21
4.020909999999999
 31
0.0
  0
LINE
  5
3BA
330
1E
100
AcDbEntity
  8
0
100
AcDbLine
 10
76.9319
 20
4.29773
 30
0.0
 11
76.9319
 21
3.668869
 31
0.0
  0
LINE
  5
3BB
330
1E
100
AcDbEntity
  8
0
100
AcDbLine
 10
78.90550000000001
 20
4.36351666666666
 30
0.0
 11
78.90550000000001
 21
4.020909999999999
 31
0.0
  0
LINE
  5
3BC
330
1E
100
AcDbEntity
  8
0
100
AcDbLine
 10
78.8443
 20
4.36147666666666
 30
0.0
 11
78.90550000000001
 21
4.36351666666666
 31
0.0
  0
LINE
  5
3BD
330
1E
100
AcDbEntity
  8
0
100
AcDbLine
 10
76.73560000000001
 20
4.29118666666666
 30
0.0
 11
76.9319
 21
4.29773
 31
0.0
  0
LINE
  5
3BE
330
1E
100
AcDbEntity
  8
0
100
AcDbLine
 10
39.0681
 20
4.29773
 30
0.0
 11
39.2644
 21
4.29118666666666
 31
0.0
  0
LINE
  5
3C0
330
1E
100
AcDbEntity
  8
0
100
AcDbLine
 10
37.634
 20
4.372939999999999
 30
0.0
 11
38.2438
 21
4.372939999999999
 31
0.0
  0
LINE
  5
3C1
330
1E
100
AcDbEntity
  8
0
100
AcDbLine
 10
37.54379999999999
 20
4.372939999999999
 30
0.0
 11
38.0
 21
4.372939999999999
 31
0.0
  0
LINE
  5
3C2
330
1E
100
AcDbEntity
  8
0
100
AcDbLine
 10
37.54379999999999
 20
4.372939999999999
 30
0.0
 11
37.634
 21
4.372939999999999
 31
0.0
  0
LINE
  5
3C3
330
1E
100
AcDbEntity
  8
0
100
AcDbLine
 10
37.54379999999999
 20
4.372939999999999
 30
0.0
 11
37.54379999999999
 21
5.48246341463415
 31
0.0
  0
LINE
  5
3C5
330
1E
100
AcDbEntity
  8
0
100
AcDbLine
 10
39.0681
 20
4.372939999999999
 30
0.0
 11
39.0681
 21
3.668869
 31
0.0
  0
LINE
  5
3C6
330
1E
100
AcDbEntity
  8
0
100
AcDbLine
 10
39.2644
 20
4.372939999999999
 30
0.0
 11
39.2644
 21
4.020909999999999
 31
0.0
  0
LINE
  5
3C7
330
1E
100
AcDbEntity
  8
0
100
AcDbLine
 10
39.4562
 20
4.372939999999999
 30
0.0
 11
39.4562
 21
5.35519718309859
 31
0.0
  0
LINE
  5
3C8
330
1E
100
AcDbEntity
  8
0
100
AcDbLine
 10
39.366
 20
4.372939999999999
 30
0.0
 11
39.4562
 21
4.372939999999999
 31
0.0
  0
LINE
  5
3CA
330
1E
100
AcDbEntity
  8
0
100
AcDbLine
 10
39.0
 20
4.372939999999999
 30
0.0
 11
39.4562
 21
4.372939999999999
 31
0.0
  0
LINE
  5
3CB
330
1E
100
AcDbEntity
  8
0
100
AcDbLine
 10
38.2438
 20
4.372939999999999
 30
0.0
 11
39.0
 21
4.372939999999999
 31
0.0
  0
LINE
  5
3CC
330
1E
100
AcDbEntity
  8
0
100
AcDbLine
 10
38.0
 20
4.372939999999999
 30
0.0
 11
38.75619999999999
 21
4.372939999999999
 31
0.0
  0
LINE
  5
3CE
330
1E
100
AcDbEntity
  8
0
100
AcDbLine
 10
38.75619999999999
 20
4.372939999999999
 30
0.0
 11
39.366
 21
4.372939999999999
 31
0.0
  0
LINE
  5
3D0
330
1E
100
AcDbEntity
  8
0
100
AcDbLine
 10
43.98349999999999
 20
4.372939999999999
 30
0.0
 11
43.98349999999999
 21
4.020909999999999
 31
0.0
  0
LINE
  5
3D1
330
1E
100
AcDbEntity
  8
0
100
AcDbLine
 10
44.2428
 20
4.372939999999999
 30
0.0
 11
45.0032
 21
4.372939999999999
 31
0.0
  0
LINE
  5
3D2
330
1E
100
AcDbEntity
  8
0
100
AcDbLine
 10
43.7215
 20
4.372939999999999
 30
0.0
 11
44.2428
 21
4.372939999999999
 31
0.0
  0
LINE
  5
3D3
330
1E
100
AcDbEntity
  8
0
100
AcDbLine
 10
43.7215
 20
4.372939999999999
 30
0.0
 11
43.7215
 21
5.5
 31
0.0
  0
LINE
  5
3D4
330
1E
100
AcDbEntity
  8
0
100
AcDbLine
 10
43.76399999999999
 20
4.372939999999999
 30
0.0
 11
44.3192
 21
4.372939999999999
 31
0.0
  0
LINE
  5
3D7
330
1E
100
AcDbEntity
  8
0
100
AcDbLine
 10
45.0032
 20
4.372939999999999
 30
0.0
 11
45.55839999999999
 21
4.372939999999999
 31
0.0
  0
LINE
  5
3D8
330
1E
100
AcDbEntity
  8
0
100
AcDbLine
 10
44.3192
 20
4.372939999999999
 30
0.0
 11
45.07959999999999
 21
4.372939999999999
 31
0.0
  0
LINE
  5
3DA
330
1E
100
AcDbEntity
  8
0
100
AcDbLine
 10
34.39929999999999
 20
4.453356666666659
 30
0.0
 11
34.39929999999999
 21
3.668869
 31
0.0
  0
LINE
  5
3DB
330
1E
100
AcDbEntity
  8
0
100
AcDbLine
 10
34.39929999999999
 20
4.48278275862069
 30
0.0
 11
34.39929999999999
 21
3.668869
 31
0.0
  0
LINE
  5
3DD
330
1E
100
AcDbEntity
  8
0
100
AcDbLine
 10
35.1146
 20
4.947017241379309
 30
0.0
 11
35.1146
 21
4.020909999999999
 31
0.0
  0
LINE
  5
3E0
330
1E
100
AcDbEntity
  8
0
100
AcDbLine
 10
37.1557
 20
4.46708846153846
 30
0.0
 11
37.1557
 21
3.668869
 31
0.0
  0
LINE
  5
3E2
330
1E
100
AcDbEntity
  8
0
100
AcDbLine
 10
37.09449999999999
 20
4.77633620689655
 30
0.0
 11
37.09449999999999
 21
4.020909999999999
 31
0.0
  0
LINE
  5
3E4
330
1E
100
AcDbEntity
  8
0
100
AcDbLine
 10
37.54379999999999
 20
5.48246341463415
 30
0.0
 11
37.54379999999999
 21
4.372939999999999
 31
0.0
  0
LINE
  5
3E9
330
1E
100
AcDbEntity
  8
0
100
AcDbLine
 10
42.25229999999999
 20
4.5
 30
0.0
 11
42.25229999999999
 21
3.668869
 31
0.0
  0
LINE
  5
3EC
330
1E
100
AcDbEntity
  8
0
100
AcDbLine
 10
41.21419999999999
 20
4.75951479289941
 30
0.0
 11
41.21419999999999
 21
4.020909999999999
 31
0.0
  0
LINE
  5
3EE
330
1E
100
AcDbEntity
  8
0
100
AcDbLine
 10
39.4562
 20
5.35519718309859
 30
0.0
 11
39.4562
 21
4.372939999999999
 31
0.0
  0
LINE
  5
3F0
330
1E
100
AcDbEntity
  8
0
100
AcDbLine
 10
43.7215
 20
5.5
 30
0.0
 11
43.7215
 21
4.372939999999999
 31
0.0
  0
LINE
  5
3F4
330
1E
100
AcDbEntity
  8
0
100
AcDbLine
 10
45.07959999999999
 20
4.372939999999999
 30
0.0
 11
45.6009
 21
4.372939999999999
 31
0.0
  0
LINE
  5
3F7
330
1E
100
AcDbEntity
  8
0
100
AcDbLine
 10
45.6009
 20
4.372939999999999
 30
0.0
 11
45.6009
 21
5.5
 31
0.0
  0
LINE
  5
3F9
330
1E
100
AcDbEntity
  8
0
100
AcDbLine
 10
50.9517
 20
4.372939999999999
 30
0.0
 11
50.9517
 21
4.020909999999999
 31
0.0
  0
LINE
  5
3FA
330
1E
100
AcDbEntity
  8
0
100
AcDbLine
 10
50.6599
 20
4.372939999999999
 30
0.0
 11
51.4014
 21
4.372939999999999
 31
0.0
  0
LINE
  5
3FB
330
1E
100
AcDbEntity
  8
0
100
AcDbLine
 10
50.2429
 20
4.372939999999999
 30
0.0
 11
50.4168
 21
4.372939999999999
 31
0.0
  0
LINE
  5
3FC
330
1E
100
AcDbEntity
  8
0
100
AcDbLine
 10
50.2429
 20
4.372939999999999
 30
0.0
 11
50.6599
 21
4.372939999999999
 31
0.0
  0
LINE
  5
3FD
330
1E
100
AcDbEntity
  8
0
100
AcDbLine
 10
50.2429
 20
4.372939999999999
 30
0.0
 11
50.2429
 21
5.5
 31
0.0
  0
LINE
  5
3FE
330
1E
100
AcDbEntity
  8
0
100
AcDbLine
 10
50.4168
 20
4.372939999999999
 30
0.0
 11
51.0541
 21
4.372939999999999
 31
0.0
  0
LINE
  5
400
330
1E
100
AcDbEntity
  8
0
100
AcDbLine
 10
51.0853
 20
4.372939999999999
 30
0.0
 11
51.0853
 21
3.668869
 31
0.0
  0
LINE
  5
401
330
1E
100
AcDbEntity
  8
0
100
AcDbLine
 10
52.2125
 20
4.372939999999999
 30
0.0
 11
52.2125
 21
5.5
 31
0.0
  0
LINE
  5
402
330
1E
100
AcDbEntity
  8
0
100
AcDbLine
 10
52.0386
 20
4.372939999999999
 30
0.0
 11
52.2125
 21
4.372939999999999
 31
0.0
  0
LINE
  5
403
330
1E
100
AcDbEntity
  8
0
100
AcDbLine
 10
51.4014
 20
4.372939999999999
 30
0.0
 11
52.0386
 21
4.372939999999999
 31
0.0
  0
LINE
  5
404
330
1E
100
AcDbEntity
  8
0
100
AcDbLine
 10
51.0541
 20
4.372939999999999
 30
0.0
 11
51.79549999999999
 21
4.372939999999999
 31
0.0
  0
LINE
  5
406
330
1E
100
AcDbEntity
  8
0
100
AcDbLine
 10
51.79549999999999
 20
4.372939999999999
 30
0.0
 11
52.2125
 21
4.372939999999999
 31
0.0
  0
LINE
  5
408
330
1E
100
AcDbEntity
  8
0
100
AcDbLine
 10
59.0
 20
4.372939999999999
 30
0.0
 11
59.0
 21
5.5
 31
0.0
  0
LINE
  5
409
330
1E
100
AcDbEntity
  8
0
100
AcDbLine
 10
59.0
 20
4.372939999999999
 30
0.0
 11
59.0
 21
3.668869
 31
0.0
  0
LINE
  5
40A
330
1E
100
AcDbEntity
  8
0
100
AcDbLine
 10
58.7
 20
4.372939999999999
 30
0.0
 11
59.0
 21
4.372939999999999
 31
0.0
  0
LINE
  5
40D
330
1E
100
AcDbEntity
  8
0
100
AcDbLine
 10
58.0
 20
4.372939999999999
 30
0.0
 11
58.7
 21
4.372939999999999
 31
0.0
  0
LINE
  5
410
330
1E
100
AcDbEntity
  8
0
100
AcDbLine
 10
57.3
 20
4.372939999999999
 30
0.0
 11
58.0
 21
4.372939999999999
 31
0.0
  0
LINE
  5
413
330
1E
100
AcDbEntity
  8
0
100
AcDbLine
 10
57.0
 20
4.372939999999999
 30
0.0
 11
57.3
 21
4.372939999999999
 31
0.0
  0
LINE
  5
414
330
1E
100
AcDbEntity
  8
0
100
AcDbLine
 10
57.0
 20
4.372939999999999
 30
0.0
 11
57.0
 21
5.5
 31
0.0
  0
LINE
  5
415
330
1E
100
AcDbEntity
  8
0
100
AcDbLine
 10
63.96139999999999
 20
4.372939999999999
 30
0.0
 11
64.5986
 21
4.372939999999999
 31
0.0
  0
LINE
  5
416
330
1E
100
AcDbEntity
  8
0
100
AcDbLine
 10
64.91469999999999
 20
4.372939999999999
 30
0.0
 11
64.91469999999999
 21
3.668869
 31
0.0
  0
LINE
  5
417
330
1E
100
AcDbEntity
  8
0
100
AcDbLine
 10
64.5986
 20
4.372939999999999
 30
0.0
 11
65.34010000000001
 21
4.372939999999999
 31
0.0
  0
LINE
  5
418
330
1E
100
AcDbEntity
  8
0
100
AcDbLine
 10
65.34010000000001
 20
4.372939999999999
 30
0.0
 11
65.75709999999999
 21
4.372939999999999
 31
0.0
  0
LINE
  5
419
330
1E
100
AcDbEntity
  8
0
100
AcDbLine
 10
64.94589999999999
 20
4.372939999999999
 30
0.0
 11
65.58320000000001
 21
4.372939999999999
 31
0.0
  0
LINE
  5
41B
330
1E
100
AcDbEntity
  8
0
100
AcDbLine
 10
64.20449999999999
 20
4.372939999999999
 30
0.0
 11
64.94589999999999
 21
4.372939999999999
 31
0.0
  0
LINE
  5
41D
330
1E
100
AcDbEntity
  8
0
100
AcDbLine
 10
63.7875
 20
4.372939999999999
 30
0.0
 11
64.20449999999999
 21
4.372939999999999
 31
0.0
  0
LINE
  5
41E
330
1E
100
AcDbEntity
  8
0
100
AcDbLine
 10
63.7875
 20
4.372939999999999
 30
0.0
 11
63.96139999999999
 21
4.372939999999999
 31
0.0
  0
LINE
  5
41F
330
1E
100
AcDbEntity
  8
0
100
AcDbLine
 10
63.7875
 20
4.372939999999999
 30
0.0
 11
63.7875
 21
5.5
 31
0.0
  0
LINE
  5
420
330
1E
100
AcDbEntity
  8
0
100
AcDbLine
 10
65.75709999999999
 20
4.372939999999999
 30
0.0
 11
65.75709999999999
 21
5.5
 31
0.0
  0
LINE
  5
421
330
1E
100
AcDbEntity
  8
0
100
AcDbLine
 10
65.58320000000001
 20
4.372939999999999
 30
0.0
 11
65.75709999999999
 21
4.372939999999999
 31
0.0
  0
LINE
  5
424
330
1E
100
AcDbEntity
  8
0
100
AcDbLine
 10
65.0483
 20
4.372939999999999
 30
0.0
 11
65.0483
 21
4.020909999999999
 31
0.0
  0
LINE
  5
426
330
1E
100
AcDbEntity
  8
0
100
AcDbLine
 10
70.44159999999999
 20
4.372939999999999
 30
0.0
 11
70.99679999999999
 21
4.372939999999999
 31
0.0
  0
LINE
  5
427
330
1E
100
AcDbEntity
  8
0
100
AcDbLine
 10
49.0198
 20
4.68170422535211
 30
0.0
 11
49.0198
 21
4.020909999999999
 31
0.0
  0
LINE
  5
429
330
1E
100
AcDbEntity
  8
0
100
AcDbLine
 10
45.84399999999999
 20
4.905352112676059
 30
0.0
 11
45.84399999999999
 21
4.020909999999999
 31
0.0
  0
LINE
  5
42B
330
1E
100
AcDbEntity
  8
0
100
AcDbLine
 10
54.305
 20
4.84532710280374
 30
0.0
 11
54.305
 21
4.020909999999999
 31
0.0
  0
LINE
  5
42F
330
1E
100
AcDbEntity
  8
0
100
AcDbLine
 10
56.2974
 20
4.659121495327099
 30
0.0
 11
56.2974
 21
4.020909999999999
 31
0.0
  0
LINE
  5
430
330
1E
100
AcDbEntity
  8
0
100
AcDbLine
 10
61.695
 20
4.84532710280374
 30
0.0
 11
61.695
 21
4.020909999999999
 31
0.0
  0
LINE
  5
434
330
1E
100
AcDbEntity
  8
0
100
AcDbLine
 10
59.70259999999999
 20
4.659121495327099
 30
0.0
 11
59.70259999999999
 21
4.020909999999999
 31
0.0
  0
LINE
  5
435
330
1E
100
AcDbEntity
  8
0
100
AcDbLine
 10
57.0
 20
4.5
 30
0.0
 11
57.0
 21
3.668869
 31
0.0
  0
LINE
  5
436
330
1E
100
AcDbEntity
  8
0
100
AcDbLine
 10
70.156
 20
4.905352112676059
 30
0.0
 11
70.156
 21
4.020909999999999
 31
0.0
  0
LINE
  5
438
330
1E
100
AcDbEntity
  8
0
100
AcDbLine
 10
66.98019999999999
 20
4.68170422535211
 30
0.0
 11
66.98019999999999
 21
4.020909999999999
 31
0.0
  0
LINE
  5
43A
330
1E
100
AcDbEntity
  8
0
100
AcDbLine
 10
45.6009
 20
5.5
 30
0.0
 11
45.6009
 21
4.372939999999999
 31
0.0
  0
LINE
  5
43B
330
1E
100
AcDbEntity
  8
0
100
AcDbLine
 10
50.2429
 20
5.5
 30
0.0
 11
50.2429
 21
4.372939999999999
 31
0.0
  0
LINE
  5
43F
330
1E
100
AcDbEntity
  8
0
100
AcDbLine
 10
52.2125
 20
5.5
 30
0.0
 11
52.2125
 21
4.372939999999999
 31
0.0
  0
LINE
  5
440
330
1E
100
AcDbEntity
  8
0
100
AcDbLine
 10
59.0
 20
5.5
 30
0.0
 11
59.0
 21
4.372939999999999
 31
0.0
  0
LINE
  5
444
330
1E
100
AcDbEntity
  8
0
100
AcDbLine
 10
57.0
 20
5.5
 30
0.0
 11
57.0
 21
4.372939999999999
 31
0.0
  0
LINE
  5
445
330
1E
100
AcDbEntity
  8
0
100
AcDbLine
 10
65.75709999999999
 20
5.5
 30
0.0
 11
65.75709999999999
 21
4.372939999999999
 31
0.0
  0
LINE
  5
449
330
1E
100
AcDbEntity
  8
0
100
AcDbLine
 10
63.7875
 20
5.5
 30
0.0
 11
63.7875
 21
4.372939999999999
 31
0.0
  0
LINE
  5
44C
330
1E
100
AcDbEntity
  8
0
100
AcDbLine
 10
70.3991
 20
5.5
 30
0.0
 11
70.3991
 21
4.372939999999999
 31
0.0
  0
LINE
  5
44D
330
1E
100
AcDbEntity
  8
0
100
AcDbLine
 10
70.3991
 20
4.372939999999999
 30
0.0
 11
70.9204
 21
4.372939999999999
 31
0.0
  0
LINE
  5
44E
330
1E
100
AcDbEntity
  8
0
100
AcDbLine
 10
70.3991
 20
4.372939999999999
 30
0.0
 11
70.3991
 21
5.5
 31
0.0
  0
LINE
  5
44F
330
1E
100
AcDbEntity
  8
0
100
AcDbLine
 10
72.01649999999999
 20
4.372939999999999
 30
0.0
 11
72.01649999999999
 21
4.020909999999999
 31
0.0
  0
LINE
  5
451
330
1E
100
AcDbEntity
  8
0
100
AcDbLine
 10
70.99679999999999
 20
4.372939999999999
 30
0.0
 11
71.7572
 21
4.372939999999999
 31
0.0
  0
LINE
  5
452
330
1E
100
AcDbEntity
  8
0
100
AcDbLine
 10
71.7572
 20
4.372939999999999
 30
0.0
 11
72.2785
 21
4.372939999999999
 31
0.0
  0
LINE
  5
453
330
1E
100
AcDbEntity
  8
0
100
AcDbLine
 10
76.5438
 20
4.372939999999999
 30
0.0
 11
77.0
 21
4.372939999999999
 31
0.0
  0
LINE
  5
454
330
1E
100
AcDbEntity
  8
0
100
AcDbLine
 10
76.5438
 20
4.372939999999999
 30
0.0
 11
76.634
 21
4.372939999999999
 31
0.0
  0
LINE
  5
455
330
1E
100
AcDbEntity
  8
0
100
AcDbLine
 10
76.5438
 20
4.372939999999999
 30
0.0
 11
76.5438
 21
5.35519718309859
 31
0.0
  0
LINE
  5
456
330
1E
100
AcDbEntity
  8
0
100
AcDbLine
 10
76.9319
 20
4.372939999999999
 30
0.0
 11
76.9319
 21
3.668869
 31
0.0
  0
LINE
  5
457
330
1E
100
AcDbEntity
  8
0
100
AcDbLine
 10
76.73560000000001
 20
4.372939999999999
 30
0.0
 11
76.73560000000001
 21
4.020909999999999
 31
0.0
  0
LINE
  5
459
330
1E
100
AcDbEntity
  8
0
100
AcDbLine
 10
77.0
 20
4.372939999999999
 30
0.0
 11
77.7562
 21
4.372939999999999
 31
0.0
  0
LINE
  5
45A
330
1E
100
AcDbEntity
  8
0
100
AcDbLine
 10
77.7562
 20
4.372939999999999
 30
0.0
 11
78.366
 21
4.372939999999999
 31
0.0
  0
LINE
  5
45C
330
1E
100
AcDbEntity
  8
0
100
AcDbLine
 10
78.4562
 20
4.372939999999999
 30
0.0
 11
78.4562
 21
5.48246341463415
 31
0.0
  0
LINE
  5
45D
330
1E
100
AcDbEntity
  8
0
100
AcDbLine
 10
78.366
 20
4.372939999999999
 30
0.0
 11
78.4562
 21
4.372939999999999
 31
0.0
  0
LINE
  5
45E
330
1E
100
AcDbEntity
  8
0
100
AcDbLine
 10
78.0
 20
4.372939999999999
 30
0.0
 11
78.4562
 21
4.372939999999999
 31
0.0
  0
LINE
  5
460
330
1E
100
AcDbEntity
  8
0
100
AcDbLine
 10
77.2438
 20
4.372939999999999
 30
0.0
 11
78.0
 21
4.372939999999999
 31
0.0
  0
LINE
  5
462
330
1E
100
AcDbEntity
  8
0
100
AcDbLine
 10
76.634
 20
4.372939999999999
 30
0.0
 11
77.2438
 21
4.372939999999999
 31
0.0
  0
LINE
  5
464
330
1E
100
AcDbEntity
  8
0
100
AcDbLine
 10
72.2785
 20
4.372939999999999
 30
0.0
 11
72.2785
 21
5.5
 31
0.0
  0
LINE
  5
466
330
1E
100
AcDbEntity
  8
0
100
AcDbLine
 10
78.8443
 20
4.46708846153846
 30
0.0
 11
78.8443
 21
3.668869
 31
0.0
  0
LINE
  5
468
330
1E
100
AcDbEntity
  8
0
100
AcDbLine
 10
71.6808
 20
4.372939999999999
 30
0.0
 11
72.23600000000001
 21
4.372939999999999
 31
0.0
  0
LINE
  5
46A
330
1E
100
AcDbEntity
  8
0
100
AcDbLine
 10
70.9204
 20
4.372939999999999
 30
0.0
 11
71.6808
 21
4.372939999999999
 31
0.0
  0
LINE
  5
46C
330
1E
100
AcDbEntity
  8
0
100
AcDbLine
 10
73.74769999999999
 20
4.5
 30
0.0
 11
73.74769999999999
 21
3.668869
 31
0.0
  0
LINE
  5
46F
330
1E
100
AcDbEntity
  8
0
100
AcDbLine
 10
74.7858
 20
4.75951479289941
 30
0.0
 11
74.7858
 21
4.020909999999999
 31
0.0
  0
LINE
  5
473
330
1E
100
AcDbEntity
  8
0
100
AcDbLine
 10
78.90550000000001
 20
4.77633620689655
 30
0.0
 11
78.90550000000001
 21
4.020909999999999
 31
0.0
  0
LINE
  5
474
330
1E
100
AcDbEntity
  8
0
100
AcDbLine
 10
80.8854
 20
4.947017241379309
 30
0.0
 11
80.8854
 21
4.020909999999999
 31
0.0
  0
LINE
  5
478
330
1E
100
AcDbEntity
  8
0
100
AcDbLine
 10
76.5438
 20
5.35519718309859
 30
0.0
 11
76.5438
 21
4.372939999999999
 31
0.0
  0
LINE
  5
479
330
1E
100
AcDbEntity
  8
0
100
AcDbLine
 10
78.4562
 20
5.48246341463415
 30
0.0
 11
78.4562
 21
4.372939999999999
 31
0.0
  0
LINE
  5
47D
330
1E
100
AcDbEntity
  8
0
100
AcDbLine
 10
72.2785
 20
5.5
 30
0.0
 11
72.2785
 21
4.372939999999999
 31
0.0
  0
LINE
  5
481
330
1E
100
AcDbEntity
  8
0
100
AcDbLine
 10
81.60070000000001
 20
4.48278275862069
 30
0.0
 11
81.60070000000001
 21
3.668869
 31
0.0
  0
LINE
  5
483
330
1E
100
AcDbEntity
  8
0
100
AcDbLine
 10
82.08249999999999
 20
4.372939999999999
 30
0.0
 11
82.39
 21
4.372939999999999
 31
0.0
  0
LINE
  5
484
330
1E
100
AcDbEntity
  8
0
100
AcDbLine
 10
82.08249999999999
 20
4.372939999999999
 30
0.0
 11
82.3027
 21
4.372939999999999
 31
0.0
  0
LINE
  5
485
330
1E
100
AcDbEntity
  8
0
100
AcDbLine
 10
82.08249999999999
 20
4.372939999999999
 30
0.0
 11
82.08249999999999
 21
4.46941666666666
 31
0.0
  0
LINE
  5
486
330
1E
100
AcDbEntity
  8
0
100
AcDbLine
 10
82.3027
 20
4.372939999999999
 30
0.0
 11
82.39
 21
4.372939999999999
 31
0.0
  0
LINE
  5
488
330
1E
100
AcDbEntity
  8
0
100
AcDbLine
 10
86.96989999999999
 20
4.372939999999999
 30
0.0
 11
86.96989999999999
 21
4.020909999999999
 31
0.0
  0
LINE
  5
489
330
1E
100
AcDbEntity
  8
0
100
AcDbLine
 10
86.8895
 20
4.372939999999999
 30
0.0
 11
87.10970000000001
 21
4.372939999999999
 31
0.0
  0
LINE
  5
48A
330
1E
100
AcDbEntity
  8
0
100
AcDbLine
 10
86.8895
 20
4.372939999999999
 30
0.0
 11
87.2329
 21
4.372939999999999
 31
0.0
  0
LINE
  5
48B
330
1E
100
AcDbEntity
  8
0
100
AcDbLine
 10
86.8895
 20
4.372939999999999
 30
0.0
 11
86.8895
 21
5.464612068965519
 31
0.0
  0
LINE
  5
48C
330
1E
100
AcDbEntity
  8
0
100
AcDbLine
 10
87.10970000000001
 20
4.372939999999999
 30
0.0
 11
87.7895
 21
4.372939999999999
 31
0.0
  0
LINE
  5
48D
330
1E
100
AcDbEntity
  8
0
100
AcDbLine
 10
82.08249999999999
 20
4.46941666666666
 30
0.0
 11
82.08249999999999
 21
4.372939999999999
 31
0.0
  0
LINE
  5
48E
330
1E
100
AcDbEntity
  8
0
100
AcDbLine
 10
82.08249999999999
 20
4.372939999999999
 30
0.0
 11
82.42589999999999
 21
4.372939999999999
 31
0.0
  0
LINE
  5
48F
330
1E
100
AcDbEntity
  8
0
100
AcDbLine
 10
82.08249999999999
 20
4.372939999999999
 30
0.0
 11
82.3027
 21
4.372939999999999
 31
0.0
  0
LINE
  5
490
330
1E
100
AcDbEntity
  8
0
100
AcDbLine
 10
82.08249999999999
 20
4.372939999999999
 30
0.0
 11
82.08249999999999
 21
5.19127218934911
 31
0.0
  0
LINE
  5
491
330
1E
100
AcDbEntity
  8
0
100
AcDbLine
 10
82.39
 20
4.372939999999999
 30
0.0
 11
82.39
 21
4.020909999999999
 31
0.0
  0
LINE
  5
492
330
1E
100
AcDbEntity
  8
0
100
AcDbLine
 10
82.39
 20
4.372939999999999
 30
0.0
 11
82.39
 21
4.020909999999999
 31
0.0
  0
LINE
  5
495
330
1E
100
AcDbEntity
  8
0
100
AcDbLine
 10
82.42589999999999
 20
4.372939999999999
 30
0.0
 11
83.155
 21
4.372939999999999
 31
0.0
  0
LINE
  5
496
330
1E
100
AcDbEntity
  8
0
100
AcDbLine
 10
83.155
 20
4.372939999999999
 30
0.0
 11
83.8348
 21
4.372939999999999
 31
0.0
  0
LINE
  5
497
330
1E
100
AcDbEntity
  8
0
100
AcDbLine
 10
87.2329
 20
4.372939999999999
 30
0.0
 11
87.962
 21
4.372939999999999
 31
0.0
  0
LINE
  5
499
330
1E
100
AcDbEntity
  8
0
100
AcDbLine
 10
84.0549
 20
4.372939999999999
 30
0.0
 11
84.0549
 21
5.5
 31
0.0
  0
LINE
  5
49A
330
1E
100
AcDbEntity
  8
0
100
AcDbLine
 10
83.8348
 20
4.372939999999999
 30
0.0
 11
84.0549
 21
4.372939999999999
 31
0.0
  0
LINE
  5
49B
330
1E
100
AcDbEntity
  8
0
100
AcDbLine
 10
83.7115
 20
4.372939999999999
 30
0.0
 11
84.0549
 21
4.372939999999999
 31
0.0
  0
LINE
  5
49D
330
1E
100
AcDbEntity
  8
0
100
AcDbLine
 10
82.98239999999999
 20
4.372939999999999
 30
0.0
 11
83.7115
 21
4.372939999999999
 31
0.0
  0
LINE
  5
49F
330
1E
100
AcDbEntity
  8
0
100
AcDbLine
 10
82.3027
 20
4.372939999999999
 30
0.0
 11
82.98239999999999
 21
4.372939999999999
 31
0.0
  0
LINE
  5
4A2
330
1E
100
AcDbEntity
  8
0
100
AcDbLine
 10
87.7895
 20
4.372939999999999
 30
0.0
 11
88.5185
 21
4.372939999999999
 31
0.0
  0
LINE
  5
4A3
330
1E
100
AcDbEntity
  8
0
100
AcDbLine
 10
88.8619
 20
4.372939999999999
 30
0.0
 11
88.8619
 21
5.5
 31
0.0
  0
LINE
  5
4A4
330
1E
100
AcDbEntity
  8
0
100
AcDbLine
 10
88.5185
 20
4.372939999999999
 30
0.0
 11
88.8619
 21
4.372939999999999
 31
0.0
  0
LINE
  5
4A5
330
1E
100
AcDbEntity
  8
0
100
AcDbLine
 10
88.64180000000001
 20
4.372939999999999
 30
0.0
 11
88.8619
 21
4.372939999999999
 31
0.0
  0
LINE
  5
4A7
330
1E
100
AcDbEntity
  8
0
100
AcDbLine
 10
87.962
 20
4.372939999999999
 30
0.0
 11
88.64180000000001
 21
4.372939999999999
 31
0.0
  0
LINE
  5
4AB
330
1E
100
AcDbEntity
  8
0
100
AcDbLine
 10
85.13339999999999
 20
4.629296969696969
 30
0.0
 11
85.13339999999999
 21
4.020909999999999
 31
0.0
  0
LINE
  5
4AC
330
1E
100
AcDbEntity
  8
0
100
AcDbLine
 10
85.13339999999999
 20
4.8826338028169
 30
0.0
 11
85.13339999999999
 21
4.020909999999999
 31
0.0
  0
LINE
  5
4AF
330
1E
100
AcDbEntity
  8
0
100
AcDbLine
 10
84.3398
 20
4.97471428571428
 30
0.0
 11
84.3398
 21
4.020909999999999
 31
0.0
  0
LINE
  5
4B1
330
1E
100
AcDbEntity
  8
0
100
AcDbLine
 10
82.08249999999999
 20
5.19127218934911
 30
0.0
 11
82.08249999999999
 21
4.372939999999999
 31
0.0
  0
LINE
  5
4B3
330
1E
100
AcDbEntity
  8
0
100
AcDbLine
 10
89.8431
 20
4.94500574712644
 30
0.0
 11
89.8431
 21
4.020909999999999
 31
0.0
  0
LINE
  5
4B5
330
1E
100
AcDbEntity
  8
0
100
AcDbLine
 10
84.3398
 20
4.581199999999999
 30
0.0
 11
85.13339999999999
 21
4.629296969696969
 31
0.0
  0
LINE
  5
4B6
330
1E
100
AcDbEntity
  8
0
100
AcDbLine
 10
90.81879999999999
 20
4.372939999999999
 30
0.0
 11
90.90899999999999
 21
4.372939999999999
 31
0.0
  0
LINE
  5
4B7
330
1E
100
AcDbEntity
  8
0
100
AcDbLine
 10
90.81879999999999
 20
4.372939999999999
 30
0.0
 11
91.27500000000001
 21
4.372939999999999
 31
0.0
  0
LINE
  5
4B8
330
1E
100
AcDbEntity
  8
0
100
AcDbLine
 10
90.81879999999999
 20
4.372939999999999
 30
0.0
 11
90.81879999999999
 21
4.97386666666666
 31
0.0
  0
LINE
  5
4B9
330
1E
100
AcDbEntity
  8
0
100
AcDbLine
 10
92.641
 20
4.372939999999999
 30
0.0
 11
92.7312
 21
4.372939999999999
 31
0.0
  0
LINE
  5
4BA
330
1E
100
AcDbEntity
  8
0
100
AcDbLine
 10
92.0312
 20
4.372939999999999
 30
0.0
 11
92.641
 21
4.372939999999999
 31
0.0
  0
LINE
  5
4BB
330
1E
100
AcDbEntity
  8
0
100
AcDbLine
 10
90.90899999999999
 20
4.372939999999999
 30
0.0
 11
91.5188
 21
4.372939999999999
 31
0.0
  0
LINE
  5
4BC
330
1E
100
AcDbEntity
  8
0
100
AcDbLine
 10
91.5188
 20
4.372939999999999
 30
0.0
 11
92.275
 21
4.372939999999999
 31
0.0
  0
LINE
  5
4BD
330
1E
100
AcDbEntity
  8
0
100
AcDbLine
 10
93.7508
 20
4.372939999999999
 30
0.0
 11
94.306
 21
4.372939999999999
 31
0.0
  0
LINE
  5
4BE
330
1E
100
AcDbEntity
  8
0
100
AcDbLine
 10
93.70829999999999
 20
4.372939999999999
 30
0.0
 11
94.22960000000001
 21
4.372939999999999
 31
0.0
  0
LINE
  5
4BF
330
1E
100
AcDbEntity
  8
0
100
AcDbLine
 10
93.70829999999999
 20
4.372939999999999
 30
0.0
 11
93.70829999999999
 21
5.148987878787879
 31
0.0
  0
LINE
  5
4C0
330
1E
100
AcDbEntity
  8
0
100
AcDbLine
 10
94.22960000000001
 20
4.372939999999999
 30
0.0
 11
94.99
 21
4.372939999999999
 31
0.0
  0
LINE
  5
4C1
330
1E
100
AcDbEntity
  8
0
100
AcDbLine
 10
94.99
 20
4.372939999999999
 30
0.0
 11
95.5452
 21
4.372939999999999
 31
0.0
  0
LINE
  5
4C2
330
1E
100
AcDbEntity
  8
0
100
AcDbLine
 10
95.0664
 20
4.372939999999999
 30
0.0
 11
95.5877
 21
4.372939999999999
 31
0.0
  0
LINE
  5
4C3
330
1E
100
AcDbEntity
  8
0
100
AcDbLine
 10
95.4227
 20
4.372939999999999
 30
0.0
 11
95.83969999999998
 21
4.372939999999999
 31
0.0
  0
LINE
  5
4C4
330
1E
100
AcDbEntity
  8
0
100
AcDbLine
 10
95.4227
 20
4.372939999999999
 30
0.0
 11
95.59659999999999
 21
4.372939999999999
 31
0.0
  0
LINE
  5
4C5
330
1E
100
AcDbEntity
  8
0
100
AcDbLine
 10
94.306
 20
4.372939999999999
 30
0.0
 11
95.0664
 21
4.372939999999999
 31
0.0
  0
LINE
  5
4C6
330
1E
100
AcDbEntity
  8
0
100
AcDbLine
 10
92.275
 20
4.372939999999999
 30
0.0
 11
92.7312
 21
4.372939999999999
 31
0.0
  0
LINE
  5
4C7
330
1E
100
AcDbEntity
  8
0
100
AcDbLine
 10
91.27500000000001
 20
4.372939999999999
 30
0.0
 11
92.0312
 21
4.372939999999999
 31
0.0
  0
LINE
  5
4C8
330
1E
100
AcDbEntity
  8
0
100
AcDbLine
 10
95.59659999999999
 20
4.372939999999999
 30
0.0
 11
96.2339
 21
4.372939999999999
 31
0.0
  0
LINE
  5
4C9
330
1E
100
AcDbEntity
  8
0
100
AcDbLine
 10
95.83969999999998
 20
4.372939999999999
 30
0.0
 11
96.5812
 21
4.372939999999999
 31
0.0
  0
LINE
  5
4CA
330
1E
100
AcDbEntity
  8
0
100
AcDbLine
 10
95.59659999999999
 20
4.372939999999999
 30
0.0
 11
96.2339
 21
4.372939999999999
 31
0.0
  0
LINE
  5
4CB
330
1E
100
AcDbEntity
  8
0
100
AcDbLine
 10
95.59659999999999
 20
4.372939999999999
 30
0.0
 11
95.59659999999999
 21
5.348842767295599
 31
0.0
  0
LINE
  5
4CC
330
1E
100
AcDbEntity
  8
0
100
AcDbLine
 10
95.4227
 20
4.372939999999999
 30
0.0
 11
95.83969999999998
 21
4.372939999999999
 31
0.0
  0
LINE
  5
4CD
330
1E
100
AcDbEntity
  8
0
100
AcDbLine
 10
95.4227
 20
4.372939999999999
 30
0.0
 11
95.59659999999999
 21
4.372939999999999
 31
0.0
  0
LINE
  5
4CE
330
1E
100
AcDbEntity
  8
0
100
AcDbLine
 10
95.83969999999998
 20
4.372939999999999
 30
0.0
 11
96.5812
 21
4.372939999999999
 31
0.0
  0
LINE
  5
4CF
330
1E
100
AcDbEntity
  8
0
100
AcDbLine
 10
96.5812
 20
4.372939999999999
 30
0.0
 11
97.2184
 21
4.372939999999999
 31
0.0
  0
LINE
  5
4D0
330
1E
100
AcDbEntity
  8
0
100
AcDbLine
 10
96.9753
 20
4.372939999999999
 30
0.0
 11
97.3923
 21
4.372939999999999
 31
0.0
  0
LINE
  5
4D1
330
1E
100
AcDbEntity
  8
0
100
AcDbLine
 10
96.2339
 20
4.372939999999999
 30
0.0
 11
96.9753
 21
4.372939999999999
 31
0.0
  0
LINE
  5
4D2
330
1E
100
AcDbEntity
  8
0
100
AcDbLine
 10
96.5812
 20
4.372939999999999
 30
0.0
 11
97.2184
 21
4.372939999999999
 31
0.0
  0
LINE
  5
4D3
330
1E
100
AcDbEntity
  8
0
100
AcDbLine
 10
96.9753
 20
4.372939999999999
 30
0.0
 11
97.3923
 21
4.372939999999999
 31
0.0
  0
LINE
  5
4D5
330
1E
100
AcDbEntity
  8
0
100
AcDbLine
 10
96.2339
 20
4.372939999999999
 30
0.0
 11
96.9753
 21
4.372939999999999
 31
0.0
  0
LINE
  5
4D7
330
1E
100
AcDbEntity
  8
0
100
AcDbLine
 10
96.0
 20
4.372939999999999
 30
0.0
 11
96.3
 21
4.372939999999999
 31
0.0
  0
LINE
  5
4D8
330
1E
100
AcDbEntity
  8
0
100
AcDbLine
 10
96.0
 20
4.372939999999999
 30
0.0
 11
97.0
 21
4.372939999999999
 31
0.0
  0
LINE
  5
4D9
330
1E
100
AcDbEntity
  8
0
100
AcDbLine
 10
93.7508
 20
4.372939999999999
 30
0.0
 11
94.306
 21
4.372939999999999
 31
0.0
  0
LINE
  5
4DB
330
1E
100
AcDbEntity
  8
0
100
AcDbLine
 10
93.70829999999999
 20
4.372939999999999
 30
0.0
 11
94.22960000000001
 21
4.372939999999999
 31
0.0
  0
LINE
  5
4DC
330
1E
100
AcDbEntity
  8
0
100
AcDbLine
 10
93.70829999999999
 20
4.372939999999999
 30
0.0
 11
93.70829999999999
 21
5.265480874316939
 31
0.0
  0
LINE
  5
4DD
330
1E
100
AcDbEntity
  8
0
100
AcDbLine
 10
90.81879999999999
 20
4.372939999999999
 30
0.0
 11
90.90899999999999
 21
4.372939999999999
 31
0.0
  0
LINE
  5
4DE
330
1E
100
AcDbEntity
  8
0
100
AcDbLine
 10
90.81879999999999
 20
4.372939999999999
 30
0.0
 11
91.27500000000001
 21
4.372939999999999
 31
0.0
  0
LINE
  5
4DF
330
1E
100
AcDbEntity
  8
0
100
AcDbLine
 10
90.81879999999999
 20
4.372939999999999
 30
0.0
 11
90.81879999999999
 21
5.33070329670329
 31
0.0
  0
LINE
  5
4E0
330
1E
100
AcDbEntity
  8
0
100
AcDbLine
 10
90.81879999999999
 20
4.97386666666666
 30
0.0
 11
90.81879999999999
 21
4.372939999999999
 31
0.0
  0
LINE
  5
4E1
330
1E
100
AcDbEntity
  8
0
100
AcDbLine
 10
90.90899999999999
 20
4.372939999999999
 30
0.0
 11
91.5188
 21
4.372939999999999
 31
0.0
  0
LINE
  5
4E2
330
1E
100
AcDbEntity
  8
0
100
AcDbLine
 10
91.5188
 20
4.372939999999999
 30
0.0
 11
92.275
 21
4.372939999999999
 31
0.0
  0
LINE
  5
4E3
330
1E
100
AcDbEntity
  8
0
100
AcDbLine
 10
92.275
 20
4.372939999999999
 30
0.0
 11
92.7312
 21
4.372939999999999
 31
0.0
  0
LINE
  5
4E4
330
1E
100
AcDbEntity
  8
0
100
AcDbLine
 10
92.7312
 20
4.372939999999999
 30
0.0
 11
92.7312
 21
5.41769014084507
 31
0.0
  0
LINE
  5
4E5
330
1E
100
AcDbEntity
  8
0
100
AcDbLine
 10
92.641
 20
4.372939999999999
 30
0.0
 11
92.7312
 21
4.372939999999999
 31
0.0
  0
LINE
  5
4E7
330
1E
100
AcDbEntity
  8
0
100
AcDbLine
 10
92.0312
 20
4.372939999999999
 30
0.0
 11
92.641
 21
4.372939999999999
 31
0.0
  0
LINE
  5
4E9
330
1E
100
AcDbEntity
  8
0
100
AcDbLine
 10
91.27500000000001
 20
4.372939999999999
 30
0.0
 11
92.0312
 21
4.372939999999999
 31
0.0
  0
LINE
  5
4EB
330
1E
100
AcDbEntity
  8
0
100
AcDbLine
 10
94.22960000000001
 20
4.372939999999999
 30
0.0
 11
94.99
 21
4.372939999999999
 31
0.0
  0
LINE
  5
4EC
330
1E
100
AcDbEntity
  8
0
100
AcDbLine
 10
94.99
 20
4.372939999999999
 30
0.0
 11
95.5452
 21
4.372939999999999
 31
0.0
  0
LINE
  5
4EE
330
1E
100
AcDbEntity
  8
0
100
AcDbLine
 10
95.0664
 20
4.372939999999999
 30
0.0
 11
95.5877
 21
4.372939999999999
 31
0.0
  0
LINE
  5
4F0
330
1E
100
AcDbEntity
  8
0
100
AcDbLine
 10
94.306
 20
4.372939999999999
 30
0.0
 11
95.0664
 21
4.372939999999999
 31
0.0
  0
LINE
  5
4F2
330
1E
100
AcDbEntity
  8
0
100
AcDbLine
 10
96.3
 20
4.372939999999999
 30
0.0
 11
97.0
 21
4.372939999999999
 31
0.0
  0
LINE
  5
4F3
330
1E
100
AcDbEntity
  8
0
100
AcDbLine
 10
97.2184
 20
4.372939999999999
 30
0.0
 11
97.3923
 21
4.372939999999999
 31
0.0
  0
LINE
  5
4F5
330
1E
100
AcDbEntity
  8
0
100
AcDbLine
 10
97.2184
 20
4.372939999999999
 30
0.0
 11
97.3923
 21
4.372939999999999
 31
0.0
  0
LINE
  5
4F6
330
1E
100
AcDbEntity
  8
0
100
AcDbLine
 10
98.0
 20
4.372939999999999
 30
0.0
 11
98.0
 21
5.413793103448269
 31
0.0
  0
LINE
  5
4F7
330
1E
100
AcDbEntity
  8
0
100
AcDbLine
 10
97.70000000000001
 20
4.372939999999999
 30
0.0
 11
98.0
 21
4.372939999999999
 31
0.0
  0
LINE
  5
4F9
330
1E
100
AcDbEntity
  8
0
100
AcDbLine
 10
97.0
 20
4.372939999999999
 30
0.0
 11
97.70000000000001
 21
4.372939999999999
 31
0.0
  0
LINE
  5
4FA
330
1E
100
AcDbEntity
  8
0
100
AcDbLine
 10
97.0
 20
4.372939999999999
 30
0.0
 11
98.0
 21
4.372939999999999
 31
0.0
  0
LINE
  5
4FB
330
1E
100
AcDbEntity
  8
0
100
AcDbLine
 10
93.70829999999999
 20
5.148987878787879
 30
0.0
 11
93.70829999999999
 21
4.372939999999999
 31
0.0
  0
LINE
  5
4FD
330
1E
100
AcDbEntity
  8
0
100
AcDbLine
 10
93.70829999999999
 20
5.265480874316939
 30
0.0
 11
93.70829999999999
 21
4.372939999999999
 31
0.0
  0
LINE
  5
4FE
330
1E
100
AcDbEntity
  8
0
100
AcDbLine
 10
90.81879999999999
 20
5.33070329670329
 30
0.0
 11
90.81879999999999
 21
4.372939999999999
 31
0.0
  0
LINE
  5
501
330
1E
100
AcDbEntity
  8
0
100
AcDbLine
 10
95.59659999999999
 20
5.348842767295599
 30
0.0
 11
95.59659999999999
 21
4.372939999999999
 31
0.0
  0
LINE
  5
505
330
1E
100
AcDbEntity
  8
0
100
AcDbLine
 10
92.7312
 20
5.0897696969697
 30
0.0
 11
93.70829999999999
 21
5.148987878787879
 31
0.0
  0
LINE
  5
506
330
1E
100
AcDbEntity
  8
0
100
AcDbLine
 10
89.8431
 20
4.914733333333329
 30
0.0
 11
90.81879999999999
 21
4.97386666666666
 31
0.0
  0
LINE
  5
507
330
1E
100
AcDbEntity
  8
0
100
AcDbLine
 10
92.7312
 20
5.41769014084507
 30
0.0
 11
92.7312
 21
4.372939999999999
 31
0.0
  0
LINE
  5
509
330
1E
100
AcDbEntity
  8
0
100
AcDbLine
 10
86.8895
 20
5.464612068965519
 30
0.0
 11
86.8895
 21
4.372939999999999
 31
0.0
  0
LINE
  5
50C
330
1E
100
AcDbEntity
  8
0
100
AcDbLine
 10
88.8619
 20
5.5
 30
0.0
 11
88.8619
 21
4.372939999999999
 31
0.0
  0
LINE
  5
50F
330
1E
100
AcDbEntity
  8
0
100
AcDbLine
 10
84.0549
 20
5.5
 30
0.0
 11
84.0549
 21
4.372939999999999
 31
0.0
  0
LINE
  5
516
330
1E
100
AcDbEntity
  8
0
100
AcDbLine
 10
98.0
 20
5.413793103448269
 30
0.0
 11
98.0
 21
4.372939999999999
 31
0.0
  0
LINE
  5
517
330
1E
100
AcDbEntity
  8
0
100
AcDbLine
 10
93.3
 20
15.5
 30
0.0
 11
101.2999999999999
 21
15.5
 31
0.0
  0
LINE
  5
518
330
1E
100
AcDbEntity
  8
0
100
AcDbLine
 10
101.2999999999999
 20
15.5
 30
0.0
 11
106.2
 21
15.5
 31
0.0
  0
LINE
  5
519
330
1E
100
AcDbEntity
  8
0
100
AcDbLine
 10
103.4999999999999
 20
6.5
 30
0.0
 11
106.0
 21
8.0
 31
0.0
  0
LINE
  5
51A
330
1E
100
AcDbEntity
  8
0
100
AcDbLine
 10
101.0
 20
6.0
 30
0.0
 11
103.4999999999999
 21
6.5
 31
0.0
  0
LINE
  5
51B
330
1E
100
AcDbEntity
  8
0
100
AcDbLine
 10
99.50000000000001
 20
5.5
 30
0.0
 11
101.0
 21
6.0
 31
0.0
  0
LINE
  5
51C
330
1E
100
AcDbEntity
  8
0
100
AcDbLine
 10
98.0
 20
5.40909090909091
 30
0.0
 11
99.50000000000001
 21
5.5
 31
0.0
  0
LINE
  5
51D
330
1E
100
AcDbEntity
  8
0
100
AcDbLine
 10
81.60070000000001
 20
4.453356666666659
 30
0.0
 11
82.08249999999999
 21
4.46941666666666
 31
0.0
  0
LINE
  5
51E
330
1E
100
AcDbEntity
  8
0
100
AcDbLine
 10
82.9
 20
15.5
 30
0.0
 11
93.3
 21
15.5
 31
0.0
  0
LINE
  5
51F
330
1E
100
AcDbEntity
  8
0
100
AcDbLine
 10
70.8
 20
15.5
 30
0.0
 11
82.9
 21
15.5
 31
0.0
  0
LINE
  5
520
330
1E
100
AcDbEntity
  8
0
100
AcDbLine
 10
58.0
 20
15.5
 30
0.0
 11
70.8
 21
15.5
 31
0.0
  0
LINE
  5
521
330
1E
100
AcDbEntity
  8
0
100
AcDbLine
 10
45.2
 20
15.5
 30
0.0
 11
58.0
 21
15.5
 31
0.0
  0
LINE
  5
522
330
1E
100
AcDbEntity
  8
0
100
AcDbLine
 10
37.09449999999999
 20
4.36351666666666
 30
0.0
 11
37.1557
 21
4.36147666666666
 31
0.0
  0
LINE
  5
523
330
1E
100
AcDbEntity
  8
0
100
AcDbLine
 10
33.9175
 20
4.46941666666666
 30
0.0
 11
34.39929999999999
 21
4.453356666666659
 31
0.0
  0
LINE
  5
524
330
1E
100
AcDbEntity
  8
0
100
AcDbLine
 10
41.21419999999999
 20
4.22619333333333
 30
0.0
 11
42.15379999999999
 21
4.19487333333333
 31
0.0
  0
LINE
  5
525
330
1E
100
AcDbEntity
  8
0
100
AcDbLine
 10
41.21419999999999
 20
4.22619333333333
 30
0.0
 11
42.15379999999999
 21
4.19487333333333
 31
0.0
  0
LINE
  5
526
330
1E
100
AcDbEntity
  8
0
100
AcDbLine
 10
106.2
 20
15.5
 30
0.0
 11
108.0
 21
15.5
 31
0.0
  0
LINE
  5
527
330
1E
100
AcDbEntity
  8
0
100
AcDbLine
 10
108.0
 20
15.5
 30
0.0
 11
108.0
 21
13.0
 31
0.0
  0
LINE
  5
528
330
1E
100
AcDbEntity
  8
0
100
AcDbLine
 10
108.0
 20
13.0
 30
0.0
 11
108.0
 21
15.5
 31
0.0
  0
LINE
  5
529
330
1E
100
AcDbEntity
  8
0
100
AcDbLine
 10
107.4999999999999
 20
10.5
 30
0.0
 11
108.0
 21
13.0
 31
0.0
  0
LINE
  5
52A
330
1E
100
AcDbEntity
  8
0
100
AcDbLine
 10
106.0
 20
8.0
 30
0.0
 11
107.4999999999999
 21
10.5
 31
0.0
  0
LINE
  5
52B
330
1E
100
AcDbEntity
  8
0
100
AcDbLine
 10
105.2
 20
16.0
 30
0.0
 11
107.0
 21
16.0
 31
0.0
  0
LINE
  5
52C
330
1E
100
AcDbEntity
  8
0
100
AcDbLine
 10
107.0
 20
16.0
 30
0.0
 11
108.0
 21
16.5
 31
0.0
  0
LINE
  5
52D
330
1E
100
AcDbEntity
  8
0
100
AcDbLine
 10
107.0
 20
16.0
 30
0.0
 11
108.0
 21
15.5
 31
0.0
  0
LINE
  5
52E
330
1E
100
AcDbEntity
  8
0
100
AcDbLine
 10
10.8
 20
16.0
 30
0.0
 11
15.6
 21
16.0
 31
0.0
  0
LINE
  5
52F
330
1E
100
AcDbEntity
  8
0
100
AcDbLine
 10
9.5
 20
28.5
 30
0.0
 11
38.5
 21
38.0
 31
0.0
  0
LINE
  5
530
330
1E
100
AcDbEntity
  8
0
100
AcDbLine
 10
9.5
 20
28.5
 30
0.0
 11
38.5
 21
38.0
 31
0.0
  0
LINE
  5
531
330
1E
100
AcDbEntity
  8
0
100
AcDbLine
 10
8.5
 20
28.0
 30
0.0
 11
10.3
 21
28.0
 31
0.0
  0
LINE
  5
532
330
1E
100
AcDbEntity
  8
0
100
AcDbLine
 10
8.5
 20
28.0
 30
0.0
 11
9.5
 21
28.5
 31
0.0
  0
LINE
  5
533
330
1E
100
AcDbEntity
  8
0
100
AcDbLine
 10
23.39999999999999
 20
16.0
 30
0.0
 11
33.6
 21
16.0
 31
0.0
  0
LINE
  5
534
330
1E
100
AcDbEntity
  8
0
100
AcDbLine
 10
92.59999999999999
 20
16.0
 30
0.0
 11
100.4
 21
16.0
 31
0.0
  0
LINE
  5
535
330
1E
100
AcDbEntity
  8
0
100
AcDbLine
 10
100.4
 20
16.0
 30
0.0
 11
105.2
 21
16.0
 31
0.0
  0
LINE
  5
536
330
1E
100
AcDbEntity
  8
0
100
AcDbLine
 10
82.4
 20
16.0
 30
0.0
 11
92.59999999999999
 21
16.0
 31
0.0
  0
LINE
  5
537
330
1E
100
AcDbEntity
  8
0
100
AcDbLine
 10
70.59999999999999
 20
16.0
 30
0.0
 11
82.4
 21
16.0
 31
0.0
  0
LINE
  5
538
330
1E
100
AcDbEntity
  8
0
100
AcDbLine
 10
58.0
 20
16.0
 30
0.0
 11
70.59999999999999
 21
16.0
 31
0.0
  0
LINE
  5
539
330
1E
100
AcDbEntity
  8
0
100
AcDbLine
 10
33.6
 20
16.0
 30
0.0
 11
45.4
 21
16.0
 31
0.0
  0
LINE
  5
53A
330
1E
100
AcDbEntity
  8
0
100
AcDbLine
 10
101.2999999999999
 20
16.5
 30
0.0
 11
106.2
 21
16.5
 31
0.0
  0
LINE
  5
53B
330
1E
100
AcDbEntity
  8
0
100
AcDbLine
 10
108.0
 20
16.5
 30
0.0
 11
108.0
 21
27.0
 31
0.0
  0
LINE
  5
53C
330
1E
100
AcDbEntity
  8
0
100
AcDbLine
 10
106.2
 20
16.5
 30
0.0
 11
108.0
 21
16.5
 31
0.0
  0
LINE
  5
53D
330
1E
100
AcDbEntity
  8
0
100
AcDbLine
 10
45.4
 20
16.0
 30
0.0
 11
58.0
 21
16.0
 31
0.0
  0
LINE
  5
53E
330
1E
100
AcDbEntity
  8
0
100
AcDbLine
 10
15.6
 20
16.0
 30
0.0
 11
23.39999999999999
 21
16.0
 31
0.0
  0
LINE
  5
53F
330
1E
100
AcDbEntity
  8
0
100
AcDbLine
 10
22.7
 20
16.5
 30
0.0
 11
33.1
 21
16.5
 31
0.0
  0
LINE
  5
540
330
1E
100
AcDbEntity
  8
0
100
AcDbLine
 10
23.0
 20
28.0
 30
0.0
 11
33.39999999999999
 21
28.0
 31
0.0
  0
LINE
  5
541
330
1E
100
AcDbEntity
  8
0
100
AcDbLine
 10
33.39999999999999
 20
28.0
 30
0.0
 11
45.3
 21
28.0
 31
0.0
  0
LINE
  5
542
330
1E
100
AcDbEntity
  8
0
100
AcDbLine
 10
33.1
 20
16.5
 30
0.0
 11
45.2
 21
16.5
 31
0.0
  0
LINE
  5
543
330
1E
100
AcDbEntity
  8
0
100
AcDbLine
 10
58.0
 20
28.0
 30
0.0
 11
70.7
 21
28.0
 31
0.0
  0
LINE
  5
544
330
1E
100
AcDbEntity
  8
0
100
AcDbLine
 10
93.3
 20
16.5
 30
0.0
 11
101.2999999999999
 21
16.5
 31
0.0
  0
LINE
  5
545
330
1E
100
AcDbEntity
  8
0
100
AcDbLine
 10
82.9
 20
16.5
 30
0.0
 11
93.3
 21
16.5
 31
0.0
  0
LINE
  5
546
330
1E
100
AcDbEntity
  8
0
100
AcDbLine
 10
93.0
 20
28.0
 30
0.0
 11
100.9
 21
28.0
 31
0.0
  0
LINE
  5
547
330
1E
100
AcDbEntity
  8
0
100
AcDbLine
 10
100.9
 20
28.0
 30
0.0
 11
105.6999999999999
 21
28.0
 31
0.0
  0
LINE
  5
548
330
1E
100
AcDbEntity
  8
0
100
AcDbLine
 10
105.6999999999999
 20
28.0
 30
0.0
 11
107.4999999999999
 21
28.0
 31
0.0
  0
LINE
  5
549
330
1E
100
AcDbEntity
  8
0
100
AcDbLine
 10
108.0
 20
27.0
 30
0.0
 11
108.0
 21
16.5
 31
0.0
  0
LINE
  5
54A
330
1E
100
AcDbEntity
  8
0
100
AcDbLine
 10
107.4999999999999
 20
28.0
 30
0.0
 11
108.0
 21
27.0
 31
0.0
  0
LINE
  5
54B
330
1E
100
AcDbEntity
  8
0
100
AcDbLine
 10
82.59999999999999
 20
28.0
 30
0.0
 11
93.0
 21
28.0
 31
0.0
  0
LINE
  5
54C
330
1E
100
AcDbEntity
  8
0
100
AcDbLine
 10
70.7
 20
28.0
 30
0.0
 11
82.59999999999999
 21
28.0
 31
0.0
  0
LINE
  5
54D
330
1E
100
AcDbEntity
  8
0
100
AcDbLine
 10
70.8
 20
16.5
 30
0.0
 11
82.9
 21
16.5
 31
0.0
  0
LINE
  5
54E
330
1E
100
AcDbEntity
  8
0
100
AcDbLine
 10
58.0
 20
16.5
 30
0.0
 11
70.8
 21
16.5
 31
0.0
  0
LINE
  5
54F
330
1E
100
AcDbEntity
  8
0
100
AcDbLine
 10
45.3
 20
28.0
 30
0.0
 11
58.0
 21
28.0
 31
0.0
  0
LINE
  5
550
330
1E
100
AcDbEntity
  8
0
100
AcDbLine
 10
45.2
 20
16.5
 30
0.0
 11
58.0
 21
16.5
 31
0.0
  0
LINE
  5
551
330
1E
100
AcDbEntity
  8
0
100
AcDbLine
 10
76.0
 20
39.0
 30
0.0
 11
77.5
 21
38.0
 31
0.0
  0
LINE
  5
552
330
1E
100
AcDbEntity
  8
0
100
AcDbLine
 10
77.5
 20
38.0
 30
0.0
 11
106.4999999999999
 21
28.5
 31
0.0
  0
LINE
  5
553
330
1E
100
AcDbEntity
  8
0
100
AcDbLine
 10
106.4999999999999
 20
28.5
 30
0.0
 11
107.4999999999999
 21
28.0
 31
0.0
  0
LINE
  5
554
330
1E
100
AcDbEntity
  8
0
100
AcDbLine
 10
43.0
 20
41.0
 30
0.0
 11
43.0
 21
53.0
 31
0.0
  0
LINE
  5
555
330
1E
100
AcDbEntity
  8
0
100
AcDbLine
 10
46.0
 20
41.0
 30
0.0
 11
49.5
 21
41.0
 31
0.0
  0
LINE
  5
556
330
1E
100
AcDbEntity
  8
0
100
AcDbLine
 10
70.0
 20
41.0
 30
0.0
 11
72.7
 21
41.0
 31
0.0
  0
LINE
  5
557
330
1E
100
AcDbEntity
  8
0
100
AcDbLine
 10
73.0
 20
41.0
 30
0.0
 11
73.0
 21
53.0
 31
0.0
  0
LINE
  5
558
330
1E
100
AcDbEntity
  8
0
100
AcDbLine
 10
72.7
 20
41.0
 30
0.0
 11
74.40000000000001
 21
41.0
 31
0.0
  0
LINE
  5
559
330
1E
100
AcDbEntity
  8
0
100
AcDbLine
 10
74.40000000000001
 20
41.0
 30
0.0
 11
75.0
 21
41.0
 31
0.0
  0
LINE
  5
55A
330
1E
100
AcDbEntity
  8
0
100
AcDbLine
 10
75.0
 20
41.0
 30
0.0
 11
76.0
 21
39.0
 31
0.0
  0
LINE
  5
55B
330
1E
100
AcDbEntity
  8
0
100
AcDbLine
 10
66.5
 20
41.0
 30
0.0
 11
70.0
 21
41.0
 31
0.0
  0
LINE
  5
55C
330
1E
100
AcDbEntity
  8
0
100
AcDbLine
 10
62.4
 20
41.0
 30
0.0
 11
66.5
 21
41.0
 31
0.0
  0
LINE
  5
55D
330
1E
100
AcDbEntity
  8
0
100
AcDbLine
 10
58.0
 20
41.0
 30
0.0
 11
62.4
 21
41.0
 31
0.0
  0
LINE
  5
55E
330
1E
100
AcDbEntity
  8
0
100
AcDbLine
 10
49.5
 20
41.0
 30
0.0
 11
53.6
 21
41.0
 31
0.0
  0
LINE
  5
55F
330
1E
100
AcDbEntity
  8
0
100
AcDbLine
 10
53.6
 20
41.0
 30
0.0
 11
58.0
 21
41.0
 31
0.0
  0
LINE
  5
560
330
1E
100
AcDbEntity
  8
0
100
AcDbLine
 10
43.3
 20
41.0
 30
0.0
 11
46.0
 21
41.0
 31
0.0
  0
LINE
  5
561
330
1E
100
AcDbEntity
  8
0
100
AcDbLine
 10
43.0
 20
61.0
 30
0.0
 11
43.0
 21
54.0
 31
0.0
  0
LINE
  5
562
330
1E
100
AcDbEntity
  8
0
100
AcDbLine
 10
43.0
 20
61.0
 30
0.0
 11
43.5
 21
61.0
 31
0.0
  0
LINE
  5
563
330
1E
100
AcDbEntity
  8
0
100
AcDbLine
 10
43.0
 20
61.0
 30
0.0
 11
45.0
 21
62.0
 31
0.0
  0
LINE
  5
564
330
1E
100
AcDbEntity
  8
0
100
AcDbLine
 10
43.0
 20
54.0
 30
0.0
 11
43.5
 21
54.0
 31
0.0
  0
LINE
  5
565
330
1E
100
AcDbEntity
  8
0
100
AcDbLine
 10
43.0
 20
54.0
 30
0.0
 11
44.0
 21
53.5
 31
0.0
  0
LINE
  5
566
330
1E
100
AcDbEntity
  8
0
100
AcDbLine
 10
43.0
 20
54.0
 30
0.0
 11
43.0
 21
61.0
 31
0.0
  0
LINE
  5
567
330
1E
100
AcDbEntity
  8
0
100
AcDbLine
 10
73.0
 20
53.0
 30
0.0
 11
73.0
 21
41.0
 31
0.0
  0
LINE
  5
568
330
1E
100
AcDbEntity
  8
0
100
AcDbLine
 10
71.0
 20
53.0
 30
0.0
 11
72.5
 21
53.0
 31
0.0
  0
LINE
  5
569
330
1E
100
AcDbEntity
  8
0
100
AcDbLine
 10
72.5
 20
53.0
 30
0.0
 11
73.0
 21
53.0
 31
0.0
  0
LINE
  5
56A
330
1E
100
AcDbEntity
  8
0
100
AcDbLine
 10
45.0
 20
53.0
 30
0.0
 11
47.4
 21
53.0
 31
0.0
  0
LINE
  5
56B
330
1E
100
AcDbEntity
  8
0
100
AcDbLine
 10
43.5
 20
61.0
 30
0.0
 11
45.0
 21
61.0
 31
0.0
  0
LINE
  5
56C
330
1E
100
AcDbEntity
  8
0
100
AcDbLine
 10
43.5
 20
54.0
 30
0.0
 11
45.0
 21
54.0
 31
0.0
  0
LINE
  5
56D
330
1E
100
AcDbEntity
  8
0
100
AcDbLine
 10
47.4
 20
53.0
 30
0.0
 11
50.5
 21
53.0
 31
0.0
  0
LINE
  5
56E
330
1E
100
AcDbEntity
  8
0
100
AcDbLine
 10
68.59999999999999
 20
53.0
 30
0.0
 11
71.0
 21
53.0
 31
0.0
  0
LINE
  5
56F
330
1E
100
AcDbEntity
  8
0
100
AcDbLine
 10
65.5
 20
53.0
 30
0.0
 11
68.59999999999999
 21
53.0
 31
0.0
  0
LINE
  5
570
330
1E
100
AcDbEntity
  8
0
100
AcDbLine
 10
61.9
 20
53.0
 30
0.0
 11
65.5
 21
53.0
 31
0.0
  0
LINE
  5
571
330
1E
100
AcDbEntity
  8
0
100
AcDbLine
 10
58.0
 20
53.0
 30
0.0
 11
61.9
 21
53.0
 31
0.0
  0
LINE
  5
572
330
1E
100
AcDbEntity
  8
0
100
AcDbLine
 10
50.5
 20
53.0
 30
0.0
 11
54.1
 21
53.0
 31
0.0
  0
LINE
  5
573
330
1E
100
AcDbEntity
  8
0
100
AcDbLine
 10
48.1
 20
53.5
 30
0.0
 11
51.0
 21
53.5
 31
0.0
  0
LINE
  5
574
330
1E
100
AcDbEntity
  8
0
100
AcDbLine
 10
51.0
 20
53.5
 30
0.0
 11
54.4
 21
53.5
 31
0.0
  0
LINE
  5
575
330
1E
100
AcDbEntity
  8
0
100
AcDbLine
 10
67.9
 20
53.5
 30
0.0
 11
70.09999999999999
 21
53.5
 31
0.0
  0
LINE
  5
576
330
1E
100
AcDbEntity
  8
0
100
AcDbLine
 10
70.09999999999999
 20
53.5
 30
0.0
 11
71.5
 21
53.5
 31
0.0
  0
LINE
  5
577
330
1E
100
AcDbEntity
  8
0
100
AcDbLine
 10
72.0
 20
53.5
 30
0.0
 11
73.0
 21
53.0
 31
0.0
  0
LINE
  5
578
330
1E
100
AcDbEntity
  8
0
100
AcDbLine
 10
72.0
 20
53.5
 30
0.0
 11
73.0
 21
54.0
 31
0.0
  0
LINE
  5
579
330
1E
100
AcDbEntity
  8
0
100
AcDbLine
 10
71.5
 20
53.5
 30
0.0
 11
72.0
 21
53.5
 31
0.0
  0
LINE
  5
57A
330
1E
100
AcDbEntity
  8
0
100
AcDbLine
 10
65.0
 20
53.5
 30
0.0
 11
67.9
 21
53.5
 31
0.0
  0
LINE
  5
57B
330
1E
100
AcDbEntity
  8
0
100
AcDbLine
 10
61.6
 20
53.5
 30
0.0
 11
65.0
 21
53.5
 31
0.0
  0
LINE
  5
57C
330
1E
100
AcDbEntity
  8
0
100
AcDbLine
 10
58.0
 20
53.5
 30
0.0
 11
61.6
 21
53.5
 31
0.0
  0
LINE
  5
57D
330
1E
100
AcDbEntity
  8
0
100
AcDbLine
 10
54.4
 20
53.5
 30
0.0
 11
58.0
 21
53.5
 31
0.0
  0
LINE
  5
57E
330
1E
100
AcDbEntity
  8
0
100
AcDbLine
 10
54.1
 20
53.0
 30
0.0
 11
58.0
 21
53.0
 31
0.0
  0
LINE
  5
57F
330
1E
100
AcDbEntity
  8
0
100
AcDbLine
 10
45.89999999999999
 20
53.5
 30
0.0
 11
48.1
 21
53.5
 31
0.0
  0
LINE
  5
580
330
1E
100
AcDbEntity
  8
0
100
AcDbLine
 10
45.0
 20
62.0
 30
0.0
 11
45.49999999999999
 21
62.0
 31
0.0
  0
LINE
  5
581
330
1E
100
AcDbEntity
  8
0
100
AcDbLine
 10
45.0
 20
61.0
 30
0.0
 11
47.4
 21
61.0
 31
0.0
  0
LINE
  5
582
330
1E
100
AcDbEntity
  8
0
100
AcDbLine
 10
47.4
 20
54.0
 30
0.0
 11
50.5
 21
54.0
 31
0.0
  0
LINE
  5
583
330
1E
100
AcDbEntity
  8
0
100
AcDbLine
 10
47.4
 20
61.0
 30
0.0
 11
50.5
 21
61.0
 31
0.0
  0
LINE
  5
584
330
1E
100
AcDbEntity
  8
0
100
AcDbLine
 10
50.5
 20
61.0
 30
0.0
 11
54.1
 21
61.0
 31
0.0
  0
LINE
  5
585
330
1E
100
AcDbEntity
  8
0
100
AcDbLine
 10
54.1
 20
61.0
 30
0.0
 11
58.0
 21
61.0
 31
0.0
  0
LINE
  5
586
330
1E
100
AcDbEntity
  8
0
100
AcDbLine
 10
50.5
 20
54.0
 30
0.0
 11
54.1
 21
54.0
 31
0.0
  0
LINE
  5
587
330
1E
100
AcDbEntity
  8
0
100
AcDbLine
 10
58.0
 20
61.0
 30
0.0
 11
61.9
 21
61.0
 31
0.0
  0
LINE
  5
588
330
1E
100
AcDbEntity
  8
0
100
AcDbLine
 10
68.59999999999999
 20
54.0
 30
0.0
 11
71.0
 21
54.0
 31
0.0
  0
LINE
  5
589
330
1E
100
AcDbEntity
  8
0
100
AcDbLine
 10
73.0
 20
54.0
 30
0.0
 11
73.0
 21
61.0
 31
0.0
  0
LINE
  5
58A
330
1E
100
AcDbEntity
  8
0
100
AcDbLine
 10
71.0
 20
54.0
 30
0.0
 11
72.5
 21
54.0
 31
0.0
  0
LINE
  5
58B
330
1E
100
AcDbEntity
  8
0
100
AcDbLine
 10
72.5
 20
54.0
 30
0.0
 11
73.0
 21
54.0
 31
0.0
  0
LINE
  5
58C
330
1E
100
AcDbEntity
  8
0
100
AcDbLine
 10
65.5
 20
54.0
 30
0.0
 11
68.59999999999999
 21
54.0
 31
0.0
  0
LINE
  5
58D
330
1E
100
AcDbEntity
  8
0
100
AcDbLine
 10
68.59999999999999
 20
61.0
 30
0.0
 11
71.0
 21
61.0
 31
0.0
  0
LINE
  5
58E
330
1E
100
AcDbEntity
  8
0
100
AcDbLine
 10
71.0
 20
61.0
 30
0.0
 11
72.5
 21
61.0
 31
0.0
  0
LINE
  5
58F
330
1E
100
AcDbEntity
  8
0
100
AcDbLine
 10
73.0
 20
61.0
 30
0.0
 11
73.0
 21
54.0
 31
0.0
  0
LINE
  5
590
330
1E
100
AcDbEntity
  8
0
100
AcDbLine
 10
72.5
 20
61.0
 30
0.0
 11
73.0
 21
61.0
 31
0.0
  0
LINE
  5
591
330
1E
100
AcDbEntity
  8
0
100
AcDbLine
 10
67.2
 20
62.0
 30
0.0
 11
71.0
 21
62.0
 31
0.0
  0
LINE
  5
592
330
1E
100
AcDbEntity
  8
0
100
AcDbLine
 10
71.0
 20
62.0
 30
0.0
 11
73.0
 21
61.0
 31
0.0
  0
LINE
  5
593
330
1E
100
AcDbEntity
  8
0
100
AcDbLine
 10
58.0
 20
62.0
 30
0.0
 11
67.2
 21
62.0
 31
0.0
  0
LINE
  5
594
330
1E
100
AcDbEntity
  8
0
100
AcDbLine
 10
65.5
 20
61.0
 30
0.0
 11
68.59999999999999
 21
61.0
 31
0.0
  0
LINE
  5
595
330
1E
100
AcDbEntity
  8
0
100
AcDbLine
 10
61.9
 20
61.0
 30
0.0
 11
65.5
 21
61.0
 31
0.0
  0
LINE
  5
596
330
1E
100
AcDbEntity
  8
0
100
AcDbLine
 10
61.9
 20
54.0
 30
0.0
 11
65.5
 21
54.0
 31
0.0
  0
LINE
  5
597
330
1E
100
AcDbEntity
  8
0
100
AcDbLine
 10
58.0
 20
54.0
 30
0.0
 11
61.9
 21
54.0
 31
0.0
  0
LINE
  5
598
330
1E
100
AcDbEntity
  8
0
100
AcDbLine
 10
48.0
 20
62.0
 30
0.0
 11
58.0
 21
62.0
 31
0.0
  0
LINE
  5
599
330
1E
100
AcDbEntity
  8
0
100
AcDbLine
 10
54.1
 20
54.0
 30
0.0
 11
58.0
 21
54.0
 31
0.0
  0
LINE
  5
59A
330
1E
100
AcDbEntity
  8
0
100
AcDbLine
 10
48.0
 20
62.0
 30
0.0
 11
50.0
 21
65.0
 31
0.0
  0
LINE
  5
59B
330
1E
100
AcDbEntity
  8
0
100
AcDbLine
 10
46.7
 20
62.0
 30
0.0
 11
48.79999999999999
 21
62.0
 31
0.0
  0
LINE
  5
59C
330
1E
100
AcDbEntity
  8
0
100
AcDbLine
 10
50.0
 20
65.0
 30
0.0
 11
50.0
 21
66.0
 31
0.0
  0
LINE
  5
59D
330
1E
100
AcDbEntity
  8
0
100
AcDbLine
 10
51.1
 20
66.0
 30
0.0
 11
52.4
 21
66.0
 31
0.0
  0
LINE
  5
59E
330
1E
100
AcDbEntity
  8
0
100
AcDbLine
 10
50.3
 20
66.0
 30
0.0
 11
51.1
 21
66.0
 31
0.0
  0
LINE
  5
59F
330
1E
100
AcDbEntity
  8
0
100
AcDbLine
 10
47.6
 20
67.0
 30
0.0
 11
49.5
 21
67.0
 31
0.0
  0
LINE
  5
5A0
330
1E
100
AcDbEntity
  8
0
100
AcDbLine
 10
47.6
 20
67.0
 30
0.0
 11
48.0
 21
67.0
 31
0.0
  0
LINE
  5
5A1
330
1E
100
AcDbEntity
  8
0
100
AcDbLine
 10
46.39999999999999
 20
67.0
 30
0.0
 11
47.6
 21
67.0
 31
0.0
  0
LINE
  5
5A2
330
1E
100
AcDbEntity
  8
0
100
AcDbLine
 10
47.6
 20
79.0
 30
0.0
 11
49.5
 21
79.0
 31
0.0
  0
LINE
  5
5A3
330
1E
100
AcDbEntity
  8
0
100
AcDbLine
 10
46.39999999999999
 20
79.0
 30
0.0
 11
47.6
 21
79.0
 31
0.0
  0
LINE
  5
5A4
330
1E
100
AcDbEntity
  8
0
100
AcDbLine
 10
46.0
 20
79.0
 30
0.0
 11
46.0
 21
67.0
 31
0.0
  0
LINE
  5
5A5
330
1E
100
AcDbEntity
  8
0
100
AcDbLine
 10
46.0
 20
79.0
 30
0.0
 11
46.39999999999999
 21
79.0
 31
0.0
  0
LINE
  5
5A6
330
1E
100
AcDbEntity
  8
0
100
AcDbLine
 10
46.0
 20
67.0
 30
0.0
 11
46.39999999999999
 21
67.0
 31
0.0
  0
LINE
  5
5A7
330
1E
100
AcDbEntity
  8
0
100
AcDbLine
 10
46.0
 20
67.0
 30
0.0
 11
46.0
 21
79.0
 31
0.0
  0
LINE
  5
5A8
330
1E
100
AcDbEntity
  8
0
100
AcDbLine
 10
49.5
 20
79.0
 30
0.0
 11
52.0
 21
79.0
 31
0.0
  0
LINE
  5
5A9
330
1E
100
AcDbEntity
  8
0
100
AcDbLine
 10
49.5
 20
67.0
 30
0.0
 11
52.0
 21
67.0
 31
0.0
  0
LINE
  5
5AA
330
1E
100
AcDbEntity
  8
0
100
AcDbLine
 10
48.0
 20
67.0
 30
0.0
 11
50.0
 21
66.0
 31
0.0
  0
LINE
  5
5AB
330
1E
100
AcDbEntity
  8
0
100
AcDbLine
 10
50.0
 20
66.0
 30
0.0
 11
50.0
 21
65.0
 31
0.0
  0
LINE
  5
5AC
330
1E
100
AcDbEntity
  8
0
100
AcDbLine
 10
50.0
 20
66.0
 30
0.0
 11
50.3
 21
66.0
 31
0.0
  0
LINE
  5
5AE
330
1E
100
AcDbEntity
  8
0
100
AcDbLine
 10
66.0
 20
65.0
 30
0.0
 11
68.0
 21
62.0
 31
0.0
  0
LINE
  5
5AF
330
1E
100
AcDbEntity
  8
0
100
AcDbLine
 10
66.0
 20
65.0
 30
0.0
 11
66.0
 21
66.0
 31
0.0
  0
LINE
  5
5B1
330
1E
100
AcDbEntity
  8
0
100
AcDbLine
 10
52.4
 20
66.0
 30
0.0
 11
54.0
 21
66.0
 31
0.0
  0
LINE
  5
5B2
330
1E
100
AcDbEntity
  8
0
100
AcDbLine
 10
52.0
 20
79.0
 30
0.0
 11
54.9
 21
79.0
 31
0.0
  0
LINE
  5
5B3
330
1E
100
AcDbEntity
  8
0
100
AcDbLine
 10
54.9
 20
79.0
 30
0.0
 11
58.0
 21
79.0
 31
0.0
  0
LINE
  5
5B4
330
1E
100
AcDbEntity
  8
0
100
AcDbLine
 10
52.0
 20
67.0
 30
0.0
 11
54.9
 21
67.0
 31
0.0
  0
LINE
  5
5B5
330
1E
100
AcDbEntity
  8
0
100
AcDbLine
 10
54.9
 20
67.0
 30
0.0
 11
58.0
 21
67.0
 31
0.0
  0
LINE
  5
5B6
330
1E
100
AcDbEntity
  8
0
100
AcDbLine
 10
54.0
 20
66.0
 30
0.0
 11
55.89999999999999
 21
66.0
 31
0.0
  0
LINE
  5
5B7
330
1E
100
AcDbEntity
  8
0
100
AcDbLine
 10
63.6
 20
66.0
 30
0.0
 11
64.90000000000001
 21
66.0
 31
0.0
  0
LINE
  5
5B8
330
1E
100
AcDbEntity
  8
0
100
AcDbLine
 10
64.90000000000001
 20
66.0
 30
0.0
 11
65.7
 21
66.0
 31
0.0
  0
LINE
  5
5B9
330
1E
100
AcDbEntity
  8
0
100
AcDbLine
 10
66.0
 20
66.0
 30
0.0
 11
68.0
 21
67.0
 31
0.0
  0
LINE
  5
5BA
330
1E
100
AcDbEntity
  8
0
100
AcDbLine
 10
66.0
 20
66.0
 30
0.0
 11
66.0
 21
65.0
 31
0.0
  0
LINE
  5
5BB
330
1E
100
AcDbEntity
  8
0
100
AcDbLine
 10
65.7
 20
66.0
 30
0.0
 11
66.0
 21
66.0
 31
0.0
  0
LINE
  5
5BC
330
1E
100
AcDbEntity
  8
0
100
AcDbLine
 10
62.0
 20
66.0
 30
0.0
 11
63.6
 21
66.0
 31
0.0
  0
LINE
  5
5BD
330
1E
100
AcDbEntity
  8
0
100
AcDbLine
 10
60.1
 20
66.0
 30
0.0
 11
62.0
 21
66.0
 31
0.0
  0
LINE
  5
5BE
330
1E
100
AcDbEntity
  8
0
100
AcDbLine
 10
58.0
 20
79.0
 30
0.0
 11
61.1
 21
79.0
 31
0.0
  0
LINE
  5
5BF
330
1E
100
AcDbEntity
  8
0
100
AcDbLine
 10
68.0
 20
67.0
 30
0.0
 11
68.4
 21
67.0
 31
0.0
  0
LINE
  5
5C0
330
1E
100
AcDbEntity
  8
0
100
AcDbLine
 10
66.5
 20
67.0
 30
0.0
 11
68.4
 21
67.0
 31
0.0
  0
LINE
  5
5C1
330
1E
100
AcDbEntity
  8
0
100
AcDbLine
 10
70.0
 20
67.0
 30
0.0
 11
70.0
 21
79.0
 31
0.0
  0
LINE
  5
5C2
330
1E
100
AcDbEntity
  8
0
100
AcDbLine
 10
68.4
 20
67.0
 30
0.0
 11
69.59999999999999
 21
67.0
 31
0.0
  0
LINE
  5
5C3
330
1E
100
AcDbEntity
  8
0
100
AcDbLine
 10
69.59999999999999
 20
67.0
 30
0.0
 11
70.0
 21
67.0
 31
0.0
  0
LINE
  5
5C4
330
1E
100
AcDbEntity
  8
0
100
AcDbLine
 10
64.0
 20
67.0
 30
0.0
 11
66.5
 21
67.0
 31
0.0
  0
LINE
  5
5C5
330
1E
100
AcDbEntity
  8
0
100
AcDbLine
 10
66.5
 20
79.0
 30
0.0
 11
68.4
 21
79.0
 31
0.0
  0
LINE
  5
5C6
330
1E
100
AcDbEntity
  8
0
100
AcDbLine
 10
68.4
 20
79.0
 30
0.0
 11
69.59999999999999
 21
79.0
 31
0.0
  0
LINE
  5
5C7
330
1E
100
AcDbEntity
  8
0
100
AcDbLine
 10
70.0
 20
79.0
 30
0.0
 11
70.0
 21
67.0
 31
0.0
  0
LINE
  5
5C8
330
1E
100
AcDbEntity
  8
0
100
AcDbLine
 10
69.59999999999999
 20
79.0
 30
0.0
 11
70.0
 21
79.0
 31
0.0
  0
LINE
  5
5C9
330
1E
100
AcDbEntity
  8
0
100
AcDbLine
 10
64.0
 20
79.0
 30
0.0
 11
66.5
 21
79.0
 31
0.0
  0
LINE
  5
5CA
330
1E
100
AcDbEntity
  8
0
100
AcDbLine
 10
61.1
 20
79.0
 30
0.0
 11
64.0
 21
79.0
 31
0.0
  0
LINE
  5
5CB
330
1E
100
AcDbEntity
  8
0
100
AcDbLine
 10
61.1
 20
67.0
 30
0.0
 11
64.0
 21
67.0
 31
0.0
  0
LINE
  5
5CC
330
1E
100
AcDbEntity
  8
0
100
AcDbLine
 10
58.0
 20
67.0
 30
0.0
 11
61.1
 21
67.0
 31
0.0
  0
LINE
  5
5CD
330
1E
100
AcDbEntity
  8
0
100
AcDbLine
 10
58.0
 20
66.0
 30
0.0
 11
60.1
 21
66.0
 31
0.0
  0
LINE
  5
5CE
330
1E
100
AcDbEntity
  8
0
100
AcDbLine
 10
55.89999999999999
 20
66.0
 30
0.0
 11
58.0
 21
66.0
 31
0.0
  0
LINE
  5
5D1
330
1E
100
AcDbEntity
  8
0
100
AcDbLine
 10
45.49999999999999
 20
62.0
 30
0.0
 11
46.7
 21
62.0
 31
0.0
  0
LINE
  5
5D2
330
1E
100
AcDbEntity
  8
0
100
AcDbLine
 10
45.0
 20
54.0
 30
0.0
 11
47.4
 21
54.0
 31
0.0
  0
LINE
  5
5D3
330
1E
100
AcDbEntity
  8
0
100
AcDbLine
 10
44.5
 20
53.5
 30
0.0
 11
45.89999999999999
 21
53.5
 31
0.0
  0
LINE
  5
5D4
330
1E
100
AcDbEntity
  8
0
100
AcDbLine
 10
44.0
 20
53.5
 30
0.0
 11
44.5
 21
53.5
 31
0.0
  0
LINE
  5
5D5
330
1E
100
AcDbEntity
  8
0
100
AcDbLine
 10
43.5
 20
53.0
 30
0.0
 11
45.0
 21
53.0
 31
0.0
  0
LINE
  5
5D6
330
1E
100
AcDbEntity
  8
0
100
AcDbLine
 10
43.0
 20
53.0
 30
0.0
 11
43.0
 21
41.0
 31
0.0
  0
LINE
  5
5D7
330
1E
100
AcDbEntity
  8
0
100
AcDbLine
 10
43.0
 20
53.0
 30
0.0
 11
43.5
 21
53.0
 31
0.0
  0
LINE
  5
5D8
330
1E
100
AcDbEntity
  8
0
100
AcDbLine
 10
43.0
 20
53.0
 30
0.0
 11
44.0
 21
53.5
 31
0.0
  0
LINE
  5
5D9
330
1E
100
AcDbEntity
  8
0
100
AcDbLine
 10
41.6
 20
41.0
 30
0.0
 11
43.3
 21
41.0
 31
0.0
  0
LINE
  5
5DA
330
1E
100
AcDbEntity
  8
0
100
AcDbLine
 10
41.0
 20
41.0
 30
0.0
 11
41.6
 21
41.0
 31
0.0
  0
LINE
  5
5DB
330
1E
100
AcDbEntity
  8
0
100
AcDbLine
 10
40.0
 20
39.0
 30
0.0
 11
41.0
 21
41.0
 31
0.0
  0
LINE
  5
5DC
330
1E
100
AcDbEntity
  8
0
100
AcDbLine
 10
38.5
 20
38.0
 30
0.0
 11
40.0
 21
39.0
 31
0.0
  0
LINE
  5
5DD
330
1E
100
AcDbEntity
  8
0
100
AcDbLine
 10
15.09999999999999
 20
28.0
 30
0.0
 11
23.0
 21
28.0
 31
0.0
  0
LINE
  5
5DE
330
1E
100
AcDbEntity
  8
0
100
AcDbLine
 10
10.3
 20
28.0
 30
0.0
 11
15.09999999999999
 21
28.0
 31
0.0
  0
LINE
  5
5DF
330
1E
100
AcDbEntity
  8
0
100
AcDbLine
 10
14.69999999999999
 20
16.5
 30
0.0
 11
22.7
 21
16.5
 31
0.0
  0
LINE
  5
5E0
330
1E
100
AcDbEntity
  8
0
100
AcDbLine
 10
9.8
 20
16.5
 30
0.0
 11
14.69999999999999
 21
16.5
 31
0.0
  0
LINE
  5
5E1
330
1E
100
AcDbEntity
  8
0
100
AcDbLine
 10
9.0
 20
16.0
 30
0.0
 11
10.8
 21
16.0
 31
0.0
  0
LINE
  5
5E2
330
1E
100
AcDbEntity
  8
0
100
AcDbLine
 10
8.0
 20
16.5
 30
0.0
 11
9.8
 21
16.5
 31
0.0
  0
LINE
  5
5E3
330
1E
100
AcDbEntity
  8
0
100
AcDbLine
 10
8.0
 20
16.5
 30
0.0
 11
9.0
 21
16.0
 31
0.0
  0
LINE
  5
5E4
330
1E
100
AcDbEntity
  8
0
100
AcDbLine
 10
8.0
 20
16.5
 30
0.0
 11
8.0
 21
27.0
 31
0.0
  0
ENDSEC
  0
SECTION
  2
OBJECTS
  0
DICTIONARY
  5
C
330
0
100
AcDbDictionary
  3
ACAD_GROUP
350
D
  3
ACAD_LAYOUT
350
19
  3
ACAD_MLINESTYLE
350
16
  3
ACAD_PLOTSETTINGS
350
18
  3
ACAD_PLOTSTYLENAME
350
E
  3
ACDBHEADERROUNDTRIPXREC
350
5EC
  3
ACDBVARIABLEDICTIONARY
350
5E9
  0
DICTIONARY
  5
60E
330
1E
100
AcDbDictionary
280
     1
  3
ACAD_LAYOUTSELFREF
360
60F
  0
DICTIONARY
  5
60C
330
1A
100
AcDbDictionary
280
     1
  3
ACAD_LAYOUTSELFREF
360
60D
  0
DICTIONARY
  5
D
102
{ACAD_REACTORS
330
C
102
}
330
C
100
AcDbDictionary
  0
DICTIONARY
  5
19
102
{ACAD_REACTORS
330
C
102
}
330
C
100
AcDbDictionary
  0
DICTIONARY
  5
16
102
{ACAD_REACTORS
330
C
102
}
330
C
100
AcDbDictionary
  3
STANDARD
350
17
  0
DICTIONARY
  5
18
102
{ACAD_REACTORS
330
C
102
}
330
C
100
AcDbDictionary
  0
ACDBDICTIONARYWDFLT
  5
E
102
{ACAD_REACTORS
330
C
102
}
330
C
100
AcDbDictionary
281
     1
  3
Normal
350
F
100
AcDbDictionaryWithDefault
340
F
  0
DICTIONARY
  5
5EC
102
{ACAD_REACTORS
330
C
102
}
330
C
100
AcDbDictionary
  3
CEPSNTYPE
350
5F6
  3
FINGERPRINTGUID
350
5F7
  3
HYPERLINKBASE
350
5EF
  3
INSUNITS
350
5F5
  3
LAYOUTDICT
350
5F1
  3
LWETCUNION
350
5F4
  3
PLOTSETDICT
350
5F2
  3
PLOTSTYLNAMDICT
350
5F3
  3
PSVPSCALE
350
5F9
  3
PUCSBASE
350
5FC
  3
PUCSORGBACK
350
602
  3
PUCSORGBOTTOM
350
5FE
  3
PUCSORGFRONT
350
601
  3
PUCSORGLEFT
350
5FF
  3
PUCSORGRIGHT
350
600
  3
PUCSORGTOP
350
5FD
  3
PUCSORTHOREF
350
5FA
  3
PUCSORTHOVIEW
350
5FB
  3
STYLESHEET
350
5F0
  3
TSTACKALIGN
350
5ED
  3
TSTACKSIZE
350
5EE
  3
UCSBASE
350
605
  3
UCSORGBACK
350
60B
  3
UCSORGBOTTOM
350
607
  3
UCSORGFRONT
350
60A
  3
UCSORGLEFT
350
608
  3
UCSORGRIGHT
350
609
  3
UCSORGTOP
350
606
  3
UCSORTHOREF
350
603
  3
UCSORTHOVIEW
350
604
  3
VERSIONGUID
350
5F8
  0
DICTIONARY
  5
5E9
102
{ACAD_REACTORS
330
C
102
}
330
C
100
AcDbDictionary
  3
DIMASSOC
350
5EA
  0
XRECORD
  5
60F
102
{ACAD_REACTORS
330
60E
102
}
330
60E
100
AcDbXrecord
340
1E
  0
XRECORD
  5
60D
102
{ACAD_REACTORS
330
60C
102
}
330
60C
100
AcDbXrecord
340
1A
  0
MLINESTYLE
  5
17
102
{ACAD_REACTORS
330
16
102
}
330
16
100
AcDbMlineStyle
  2
STANDARD
 70
     0
  3

 62
   256
 51
90.0
 52
90.0
 71
     2
 49
0.5
 62
   256
  6
BYLAYER
 49
-0.5
 62
   256
  6
BYLAYER
  0
ACDBPLACEHOLDER
  5
F
102
{ACAD_REACTORS
330
E
102
}
330
E
100
AcDbPlaceHolder
280
     0
  0
XRECORD
  5
5F6
102
{ACAD_REACTORS
330
5EC
102
}
330
5EC
100
AcDbXrecord
 90
        0
  0
XRECORD
  5
5F7
102
{ACAD_REACTORS
330
5EC
102
}
330
5EC
100
AcDbXrecord
  1
{CF668E8C-D1E4-4D8A-922C-AFDF1AE2C75D}
  0
XRECORD
  5
5EF
102
{ACAD_REACTORS
330
5EC
102
}
330
5EC
100
AcDbXrecord
  1

  0
XRECORD
  5
5F5
102
{ACAD_REACTORS
330
5EC
102
}
330
5EC
100
AcDbXrecord
 90
        0
  0
XRECORD
  5
5F1
102
{ACAD_REACTORS
330
5EC
102
}
330
5EC
100
AcDbXrecord
340
19
  0
XRECORD
  5
5F4
102
{ACAD_REACTORS
330
5EC
102
}
330
5EC
100
AcDbXrecord
 90
    10781
  0
XRECORD
  5
5F2
102
{ACAD_REACTORS
330
5EC
102
}
330
5EC
100
AcDbXrecord
340
18
  0
XRECORD
  5
5F3
102
{ACAD_REACTORS
330
5EC
102
}
330
5EC
100
AcDbXrecord
340
E
  0
XRECORD
  5
5F9
102
{ACAD_REACTORS
330
5EC
102
}
330
5EC
100
AcDbXrecord
 40
0.0
  0
XRECORD
  5
5FC
102
{ACAD_REACTORS
330
5EC
102
}
330
5EC
100
AcDbXrecord
340
0
  0
XRECORD
  5
602
102
{ACAD_REACTORS
330
5EC
102
}
330
5EC
100
AcDbXrecord
 10
0.0
 20
0.0
 30
0.0
  0
XRECORD
  5
5FE
102
{ACAD_REACTORS
330
5EC
102
}
330
5EC
100
AcDbXrecord
 10
0.0
 20
0.0
 30
0.0
  0
XRECORD
  5
601
102
{ACAD_REACTORS
330
5EC
102
}
330
5EC
100
AcDbXrecord
 10
0.0
 20
0.0
 30
0.0
  0
XRECORD
  5
5FF
102
{ACAD_REACTORS
330
5EC
102
}
330
5EC
100
AcDbXrecord
 10
0.0
 20
0.0
 30
0.0
  0
XRECORD
  5
600
102
{ACAD_REACTORS
330
5EC
102
}
330
5EC
100
AcDbXrecord
 10
0.0
 20
0.0
 30
0.0
  0
XRECORD
  5
5FD
102
{ACAD_REACTORS
330
5EC
102
}
330
5EC
100
AcDbXrecord
 10
0.0
 20
0.0
 30
0.0
  0
XRECORD
  5
5FA
102
{ACAD_REACTORS
330
5EC
102
}
330
5EC
100
AcDbXrecord
340
0
  0
XRECORD
  5
5FB
102
{ACAD_REACTORS
330
5EC
102
}
330
5EC
100
AcDbXrecord
 70
     0
  0
XRECORD
  5
5F0
102
{ACAD_REACTORS
330
5EC
102
}
330
5EC
100
AcDbXrecord
  1

  0
XRECORD
  5
5ED
102
{ACAD_REACTORS
330
5EC
102
}
330
5EC
100
AcDbXrecord
 90
        1
  0
XRECORD
  5
5EE
102
{ACAD_REACTORS
330
5EC
102
}
330
5EC
100
AcDbXrecord
 90
       70
  0
XRECORD
  5
605
102
{ACAD_REACTORS
330
5EC
102
}
330
5EC
100
AcDbXrecord
340
0
  0
XRECORD
  5
60B
102
{ACAD_REACTORS
330
5EC
102
}
330
5EC
100
AcDbXrecord
 10
0.0
 20
0.0
 30
0.0
  0
XRECORD
  5
607
102
{ACAD_REACTORS
330
5EC
102
}
330
5EC
100
AcDbXrecord
 10
0.0
 20
0.0
 30
0.0
  0
XRECORD
  5
60A
102
{ACAD_REACTORS
330
5EC
102
}
330
5EC
100
AcDbXrecord
 10
0.0
 20
0.0
 30
0.0
  0
XRECORD
  5
608
102
{ACAD_REACTORS
330
5EC
102
}
330
5EC
100
AcDbXrecord
 10
0.0
 20
0.0
 30
0.0
  0
XRECORD
  5
609
102
{ACAD_REACTORS
330
5EC
102
}
330
5EC
100
AcDbXrecord
 10
0.0
 20
0.0
 30
0.0
  0
XRECORD
  5
606
102
{ACAD_REACTORS
330
5EC
102
}
330
5EC
100
AcDbXrecord
 10
0.0
 20
0.0
 30
0.0
  0
XRECORD
  5
603
102
{ACAD_REACTORS
330
5EC
102
}
330
5EC
100
AcDbXrecord
340
0
  0
XRECORD
  5
604
102
{ACAD_REACTORS
330
5EC
102
}
330
5EC
100
AcDbXrecord
 70
     1
  0
XRECORD
  5
5F8
102
{ACAD_REACTORS
330
5EC
102
}
330
5EC
100
AcDbXrecord
  1
{46B1A85F-2F0A-456F-A978-07725A35055A}
  0
DICTIONARYVAR
  5
5EA
102
{ACAD_REACTORS
330
5E9
102
}
330
5E9
100
DictionaryVariables
280
     0
  1
1
  0
ENDSEC
  0
EOF
