  0
SECTION
  2
HEADER
  9
$ACADVER
  1
AC1015
  9
$ACADMAINTVER
 70
    13
  9
$DWGCODEPAGE
  3
ANSI_1252
  9
$INSBASE
 10
0.0
 20
0.0
 30
0.0
  9
$EXTMIN
 10
0.0767650000000284
 20
0.111860000000007
 30
0.0
  9
$EXTMAX
 10
490.9232349999999
 20
260.8881399999999
 30
0.0
  9
$LIMMIN
 10
0.0
 20
0.0
  9
$LIMMAX
 10
12.0
 20
9.0
  9
$ORTHOMODE
 70
     0
  9
$REGENMODE
 70
     1
  9
$FILLMODE
 70
     1
  9
$QTEXTMODE
 70
     0
  9
$MIRRTEXT
 70
     1
  9
$LTSCALE
 40
1.0
  9
$ATTMODE
 70
     1
  9
$TEXTSIZE
 40
0.2
  9
$TRACEWID
 40
0.05
  9
$TEXTSTYLE
  7
Standard
  9
$CLAYER
  8
0
  9
$CELTYPE
  6
Continuous
  9
$CECOLOR
 62
   256
  9
$CELTSCALE
 40
1.0
  9
$DISPSILH
 70
     0
  9
$DIMSCALE
 40
1.0
  9
$DIMASZ
 40
0.18
  9
$DIMEXO
 40
0.0625
  9
$DIMDLI
 40
0.38
  9
$DIMRND
 40
0.0
  9
$DIMDLE
 40
0.0
  9
$DIMEXE
 40
0.18
  9
$DIMTP
 40
0.0
  9
$DIMTM
 40
0.0
  9
$DIMTXT
 40
0.18
  9
$DIMCEN
 40
0.09
  9
$DIMTSZ
 40
0.0
  9
$DIMTOL
 70
     0
  9
$DIMLIM
 70
     0
  9
$DIMTIH
 70
     1
  9
$DIMTOH
 70
     1
  9
$DIMSE1
 70
     0
  9
$DIMSE2
 70
     0
  9
$DIMTAD
 70
     0
  9
$DIMZIN
 70
     0
  9
$DIMBLK
  1

  9
$DIMASO
 70
     1
  9
$DIMSHO
 70
     1
  9
$DIMPOST
  1

  9
$DIMAPOST
  1

  9
$DIMALT
 70
     0
  9
$DIMALTD
 70
     2
  9
$DIMALTF
 40
25.4
  9
$DIMLFAC
 40
1.0
  9
$DIMTOFL
 70
     0
  9
$DIMTVP
 40
0.0
  9
$DIMTIX
 70
     0
  9
$DIMSOXD
 70
     0
  9
$DIMSAH
 70
     0
  9
$DIMBLK1
  1

  9
$DIMBLK2
  1

  9
$DIMSTYLE
  2
Standard
  9
$DIMCLRD
 70
     0
  9
$DIMCLRE
 70
     0
  9
$DIMCLRT
 70
     0
  9
$DIMTFAC
 40
1.0
  9
$DIMGAP
 40
0.09
  9
$DIMJUST
 70
     0
  9
$DIMSD1
 70
     0
  9
$DIMSD2
 70
     0
  9
$DIMTOLJ
 70
     1
  9
$DIMTZIN
 70
     0
  9
$DIMALTZ
 70
     0
  9
$DIMALTTZ
 70
     0
  9
$DIMUPT
 70
     0
  9
$DIMDEC
 70
     4
  9
$DIMTDEC
 70
     4
  9
$DIMALTU
 70
     2
  9
$DIMALTTD
 70
     2
  9
$DIMTXSTY
  7
Standard
  9
$DIMAUNIT
 70
     0
  9
$DIMADEC
 70
     0
  9
$DIMALTRND
 40
0.0
  9
$DIMAZIN
 70
     0
  9
$DIMDSEP
 70
    46
  9
$DIMATFIT
 70
     3
  9
$DIMFRAC
 70
     0
  9
$DIMLDRBLK
  1

  9
$DIMLUNIT
 70
     2
  9
$DIMLWD
 70
    -2
  9
$DIMLWE
 70
    -2
  9
$DIMTMOVE
 70
     0
  9
$LUNITS
 70
     2
  9
$LUPREC
 70
     4
  9
$SKETCHINC
 40
0.1
  9
$FILLETRAD
 40
0.0
  9
$AUNITS
 70
     0
  9
$AUPREC
 70
     0
  9
$MENU
  1
.
  9
$ELEVATION
 40
0.0
  9
$PELEVATION
 40
0.0
  9
$THICKNESS
 40
0.0
  9
$LIMCHECK
 70
     0
  9
$CHAMFERA
 40
0.0
  9
$CHAMFERB
 40
0.0
  9
$CHAMFERC
 40
0.0
  9
$CHAMFERD
 40
0.0
  9
$SKPOLY
 70
     0
  9
$TDCREATE
 40
2454739.471789999
  9
$TDUCREATE
 40
2454739.388456667
  9
$TDUPDATE
 40
2454739.482291840
  9
$TDUUPDATE
 40
2454739.398958507
  9
$TDINDWG
 40
0.0105018403
  9
$TDUSRTIMER
 40
0.0105018403
  9
$USRTIMER
 70
     1
  9
$ANGBASE
 50
0.0
  9
$ANGDIR
 70
     0
  9
$PDMODE
 70
     0
  9
$PDSIZE
 40
0.0
  9
$PLINEWID
 40
0.0
  9
$SPLFRAME
 70
     0
  9
$SPLINETYPE
 70
     6
  9
$SPLINESEGS
 70
     8
  9
$HANDSEED
  5
51B
  9
$SURFTAB1
 70
     6
  9
$SURFTAB2
 70
     6
  9
$SURFTYPE
 70
     6
  9
$SURFU
 70
     6
  9
$SURFV
 70
     6
  9
$UCSBASE
  2

  9
$UCSNAME
  2

  9
$UCSORG
 10
0.0
 20
0.0
 30
0.0
  9
$UCSXDIR
 10
1.0
 20
0.0
 30
0.0
  9
$UCSYDIR
 10
0.0
 20
1.0
 30
0.0
  9
$UCSORTHOREF
  2

  9
$UCSORTHOVIEW
 70
     1
  9
$UCSORGTOP
 10
0.0
 20
0.0
 30
0.0
  9
$UCSORGBOTTOM
 10
0.0
 20
0.0
 30
0.0
  9
$UCSORGLEFT
 10
0.0
 20
0.0
 30
0.0
  9
$UCSORGRIGHT
 10
0.0
 20
0.0
 30
0.0
  9
$UCSORGFRONT
 10
0.0
 20
0.0
 30
0.0
  9
$UCSORGBACK
 10
0.0
 20
0.0
 30
0.0
  9
$PUCSBASE
  2

  9
$PUCSNAME
  2

  9
$PUCSORG
 10
0.0
 20
0.0
 30
0.0
  9
$PUCSXDIR
 10
1.0
 20
0.0
 30
0.0
  9
$PUCSYDIR
 10
0.0
 20
1.0
 30
0.0
  9
$PUCSORTHOREF
  2

  9
$PUCSORTHOVIEW
 70
     0
  9
$PUCSORGTOP
 10
0.0
 20
0.0
 30
0.0
  9
$PUCSORGBOTTOM
 10
0.0
 20
0.0
 30
0.0
  9
$PUCSORGLEFT
 10
0.0
 20
0.0
 30
0.0
  9
$PUCSORGRIGHT
 10
0.0
 20
0.0
 30
0.0
  9
$PUCSORGFRONT
 10
0.0
 20
0.0
 30
0.0
  9
$PUCSORGBACK
 10
0.0
 20
0.0
 30
0.0
  9
$USERI1
 70
     0
  9
$USERI2
 70
     0
  9
$USERI3
 70
     0
  9
$USERI4
 70
     0
  9
$USERI5
 70
     0
  9
$USERR1
 40
0.0
  9
$USERR2
 40
0.0
  9
$USERR3
 40
0.0
  9
$USERR4
 40
0.0
  9
$USERR5
 40
0.0
  9
$WORLDVIEW
 70
     1
  9
$SHADEDGE
 70
     3
  9
$SHADEDIF
 70
    70
  9
$TILEMODE
 70
     1
  9
$MAXACTVP
 70
    64
  9
$PINSBASE
 10
0.0
 20
0.0
 30
0.0
  9
$PLIMCHECK
 70
     0
  9
$PEXTMIN
 10
1.000000000000000E+20
 20
1.000000000000000E+20
 30
1.000000000000000E+20
  9
$PEXTMAX
 10
-1.000000000000000E+20
 20
-1.000000000000000E+20
 30
-1.000000000000000E+20
  9
$PLIMMIN
 10
0.0
 20
0.0
  9
$PLIMMAX
 10
12.0
 20
9.0
  9
$UNITMODE
 70
     0
  9
$VISRETAIN
 70
     1
  9
$PLINEGEN
 70
     0
  9
$PSLTSCALE
 70
     1
  9
$TREEDEPTH
 70
  3020
  9
$CMLSTYLE
  2
Standard
  9
$CMLJUST
 70
     0
  9
$CMLSCALE
 40
1.0
  9
$PROXYGRAPHICS
 70
     1
  9
$MEASUREMENT
 70
     0
  9
$CELWEIGHT
370
    -1
  9
$ENDCAPS
280
     0
  9
$JOINSTYLE
280
     0
  9
$LWDISPLAY
290
     0
  9
$INSUNITS
 70
     0
  9
$HYPERLINKBASE
  1

  9
$STYLESHEET
  1

  9
$XEDIT
290
     1
  9
$CEPSNTYPE
380
     0
  9
$PSTYLEMODE
290
     1
  9
$FINGERPRINTGUID
  2
{E17E75E8-1D08-408B-A0ED-BAA082E32403}
  9
$VERSIONGUID
  2
{DA891D95-C527-41E2-8C27-6DD71224B054}
  9
$EXTNAMES
290
     1
  9
$PSVPSCALE
 40
0.0
  9
$OLESTARTUP
290
     0
  0
ENDSEC
  0
SECTION
  2
CLASSES
  0
CLASS
  1
ACDBDICTIONARYWDFLT
  2
AcDbDictionaryWithDefault
  3
AutoCAD 2000
 90
        0
280
     0
281
     0
  0
CLASS
  1
ACDBPLACEHOLDER
  2
AcDbPlaceHolder
  3
AutoCAD 2000
 90
        0
280
     0
281
     0
  0
CLASS
  1
LAYOUT
  2
AcDbLayout
  3
AutoCAD 2000
 90
        0
280
     0
281
     0
  0
CLASS
  1
DICTIONARYVAR
  2
AcDbDictionaryVar
  3
AutoCAD 2000
 90
        0
280
     0
281
     0
  0
ENDSEC
  0
SECTION
  2
TABLES
  0
TABLE
  2
VPORT
  5
8
330
0
100
AcDbSymbolTable
 70
     3
  0
VPORT
  5
51A
330
8
100
AcDbSymbolTableRecord
100
AcDbViewportTableRecord
  2
*Active
 70
     0
 10
0.0
 20
0.0
 11
1.0
 21
1.0
 12
245.5
 22
130.4999999999999
 13
0.0
 23
0.0
 14
1.0
 24
1.0
 15
0.0
 25
0.0
 16
0.0
 26
0.0
 36
1.0
 17
0.0
 27
0.0
 37
0.0
 40
262.7771210230179
 41
2.078104993597951
 42
50.0
 43
0.0
 44
0.0
 50
0.0
 51
0.0
 71
     0
 72
   100
 73
     1
 74
     3
 75
     0
 76
     0
 77
     0
 78
     0
281
     0
 65
     1
110
0.0
120
0.0
130
0.0
111
1.0
121
0.0
131
0.0
112
0.0
122
1.0
132
0.0
 79
     1
146
0.0
  0
ENDTAB
  0
TABLE
  2
LTYPE
  5
5
330
0
100
AcDbSymbolTable
 70
     1
  0
LTYPE
  5
13
330
5
100
AcDbSymbolTableRecord
100
AcDbLinetypeTableRecord
  2
ByBlock
 70
     0
  3

 72
    65
 73
     0
 40
0.0
  0
LTYPE
  5
14
330
5
100
AcDbSymbolTableRecord
100
AcDbLinetypeTableRecord
  2
ByLayer
 70
     0
  3

 72
    65
 73
     0
 40
0.0
  0
LTYPE
  5
15
330
5
100
AcDbSymbolTableRecord
100
AcDbLinetypeTableRecord
  2
Continuous
 70
     0
  3
Solid line
 72
    65
 73
     0
 40
0.0
  0
ENDTAB
  0
TABLE
  2
LAYER
  5
2
330
0
100
AcDbSymbolTable
 70
     1
  0
LAYER
  5
10
330
2
100
AcDbSymbolTableRecord
100
AcDbLayerTableRecord
  2
0
 70
     0
 62
     7
  6
Continuous
370
    -3
390
F
  0
ENDTAB
  0
TABLE
  2
STYLE
  5
3
330
0
100
AcDbSymbolTable
 70
     1
  0
STYLE
  5
11
330
3
100
AcDbSymbolTableRecord
100
AcDbTextStyleTableRecord
  2
Standard
 70
     0
 40
0.0
 41
1.0
 50
0.0
 71
     0
 42
0.2
  3
txt
  4

  0
ENDTAB
  0
TABLE
  2
VIEW
  5
6
330
0
100
AcDbSymbolTable
 70
     0
  0
ENDTAB
  0
TABLE
  2
UCS
  5
7
330
0
100
AcDbSymbolTable
 70
     0
  0
ENDTAB
  0
TABLE
  2
APPID
  5
9
330
0
100
AcDbSymbolTable
 70
     1
  0
APPID
  5
12
330
9
100
AcDbSymbolTableRecord
100
AcDbRegAppTableRecord
  2
ACAD
 70
     0
  0
ENDTAB
  0
TABLE
  2
DIMSTYLE
  5
A
330
0
100
AcDbSymbolTable
 70
     1
100
AcDbDimStyleTable
 71
     0
  0
DIMSTYLE
105
512
330
A
100
AcDbSymbolTableRecord
100
AcDbDimStyleTableRecord
  2
Standard
 70
     0
340
11
  0
ENDTAB
  0
TABLE
  2
BLOCK_RECORD
  5
1
330
0
100
AcDbSymbolTable
 70
     0
  0
BLOCK_RECORD
  5
1E
330
1
100
AcDbSymbolTableRecord
100
AcDbBlockTableRecord
  2
*Model_Space
340
21
  0
BLOCK_RECORD
  5
1A
330
1
100
AcDbSymbolTableRecord
100
AcDbBlockTableRecord
  2
*Paper_Space
340
1D
  0
ENDTAB
  0
ENDSEC
  0
SECTION
  2
BLOCKS
  0
BLOCK
  5
1F
330
1E
100
AcDbEntity
  8
0
100
AcDbBlockBegin
  2
*Model_Space
 70
     0
 10
0.0
 20
0.0
 30
0.0
  3
*Model_Space
  1

  0
ENDBLK
  5
20
330
1E
100
AcDbEntity
  8
0
100
AcDbBlockEnd
  0
BLOCK
  5
1B
330
1A
100
AcDbEntity
 67
     1
  8
0
100
AcDbBlockBegin
  2
*Paper_Space
 70
     0
 10
0.0
 20
0.0
 30
0.0
  3
*Paper_Space
  1

  0
ENDBLK
  5
1C
330
1A
100
AcDbEntity
 67
     1
  8
0
100
AcDbBlockEnd
  0
ENDSEC
  0
SECTION
  2
ENTITIES
  0
LINE
  5
22
330
1E
100
AcDbEntity
  8
0
100
AcDbLine
 10
4.82323500000003
 20
131.18814
 30
0.0
 11
7.023235000000029
 21
124.6881399999999
 31
0.0
  0
LINE
  5
23
330
1E
100
AcDbEntity
  8
0
100
AcDbLine
 10
5.22323500000003
 20
123.8881399999999
 30
0.0
 11
8.32323500000003
 21
117.4881399999999
 31
0.0
  0
LINE
  5
24
330
1E
100
AcDbEntity
  8
0
100
AcDbLine
 10
2.923235000000029
 20
130.6881399999999
 30
0.0
 11
5.22323500000003
 21
123.8881399999999
 31
0.0
  0
LINE
  5
25
330
1E
100
AcDbEntity
  8
0
100
AcDbLine
 10
3.423235000000029
 20
137.9881399999999
 30
0.0
 11
4.82323500000003
 21
131.18814
 31
0.0
  0
LINE
  5
26
330
1E
100
AcDbEntity
  8
0
100
AcDbLine
 10
4.82323500000003
 20
158.5881399999999
 30
0.0
 11
7.023235000000029
 21
165.0881399999999
 31
0.0
  0
LINE
  5
27
330
1E
100
AcDbEntity
  8
0
100
AcDbLine
 10
4.82323500000003
 20
158.5881399999999
 30
0.0
 11
7.023235000000029
 21
165.0881399999999
 31
0.0
  0
LINE
  5
28
330
1E
100
AcDbEntity
  8
0
100
AcDbLine
 10
3.423235000000029
 20
151.78814
 30
0.0
 11
4.82323500000003
 21
158.5881399999999
 31
0.0
  0
LINE
  5
29
330
1E
100
AcDbEntity
  8
0
100
AcDbLine
 10
3.423235000000029
 20
151.78814
 30
0.0
 11
4.82323500000003
 21
158.5881399999999
 31
0.0
  0
LINE
  5
2A
330
1E
100
AcDbEntity
  8
0
100
AcDbLine
 10
2.923235000000029
 20
159.0881399999999
 30
0.0
 11
5.22323500000003
 21
165.88814
 31
0.0
  0
LINE
  5
2B
330
1E
100
AcDbEntity
  8
0
100
AcDbLine
 10
5.22323500000003
 20
165.88814
 30
0.0
 11
8.32323500000003
 21
172.28814
 31
0.0
  0
LINE
  5
2C
330
1E
100
AcDbEntity
  8
0
100
AcDbLine
 10
1.52323500000003
 20
152.0881399999999
 30
0.0
 11
2.923235000000029
 21
159.0881399999999
 31
0.0
  0
LINE
  5
2D
330
1E
100
AcDbEntity
  8
0
100
AcDbLine
 10
2.923235000000029
 20
144.8881399999999
 30
0.0
 11
3.423235000000029
 21
137.9881399999999
 31
0.0
  0
LINE
  5
2E
330
1E
100
AcDbEntity
  8
0
100
AcDbLine
 10
2.923235000000029
 20
144.8881399999999
 30
0.0
 11
3.423235000000029
 21
151.78814
 31
0.0
  0
LINE
  5
2F
330
1E
100
AcDbEntity
  8
0
100
AcDbLine
 10
0.923235000000028
 20
144.8881399999999
 30
0.0
 11
1.52323500000003
 21
137.68814
 31
0.0
  0
LINE
  5
30
330
1E
100
AcDbEntity
  8
0
100
AcDbLine
 10
0.923235000000028
 20
144.8881399999999
 30
0.0
 11
1.52323500000003
 21
152.0881399999999
 31
0.0
  0
LINE
  5
31
330
1E
100
AcDbEntity
  8
0
100
AcDbLine
 10
1.52323500000003
 20
137.68814
 30
0.0
 11
2.923235000000029
 21
130.6881399999999
 31
0.0
  0
LINE
  5
32
330
1E
100
AcDbEntity
  8
0
100
AcDbLine
 10
5.92323500000003
 20
199.96714
 30
0.0
 11
5.92323500000003
 21
201.6741399999999
 31
0.0
  0
LINE
  5
33
330
1E
100
AcDbEntity
  8
0
100
AcDbLine
 10
5.92323500000003
 20
199.96714
 30
0.0
 11
5.92323500000003
 21
199.3751399999999
 31
0.0
  0
LINE
  5
34
330
1E
100
AcDbEntity
  8
0
100
AcDbLine
 10
5.92323500000003
 20
199.9711399999999
 30
0.0
 11
5.92323500000003
 21
199.3751399999999
 31
0.0
  0
LINE
  5
35
330
1E
100
AcDbEntity
  8
0
100
AcDbLine
 10
5.92323500000003
 20
199.9711399999999
 30
0.0
 11
5.92323500000003
 21
201.74714
 31
0.0
  0
LINE
  5
36
330
1E
100
AcDbEntity
  8
0
100
AcDbLine
 10
5.92323500000003
 20
199.3751399999999
 30
0.0
 11
6.67708500000003
 21
198.89314
 31
0.0
  0
LINE
  5
37
330
1E
100
AcDbEntity
  8
0
100
AcDbLine
 10
5.92323500000003
 20
199.3751399999999
 30
0.0
 11
5.92323500000003
 21
199.96714
 31
0.0
  0
LINE
  5
38
330
1E
100
AcDbEntity
  8
0
100
AcDbLine
 10
5.92323500000003
 20
199.3751399999999
 30
0.0
 11
5.92323500000003
 21
199.9711399999999
 31
0.0
  0
LINE
  5
39
330
1E
100
AcDbEntity
  8
0
100
AcDbLine
 10
5.92323500000003
 20
201.74714
 30
0.0
 11
5.92323500000003
 21
199.9711399999999
 31
0.0
  0
LINE
  5
3A
330
1E
100
AcDbEntity
  8
0
100
AcDbLine
 10
5.92323500000003
 20
201.74714
 30
0.0
 11
5.92323500000003
 21
204.5001399999999
 31
0.0
  0
LINE
  5
3B
330
1E
100
AcDbEntity
  8
0
100
AcDbLine
 10
5.92323500000003
 20
204.5001399999999
 30
0.0
 11
5.92323500000003
 21
201.74714
 31
0.0
  0
LINE
  5
3C
330
1E
100
AcDbEntity
  8
0
100
AcDbLine
 10
5.92323500000003
 20
204.5001399999999
 30
0.0
 11
5.92323500000003
 21
208.10414
 31
0.0
  0
LINE
  5
3D
330
1E
100
AcDbEntity
  8
0
100
AcDbLine
 10
5.92323500000003
 20
201.6741399999999
 30
0.0
 11
5.92323500000003
 21
204.50314
 31
0.0
  0
LINE
  5
3E
330
1E
100
AcDbEntity
  8
0
100
AcDbLine
 10
5.92323500000003
 20
201.6741399999999
 30
0.0
 11
5.92323500000003
 21
199.96714
 31
0.0
  0
LINE
  5
3F
330
1E
100
AcDbEntity
  8
0
100
AcDbLine
 10
5.92323500000003
 20
204.50314
 30
0.0
 11
5.92323500000003
 21
208.0871399999999
 31
0.0
  0
LINE
  5
40
330
1E
100
AcDbEntity
  8
0
100
AcDbLine
 10
5.92323500000003
 20
204.50314
 30
0.0
 11
5.92323500000003
 21
201.6741399999999
 31
0.0
  0
LINE
  5
41
330
1E
100
AcDbEntity
  8
0
100
AcDbLine
 10
0.178245000000028
 20
216.1321399999999
 30
0.0
 11
0.448875000000028
 21
215.4361399999999
 31
0.0
  0
LINE
  5
42
330
1E
100
AcDbEntity
  8
0
100
AcDbLine
 10
3.033395000000029
 20
213.8881399999999
 30
0.0
 11
6.67708500000003
 21
213.8881399999999
 31
0.0
  0
LINE
  5
43
330
1E
100
AcDbEntity
  8
0
100
AcDbLine
 10
2.11777500000003
 20
214.06814
 30
0.0
 11
2.311705000000029
 21
213.99614
 31
0.0
  0
LINE
  5
44
330
1E
100
AcDbEntity
  8
0
100
AcDbLine
 10
2.11777500000003
 20
214.06814
 30
0.0
 11
2.828185000000029
 21
213.96014
 31
0.0
  0
LINE
  5
45
330
1E
100
AcDbEntity
  8
0
100
AcDbLine
 10
1.46374500000003
 20
214.3561399999999
 30
0.0
 11
2.11777500000003
 21
214.06814
 31
0.0
  0
LINE
  5
46
330
1E
100
AcDbEntity
  8
0
100
AcDbLine
 10
2.311705000000029
 20
213.99614
 30
0.0
 11
3.033395000000029
 21
213.8881399999999
 31
0.0
  0
LINE
  5
47
330
1E
100
AcDbEntity
  8
0
100
AcDbLine
 10
2.828185000000029
 20
213.96014
 30
0.0
 11
3.538595000000029
 21
214.06814
 31
0.0
  0
LINE
  5
48
330
1E
100
AcDbEntity
  8
0
100
AcDbLine
 10
3.538595000000029
 20
214.06814
 30
0.0
 11
4.19261500000003
 21
214.3561399999999
 31
0.0
  0
LINE
  5
49
330
1E
100
AcDbEntity
  8
0
100
AcDbLine
 10
0.888655000000028
 20
214.8241399999999
 30
0.0
 11
1.46374500000003
 21
214.3561399999999
 31
0.0
  0
LINE
  5
4A
330
1E
100
AcDbEntity
  8
0
100
AcDbLine
 10
0.448875000000028
 20
215.4361399999999
 30
0.0
 11
0.888655000000028
 21
214.8241399999999
 31
0.0
  0
LINE
  5
4B
330
1E
100
AcDbEntity
  8
0
100
AcDbLine
 10
4.19261500000003
 20
214.3561399999999
 30
0.0
 11
4.76770500000003
 21
214.8241399999999
 31
0.0
  0
LINE
  5
4C
330
1E
100
AcDbEntity
  8
0
100
AcDbLine
 10
4.76770500000003
 20
214.8241399999999
 30
0.0
 11
5.20748500000003
 21
215.4361399999999
 31
0.0
  0
LINE
  5
4D
330
1E
100
AcDbEntity
  8
0
100
AcDbLine
 10
0.178245000000028
 20
216.1321399999999
 30
0.0
 11
0.448875000000028
 21
215.4361399999999
 31
0.0
  0
LINE
  5
4E
330
1E
100
AcDbEntity
  8
0
100
AcDbLine
 10
5.20748500000003
 20
215.4361399999999
 30
0.0
 11
5.47811500000003
 21
216.1321399999999
 31
0.0
  0
LINE
  5
4F
330
1E
100
AcDbEntity
  8
0
100
AcDbLine
 10
5.47811500000003
 20
216.1321399999999
 30
0.0
 11
5.57960500000003
 21
216.88814
 31
0.0
  0
LINE
  5
50
330
1E
100
AcDbEntity
  8
0
100
AcDbLine
 10
3.033395000000029
 20
213.8881399999999
 30
0.0
 11
6.67708500000003
 21
213.8881399999999
 31
0.0
  0
LINE
  5
51
330
1E
100
AcDbEntity
  8
0
100
AcDbLine
 10
0.178245000000028
 20
217.6441399999999
 30
0.0
 11
0.448875000000028
 21
218.34014
 31
0.0
  0
LINE
  5
52
330
1E
100
AcDbEntity
  8
0
100
AcDbLine
 10
0.448875000000028
 20
218.34014
 30
0.0
 11
0.888655000000028
 21
218.9521399999999
 31
0.0
  0
LINE
  5
53
330
1E
100
AcDbEntity
  8
0
100
AcDbLine
 10
0.178245000000028
 20
217.6441399999999
 30
0.0
 11
0.448875000000028
 21
218.34014
 31
0.0
  0
LINE
  5
54
330
1E
100
AcDbEntity
  8
0
100
AcDbLine
 10
0.0767650000000284
 20
216.88814
 30
0.0
 11
0.178245000000028
 21
217.6441399999999
 31
0.0
  0
LINE
  5
55
330
1E
100
AcDbEntity
  8
0
100
AcDbLine
 10
0.0767650000000284
 20
216.88814
 30
0.0
 11
0.178245000000028
 21
216.1321399999999
 31
0.0
  0
LINE
  5
56
330
1E
100
AcDbEntity
  8
0
100
AcDbLine
 10
1.46374500000003
 20
219.42014
 30
0.0
 11
2.11777500000003
 21
219.70814
 31
0.0
  0
LINE
  5
57
330
1E
100
AcDbEntity
  8
0
100
AcDbLine
 10
0.888655000000028
 20
218.9521399999999
 30
0.0
 11
1.46374500000003
 21
219.42014
 31
0.0
  0
LINE
  5
58
330
1E
100
AcDbEntity
  8
0
100
AcDbLine
 10
2.11777500000003
 20
219.70814
 30
0.0
 11
2.311705000000029
 21
219.7801399999999
 31
0.0
  0
LINE
  5
59
330
1E
100
AcDbEntity
  8
0
100
AcDbLine
 10
2.11777500000003
 20
219.70814
 30
0.0
 11
2.828185000000029
 21
219.81614
 31
0.0
  0
LINE
  5
5A
330
1E
100
AcDbEntity
  8
0
100
AcDbLine
 10
2.311705000000029
 20
219.7801399999999
 30
0.0
 11
3.033395000000029
 21
219.8881399999999
 31
0.0
  0
LINE
  5
5B
330
1E
100
AcDbEntity
  8
0
100
AcDbLine
 10
3.033395000000029
 20
219.8881399999999
 30
0.0
 11
6.67708500000003
 21
219.8881399999999
 31
0.0
  0
LINE
  5
5C
330
1E
100
AcDbEntity
  8
0
100
AcDbLine
 10
2.828185000000029
 20
219.81614
 30
0.0
 11
3.538595000000029
 21
219.70814
 31
0.0
  0
LINE
  5
5D
330
1E
100
AcDbEntity
  8
0
100
AcDbLine
 10
3.538595000000029
 20
219.70814
 30
0.0
 11
4.19261500000003
 21
219.42014
 31
0.0
  0
LINE
  5
5E
330
1E
100
AcDbEntity
  8
0
100
AcDbLine
 10
4.19261500000003
 20
219.42014
 30
0.0
 11
4.76770500000003
 21
218.9521399999999
 31
0.0
  0
LINE
  5
5F
330
1E
100
AcDbEntity
  8
0
100
AcDbLine
 10
4.76770500000003
 20
218.9521399999999
 30
0.0
 11
5.20748500000003
 21
218.34014
 31
0.0
  0
LINE
  5
60
330
1E
100
AcDbEntity
  8
0
100
AcDbLine
 10
5.20748500000003
 20
218.34014
 30
0.0
 11
5.47811500000003
 21
217.6441399999999
 31
0.0
  0
LINE
  5
61
330
1E
100
AcDbEntity
  8
0
100
AcDbLine
 10
5.47811500000003
 20
217.6441399999999
 30
0.0
 11
5.57960500000003
 21
216.88814
 31
0.0
  0
LINE
  5
62
330
1E
100
AcDbEntity
  8
0
100
AcDbLine
 10
3.033395000000029
 20
219.8881399999999
 30
0.0
 11
6.67708500000003
 21
219.8881399999999
 31
0.0
  0
LINE
  5
63
330
1E
100
AcDbEntity
  8
0
100
AcDbLine
 10
5.92323500000003
 20
212.3561399999999
 30
0.0
 11
5.92323500000003
 21
208.10414
 31
0.0
  0
LINE
  5
64
330
1E
100
AcDbEntity
  8
0
100
AcDbLine
 10
5.92323500000003
 20
212.3561399999999
 30
0.0
 11
5.92323500000003
 21
213.8881399999999
 31
0.0
  0
LINE
  5
65
330
1E
100
AcDbEntity
  8
0
100
AcDbLine
 10
5.92323500000003
 20
208.10414
 30
0.0
 11
5.92323500000003
 21
204.5001399999999
 31
0.0
  0
LINE
  5
66
330
1E
100
AcDbEntity
  8
0
100
AcDbLine
 10
5.92323500000003
 20
208.10414
 30
0.0
 11
5.92323500000003
 21
212.3561399999999
 31
0.0
  0
LINE
  5
67
330
1E
100
AcDbEntity
  8
0
100
AcDbLine
 10
5.92323500000003
 20
213.8881399999999
 30
0.0
 11
5.92323500000003
 21
212.3551399999999
 31
0.0
  0
LINE
  5
68
330
1E
100
AcDbEntity
  8
0
100
AcDbLine
 10
5.92323500000003
 20
213.8881399999999
 30
0.0
 11
5.92323500000003
 21
212.3561399999999
 31
0.0
  0
LINE
  5
69
330
1E
100
AcDbEntity
  8
0
100
AcDbLine
 10
5.92323500000003
 20
208.0871399999999
 30
0.0
 11
5.92323500000003
 21
212.3551399999999
 31
0.0
  0
LINE
  5
6A
330
1E
100
AcDbEntity
  8
0
100
AcDbLine
 10
5.92323500000003
 20
208.0871399999999
 30
0.0
 11
5.92323500000003
 21
204.50314
 31
0.0
  0
LINE
  5
6B
330
1E
100
AcDbEntity
  8
0
100
AcDbLine
 10
5.92323500000003
 20
212.3551399999999
 30
0.0
 11
5.92323500000003
 21
213.8881399999999
 31
0.0
  0
LINE
  5
6C
330
1E
100
AcDbEntity
  8
0
100
AcDbLine
 10
5.92323500000003
 20
212.3551399999999
 30
0.0
 11
5.92323500000003
 21
208.0871399999999
 31
0.0
  0
LINE
  5
6D
330
1E
100
AcDbEntity
  8
0
100
AcDbLine
 10
5.92323500000003
 20
229.27314
 30
0.0
 11
5.92323500000003
 21
225.6891399999999
 31
0.0
  0
LINE
  5
6E
330
1E
100
AcDbEntity
  8
0
100
AcDbLine
 10
5.92323500000003
 20
229.27314
 30
0.0
 11
5.92323500000003
 21
232.1021399999999
 31
0.0
  0
LINE
  5
6F
330
1E
100
AcDbEntity
  8
0
100
AcDbLine
 10
5.92323500000003
 20
225.6891399999999
 30
0.0
 11
5.92323500000003
 21
221.4211399999999
 31
0.0
  0
LINE
  5
70
330
1E
100
AcDbEntity
  8
0
100
AcDbLine
 10
5.92323500000003
 20
225.6891399999999
 30
0.0
 11
5.92323500000003
 21
229.27314
 31
0.0
  0
LINE
  5
71
330
1E
100
AcDbEntity
  8
0
100
AcDbLine
 10
5.92323500000003
 20
221.4211399999999
 30
0.0
 11
5.92323500000003
 21
219.8881399999999
 31
0.0
  0
LINE
  5
72
330
1E
100
AcDbEntity
  8
0
100
AcDbLine
 10
5.92323500000003
 20
221.4211399999999
 30
0.0
 11
5.92323500000003
 21
225.6891399999999
 31
0.0
  0
LINE
  5
73
330
1E
100
AcDbEntity
  8
0
100
AcDbLine
 10
5.92323500000003
 20
232.1021399999999
 30
0.0
 11
5.92323500000003
 21
233.8091399999999
 31
0.0
  0
LINE
  5
74
330
1E
100
AcDbEntity
  8
0
100
AcDbLine
 10
5.92323500000003
 20
232.1021399999999
 30
0.0
 11
5.92323500000003
 21
229.27314
 31
0.0
  0
LINE
  5
75
330
1E
100
AcDbEntity
  8
0
100
AcDbLine
 10
5.92323500000003
 20
232.0291399999999
 30
0.0
 11
5.92323500000003
 21
233.8051399999999
 31
0.0
  0
LINE
  5
76
330
1E
100
AcDbEntity
  8
0
100
AcDbLine
 10
5.92323500000003
 20
232.0291399999999
 30
0.0
 11
5.92323500000003
 21
229.2761399999999
 31
0.0
  0
LINE
  5
77
330
1E
100
AcDbEntity
  8
0
100
AcDbLine
 10
5.92323500000003
 20
229.2761399999999
 30
0.0
 11
5.92323500000003
 21
232.0291399999999
 31
0.0
  0
LINE
  5
78
330
1E
100
AcDbEntity
  8
0
100
AcDbLine
 10
5.92323500000003
 20
229.2761399999999
 30
0.0
 11
5.92323500000003
 21
225.6721399999999
 31
0.0
  0
LINE
  5
79
330
1E
100
AcDbEntity
  8
0
100
AcDbLine
 10
5.92323500000003
 20
225.6721399999999
 30
0.0
 11
5.92323500000003
 21
221.4201399999999
 31
0.0
  0
LINE
  5
7A
330
1E
100
AcDbEntity
  8
0
100
AcDbLine
 10
5.92323500000003
 20
225.6721399999999
 30
0.0
 11
5.92323500000003
 21
229.2761399999999
 31
0.0
  0
LINE
  5
7B
330
1E
100
AcDbEntity
  8
0
100
AcDbLine
 10
5.92323500000003
 20
219.8881399999999
 30
0.0
 11
5.92323500000003
 21
221.4201399999999
 31
0.0
  0
LINE
  5
7C
330
1E
100
AcDbEntity
  8
0
100
AcDbLine
 10
5.92323500000003
 20
219.8881399999999
 30
0.0
 11
5.92323500000003
 21
221.4211399999999
 31
0.0
  0
LINE
  5
7D
330
1E
100
AcDbEntity
  8
0
100
AcDbLine
 10
23.72323499999999
 20
102.88814
 30
0.0
 11
29.52323499999999
 21
98.98814000000001
 31
0.0
  0
LINE
  5
7E
330
1E
100
AcDbEntity
  8
0
100
AcDbLine
 10
22.523235
 20
101.2881399999999
 30
0.0
 11
28.52323499999999
 21
97.28813999999999
 31
0.0
  0
LINE
  5
7F
330
1E
100
AcDbEntity
  8
0
100
AcDbLine
 10
18.52323499999999
 20
107.4881399999999
 30
0.0
 11
23.72323499999999
 21
102.88814
 31
0.0
  0
LINE
  5
80
330
1E
100
AcDbEntity
  8
0
100
AcDbLine
 10
17.123235
 20
106.0881399999999
 30
0.0
 11
22.523235
 21
101.2881399999999
 31
0.0
  0
LINE
  5
81
330
1E
100
AcDbEntity
  8
0
100
AcDbLine
 10
29.52323499999999
 20
98.98814000000001
 30
0.0
 11
35.72323499999999
 21
95.98814
 31
0.0
  0
LINE
  5
82
330
1E
100
AcDbEntity
  8
0
100
AcDbLine
 10
35.72323499999999
 20
95.98814
 30
0.0
 11
42.22323499999999
 21
93.78814
 31
0.0
  0
LINE
  5
83
330
1E
100
AcDbEntity
  8
0
100
AcDbLine
 10
34.92323499999999
 20
94.18814000000001
 30
0.0
 11
41.723235
 21
91.88814
 31
0.0
  0
LINE
  5
84
330
1E
100
AcDbEntity
  8
0
100
AcDbLine
 10
28.52323499999999
 20
97.28813999999999
 30
0.0
 11
34.92323499999999
 21
94.18814000000001
 31
0.0
  0
LINE
  5
85
330
1E
100
AcDbEntity
  8
0
100
AcDbLine
 10
7.023235000000029
 20
165.0881399999999
 30
0.0
 11
10.023235
 21
171.28814
 31
0.0
  0
LINE
  5
86
330
1E
100
AcDbEntity
  8
0
100
AcDbLine
 10
8.32323500000003
 20
172.28814
 30
0.0
 11
12.323235
 21
178.2881399999999
 31
0.0
  0
LINE
  5
87
330
1E
100
AcDbEntity
  8
0
100
AcDbLine
 10
7.023235000000029
 20
124.6881399999999
 30
0.0
 11
10.023235
 21
118.4881399999999
 31
0.0
  0
LINE
  5
88
330
1E
100
AcDbEntity
  8
0
100
AcDbLine
 10
13.923235
 20
112.68814
 30
0.0
 11
18.52323499999999
 21
107.4881399999999
 31
0.0
  0
LINE
  5
89
330
1E
100
AcDbEntity
  8
0
100
AcDbLine
 10
10.023235
 20
171.28814
 30
0.0
 11
13.923235
 21
177.0881399999999
 31
0.0
  0
LINE
  5
8A
330
1E
100
AcDbEntity
  8
0
100
AcDbLine
 10
18.52323499999999
 20
182.2881399999999
 30
0.0
 11
23.72323499999999
 21
186.88814
 31
0.0
  0
LINE
  5
8B
330
1E
100
AcDbEntity
  8
0
100
AcDbLine
 10
23.72323499999999
 20
186.88814
 30
0.0
 11
29.52323499999999
 21
190.7881399999999
 31
0.0
  0
LINE
  5
8C
330
1E
100
AcDbEntity
  8
0
100
AcDbLine
 10
22.523235
 20
188.4881399999999
 30
0.0
 11
28.52323499999999
 21
192.4881399999999
 31
0.0
  0
LINE
  5
8D
330
1E
100
AcDbEntity
  8
0
100
AcDbLine
 10
17.123235
 20
183.68814
 30
0.0
 11
22.523235
 21
188.4881399999999
 31
0.0
  0
LINE
  5
8E
330
1E
100
AcDbEntity
  8
0
100
AcDbLine
 10
29.52323499999999
 20
190.7881399999999
 30
0.0
 11
35.72323499999999
 21
193.78814
 31
0.0
  0
LINE
  5
8F
330
1E
100
AcDbEntity
  8
0
100
AcDbLine
 10
35.72323499999999
 20
193.78814
 30
0.0
 11
42.39443499999999
 21
196.7741399999999
 31
0.0
  0
LINE
  5
90
330
1E
100
AcDbEntity
  8
0
100
AcDbLine
 10
34.92323499999999
 20
195.5881399999999
 30
0.0
 11
40.2112350000001
 21
198.89314
 31
0.0
  0
LINE
  5
91
330
1E
100
AcDbEntity
  8
0
100
AcDbLine
 10
28.52323499999999
 20
192.4881399999999
 30
0.0
 11
34.92323499999999
 21
195.5881399999999
 31
0.0
  0
LINE
  5
92
330
1E
100
AcDbEntity
  8
0
100
AcDbLine
 10
13.923235
 20
177.0881399999999
 30
0.0
 11
18.52323499999999
 21
182.2881399999999
 31
0.0
  0
LINE
  5
93
330
1E
100
AcDbEntity
  8
0
100
AcDbLine
 10
12.323235
 20
178.2881399999999
 30
0.0
 11
17.123235
 21
183.68814
 31
0.0
  0
LINE
  5
94
330
1E
100
AcDbEntity
  8
0
100
AcDbLine
 10
10.023235
 20
118.4881399999999
 30
0.0
 11
13.923235
 21
112.68814
 31
0.0
  0
LINE
  5
95
330
1E
100
AcDbEntity
  8
0
100
AcDbLine
 10
8.32323500000003
 20
117.4881399999999
 30
0.0
 11
12.323235
 21
111.4881399999999
 31
0.0
  0
LINE
  5
96
330
1E
100
AcDbEntity
  8
0
100
AcDbLine
 10
12.323235
 20
111.4881399999999
 30
0.0
 11
17.123235
 21
106.0881399999999
 31
0.0
  0
LINE
  5
97
330
1E
100
AcDbEntity
  8
0
100
AcDbLine
 10
37.83603499999999
 20
198.89314
 30
0.0
 11
38.589935
 21
199.3751399999999
 31
0.0
  0
LINE
  5
98
330
1E
100
AcDbEntity
  8
0
100
AcDbLine
 10
38.589935
 20
199.3751399999999
 30
0.0
 11
38.589935
 21
199.9711399999999
 31
0.0
  0
LINE
  5
99
330
1E
100
AcDbEntity
  8
0
100
AcDbLine
 10
38.589935
 20
199.3751399999999
 30
0.0
 11
39.34373499999999
 21
198.89314
 31
0.0
  0
LINE
  5
9A
330
1E
100
AcDbEntity
  8
0
100
AcDbLine
 10
38.589935
 20
199.9711399999999
 30
0.0
 11
38.589935
 21
201.74714
 31
0.0
  0
LINE
  5
9B
330
1E
100
AcDbEntity
  8
0
100
AcDbLine
 10
38.589935
 20
199.9711399999999
 30
0.0
 11
38.589935
 21
199.3751399999999
 31
0.0
  0
LINE
  5
9C
330
1E
100
AcDbEntity
  8
0
100
AcDbLine
 10
38.589935
 20
229.27314
 30
0.0
 11
38.589935
 21
232.1021399999999
 31
0.0
  0
LINE
  5
9D
330
1E
100
AcDbEntity
  8
0
100
AcDbLine
 10
38.589935
 20
229.27314
 30
0.0
 11
38.589935
 21
225.6891399999999
 31
0.0
  0
LINE
  5
9E
330
1E
100
AcDbEntity
  8
0
100
AcDbLine
 10
38.589935
 20
225.6891399999999
 30
0.0
 11
38.589935
 21
229.27314
 31
0.0
  0
LINE
  5
9F
330
1E
100
AcDbEntity
  8
0
100
AcDbLine
 10
38.589935
 20
225.6891399999999
 30
0.0
 11
38.589935
 21
221.4211399999999
 31
0.0
  0
LINE
  5
A0
330
1E
100
AcDbEntity
  8
0
100
AcDbLine
 10
38.589935
 20
221.4211399999999
 30
0.0
 11
38.589935
 21
225.6891399999999
 31
0.0
  0
LINE
  5
A1
330
1E
100
AcDbEntity
  8
0
100
AcDbLine
 10
38.589935
 20
221.4211399999999
 30
0.0
 11
38.589935
 21
216.8371399999999
 31
0.0
  0
LINE
  5
A2
330
1E
100
AcDbEntity
  8
0
100
AcDbLine
 10
38.589935
 20
216.8371399999999
 30
0.0
 11
38.589935
 21
221.4211399999999
 31
0.0
  0
LINE
  5
A3
330
1E
100
AcDbEntity
  8
0
100
AcDbLine
 10
38.589935
 20
216.8371399999999
 30
0.0
 11
38.589935
 21
212.3561399999999
 31
0.0
  0
LINE
  5
A4
330
1E
100
AcDbEntity
  8
0
100
AcDbLine
 10
38.589935
 20
212.3561399999999
 30
0.0
 11
38.589935
 21
216.8371399999999
 31
0.0
  0
LINE
  5
A5
330
1E
100
AcDbEntity
  8
0
100
AcDbLine
 10
38.589935
 20
212.3561399999999
 30
0.0
 11
38.589935
 21
208.10414
 31
0.0
  0
LINE
  5
A6
330
1E
100
AcDbEntity
  8
0
100
AcDbLine
 10
38.589935
 20
208.10414
 30
0.0
 11
38.589935
 21
204.5001399999999
 31
0.0
  0
LINE
  5
A7
330
1E
100
AcDbEntity
  8
0
100
AcDbLine
 10
38.589935
 20
208.10414
 30
0.0
 11
38.589935
 21
212.3561399999999
 31
0.0
  0
LINE
  5
A8
330
1E
100
AcDbEntity
  8
0
100
AcDbLine
 10
38.589935
 20
201.74714
 30
0.0
 11
38.589935
 21
204.5001399999999
 31
0.0
  0
LINE
  5
A9
330
1E
100
AcDbEntity
  8
0
100
AcDbLine
 10
38.589935
 20
201.74714
 30
0.0
 11
38.589935
 21
199.9711399999999
 31
0.0
  0
LINE
  5
AA
330
1E
100
AcDbEntity
  8
0
100
AcDbLine
 10
38.589935
 20
204.5001399999999
 30
0.0
 11
38.589935
 21
208.10414
 31
0.0
  0
LINE
  5
AB
330
1E
100
AcDbEntity
  8
0
100
AcDbLine
 10
38.589935
 20
204.5001399999999
 30
0.0
 11
38.589935
 21
201.74714
 31
0.0
  0
LINE
  5
AC
330
1E
100
AcDbEntity
  8
0
100
AcDbLine
 10
6.67708500000003
 20
198.89314
 30
0.0
 11
37.83603499999999
 21
198.89314
 31
0.0
  0
LINE
  5
AD
330
1E
100
AcDbEntity
  8
0
100
AcDbLine
 10
5.92323500000003
 20
221.4201399999999
 30
0.0
 11
5.92323500000003
 21
225.6721399999999
 31
0.0
  0
LINE
  5
AE
330
1E
100
AcDbEntity
  8
0
100
AcDbLine
 10
5.92323500000003
 20
221.4201399999999
 30
0.0
 11
5.92323500000003
 21
219.8881399999999
 31
0.0
  0
LINE
  5
AF
330
1E
100
AcDbEntity
  8
0
100
AcDbLine
 10
5.92323500000003
 20
233.8091399999999
 30
0.0
 11
5.92323500000003
 21
232.1021399999999
 31
0.0
  0
LINE
  5
B0
330
1E
100
AcDbEntity
  8
0
100
AcDbLine
 10
5.92323500000003
 20
233.8091399999999
 30
0.0
 11
5.92323500000003
 21
234.4011399999999
 31
0.0
  0
LINE
  5
B1
330
1E
100
AcDbEntity
  8
0
100
AcDbLine
 10
5.92323500000003
 20
234.4011399999999
 30
0.0
 11
6.67708500000003
 21
234.8831399999999
 31
0.0
  0
LINE
  5
B2
330
1E
100
AcDbEntity
  8
0
100
AcDbLine
 10
5.92323500000003
 20
234.4011399999999
 30
0.0
 11
5.92323500000003
 21
233.8091399999999
 31
0.0
  0
LINE
  5
B3
330
1E
100
AcDbEntity
  8
0
100
AcDbLine
 10
5.92323500000003
 20
234.4011399999999
 30
0.0
 11
5.92323500000003
 21
233.8051399999999
 31
0.0
  0
LINE
  5
B4
330
1E
100
AcDbEntity
  8
0
100
AcDbLine
 10
5.92323500000003
 20
233.8051399999999
 30
0.0
 11
5.92323500000003
 21
234.4011399999999
 31
0.0
  0
LINE
  5
B5
330
1E
100
AcDbEntity
  8
0
100
AcDbLine
 10
5.92323500000003
 20
233.8051399999999
 30
0.0
 11
5.92323500000003
 21
232.0291399999999
 31
0.0
  0
LINE
  5
B6
330
1E
100
AcDbEntity
  8
0
100
AcDbLine
 10
6.67708500000003
 20
234.8831399999999
 30
0.0
 11
37.83603499999999
 21
234.8831399999999
 31
0.0
  0
LINE
  5
B7
330
1E
100
AcDbEntity
  8
0
100
AcDbLine
 10
38.589935
 20
234.4011399999999
 30
0.0
 11
38.589935
 21
233.8091399999999
 31
0.0
  0
LINE
  5
B8
330
1E
100
AcDbEntity
  8
0
100
AcDbLine
 10
38.589935
 20
234.4011399999999
 30
0.0
 11
39.34373499999999
 21
234.8831399999999
 31
0.0
  0
LINE
  5
B9
330
1E
100
AcDbEntity
  8
0
100
AcDbLine
 10
38.589935
 20
232.1021399999999
 30
0.0
 11
38.589935
 21
233.8091399999999
 31
0.0
  0
LINE
  5
BA
330
1E
100
AcDbEntity
  8
0
100
AcDbLine
 10
38.589935
 20
232.1021399999999
 30
0.0
 11
38.589935
 21
229.27314
 31
0.0
  0
LINE
  5
BB
330
1E
100
AcDbEntity
  8
0
100
AcDbLine
 10
39.92323499999999
 20
42.29904
 30
0.0
 11
41.723235
 21
31.81394
 31
0.0
  0
LINE
  5
BC
330
1E
100
AcDbEntity
  8
0
100
AcDbLine
 10
39.92323499999999
 20
42.29904
 30
0.0
 11
39.92323499999999
 21
43.73294
 31
0.0
  0
LINE
  5
BD
330
1E
100
AcDbEntity
  8
0
100
AcDbLine
 10
39.92323499999999
 20
43.73294
 30
0.0
 11
39.92323499999999
 21
42.29904
 31
0.0
  0
LINE
  5
BE
330
1E
100
AcDbEntity
  8
0
100
AcDbLine
 10
39.92323499999999
 20
43.73294
 30
0.0
 11
39.9724703471338
 21
44.0197413676485
 31
0.0
  0
LINE
  5
BF
330
1E
100
AcDbEntity
  8
0
100
AcDbLine
 10
39.92323499999999
 20
43.73294
 30
0.0
 11
41.723235
 21
33.24784
 31
0.0
  0
LINE
  5
C0
330
1E
100
AcDbEntity
  8
0
100
AcDbLine
 10
39.92323499999999
 20
50.32914
 30
0.0
 11
41.723235
 21
60.81424000000001
 31
0.0
  0
LINE
  5
C1
330
1E
100
AcDbEntity
  8
0
100
AcDbLine
 10
39.92323499999999
 20
50.32914
 30
0.0
 11
39.92323499999999
 21
44.30654
 31
0.0
  0
LINE
  5
C2
330
1E
100
AcDbEntity
  8
0
100
AcDbLine
 10
41.723235
 20
33.24784
 30
0.0
 11
46.623235
 21
23.33614
 31
0.0
  0
LINE
  5
C3
330
1E
100
AcDbEntity
  8
0
100
AcDbLine
 10
41.723235
 20
31.81394
 30
0.0
 11
42.22323499999999
 21
30.46184
 31
0.0
  0
LINE
  5
C4
330
1E
100
AcDbEntity
  8
0
100
AcDbLine
 10
42.22323499999999
 20
30.46184
 30
0.0
 11
47.023235
 21
20.71394
 31
0.0
  0
LINE
  5
C5
330
1E
100
AcDbEntity
  8
0
100
AcDbLine
 10
41.723235
 20
33.82144
 30
0.0
 11
46.623235
 21
23.90963999999999
 31
0.0
  0
LINE
  5
C6
330
1E
100
AcDbEntity
  8
0
100
AcDbLine
 10
41.723235
 20
60.81424000000001
 30
0.0
 11
46.623235
 21
71.00584000000001
 31
0.0
  0
LINE
  5
C7
330
1E
100
AcDbEntity
  8
0
100
AcDbLine
 10
39.92323499999999
 20
44.30654
 30
0.0
 11
39.92323499999999
 21
50.32914
 31
0.0
  0
LINE
  5
C8
330
1E
100
AcDbEntity
  8
0
100
AcDbLine
 10
39.92323499999999
 20
44.30654
 30
0.0
 11
41.723235
 21
33.82144
 31
0.0
  0
LINE
  5
C9
330
1E
100
AcDbEntity
  8
0
100
AcDbLine
 10
42.39443499999999
 20
196.7741399999999
 30
0.0
 11
46.42323499999999
 21
197.8881399999999
 31
0.0
  0
LINE
  5
CA
330
1E
100
AcDbEntity
  8
0
100
AcDbLine
 10
42.22323499999999
 20
93.78814
 30
0.0
 11
49.023235
 21
92.38814000000001
 31
0.0
  0
LINE
  5
CB
330
1E
100
AcDbEntity
  8
0
100
AcDbLine
 10
41.723235
 20
91.88814
 30
0.0
 11
48.723235
 21
90.48814
 31
0.0
  0
LINE
  5
CC
330
1E
100
AcDbEntity
  8
0
100
AcDbLine
 10
39.34373499999999
 20
198.89314
 30
0.0
 11
75.92323499999999
 21
198.89314
 31
0.0
  0
LINE
  5
CD
330
1E
100
AcDbEntity
  8
0
100
AcDbLine
 10
39.34373499999999
 20
234.8831399999999
 30
0.0
 11
44.923235
 21
234.8831399999999
 31
0.0
  0
LINE
  5
CE
330
1E
100
AcDbEntity
  8
0
100
AcDbLine
 10
38.589935
 20
233.8091399999999
 30
0.0
 11
38.589935
 21
234.4011399999999
 31
0.0
  0
LINE
  5
CF
330
1E
100
AcDbEntity
  8
0
100
AcDbLine
 10
38.589935
 20
233.8091399999999
 30
0.0
 11
38.589935
 21
232.1021399999999
 31
0.0
  0
LINE
  5
D0
330
1E
100
AcDbEntity
  8
0
100
AcDbLine
 10
37.83603499999999
 20
234.8831399999999
 30
0.0
 11
38.589935
 21
234.4011399999999
 31
0.0
  0
LINE
  5
D1
330
1E
100
AcDbEntity
  8
0
100
AcDbLine
 10
44.923235
 20
216.88814
 30
0.0
 11
45.32323499999999
 21
214.08814
 31
0.0
  0
LINE
  5
D2
330
1E
100
AcDbEntity
  8
0
100
AcDbLine
 10
44.923235
 20
216.88814
 30
0.0
 11
44.923235
 21
260.8881399999999
 31
0.0
  0
LINE
  5
D3
330
1E
100
AcDbEntity
  8
0
100
AcDbLine
 10
44.923235
 20
260.8881399999999
 30
0.0
 11
44.923235
 21
216.88814
 31
0.0
  0
LINE
  5
D4
330
1E
100
AcDbEntity
  8
0
100
AcDbLine
 10
44.923235
 20
260.8881399999999
 30
0.0
 11
55.923235
 21
260.8881399999999
 31
0.0
  0
LINE
  5
D5
330
1E
100
AcDbEntity
  8
0
100
AcDbLine
 10
44.923235
 20
260.8881399999999
 30
0.0
 11
45.423235
 21
260.3881399999999
 31
0.0
  0
LINE
  5
D6
330
1E
100
AcDbEntity
  8
0
100
AcDbLine
 10
44.923235
 20
234.8831399999999
 30
0.0
 11
44.923235
 21
260.8881399999999
 31
0.0
  0
LINE
  5
D7
330
1E
100
AcDbEntity
  8
0
100
AcDbLine
 10
46.623235
 20
23.33614
 30
0.0
 11
54.623235
 21
14.81694
 31
0.0
  0
LINE
  5
D8
330
1E
100
AcDbEntity
  8
0
100
AcDbLine
 10
46.623235
 20
23.90963999999999
 30
0.0
 11
54.623235
 21
15.39044
 31
0.0
  0
LINE
  5
D9
330
1E
100
AcDbEntity
  8
0
100
AcDbLine
 10
47.023235
 20
20.71394
 30
0.0
 11
54.923235
 21
12.19473999999999
 31
0.0
  0
LINE
  5
DA
330
1E
100
AcDbEntity
  8
0
100
AcDbLine
 10
46.623235
 20
71.00584000000001
 30
0.0
 11
54.623235
 21
80.08154000000001
 31
0.0
  0
LINE
  5
DB
330
1E
100
AcDbEntity
  8
0
100
AcDbLine
 10
46.42323499999999
 20
197.8881399999999
 30
0.0
 11
55.923235
 21
197.8881399999999
 31
0.0
  0
LINE
  5
DC
330
1E
100
AcDbEntity
  8
0
100
AcDbLine
 10
49.023235
 20
92.38814000000001
 30
0.0
 11
55.923235
 21
91.88814
 31
0.0
  0
LINE
  5
DD
330
1E
100
AcDbEntity
  8
0
100
AcDbLine
 10
48.723235
 20
90.48814
 30
0.0
 11
55.923235
 21
89.88814000000001
 31
0.0
  0
LINE
  5
DE
330
1E
100
AcDbEntity
  8
0
100
AcDbLine
 10
53.123235
 20
206.28814
 30
0.0
 11
55.923235
 21
205.8881399999999
 31
0.0
  0
LINE
  5
DF
330
1E
100
AcDbEntity
  8
0
100
AcDbLine
 10
54.623235
 20
14.81694
 30
0.0
 11
65.023235
 21
8.263740000000009
 31
0.0
  0
LINE
  5
E0
330
1E
100
AcDbEntity
  8
0
100
AcDbLine
 10
54.623235
 20
15.39044
 30
0.0
 11
65.023235
 21
8.83724000000001
 31
0.0
  0
LINE
  5
E1
330
1E
100
AcDbEntity
  8
0
100
AcDbLine
 10
54.923235
 20
12.19473999999999
 30
0.0
 11
65.323235
 21
5.723470000000009
 31
0.0
  0
LINE
  5
E2
330
1E
100
AcDbEntity
  8
0
100
AcDbLine
 10
54.923235
 20
80.37463999999999
 30
0.0
 11
65.323235
 21
87.25054
 31
0.0
  0
LINE
  5
E3
330
1E
100
AcDbEntity
  8
0
100
AcDbLine
 10
54.623235
 20
80.08154000000001
 30
0.0
 11
54.923235
 21
80.37463999999999
 31
0.0
  0
LINE
  5
E4
330
1E
100
AcDbEntity
  8
0
100
AcDbLine
 10
55.923235
 20
91.88814
 30
0.0
 11
62.823235
 21
92.38814000000001
 31
0.0
  0
LINE
  5
E5
330
1E
100
AcDbEntity
  8
0
100
AcDbLine
 10
55.923235
 20
89.88814000000001
 30
0.0
 11
63.123235
 21
90.48814
 31
0.0
  0
LINE
  5
E6
330
1E
100
AcDbEntity
  8
0
100
AcDbLine
 10
55.923235
 20
197.8881399999999
 30
0.0
 11
65.42323499999999
 21
197.8881399999999
 31
0.0
  0
LINE
  5
E7
330
1E
100
AcDbEntity
  8
0
100
AcDbLine
 10
53.123235
 20
206.28814
 30
0.0
 11
55.923235
 21
205.8881399999999
 31
0.0
  0
LINE
  5
E8
330
1E
100
AcDbEntity
  8
0
100
AcDbLine
 10
53.22323499999999
 20
206.78814
 30
0.0
 11
55.923235
 21
206.38814
 31
0.0
  0
LINE
  5
E9
330
1E
100
AcDbEntity
  8
0
100
AcDbLine
 10
50.423235
 20
207.3881399999999
 30
0.0
 11
53.123235
 21
206.28814
 31
0.0
  0
LINE
  5
EA
330
1E
100
AcDbEntity
  8
0
100
AcDbLine
 10
50.423235
 20
207.3881399999999
 30
0.0
 11
53.123235
 21
206.28814
 31
0.0
  0
LINE
  5
EB
330
1E
100
AcDbEntity
  8
0
100
AcDbLine
 10
55.923235
 20
206.38814
 30
0.0
 11
58.623235
 21
206.78814
 31
0.0
  0
LINE
  5
EC
330
1E
100
AcDbEntity
  8
0
100
AcDbLine
 10
62.823235
 20
92.38814000000001
 30
0.0
 11
69.623235
 21
93.78814
 31
0.0
  0
LINE
  5
ED
330
1E
100
AcDbEntity
  8
0
100
AcDbLine
 10
63.123235
 20
90.48814
 30
0.0
 11
70.12323499999999
 21
91.88814
 31
0.0
  0
LINE
  5
EE
330
1E
100
AcDbEntity
  8
0
100
AcDbLine
 10
58.623235
 20
206.78814
 30
0.0
 11
61.123235
 21
207.7881399999999
 31
0.0
  0
LINE
  5
EF
330
1E
100
AcDbEntity
  8
0
100
AcDbLine
 10
58.723235
 20
206.28814
 30
0.0
 11
61.42323499999999
 21
207.3881399999999
 31
0.0
  0
LINE
  5
F0
330
1E
100
AcDbEntity
  8
0
100
AcDbLine
 10
55.923235
 20
205.8881399999999
 30
0.0
 11
58.723235
 21
206.28814
 31
0.0
  0
LINE
  5
F1
330
1E
100
AcDbEntity
  8
0
100
AcDbLine
 10
55.923235
 20
205.8881399999999
 30
0.0
 11
58.723235
 21
206.28814
 31
0.0
  0
LINE
  5
F2
330
1E
100
AcDbEntity
  8
0
100
AcDbLine
 10
50.72323499999999
 20
207.7881399999999
 30
0.0
 11
53.22323499999999
 21
206.78814
 31
0.0
  0
LINE
  5
F3
330
1E
100
AcDbEntity
  8
0
100
AcDbLine
 10
48.523235
 20
209.4881399999999
 30
0.0
 11
50.72323499999999
 21
207.7881399999999
 31
0.0
  0
LINE
  5
F4
330
1E
100
AcDbEntity
  8
0
100
AcDbLine
 10
48.123235
 20
209.0881399999999
 30
0.0
 11
50.423235
 21
207.3881399999999
 31
0.0
  0
LINE
  5
F5
330
1E
100
AcDbEntity
  8
0
100
AcDbLine
 10
48.123235
 20
209.0881399999999
 30
0.0
 11
50.423235
 21
207.3881399999999
 31
0.0
  0
LINE
  5
F6
330
1E
100
AcDbEntity
  8
0
100
AcDbLine
 10
61.123235
 20
207.7881399999999
 30
0.0
 11
63.323235
 21
209.4881399999999
 31
0.0
  0
LINE
  5
F7
330
1E
100
AcDbEntity
  8
0
100
AcDbLine
 10
46.82323499999999
 20
211.68814
 30
0.0
 11
48.523235
 21
209.4881399999999
 31
0.0
  0
LINE
  5
F8
330
1E
100
AcDbEntity
  8
0
100
AcDbLine
 10
45.823235
 20
214.1881399999999
 30
0.0
 11
46.82323499999999
 21
211.68814
 31
0.0
  0
LINE
  5
F9
330
1E
100
AcDbEntity
  8
0
100
AcDbLine
 10
46.42323499999999
 20
211.3881399999999
 30
0.0
 11
48.123235
 21
209.0881399999999
 31
0.0
  0
LINE
  5
FA
330
1E
100
AcDbEntity
  8
0
100
AcDbLine
 10
46.42323499999999
 20
211.3881399999999
 30
0.0
 11
48.123235
 21
209.0881399999999
 31
0.0
  0
LINE
  5
FB
330
1E
100
AcDbEntity
  8
0
100
AcDbLine
 10
45.32323499999999
 20
214.08814
 30
0.0
 11
46.42323499999999
 21
211.3881399999999
 31
0.0
  0
LINE
  5
FC
330
1E
100
AcDbEntity
  8
0
100
AcDbLine
 10
63.323235
 20
209.4881399999999
 30
0.0
 11
65.023235
 21
211.68814
 31
0.0
  0
LINE
  5
FD
330
1E
100
AcDbEntity
  8
0
100
AcDbLine
 10
63.723235
 20
209.0881399999999
 30
0.0
 11
65.42323499999999
 21
211.3881399999999
 31
0.0
  0
LINE
  5
FE
330
1E
100
AcDbEntity
  8
0
100
AcDbLine
 10
61.42323499999999
 20
207.3881399999999
 30
0.0
 11
63.723235
 21
209.0881399999999
 31
0.0
  0
LINE
  5
FF
330
1E
100
AcDbEntity
  8
0
100
AcDbLine
 10
61.42323499999999
 20
207.3881399999999
 30
0.0
 11
63.723235
 21
209.0881399999999
 31
0.0
  0
LINE
  5
100
330
1E
100
AcDbEntity
  8
0
100
AcDbLine
 10
65.023235
 20
8.263740000000009
 30
0.0
 11
77.123235
 21
4.249850000000009
 31
0.0
  0
LINE
  5
101
330
1E
100
AcDbEntity
  8
0
100
AcDbLine
 10
65.323235
 20
5.723470000000009
 30
0.0
 11
66.023235
 21
5.354430000000009
 31
0.0
  0
LINE
  5
102
330
1E
100
AcDbEntity
  8
0
100
AcDbLine
 10
65.023235
 20
8.83724000000001
 30
0.0
 11
77.123235
 21
4.823430000000009
 31
0.0
  0
LINE
  5
103
330
1E
100
AcDbEntity
  8
0
100
AcDbLine
 10
65.323235
 20
87.25054
 30
0.0
 11
69.3192815784178
 21
88.62242644466119
 31
0.0
  0
LINE
  5
104
330
1E
100
AcDbEntity
  8
0
100
AcDbLine
 10
65.42323499999999
 20
197.8881399999999
 30
0.0
 11
69.45203499999999
 21
196.7741399999999
 31
0.0
  0
LINE
  5
105
330
1E
100
AcDbEntity
  8
0
100
AcDbLine
 10
65.023235
 20
211.68814
 30
0.0
 11
66.023235
 21
214.1881399999999
 31
0.0
  0
LINE
  5
106
330
1E
100
AcDbEntity
  8
0
100
AcDbLine
 10
66.023235
 20
5.354430000000009
 30
0.0
 11
77.62323499999999
 21
1.50441000000001
 31
0.0
  0
LINE
  5
108
330
1E
100
AcDbEntity
  8
0
100
AcDbLine
 10
69.3192815784178
 20
88.62242644466119
 30
0.0
 11
73.551435
 21
92.75814
 31
0.0
  0
LINE
  5
109
330
1E
100
AcDbEntity
  8
0
100
AcDbLine
 10
75.92323499999999
 20
184.8881399999999
 30
0.0
 11
76.42723499999999
 21
181.8331399999999
 31
0.0
  0
LINE
  5
10A
330
1E
100
AcDbEntity
  8
0
100
AcDbLine
 10
75.92323499999999
 20
184.8881399999999
 30
0.0
 11
75.92323499999999
 21
206.8881399999999
 31
0.0
  0
LINE
  5
10B
330
1E
100
AcDbEntity
  8
0
100
AcDbLine
 10
75.92323499999999
 20
184.8881399999999
 30
0.0
 11
76.42723499999999
 21
187.9431399999999
 31
0.0
  0
LINE
  5
10C
330
1E
100
AcDbEntity
  8
0
100
AcDbLine
 10
73.551435
 20
92.75814
 30
0.0
 11
76.180035
 21
96.83324
 31
0.0
  0
LINE
  5
10D
330
1E
100
AcDbEntity
  8
0
100
AcDbLine
 10
69.623235
 20
93.78814
 30
0.0
 11
75.49852485816629
 21
95.7766996443024
 31
0.0
  0
LINE
  5
10E
330
1E
100
AcDbEntity
  8
0
100
AcDbLine
 10
70.12323499999999
 20
91.88814
 30
0.0
 11
73.790316573236
 21
93.1284764144768
 31
0.0
  0
LINE
  5
10F
330
1E
100
AcDbEntity
  8
0
100
AcDbLine
 10
69.45203499999999
 20
196.7741399999999
 30
0.0
 11
75.92323499999999
 21
193.8776591269936
 31
0.0
  0
LINE
  5
110
330
1E
100
AcDbEntity
  8
0
100
AcDbLine
 10
71.635235
 20
198.89314
 30
0.0
 11
75.92323499999999
 21
196.2131399999999
 31
0.0
  0
LINE
  5
111
330
1E
100
AcDbEntity
  8
0
100
AcDbLine
 10
75.92323499999999
 20
198.89314
 30
0.0
 11
75.92323499999999
 21
199.47914
 31
0.0
  0
LINE
  5
113
330
1E
100
AcDbEntity
  8
0
100
AcDbLine
 10
75.92323499999999
 20
199.47914
 30
0.0
 11
75.92323499999999
 21
201.34414
 31
0.0
  0
LINE
  5
114
330
1E
100
AcDbEntity
  8
0
100
AcDbLine
 10
75.92323499999999
 20
199.47914
 30
0.0
 11
75.92323499999999
 21
198.89314
 31
0.0
  0
LINE
  5
115
330
1E
100
AcDbEntity
  8
0
100
AcDbLine
 10
77.123235
 20
4.249850000000009
 30
0.0
 11
89.92323499999999
 21
2.775380000000009
 31
0.0
  0
LINE
  5
116
330
1E
100
AcDbEntity
  8
0
100
AcDbLine
 10
76.180035
 20
96.83324
 30
0.0
 11
77.92323499999999
 21
103.64614
 31
0.0
  0
LINE
  5
117
330
1E
100
AcDbEntity
  8
0
100
AcDbLine
 10
77.62323499999999
 20
1.50441000000001
 30
0.0
 11
89.92323499999999
 21
0.111860000000007
 31
0.0
  0
LINE
  5
118
330
1E
100
AcDbEntity
  8
0
100
AcDbLine
 10
77.62323499999999
 20
1.50441000000001
 30
0.0
 11
89.92323499999999
 21
0.111860000000007
 31
0.0
  0
LINE
  5
119
330
1E
100
AcDbEntity
  8
0
100
AcDbLine
 10
89.92323499999999
 20
2.775380000000009
 30
0.0
 11
102.723235
 21
4.249850000000009
 31
0.0
  0
LINE
  5
11A
330
1E
100
AcDbEntity
  8
0
100
AcDbLine
 10
89.92323499999999
 20
0.111860000000007
 30
0.0
 11
102.223235
 21
1.50441000000001
 31
0.0
  0
LINE
  5
11B
330
1E
100
AcDbEntity
  8
0
100
AcDbLine
 10
102.223235
 20
1.50441000000001
 30
0.0
 11
113.823235
 21
5.354430000000009
 31
0.0
  0
LINE
  5
11C
330
1E
100
AcDbEntity
  8
0
100
AcDbLine
 10
89.92323499999999
 20
0.111860000000007
 30
0.0
 11
102.223235
 21
1.50441000000001
 31
0.0
  0
LINE
  5
11D
330
1E
100
AcDbEntity
  8
0
100
AcDbLine
 10
102.723235
 20
4.249850000000009
 30
0.0
 11
114.823235
 21
8.263740000000009
 31
0.0
  0
LINE
  5
11E
330
1E
100
AcDbEntity
  8
0
100
AcDbLine
 10
101.923235
 20
103.64614
 30
0.0
 11
103.666235
 21
96.83324
 31
0.0
  0
LINE
  5
11F
330
1E
100
AcDbEntity
  8
0
100
AcDbLine
 10
102.723235
 20
4.823430000000009
 30
0.0
 11
114.823235
 21
8.83724000000001
 31
0.0
  0
LINE
  5
120
330
1E
100
AcDbEntity
  8
0
100
AcDbLine
 10
89.92323499999999
 20
3.348950000000009
 30
0.0
 11
102.723235
 21
4.823430000000009
 31
0.0
  0
LINE
  5
121
330
1E
100
AcDbEntity
  8
0
100
AcDbLine
 10
77.92323499999999
 20
103.64614
 30
0.0
 11
77.92323499999999
 21
112.6861399999999
 31
0.0
  0
LINE
  5
122
330
1E
100
AcDbEntity
  8
0
100
AcDbLine
 10
77.92323499999999
 20
112.6861399999999
 30
0.0
 11
77.92323499999999
 21
122.0361399999999
 31
0.0
  0
LINE
  5
123
330
1E
100
AcDbEntity
  8
0
100
AcDbLine
 10
77.92323499999999
 20
112.6861399999999
 30
0.0
 11
77.92323499999999
 21
103.64614
 31
0.0
  0
LINE
  5
124
330
1E
100
AcDbEntity
  8
0
100
AcDbLine
 10
77.123235
 20
4.823430000000009
 30
0.0
 11
89.92323499999999
 21
3.348950000000009
 31
0.0
  0
LINE
  5
125
330
1E
100
AcDbEntity
  8
0
100
AcDbLine
 10
77.92323499999999
 20
122.0361399999999
 30
0.0
 11
77.92323499999999
 21
112.6861399999999
 31
0.0
  0
LINE
  5
126
330
1E
100
AcDbEntity
  8
0
100
AcDbLine
 10
77.92323499999999
 20
133.9401399999999
 30
0.0
 11
77.92323499999999
 21
120.1201399999999
 31
0.0
  0
LINE
  5
127
330
1E
100
AcDbEntity
  8
0
100
AcDbLine
 10
77.92323499999999
 20
120.1201399999999
 30
0.0
 11
77.92323499999999
 21
133.9401399999999
 31
0.0
  0
LINE
  5
128
330
1E
100
AcDbEntity
  8
0
100
AcDbLine
 10
77.92323499999999
 20
133.9401399999999
 30
0.0
 11
77.92323499999999
 21
145.7491399999999
 31
0.0
  0
LINE
  5
129
330
1E
100
AcDbEntity
  8
0
100
AcDbLine
 10
77.92323499999999
 20
145.7491399999999
 30
0.0
 11
77.92323499999999
 21
157.9641399999999
 31
0.0
  0
LINE
  5
12A
330
1E
100
AcDbEntity
  8
0
100
AcDbLine
 10
77.92323499999999
 20
145.7491399999999
 30
0.0
 11
77.92323499999999
 21
133.9401399999999
 31
0.0
  0
LINE
  5
12B
330
1E
100
AcDbEntity
  8
0
100
AcDbLine
 10
77.92323499999999
 20
157.9641399999999
 30
0.0
 11
77.92323499999999
 21
145.7491399999999
 31
0.0
  0
LINE
  5
12C
330
1E
100
AcDbEntity
  8
0
100
AcDbLine
 10
77.92323499999999
 20
152.6201399999999
 30
0.0
 11
77.92323499999999
 21
163.8531399999999
 31
0.0
  0
LINE
  5
12D
330
1E
100
AcDbEntity
  8
0
100
AcDbLine
 10
101.9232349999999
 20
103.64614
 30
0.0
 11
101.923235
 21
179.44814
 31
0.0
  0
LINE
  5
12E
330
1E
100
AcDbEntity
  8
0
100
AcDbLine
 10
77.92323499999999
 20
163.8531399999999
 30
0.0
 11
77.92323499999999
 21
172.8141399999999
 31
0.0
  0
LINE
  5
12F
330
1E
100
AcDbEntity
  8
0
100
AcDbLine
 10
77.92323499999999
 20
163.8531399999999
 30
0.0
 11
77.92323499999999
 21
152.6201399999999
 31
0.0
  0
LINE
  5
130
330
1E
100
AcDbEntity
  8
0
100
AcDbLine
 10
77.92323499999999
 20
172.8141399999999
 30
0.0
 11
77.92323499999999
 21
189.0791399999999
 31
0.0
  0
LINE
  5
131
330
1E
100
AcDbEntity
  8
0
100
AcDbLine
 10
77.92323499999999
 20
172.8141399999999
 30
0.0
 11
77.92323499999999
 21
163.8531399999999
 31
0.0
  0
LINE
  5
132
330
1E
100
AcDbEntity
  8
0
100
AcDbLine
 10
101.923235
 20
171.081473333333
 30
0.0
 11
104.8232349999999
 21
165.0881399999999
 31
0.0
  0
LINE
  5
133
330
1E
100
AcDbEntity
  8
0
100
AcDbLine
 10
77.771235
 20
178.9691399999999
 30
0.0
 11
77.92323499999999
 21
178.797461428571
 31
0.0
  0
LINE
  5
134
330
1E
100
AcDbEntity
  8
0
100
AcDbLine
 10
76.42723499999999
 20
187.9431399999999
 30
0.0
 11
77.771235
 21
190.80714
 31
0.0
  0
LINE
  5
135
330
1E
100
AcDbEntity
  8
0
100
AcDbLine
 10
76.42723499999999
 20
181.8331399999999
 30
0.0
 11
77.771235
 21
178.9691399999999
 31
0.0
  0
LINE
  5
136
330
1E
100
AcDbEntity
  8
0
100
AcDbLine
 10
77.92323499999999
 20
189.0791399999999
 30
0.0
 11
77.92323499999999
 21
172.8141399999999
 31
0.0
  0
LINE
  5
137
330
1E
100
AcDbEntity
  8
0
100
AcDbLine
 10
77.771235
 20
190.80714
 30
0.0
 11
77.92323499999999
 21
190.9788185714289
 31
0.0
  0
LINE
  5
138
330
1E
100
AcDbEntity
  8
0
100
AcDbLine
 10
77.92323499999999
 20
189.0791399999999
 30
0.0
 11
77.92323499999999
 21
191.2791399999999
 31
0.0
  0
LINE
  5
139
330
1E
100
AcDbEntity
  8
0
100
AcDbLine
 10
101.923235
 20
190.9788185714289
 30
0.0
 11
102.0752349999999
 21
190.80714
 31
0.0
  0
LINE
  5
13A
330
1E
100
AcDbEntity
  8
0
100
AcDbLine
 10
101.923235
 20
178.797461428571
 30
0.0
 11
102.0752349999999
 21
178.9691399999999
 31
0.0
  0
LINE
  5
13B
330
1E
100
AcDbEntity
  8
0
100
AcDbLine
 10
101.923235
 20
189.0791399999999
 30
0.0
 11
101.923235
 21
179.44814
 31
0.0
  0
LINE
  5
13C
330
1E
100
AcDbEntity
  8
0
100
AcDbLine
 10
101.491235
 20
192.6091399999999
 30
0.0
 11
101.923235
 21
191.2791399999999
 31
0.0
  0
LINE
  5
13D
330
1E
100
AcDbEntity
  8
0
100
AcDbLine
 10
101.923235
 20
179.44814
 30
0.0
 11
101.9232349999999
 21
103.64614
 31
0.0
  0
LINE
  5
13E
330
1E
100
AcDbEntity
  8
0
100
AcDbLine
 10
101.923235
 20
179.44814
 30
0.0
 11
101.923235
 21
191.2791399999999
 31
0.0
  0
LINE
  5
141
330
1E
100
AcDbEntity
  8
0
100
AcDbLine
 10
78.35523499999999
 20
192.6091399999999
 30
0.0
 11
79.50723499999999
 21
193.8561399999999
 31
0.0
  0
LINE
  5
142
330
1E
100
AcDbEntity
  8
0
100
AcDbLine
 10
77.92323499999999
 20
191.2791399999999
 30
0.0
 11
77.92323499999999
 21
189.0791399999999
 31
0.0
  0
LINE
  5
143
330
1E
100
AcDbEntity
  8
0
100
AcDbLine
 10
77.92323499999999
 20
191.2791399999999
 30
0.0
 11
78.35523499999999
 21
192.6091399999999
 31
0.0
  0
LINE
  5
144
330
1E
100
AcDbEntity
  8
0
100
AcDbLine
 10
101.923235
 20
174.68814
 30
0.0
 11
103.523235
 21
172.28814
 31
0.0
  0
LINE
  5
145
330
1E
100
AcDbEntity
  8
0
100
AcDbLine
 10
102.0752349999999
 20
190.80714
 30
0.0
 11
103.419235
 21
187.9431399999999
 31
0.0
  0
LINE
  5
146
330
1E
100
AcDbEntity
  8
0
100
AcDbLine
 10
103.419235
 20
187.9431399999999
 30
0.0
 11
103.923235
 21
184.8881399999999
 31
0.0
  0
LINE
  5
147
330
1E
100
AcDbEntity
  8
0
100
AcDbLine
 10
102.0752349999999
 20
178.9691399999999
 30
0.0
 11
103.419235
 21
181.8331399999999
 31
0.0
  0
LINE
  5
148
330
1E
100
AcDbEntity
  8
0
100
AcDbLine
 10
103.419235
 20
181.8331399999999
 30
0.0
 11
103.923235
 21
184.8881399999999
 31
0.0
  0
LINE
  5
149
330
1E
100
AcDbEntity
  8
0
100
AcDbLine
 10
103.523235
 20
172.28814
 30
0.0
 11
106.623235
 21
165.88814
 31
0.0
  0
LINE
  5
14A
330
1E
100
AcDbEntity
  8
0
100
AcDbLine
 10
101.923235
 20
118.694806666667
 30
0.0
 11
104.8232349999999
 21
124.6881399999999
 31
0.0
  0
LINE
  5
14B
330
1E
100
AcDbEntity
  8
0
100
AcDbLine
 10
101.923235
 20
115.08814
 30
0.0
 11
103.523235
 21
117.4881399999999
 31
0.0
  0
LINE
  5
14C
330
1E
100
AcDbEntity
  8
0
100
AcDbLine
 10
106.2952349999999
 20
92.75814
 30
0.0
 11
110.5266188065819
 21
88.6226219997135
 31
0.0
  0
LINE
  5
14D
330
1E
100
AcDbEntity
  8
0
100
AcDbLine
 10
103.666235
 20
96.83324
 30
0.0
 11
106.2952349999999
 21
92.75814
 31
0.0
  0
LINE
  5
14E
330
1E
100
AcDbEntity
  8
0
100
AcDbLine
 10
104.8232349999999
 20
124.6881399999999
 30
0.0
 11
107.023235
 21
131.18814
 31
0.0
  0
LINE
  5
14F
330
1E
100
AcDbEntity
  8
0
100
AcDbLine
 10
107.023235
 20
131.18814
 30
0.0
 11
108.423235
 21
137.9881399999999
 31
0.0
  0
LINE
  5
150
330
1E
100
AcDbEntity
  8
0
100
AcDbLine
 10
106.623235
 20
123.8881399999999
 30
0.0
 11
108.923235
 21
130.6881399999999
 31
0.0
  0
LINE
  5
151
330
1E
100
AcDbEntity
  8
0
100
AcDbLine
 10
114.823235
 20
8.263740000000009
 30
0.0
 11
125.223235
 21
14.81694
 31
0.0
  0
LINE
  5
152
330
1E
100
AcDbEntity
  8
0
100
AcDbLine
 10
114.523235
 20
5.723470000000009
 30
0.0
 11
124.9232349999999
 21
12.19473999999999
 31
0.0
  0
LINE
  5
153
330
1E
100
AcDbEntity
  8
0
100
AcDbLine
 10
113.823235
 20
5.354430000000009
 30
0.0
 11
114.523235
 21
5.723470000000009
 31
0.0
  0
LINE
  5
154
330
1E
100
AcDbEntity
  8
0
100
AcDbLine
 10
114.523235
 20
87.25054
 30
0.0
 11
124.9232349999999
 21
80.37463999999999
 31
0.0
  0
LINE
  5
155
330
1E
100
AcDbEntity
  8
0
100
AcDbLine
 10
125.223235
 20
14.81694
 30
0.0
 11
133.223235
 21
23.33614
 31
0.0
  0
LINE
  5
156
330
1E
100
AcDbEntity
  8
0
100
AcDbLine
 10
124.9232349999999
 20
12.19473999999999
 30
0.0
 11
132.823235
 21
20.71394
 31
0.0
  0
LINE
  5
157
330
1E
100
AcDbEntity
  8
0
100
AcDbLine
 10
133.223235
 20
23.33614
 30
0.0
 11
138.123235
 21
33.24784
 31
0.0
  0
LINE
  5
158
330
1E
100
AcDbEntity
  8
0
100
AcDbLine
 10
132.823235
 20
20.71394
 30
0.0
 11
137.623235
 21
30.46184
 31
0.0
  0
LINE
  5
159
330
1E
100
AcDbEntity
  8
0
100
AcDbLine
 10
125.223235
 20
15.39044
 30
0.0
 11
133.223235
 21
23.90963999999999
 31
0.0
  0
LINE
  5
15A
330
1E
100
AcDbEntity
  8
0
100
AcDbLine
 10
138.123235
 20
33.24784
 30
0.0
 11
139.923235
 21
43.73294
 31
0.0
  0
LINE
  5
15B
330
1E
100
AcDbEntity
  8
0
100
AcDbLine
 10
138.123235
 20
31.81394
 30
0.0
 11
139.923235
 21
42.29904
 31
0.0
  0
LINE
  5
15C
330
1E
100
AcDbEntity
  8
0
100
AcDbLine
 10
137.623235
 20
30.46184
 30
0.0
 11
138.123235
 21
31.81394
 31
0.0
  0
LINE
  5
15D
330
1E
100
AcDbEntity
  8
0
100
AcDbLine
 10
133.223235
 20
23.90963999999999
 30
0.0
 11
138.123235
 21
33.82144
 31
0.0
  0
LINE
  5
15E
330
1E
100
AcDbEntity
  8
0
100
AcDbLine
 10
139.923235
 20
43.73294
 30
0.0
 11
139.923235
 21
42.29904
 31
0.0
  0
LINE
  5
15F
330
1E
100
AcDbEntity
  8
0
100
AcDbLine
 10
139.8739996528659
 20
44.0197413676485
 30
0.0
 11
139.923235
 21
43.73294
 31
0.0
  0
LINE
  5
160
330
1E
100
AcDbEntity
  8
0
100
AcDbLine
 10
139.923235
 20
42.29904
 30
0.0
 11
139.923235
 21
43.73294
 31
0.0
  0
LINE
  5
161
330
1E
100
AcDbEntity
  8
0
100
AcDbLine
 10
139.923235
 20
50.32914
 30
0.0
 11
139.923235
 21
44.30654
 31
0.0
  0
LINE
  5
162
330
1E
100
AcDbEntity
  8
0
100
AcDbLine
 10
139.923235
 20
44.30654
 30
0.0
 11
139.923235
 21
50.32914
 31
0.0
  0
LINE
  5
163
330
1E
100
AcDbEntity
  8
0
100
AcDbLine
 10
138.123235
 20
33.82144
 30
0.0
 11
139.923235
 21
44.30654
 31
0.0
  0
LINE
  5
164
330
1E
100
AcDbEntity
  8
0
100
AcDbLine
 10
124.9232349999999
 20
80.37463999999999
 30
0.0
 11
125.223235
 21
80.08154000000001
 31
0.0
  0
LINE
  5
165
330
1E
100
AcDbEntity
  8
0
100
AcDbLine
 10
125.223235
 20
80.08154000000001
 30
0.0
 11
133.223235
 21
71.00584000000001
 31
0.0
  0
LINE
  5
166
330
1E
100
AcDbEntity
  8
0
100
AcDbLine
 10
133.223235
 20
71.00584000000001
 30
0.0
 11
138.123235
 21
60.81424000000001
 31
0.0
  0
LINE
  5
167
330
1E
100
AcDbEntity
  8
0
100
AcDbLine
 10
138.123235
 20
60.81424000000001
 30
0.0
 11
139.923235
 21
50.32914
 31
0.0
  0
LINE
  5
168
330
1E
100
AcDbEntity
  8
0
100
AcDbLine
 10
114.823235
 20
8.83724000000001
 30
0.0
 11
125.223235
 21
15.39044
 31
0.0
  0
LINE
  5
169
330
1E
100
AcDbEntity
  8
0
100
AcDbLine
 10
110.5266188065819
 20
88.6226219997135
 30
0.0
 11
114.523235
 21
87.25054
 31
0.0
  0
LINE
  5
16C
330
1E
100
AcDbEntity
  8
0
100
AcDbLine
 10
108.923235
 20
130.6881399999999
 30
0.0
 11
110.323235
 21
137.68814
 31
0.0
  0
LINE
  5
16D
330
1E
100
AcDbEntity
  8
0
100
AcDbLine
 10
104.8232349999999
 20
165.0881399999999
 30
0.0
 11
107.023235
 21
158.5881399999999
 31
0.0
  0
LINE
  5
16E
330
1E
100
AcDbEntity
  8
0
100
AcDbLine
 10
104.8232349999999
 20
165.0881399999999
 30
0.0
 11
107.023235
 21
158.5881399999999
 31
0.0
  0
LINE
  5
16F
330
1E
100
AcDbEntity
  8
0
100
AcDbLine
 10
107.023235
 20
158.5881399999999
 30
0.0
 11
108.423235
 21
151.78814
 31
0.0
  0
LINE
  5
170
330
1E
100
AcDbEntity
  8
0
100
AcDbLine
 10
108.423235
 20
151.78814
 30
0.0
 11
108.923235
 21
144.8881399999999
 31
0.0
  0
LINE
  5
171
330
1E
100
AcDbEntity
  8
0
100
AcDbLine
 10
103.923235
 20
184.8881399999999
 30
0.0
 11
103.923235
 21
215.8881399999999
 31
0.0
  0
LINE
  5
172
330
1E
100
AcDbEntity
  8
0
100
AcDbLine
 10
106.623235
 20
165.88814
 30
0.0
 11
108.923235
 21
159.0881399999999
 31
0.0
  0
LINE
  5
173
330
1E
100
AcDbEntity
  8
0
100
AcDbLine
 10
225.923235
 20
154.8881399999999
 30
0.0
 11
225.923235
 21
156.8881399999999
 31
0.0
  0
LINE
  5
174
330
1E
100
AcDbEntity
  8
0
100
AcDbLine
 10
225.923235
 20
154.8881399999999
 30
0.0
 11
229.923235
 21
153.8881399999999
 31
0.0
  0
LINE
  5
175
330
1E
100
AcDbEntity
  8
0
100
AcDbLine
 10
225.923235
 20
154.8881399999999
 30
0.0
 11
226.223235
 21
154.8881399999999
 31
0.0
  0
LINE
  5
176
330
1E
100
AcDbEntity
  8
0
100
AcDbLine
 10
225.923235
 20
158.8881399999999
 30
0.0
 11
225.923235
 21
156.8881399999999
 31
0.0
  0
LINE
  5
177
330
1E
100
AcDbEntity
  8
0
100
AcDbLine
 10
226.823235
 20
154.8881399999999
 30
0.0
 11
228.0232349999999
 21
154.8881399999999
 31
0.0
  0
LINE
  5
178
330
1E
100
AcDbEntity
  8
0
100
AcDbLine
 10
226.223235
 20
154.8881399999999
 30
0.0
 11
226.823235
 21
154.8881399999999
 31
0.0
  0
LINE
  5
179
330
1E
100
AcDbEntity
  8
0
100
AcDbLine
 10
229.423235
 20
154.8881399999999
 30
0.0
 11
231.123235
 21
154.8881399999999
 31
0.0
  0
LINE
  5
17A
330
1E
100
AcDbEntity
  8
0
100
AcDbLine
 10
228.0232349999999
 20
154.8881399999999
 30
0.0
 11
229.423235
 21
154.8881399999999
 31
0.0
  0
LINE
  5
17B
330
1E
100
AcDbEntity
  8
0
100
AcDbLine
 10
232.923235
 20
154.8881399999999
 30
0.0
 11
234.723235
 21
154.8881399999999
 31
0.0
  0
LINE
  5
17C
330
1E
100
AcDbEntity
  8
0
100
AcDbLine
 10
231.123235
 20
154.8881399999999
 30
0.0
 11
232.923235
 21
154.8881399999999
 31
0.0
  0
LINE
  5
17D
330
1E
100
AcDbEntity
  8
0
100
AcDbLine
 10
232.923235
 20
153.5881399999999
 30
0.0
 11
235.923235
 21
153.8881399999999
 31
0.0
  0
LINE
  5
17E
330
1E
100
AcDbEntity
  8
0
100
AcDbLine
 10
229.923235
 20
153.8881399999999
 30
0.0
 11
232.923235
 21
153.5881399999999
 31
0.0
  0
LINE
  5
17F
330
1E
100
AcDbEntity
  8
0
100
AcDbLine
 10
231.123235
 20
156.8881399999999
 30
0.0
 11
232.923235
 21
156.8881399999999
 31
0.0
  0
LINE
  5
180
330
1E
100
AcDbEntity
  8
0
100
AcDbLine
 10
229.423235
 20
156.8881399999999
 30
0.0
 11
231.123235
 21
156.8881399999999
 31
0.0
  0
LINE
  5
181
330
1E
100
AcDbEntity
  8
0
100
AcDbLine
 10
228.0232349999999
 20
156.8881399999999
 30
0.0
 11
229.423235
 21
156.8881399999999
 31
0.0
  0
LINE
  5
182
330
1E
100
AcDbEntity
  8
0
100
AcDbLine
 10
226.823235
 20
156.8881399999999
 30
0.0
 11
228.0232349999999
 21
156.8881399999999
 31
0.0
  0
LINE
  5
183
330
1E
100
AcDbEntity
  8
0
100
AcDbLine
 10
226.223235
 20
156.8881399999999
 30
0.0
 11
226.823235
 21
156.8881399999999
 31
0.0
  0
LINE
  5
184
330
1E
100
AcDbEntity
  8
0
100
AcDbLine
 10
234.723235
 20
154.8881399999999
 30
0.0
 11
236.4232349999999
 21
154.8881399999999
 31
0.0
  0
LINE
  5
185
330
1E
100
AcDbEntity
  8
0
100
AcDbLine
 10
236.4232349999999
 20
154.8881399999999
 30
0.0
 11
237.823235
 21
154.8881399999999
 31
0.0
  0
LINE
  5
186
330
1E
100
AcDbEntity
  8
0
100
AcDbLine
 10
235.923235
 20
153.8881399999999
 30
0.0
 11
239.923235
 21
154.8881399999999
 31
0.0
  0
LINE
  5
187
330
1E
100
AcDbEntity
  8
0
100
AcDbLine
 10
232.923235
 20
156.8881399999999
 30
0.0
 11
234.723235
 21
156.8881399999999
 31
0.0
  0
LINE
  5
188
330
1E
100
AcDbEntity
  8
0
100
AcDbLine
 10
234.723235
 20
156.8881399999999
 30
0.0
 11
236.4232349999999
 21
156.8881399999999
 31
0.0
  0
LINE
  5
189
330
1E
100
AcDbEntity
  8
0
100
AcDbLine
 10
237.823235
 20
154.8881399999999
 30
0.0
 11
239.023235
 21
154.8881399999999
 31
0.0
  0
LINE
  5
18A
330
1E
100
AcDbEntity
  8
0
100
AcDbLine
 10
239.023235
 20
154.8881399999999
 30
0.0
 11
239.623235
 21
154.8881399999999
 31
0.0
  0
LINE
  5
18B
330
1E
100
AcDbEntity
  8
0
100
AcDbLine
 10
236.4232349999999
 20
156.8881399999999
 30
0.0
 11
237.823235
 21
156.8881399999999
 31
0.0
  0
LINE
  5
18C
330
1E
100
AcDbEntity
  8
0
100
AcDbLine
 10
237.823235
 20
156.8881399999999
 30
0.0
 11
239.023235
 21
156.8881399999999
 31
0.0
  0
LINE
  5
18D
330
1E
100
AcDbEntity
  8
0
100
AcDbLine
 10
239.623235
 20
154.8881399999999
 30
0.0
 11
239.923235
 21
154.8881399999999
 31
0.0
  0
LINE
  5
18E
330
1E
100
AcDbEntity
  8
0
100
AcDbLine
 10
239.023235
 20
156.8881399999999
 30
0.0
 11
239.623235
 21
156.8881399999999
 31
0.0
  0
LINE
  5
18F
330
1E
100
AcDbEntity
  8
0
100
AcDbLine
 10
239.623235
 20
156.8881399999999
 30
0.0
 11
239.923235
 21
156.8881399999999
 31
0.0
  0
LINE
  5
190
330
1E
100
AcDbEntity
  8
0
100
AcDbLine
 10
225.923235
 20
156.8881399999999
 30
0.0
 11
225.923235
 21
158.8881399999999
 31
0.0
  0
LINE
  5
191
330
1E
100
AcDbEntity
  8
0
100
AcDbLine
 10
225.923235
 20
156.8881399999999
 30
0.0
 11
226.223235
 21
156.8881399999999
 31
0.0
  0
LINE
  5
192
330
1E
100
AcDbEntity
  8
0
100
AcDbLine
 10
225.923235
 20
156.8881399999999
 30
0.0
 11
225.923235
 21
154.8881399999999
 31
0.0
  0
LINE
  5
193
330
1E
100
AcDbEntity
  8
0
100
AcDbLine
 10
213.9232349999999
 20
158.8881399999999
 30
0.0
 11
239.823235
 21
158.8881399999999
 31
0.0
  0
LINE
  5
194
330
1E
100
AcDbEntity
  8
0
100
AcDbLine
 10
213.9232349999999
 20
158.8881399999999
 30
0.0
 11
213.9232349999999
 21
159.68814
 31
0.0
  0
LINE
  5
195
330
1E
100
AcDbEntity
  8
0
100
AcDbLine
 10
239.923235
 20
154.8881399999999
 30
0.0
 11
239.923235
 21
156.8881399999999
 31
0.0
  0
LINE
  5
196
330
1E
100
AcDbEntity
  8
0
100
AcDbLine
 10
239.923235
 20
156.8881399999999
 30
0.0
 11
239.923235
 21
158.8881399999999
 31
0.0
  0
LINE
  5
197
330
1E
100
AcDbEntity
  8
0
100
AcDbLine
 10
239.923235
 20
156.8881399999999
 30
0.0
 11
239.923235
 21
154.8881399999999
 31
0.0
  0
LINE
  5
198
330
1E
100
AcDbEntity
  8
0
100
AcDbLine
 10
442.9232349999999
 20
158.8881399999999
 30
0.0
 11
442.9232349999999
 21
159.68814
 31
0.0
  0
LINE
  5
199
330
1E
100
AcDbEntity
  8
0
100
AcDbLine
 10
350.923235
 20
158.8881399999999
 30
0.0
 11
442.9232349999999
 21
158.8881399999999
 31
0.0
  0
LINE
  5
19A
330
1E
100
AcDbEntity
  8
0
100
AcDbLine
 10
461.9232349999999
 20
154.8881399999999
 30
0.0
 11
465.9232349999999
 21
153.8881399999999
 31
0.0
  0
LINE
  5
19B
330
1E
100
AcDbEntity
  8
0
100
AcDbLine
 10
461.9232349999999
 20
154.8881399999999
 30
0.0
 11
461.9232349999999
 21
156.8881399999999
 31
0.0
  0
LINE
  5
19C
330
1E
100
AcDbEntity
  8
0
100
AcDbLine
 10
461.9232349999999
 20
154.8881399999999
 30
0.0
 11
462.2232349999999
 21
154.8881399999999
 31
0.0
  0
LINE
  5
19D
330
1E
100
AcDbEntity
  8
0
100
AcDbLine
 10
462.8232349999999
 20
154.8881399999999
 30
0.0
 11
464.0232349999999
 21
154.8881399999999
 31
0.0
  0
LINE
  5
19E
330
1E
100
AcDbEntity
  8
0
100
AcDbLine
 10
462.2232349999999
 20
154.8881399999999
 30
0.0
 11
462.8232349999999
 21
154.8881399999999
 31
0.0
  0
LINE
  5
19F
330
1E
100
AcDbEntity
  8
0
100
AcDbLine
 10
465.423235
 20
154.8881399999999
 30
0.0
 11
467.1232349999999
 21
154.8881399999999
 31
0.0
  0
LINE
  5
1A0
330
1E
100
AcDbEntity
  8
0
100
AcDbLine
 10
464.0232349999999
 20
154.8881399999999
 30
0.0
 11
465.423235
 21
154.8881399999999
 31
0.0
  0
LINE
  5
1A1
330
1E
100
AcDbEntity
  8
0
100
AcDbLine
 10
467.1232349999999
 20
154.8881399999999
 30
0.0
 11
468.923235
 21
154.8881399999999
 31
0.0
  0
LINE
  5
1A2
330
1E
100
AcDbEntity
  8
0
100
AcDbLine
 10
468.923235
 20
154.8881399999999
 30
0.0
 11
470.7232349999999
 21
154.8881399999999
 31
0.0
  0
LINE
  5
1A3
330
1E
100
AcDbEntity
  8
0
100
AcDbLine
 10
465.9232349999999
 20
153.8881399999999
 30
0.0
 11
468.923235
 21
153.5881399999999
 31
0.0
  0
LINE
  5
1A4
330
1E
100
AcDbEntity
  8
0
100
AcDbLine
 10
470.7232349999999
 20
154.8881399999999
 30
0.0
 11
472.423235
 21
154.8881399999999
 31
0.0
  0
LINE
  5
1A5
330
1E
100
AcDbEntity
  8
0
100
AcDbLine
 10
468.923235
 20
153.5881399999999
 30
0.0
 11
471.9232349999999
 21
153.8881399999999
 31
0.0
  0
LINE
  5
1A6
330
1E
100
AcDbEntity
  8
0
100
AcDbLine
 10
468.923235
 20
156.8881399999999
 30
0.0
 11
470.7232349999999
 21
156.8881399999999
 31
0.0
  0
LINE
  5
1A7
330
1E
100
AcDbEntity
  8
0
100
AcDbLine
 10
472.423235
 20
154.8881399999999
 30
0.0
 11
473.8232349999999
 21
154.8881399999999
 31
0.0
  0
LINE
  5
1A8
330
1E
100
AcDbEntity
  8
0
100
AcDbLine
 10
473.8232349999999
 20
154.8881399999999
 30
0.0
 11
475.0232349999999
 21
154.8881399999999
 31
0.0
  0
LINE
  5
1A9
330
1E
100
AcDbEntity
  8
0
100
AcDbLine
 10
471.9232349999999
 20
153.8881399999999
 30
0.0
 11
475.9232349999999
 21
154.8881399999999
 31
0.0
  0
LINE
  5
1AA
330
1E
100
AcDbEntity
  8
0
100
AcDbLine
 10
470.7232349999999
 20
156.8881399999999
 30
0.0
 11
472.423235
 21
156.8881399999999
 31
0.0
  0
LINE
  5
1AB
330
1E
100
AcDbEntity
  8
0
100
AcDbLine
 10
472.423235
 20
156.8881399999999
 30
0.0
 11
473.8232349999999
 21
156.8881399999999
 31
0.0
  0
LINE
  5
1AC
330
1E
100
AcDbEntity
  8
0
100
AcDbLine
 10
475.0232349999999
 20
154.8881399999999
 30
0.0
 11
475.6232349999999
 21
154.8881399999999
 31
0.0
  0
LINE
  5
1AD
330
1E
100
AcDbEntity
  8
0
100
AcDbLine
 10
475.6232349999999
 20
154.8881399999999
 30
0.0
 11
475.9232349999999
 21
154.8881399999999
 31
0.0
  0
LINE
  5
1AE
330
1E
100
AcDbEntity
  8
0
100
AcDbLine
 10
473.8232349999999
 20
156.8881399999999
 30
0.0
 11
475.0232349999999
 21
156.8881399999999
 31
0.0
  0
LINE
  5
1AF
330
1E
100
AcDbEntity
  8
0
100
AcDbLine
 10
475.0232349999999
 20
156.8881399999999
 30
0.0
 11
475.6232349999999
 21
156.8881399999999
 31
0.0
  0
LINE
  5
1B0
330
1E
100
AcDbEntity
  8
0
100
AcDbLine
 10
475.9232349999999
 20
154.8881399999999
 30
0.0
 11
475.9232349999999
 21
156.8881399999999
 31
0.0
  0
LINE
  5
1B1
330
1E
100
AcDbEntity
  8
0
100
AcDbLine
 10
475.6232349999999
 20
156.8881399999999
 30
0.0
 11
475.9232349999999
 21
156.8881399999999
 31
0.0
  0
LINE
  5
1B2
330
1E
100
AcDbEntity
  8
0
100
AcDbLine
 10
467.1232349999999
 20
156.8881399999999
 30
0.0
 11
468.923235
 21
156.8881399999999
 31
0.0
  0
LINE
  5
1B3
330
1E
100
AcDbEntity
  8
0
100
AcDbLine
 10
465.423235
 20
156.8881399999999
 30
0.0
 11
467.1232349999999
 21
156.8881399999999
 31
0.0
  0
LINE
  5
1B4
330
1E
100
AcDbEntity
  8
0
100
AcDbLine
 10
464.0232349999999
 20
156.8881399999999
 30
0.0
 11
465.423235
 21
156.8881399999999
 31
0.0
  0
LINE
  5
1B5
330
1E
100
AcDbEntity
  8
0
100
AcDbLine
 10
462.8232349999999
 20
156.8881399999999
 30
0.0
 11
464.0232349999999
 21
156.8881399999999
 31
0.0
  0
LINE
  5
1B6
330
1E
100
AcDbEntity
  8
0
100
AcDbLine
 10
462.2232349999999
 20
156.8881399999999
 30
0.0
 11
462.8232349999999
 21
156.8881399999999
 31
0.0
  0
LINE
  5
1B7
330
1E
100
AcDbEntity
  8
0
100
AcDbLine
 10
461.9232349999999
 20
156.8881399999999
 30
0.0
 11
461.9232349999999
 21
158.8881399999999
 31
0.0
  0
LINE
  5
1B8
330
1E
100
AcDbEntity
  8
0
100
AcDbLine
 10
461.9232349999999
 20
156.8881399999999
 30
0.0
 11
462.2232349999999
 21
156.8881399999999
 31
0.0
  0
LINE
  5
1B9
330
1E
100
AcDbEntity
  8
0
100
AcDbLine
 10
461.9232349999999
 20
156.8881399999999
 30
0.0
 11
461.9232349999999
 21
154.8881399999999
 31
0.0
  0
LINE
  5
1BA
330
1E
100
AcDbEntity
  8
0
100
AcDbLine
 10
461.9232349999999
 20
158.8881399999999
 30
0.0
 11
461.9232349999999
 21
156.8881399999999
 31
0.0
  0
LINE
  5
1BB
330
1E
100
AcDbEntity
  8
0
100
AcDbLine
 10
475.9232349999999
 20
156.8881399999999
 30
0.0
 11
475.9232349999999
 21
158.8881399999999
 31
0.0
  0
LINE
  5
1BC
330
1E
100
AcDbEntity
  8
0
100
AcDbLine
 10
475.9232349999999
 20
156.8881399999999
 30
0.0
 11
475.9232349999999
 21
154.8881399999999
 31
0.0
  0
LINE
  5
1BD
330
1E
100
AcDbEntity
  8
0
100
AcDbLine
 10
475.9232349999999
 20
158.8881399999999
 30
0.0
 11
487.9232349999999
 21
158.8881399999999
 31
0.0
  0
LINE
  5
1BE
330
1E
100
AcDbEntity
  8
0
100
AcDbLine
 10
475.9232349999999
 20
158.8881399999999
 30
0.0
 11
475.9232349999999
 21
156.8881399999999
 31
0.0
  0
LINE
  5
1BF
330
1E
100
AcDbEntity
  8
0
100
AcDbLine
 10
444.9232349999999
 20
158.8881399999999
 30
0.0
 11
444.9232349999999
 21
159.68814
 31
0.0
  0
LINE
  5
1C0
330
1E
100
AcDbEntity
  8
0
100
AcDbLine
 10
444.9232349999999
 20
158.8881399999999
 30
0.0
 11
475.9232349999999
 21
158.8881399999999
 31
0.0
  0
LINE
  5
1C1
330
1E
100
AcDbEntity
  8
0
100
AcDbLine
 10
487.9232349999999
 20
158.8881399999999
 30
0.0
 11
488.9232349999999
 21
159.8881399999999
 31
0.0
  0
LINE
  5
1C2
330
1E
100
AcDbEntity
  8
0
100
AcDbLine
 10
487.9232349999999
 20
158.8881399999999
 30
0.0
 11
487.9232349999999
 21
159.68814
 31
0.0
  0
LINE
  5
1C3
330
1E
100
AcDbEntity
  8
0
100
AcDbLine
 10
256.923235
 20
158.8881399999999
 30
0.0
 11
256.923235
 21
159.68814
 31
0.0
  0
LINE
  5
1C4
330
1E
100
AcDbEntity
  8
0
100
AcDbLine
 10
239.923235
 20
158.8881399999999
 30
0.0
 11
239.923235
 21
156.8881399999999
 31
0.0
  0
LINE
  5
1C5
330
1E
100
AcDbEntity
  8
0
100
AcDbLine
 10
239.823235
 20
158.8881399999999
 30
0.0
 11
256.923235
 21
158.8881399999999
 31
0.0
  0
LINE
  5
1C6
330
1E
100
AcDbEntity
  8
0
100
AcDbLine
 10
256.923235
 20
159.68814
 30
0.0
 11
256.923235
 21
161.68814
 31
0.0
  0
LINE
  5
1C7
330
1E
100
AcDbEntity
  8
0
100
AcDbLine
 10
256.923235
 20
159.68814
 30
0.0
 11
256.923235
 21
158.8881399999999
 31
0.0
  0
LINE
  5
1C8
330
1E
100
AcDbEntity
  8
0
100
AcDbLine
 10
256.923235
 20
160.3881399999999
 30
0.0
 11
258.923235
 21
160.3881399999999
 31
0.0
  0
LINE
  5
1C9
330
1E
100
AcDbEntity
  8
0
100
AcDbLine
 10
213.9232349999999
 20
159.68814
 30
0.0
 11
213.9232349999999
 21
161.68814
 31
0.0
  0
LINE
  5
1CA
330
1E
100
AcDbEntity
  8
0
100
AcDbLine
 10
213.9232349999999
 20
159.68814
 30
0.0
 11
213.9232349999999
 21
158.8881399999999
 31
0.0
  0
LINE
  5
1CB
330
1E
100
AcDbEntity
  8
0
100
AcDbLine
 10
212.923235
 20
159.8881399999999
 30
0.0
 11
213.9232349999999
 21
158.8881399999999
 31
0.0
  0
LINE
  5
1CC
330
1E
100
AcDbEntity
  8
0
100
AcDbLine
 10
212.923235
 20
159.8881399999999
 30
0.0
 11
212.923235
 21
160.5881399999999
 31
0.0
  0
LINE
  5
1CD
330
1E
100
AcDbEntity
  8
0
100
AcDbLine
 10
212.923235
 20
160.5881399999999
 30
0.0
 11
212.923235
 21
162.5881399999999
 31
0.0
  0
LINE
  5
1CE
330
1E
100
AcDbEntity
  8
0
100
AcDbLine
 10
212.923235
 20
160.5881399999999
 30
0.0
 11
212.923235
 21
159.8881399999999
 31
0.0
  0
LINE
  5
1CF
330
1E
100
AcDbEntity
  8
0
100
AcDbLine
 10
256.923235
 20
161.68814
 30
0.0
 11
256.923235
 21
165.0881399999999
 31
0.0
  0
LINE
  5
1D0
330
1E
100
AcDbEntity
  8
0
100
AcDbLine
 10
256.923235
 20
161.68814
 30
0.0
 11
256.923235
 21
159.68814
 31
0.0
  0
LINE
  5
1D1
330
1E
100
AcDbEntity
  8
0
100
AcDbLine
 10
213.9232349999999
 20
161.68814
 30
0.0
 11
213.9232349999999
 21
165.0881399999999
 31
0.0
  0
LINE
  5
1D2
330
1E
100
AcDbEntity
  8
0
100
AcDbLine
 10
213.9232349999999
 20
161.68814
 30
0.0
 11
213.9232349999999
 21
159.68814
 31
0.0
  0
LINE
  5
1D3
330
1E
100
AcDbEntity
  8
0
100
AcDbLine
 10
212.923235
 20
162.5881399999999
 30
0.0
 11
212.923235
 21
165.7881399999999
 31
0.0
  0
LINE
  5
1D4
330
1E
100
AcDbEntity
  8
0
100
AcDbLine
 10
212.923235
 20
162.5881399999999
 30
0.0
 11
212.923235
 21
160.5881399999999
 31
0.0
  0
LINE
  5
1D5
330
1E
100
AcDbEntity
  8
0
100
AcDbLine
 10
256.923235
 20
165.0881399999999
 30
0.0
 11
256.923235
 21
169.3881399999999
 31
0.0
  0
LINE
  5
1D6
330
1E
100
AcDbEntity
  8
0
100
AcDbLine
 10
256.923235
 20
165.0881399999999
 30
0.0
 11
256.923235
 21
161.68814
 31
0.0
  0
LINE
  5
1D7
330
1E
100
AcDbEntity
  8
0
100
AcDbLine
 10
213.9232349999999
 20
165.0881399999999
 30
0.0
 11
213.9232349999999
 21
169.3881399999999
 31
0.0
  0
LINE
  5
1D8
330
1E
100
AcDbEntity
  8
0
100
AcDbLine
 10
213.9232349999999
 20
165.0881399999999
 30
0.0
 11
213.9232349999999
 21
161.68814
 31
0.0
  0
LINE
  5
1D9
330
1E
100
AcDbEntity
  8
0
100
AcDbLine
 10
258.923235
 20
162.9881399999999
 30
0.0
 11
258.923235
 21
166.0881399999999
 31
0.0
  0
LINE
  5
1DA
330
1E
100
AcDbEntity
  8
0
100
AcDbLine
 10
258.923235
 20
161.0881399999999
 30
0.0
 11
258.923235
 21
162.9881399999999
 31
0.0
  0
LINE
  5
1DB
330
1E
100
AcDbEntity
  8
0
100
AcDbLine
 10
212.923235
 20
165.7881399999999
 30
0.0
 11
212.923235
 21
169.8881399999999
 31
0.0
  0
LINE
  5
1DC
330
1E
100
AcDbEntity
  8
0
100
AcDbLine
 10
212.923235
 20
165.7881399999999
 30
0.0
 11
212.923235
 21
162.5881399999999
 31
0.0
  0
LINE
  5
1DD
330
1E
100
AcDbEntity
  8
0
100
AcDbLine
 10
256.923235
 20
169.3881399999999
 30
0.0
 11
256.923235
 21
174.4881399999999
 31
0.0
  0
LINE
  5
1DE
330
1E
100
AcDbEntity
  8
0
100
AcDbLine
 10
256.923235
 20
169.3881399999999
 30
0.0
 11
256.923235
 21
165.0881399999999
 31
0.0
  0
LINE
  5
1DF
330
1E
100
AcDbEntity
  8
0
100
AcDbLine
 10
213.9232349999999
 20
169.3881399999999
 30
0.0
 11
213.9232349999999
 21
174.4881399999999
 31
0.0
  0
LINE
  5
1E0
330
1E
100
AcDbEntity
  8
0
100
AcDbLine
 10
213.9232349999999
 20
169.3881399999999
 30
0.0
 11
213.9232349999999
 21
165.0881399999999
 31
0.0
  0
LINE
  5
1E1
330
1E
100
AcDbEntity
  8
0
100
AcDbLine
 10
212.923235
 20
169.8881399999999
 30
0.0
 11
212.923235
 21
174.68814
 31
0.0
  0
LINE
  5
1E2
330
1E
100
AcDbEntity
  8
0
100
AcDbLine
 10
212.923235
 20
169.8881399999999
 30
0.0
 11
212.923235
 21
165.7881399999999
 31
0.0
  0
LINE
  5
1E3
330
1E
100
AcDbEntity
  8
0
100
AcDbLine
 10
210.923235
 20
171.8881399999999
 30
0.0
 11
210.923235
 21
172.18814
 31
0.0
  0
LINE
  5
1E4
330
1E
100
AcDbEntity
  8
0
100
AcDbLine
 10
210.923235
 20
171.8881399999999
 30
0.0
 11
211.4232349999999
 21
171.8881399999999
 31
0.0
  0
LINE
  5
1E5
330
1E
100
AcDbEntity
  8
0
100
AcDbLine
 10
210.923235
 20
172.18814
 30
0.0
 11
210.923235
 21
171.8881399999999
 31
0.0
  0
LINE
  5
1E6
330
1E
100
AcDbEntity
  8
0
100
AcDbLine
 10
210.923235
 20
172.18814
 30
0.0
 11
210.923235
 21
172.98814
 31
0.0
  0
LINE
  5
1E7
330
1E
100
AcDbEntity
  8
0
100
AcDbLine
 10
210.923235
 20
172.98814
 30
0.0
 11
210.923235
 21
172.18814
 31
0.0
  0
LINE
  5
1E8
330
1E
100
AcDbEntity
  8
0
100
AcDbLine
 10
210.923235
 20
172.98814
 30
0.0
 11
210.923235
 21
174.2881399999999
 31
0.0
  0
LINE
  5
1E9
330
1E
100
AcDbEntity
  8
0
100
AcDbLine
 10
211.4232349999999
 20
172.18814
 30
0.0
 11
211.4232349999999
 21
172.98814
 31
0.0
  0
LINE
  5
1EA
330
1E
100
AcDbEntity
  8
0
100
AcDbLine
 10
211.4232349999999
 20
172.18814
 30
0.0
 11
211.4232349999999
 21
171.8881399999999
 31
0.0
  0
LINE
  5
1EB
330
1E
100
AcDbEntity
  8
0
100
AcDbLine
 10
211.4232349999999
 20
172.98814
 30
0.0
 11
211.4232349999999
 21
174.2881399999999
 31
0.0
  0
LINE
  5
1EC
330
1E
100
AcDbEntity
  8
0
100
AcDbLine
 10
211.4232349999999
 20
172.98814
 30
0.0
 11
211.4232349999999
 21
172.18814
 31
0.0
  0
LINE
  5
1ED
330
1E
100
AcDbEntity
  8
0
100
AcDbLine
 10
256.923235
 20
174.4881399999999
 30
0.0
 11
256.923235
 21
179.8881399999999
 31
0.0
  0
LINE
  5
1EE
330
1E
100
AcDbEntity
  8
0
100
AcDbLine
 10
256.923235
 20
174.4881399999999
 30
0.0
 11
256.923235
 21
169.3881399999999
 31
0.0
  0
LINE
  5
1EF
330
1E
100
AcDbEntity
  8
0
100
AcDbLine
 10
213.9232349999999
 20
174.4881399999999
 30
0.0
 11
213.9232349999999
 21
179.8881399999999
 31
0.0
  0
LINE
  5
1F0
330
1E
100
AcDbEntity
  8
0
100
AcDbLine
 10
213.9232349999999
 20
174.4881399999999
 30
0.0
 11
213.9232349999999
 21
169.3881399999999
 31
0.0
  0
LINE
  5
1F1
330
1E
100
AcDbEntity
  8
0
100
AcDbLine
 10
211.4232349999999
 20
174.2881399999999
 30
0.0
 11
211.4232349999999
 21
175.8881399999999
 31
0.0
  0
LINE
  5
1F2
330
1E
100
AcDbEntity
  8
0
100
AcDbLine
 10
211.4232349999999
 20
174.2881399999999
 30
0.0
 11
211.4232349999999
 21
172.98814
 31
0.0
  0
LINE
  5
1F3
330
1E
100
AcDbEntity
  8
0
100
AcDbLine
 10
211.4232349999999
 20
171.8881399999999
 30
0.0
 11
212.923235
 21
159.8881399999999
 31
0.0
  0
LINE
  5
1F4
330
1E
100
AcDbEntity
  8
0
100
AcDbLine
 10
211.4232349999999
 20
171.8881399999999
 30
0.0
 11
211.4232349999999
 21
172.18814
 31
0.0
  0
LINE
  5
1F5
330
1E
100
AcDbEntity
  8
0
100
AcDbLine
 10
210.923235
 20
174.2881399999999
 30
0.0
 11
210.923235
 21
172.98814
 31
0.0
  0
LINE
  5
1F6
330
1E
100
AcDbEntity
  8
0
100
AcDbLine
 10
210.923235
 20
174.2881399999999
 30
0.0
 11
210.923235
 21
175.8881399999999
 31
0.0
  0
LINE
  5
1F7
330
1E
100
AcDbEntity
  8
0
100
AcDbLine
 10
258.923235
 20
170.1881399999999
 30
0.0
 11
258.923235
 21
174.8881399999999
 31
0.0
  0
LINE
  5
1F8
330
1E
100
AcDbEntity
  8
0
100
AcDbLine
 10
258.923235
 20
166.0881399999999
 30
0.0
 11
258.923235
 21
170.1881399999999
 31
0.0
  0
LINE
  5
1F9
330
1E
100
AcDbEntity
  8
0
100
AcDbLine
 10
210.923235
 20
175.8881399999999
 30
0.0
 11
210.923235
 21
174.2881399999999
 31
0.0
  0
LINE
  5
1FA
330
1E
100
AcDbEntity
  8
0
100
AcDbLine
 10
210.923235
 20
175.8881399999999
 30
0.0
 11
210.923235
 21
177.78814
 31
0.0
  0
LINE
  5
1FB
330
1E
100
AcDbEntity
  8
0
100
AcDbLine
 10
210.923235
 20
177.78814
 30
0.0
 11
210.923235
 21
175.8881399999999
 31
0.0
  0
LINE
  5
1FC
330
1E
100
AcDbEntity
  8
0
100
AcDbLine
 10
210.923235
 20
177.78814
 30
0.0
 11
210.923235
 21
179.8881399999999
 31
0.0
  0
LINE
  5
1FD
330
1E
100
AcDbEntity
  8
0
100
AcDbLine
 10
212.923235
 20
174.68814
 30
0.0
 11
212.923235
 21
179.8881399999999
 31
0.0
  0
LINE
  5
1FE
330
1E
100
AcDbEntity
  8
0
100
AcDbLine
 10
212.923235
 20
174.68814
 30
0.0
 11
212.923235
 21
169.8881399999999
 31
0.0
  0
LINE
  5
1FF
330
1E
100
AcDbEntity
  8
0
100
AcDbLine
 10
211.4232349999999
 20
175.8881399999999
 30
0.0
 11
211.4232349999999
 21
177.78814
 31
0.0
  0
LINE
  5
200
330
1E
100
AcDbEntity
  8
0
100
AcDbLine
 10
211.4232349999999
 20
175.8881399999999
 30
0.0
 11
211.4232349999999
 21
174.2881399999999
 31
0.0
  0
LINE
  5
201
330
1E
100
AcDbEntity
  8
0
100
AcDbLine
 10
211.4232349999999
 20
181.9881399999999
 30
0.0
 11
211.4232349999999
 21
183.8881399999999
 31
0.0
  0
LINE
  5
202
330
1E
100
AcDbEntity
  8
0
100
AcDbLine
 10
211.4232349999999
 20
181.9881399999999
 30
0.0
 11
211.4232349999999
 21
179.8881399999999
 31
0.0
  0
LINE
  5
203
330
1E
100
AcDbEntity
  8
0
100
AcDbLine
 10
256.923235
 20
179.8881399999999
 30
0.0
 11
256.923235
 21
174.4881399999999
 31
0.0
  0
LINE
  5
204
330
1E
100
AcDbEntity
  8
0
100
AcDbLine
 10
256.923235
 20
179.8881399999999
 30
0.0
 11
256.923235
 21
185.28814
 31
0.0
  0
LINE
  5
205
330
1E
100
AcDbEntity
  8
0
100
AcDbLine
 10
213.9232349999999
 20
179.8881399999999
 30
0.0
 11
213.9232349999999
 21
174.4881399999999
 31
0.0
  0
LINE
  5
206
330
1E
100
AcDbEntity
  8
0
100
AcDbLine
 10
213.9232349999999
 20
179.8881399999999
 30
0.0
 11
213.9232349999999
 21
185.28814
 31
0.0
  0
LINE
  5
207
330
1E
100
AcDbEntity
  8
0
100
AcDbLine
 10
212.923235
 20
179.8881399999999
 30
0.0
 11
212.923235
 21
174.68814
 31
0.0
  0
LINE
  5
208
330
1E
100
AcDbEntity
  8
0
100
AcDbLine
 10
212.923235
 20
179.8881399999999
 30
0.0
 11
212.923235
 21
185.0881399999999
 31
0.0
  0
LINE
  5
209
330
1E
100
AcDbEntity
  8
0
100
AcDbLine
 10
211.4232349999999
 20
179.8881399999999
 30
0.0
 11
211.4232349999999
 21
177.78814
 31
0.0
  0
LINE
  5
20A
330
1E
100
AcDbEntity
  8
0
100
AcDbLine
 10
211.4232349999999
 20
179.8881399999999
 30
0.0
 11
211.4232349999999
 21
181.9881399999999
 31
0.0
  0
LINE
  5
20B
330
1E
100
AcDbEntity
  8
0
100
AcDbLine
 10
211.4232349999999
 20
177.78814
 30
0.0
 11
211.4232349999999
 21
179.8881399999999
 31
0.0
  0
LINE
  5
20C
330
1E
100
AcDbEntity
  8
0
100
AcDbLine
 10
211.4232349999999
 20
177.78814
 30
0.0
 11
211.4232349999999
 21
175.8881399999999
 31
0.0
  0
LINE
  5
20D
330
1E
100
AcDbEntity
  8
0
100
AcDbLine
 10
210.923235
 20
179.8881399999999
 30
0.0
 11
210.923235
 21
181.9881399999999
 31
0.0
  0
LINE
  5
20E
330
1E
100
AcDbEntity
  8
0
100
AcDbLine
 10
210.923235
 20
179.8881399999999
 30
0.0
 11
210.923235
 21
177.78814
 31
0.0
  0
LINE
  5
20F
330
1E
100
AcDbEntity
  8
0
100
AcDbLine
 10
211.4232349999999
 20
183.8881399999999
 30
0.0
 11
211.4232349999999
 21
185.48814
 31
0.0
  0
LINE
  5
210
330
1E
100
AcDbEntity
  8
0
100
AcDbLine
 10
211.4232349999999
 20
183.8881399999999
 30
0.0
 11
211.4232349999999
 21
181.9881399999999
 31
0.0
  0
LINE
  5
211
330
1E
100
AcDbEntity
  8
0
100
AcDbLine
 10
210.923235
 20
183.8881399999999
 30
0.0
 11
210.923235
 21
181.9881399999999
 31
0.0
  0
LINE
  5
212
330
1E
100
AcDbEntity
  8
0
100
AcDbLine
 10
210.923235
 20
183.8881399999999
 30
0.0
 11
210.923235
 21
185.48814
 31
0.0
  0
LINE
  5
213
330
1E
100
AcDbEntity
  8
0
100
AcDbLine
 10
210.923235
 20
181.9881399999999
 30
0.0
 11
210.923235
 21
179.8881399999999
 31
0.0
  0
LINE
  5
214
330
1E
100
AcDbEntity
  8
0
100
AcDbLine
 10
210.923235
 20
181.9881399999999
 30
0.0
 11
210.923235
 21
183.8881399999999
 31
0.0
  0
LINE
  5
215
330
1E
100
AcDbEntity
  8
0
100
AcDbLine
 10
258.923235
 20
174.8881399999999
 30
0.0
 11
258.923235
 21
179.8881399999999
 31
0.0
  0
LINE
  5
216
330
1E
100
AcDbEntity
  8
0
100
AcDbLine
 10
258.923235
 20
174.4881399999999
 30
0.0
 11
258.923235
 21
179.8881399999999
 31
0.0
  0
LINE
  5
217
330
1E
100
AcDbEntity
  8
0
100
AcDbLine
 10
258.923235
 20
174.4881399999999
 30
0.0
 11
258.923235
 21
169.3881399999999
 31
0.0
  0
LINE
  5
218
330
1E
100
AcDbEntity
  8
0
100
AcDbLine
 10
258.923235
 20
169.3881399999999
 30
0.0
 11
258.923235
 21
174.4881399999999
 31
0.0
  0
LINE
  5
219
330
1E
100
AcDbEntity
  8
0
100
AcDbLine
 10
258.923235
 20
169.3881399999999
 30
0.0
 11
258.923235
 21
165.0881399999999
 31
0.0
  0
LINE
  5
21A
330
1E
100
AcDbEntity
  8
0
100
AcDbLine
 10
258.923235
 20
165.0881399999999
 30
0.0
 11
258.923235
 21
169.3881399999999
 31
0.0
  0
LINE
  5
21B
330
1E
100
AcDbEntity
  8
0
100
AcDbLine
 10
258.923235
 20
165.0881399999999
 30
0.0
 11
258.923235
 21
161.68814
 31
0.0
  0
LINE
  5
21C
330
1E
100
AcDbEntity
  8
0
100
AcDbLine
 10
258.923235
 20
161.68814
 30
0.0
 11
258.923235
 21
165.0881399999999
 31
0.0
  0
LINE
  5
21D
330
1E
100
AcDbEntity
  8
0
100
AcDbLine
 10
258.923235
 20
161.68814
 30
0.0
 11
258.923235
 21
159.68814
 31
0.0
  0
LINE
  5
21E
330
1E
100
AcDbEntity
  8
0
100
AcDbLine
 10
256.923235
 20
185.28814
 30
0.0
 11
256.923235
 21
190.3881399999999
 31
0.0
  0
LINE
  5
21F
330
1E
100
AcDbEntity
  8
0
100
AcDbLine
 10
256.923235
 20
185.28814
 30
0.0
 11
256.923235
 21
179.8881399999999
 31
0.0
  0
LINE
  5
220
330
1E
100
AcDbEntity
  8
0
100
AcDbLine
 10
213.9232349999999
 20
185.28814
 30
0.0
 11
213.9232349999999
 21
190.3881399999999
 31
0.0
  0
LINE
  5
221
330
1E
100
AcDbEntity
  8
0
100
AcDbLine
 10
213.9232349999999
 20
185.28814
 30
0.0
 11
213.9232349999999
 21
179.8881399999999
 31
0.0
  0
LINE
  5
222
330
1E
100
AcDbEntity
  8
0
100
AcDbLine
 10
212.923235
 20
185.0881399999999
 30
0.0
 11
212.923235
 21
189.88814
 31
0.0
  0
LINE
  5
223
330
1E
100
AcDbEntity
  8
0
100
AcDbLine
 10
212.923235
 20
185.0881399999999
 30
0.0
 11
212.923235
 21
179.8881399999999
 31
0.0
  0
LINE
  5
224
330
1E
100
AcDbEntity
  8
0
100
AcDbLine
 10
258.923235
 20
184.8881399999999
 30
0.0
 11
258.923235
 21
189.58814
 31
0.0
  0
LINE
  5
225
330
1E
100
AcDbEntity
  8
0
100
AcDbLine
 10
258.923235
 20
179.8881399999999
 30
0.0
 11
258.923235
 21
185.28814
 31
0.0
  0
LINE
  5
226
330
1E
100
AcDbEntity
  8
0
100
AcDbLine
 10
258.923235
 20
179.8881399999999
 30
0.0
 11
258.923235
 21
184.8881399999999
 31
0.0
  0
LINE
  5
227
330
1E
100
AcDbEntity
  8
0
100
AcDbLine
 10
258.923235
 20
179.8881399999999
 30
0.0
 11
258.923235
 21
174.4881399999999
 31
0.0
  0
LINE
  5
228
330
1E
100
AcDbEntity
  8
0
100
AcDbLine
 10
211.4232349999999
 20
185.48814
 30
0.0
 11
211.4232349999999
 21
186.7881399999999
 31
0.0
  0
LINE
  5
229
330
1E
100
AcDbEntity
  8
0
100
AcDbLine
 10
211.4232349999999
 20
185.48814
 30
0.0
 11
211.4232349999999
 21
183.8881399999999
 31
0.0
  0
LINE
  5
22A
330
1E
100
AcDbEntity
  8
0
100
AcDbLine
 10
210.923235
 20
187.88814
 30
0.0
 11
210.923235
 21
187.5881399999999
 31
0.0
  0
LINE
  5
22B
330
1E
100
AcDbEntity
  8
0
100
AcDbLine
 10
210.923235
 20
187.88814
 30
0.0
 11
211.4232349999999
 21
187.88814
 31
0.0
  0
LINE
  5
22C
330
1E
100
AcDbEntity
  8
0
100
AcDbLine
 10
210.923235
 20
187.5881399999999
 30
0.0
 11
210.923235
 21
186.7881399999999
 31
0.0
  0
LINE
  5
22D
330
1E
100
AcDbEntity
  8
0
100
AcDbLine
 10
210.923235
 20
187.5881399999999
 30
0.0
 11
210.923235
 21
187.88814
 31
0.0
  0
LINE
  5
22E
330
1E
100
AcDbEntity
  8
0
100
AcDbLine
 10
211.4232349999999
 20
187.5881399999999
 30
0.0
 11
211.4232349999999
 21
187.88814
 31
0.0
  0
LINE
  5
22F
330
1E
100
AcDbEntity
  8
0
100
AcDbLine
 10
211.4232349999999
 20
187.5881399999999
 30
0.0
 11
211.4232349999999
 21
186.7881399999999
 31
0.0
  0
LINE
  5
230
330
1E
100
AcDbEntity
  8
0
100
AcDbLine
 10
211.4232349999999
 20
186.7881399999999
 30
0.0
 11
211.4232349999999
 21
187.5881399999999
 31
0.0
  0
LINE
  5
231
330
1E
100
AcDbEntity
  8
0
100
AcDbLine
 10
211.4232349999999
 20
186.7881399999999
 30
0.0
 11
211.4232349999999
 21
185.48814
 31
0.0
  0
LINE
  5
232
330
1E
100
AcDbEntity
  8
0
100
AcDbLine
 10
256.923235
 20
190.3881399999999
 30
0.0
 11
256.923235
 21
194.68814
 31
0.0
  0
LINE
  5
233
330
1E
100
AcDbEntity
  8
0
100
AcDbLine
 10
256.923235
 20
190.3881399999999
 30
0.0
 11
256.923235
 21
185.28814
 31
0.0
  0
LINE
  5
234
330
1E
100
AcDbEntity
  8
0
100
AcDbLine
 10
213.9232349999999
 20
190.3881399999999
 30
0.0
 11
213.9232349999999
 21
194.68814
 31
0.0
  0
LINE
  5
235
330
1E
100
AcDbEntity
  8
0
100
AcDbLine
 10
213.9232349999999
 20
190.3881399999999
 30
0.0
 11
213.9232349999999
 21
185.28814
 31
0.0
  0
LINE
  5
236
330
1E
100
AcDbEntity
  8
0
100
AcDbLine
 10
212.923235
 20
189.88814
 30
0.0
 11
212.923235
 21
193.9881399999999
 31
0.0
  0
LINE
  5
237
330
1E
100
AcDbEntity
  8
0
100
AcDbLine
 10
212.923235
 20
189.88814
 30
0.0
 11
212.923235
 21
185.0881399999999
 31
0.0
  0
LINE
  5
238
330
1E
100
AcDbEntity
  8
0
100
AcDbLine
 10
211.4232349999999
 20
187.88814
 30
0.0
 11
212.923235
 21
199.8881399999999
 31
0.0
  0
LINE
  5
239
330
1E
100
AcDbEntity
  8
0
100
AcDbLine
 10
211.4232349999999
 20
187.88814
 30
0.0
 11
211.4232349999999
 21
187.5881399999999
 31
0.0
  0
LINE
  5
23A
330
1E
100
AcDbEntity
  8
0
100
AcDbLine
 10
210.923235
 20
186.7881399999999
 30
0.0
 11
210.923235
 21
185.48814
 31
0.0
  0
LINE
  5
23B
330
1E
100
AcDbEntity
  8
0
100
AcDbLine
 10
210.923235
 20
186.7881399999999
 30
0.0
 11
210.923235
 21
187.5881399999999
 31
0.0
  0
LINE
  5
23C
330
1E
100
AcDbEntity
  8
0
100
AcDbLine
 10
210.923235
 20
185.48814
 30
0.0
 11
210.923235
 21
183.8881399999999
 31
0.0
  0
LINE
  5
23D
330
1E
100
AcDbEntity
  8
0
100
AcDbLine
 10
210.923235
 20
185.48814
 30
0.0
 11
210.923235
 21
186.7881399999999
 31
0.0
  0
LINE
  5
23E
330
1E
100
AcDbEntity
  8
0
100
AcDbLine
 10
258.923235
 20
189.58814
 30
0.0
 11
258.923235
 21
193.68814
 31
0.0
  0
LINE
  5
23F
330
1E
100
AcDbEntity
  8
0
100
AcDbLine
 10
258.923235
 20
185.28814
 30
0.0
 11
258.923235
 21
190.3881399999999
 31
0.0
  0
LINE
  5
240
330
1E
100
AcDbEntity
  8
0
100
AcDbLine
 10
258.923235
 20
185.28814
 30
0.0
 11
258.923235
 21
179.8881399999999
 31
0.0
  0
LINE
  5
241
330
1E
100
AcDbEntity
  8
0
100
AcDbLine
 10
258.923235
 20
190.3881399999999
 30
0.0
 11
258.923235
 21
194.68814
 31
0.0
  0
LINE
  5
242
330
1E
100
AcDbEntity
  8
0
100
AcDbLine
 10
258.923235
 20
190.3881399999999
 30
0.0
 11
258.923235
 21
185.28814
 31
0.0
  0
LINE
  5
243
330
1E
100
AcDbEntity
  8
0
100
AcDbLine
 10
258.923235
 20
160.3881399999999
 30
0.0
 11
258.923235
 21
159.68814
 31
0.0
  0
LINE
  5
244
330
1E
100
AcDbEntity
  8
0
100
AcDbLine
 10
258.923235
 20
160.3881399999999
 30
0.0
 11
258.923235
 21
161.0881399999999
 31
0.0
  0
LINE
  5
245
330
1E
100
AcDbEntity
  8
0
100
AcDbLine
 10
442.9232349999999
 20
159.68814
 30
0.0
 11
442.9232349999999
 21
158.8881399999999
 31
0.0
  0
LINE
  5
246
330
1E
100
AcDbEntity
  8
0
100
AcDbLine
 10
442.9232349999999
 20
159.68814
 30
0.0
 11
442.9232349999999
 21
161.68814
 31
0.0
  0
LINE
  5
247
330
1E
100
AcDbEntity
  8
0
100
AcDbLine
 10
487.9232349999999
 20
159.68814
 30
0.0
 11
487.9232349999999
 21
158.8881399999999
 31
0.0
  0
LINE
  5
248
330
1E
100
AcDbEntity
  8
0
100
AcDbLine
 10
487.9232349999999
 20
159.68814
 30
0.0
 11
487.9232349999999
 21
161.68814
 31
0.0
  0
LINE
  5
249
330
1E
100
AcDbEntity
  8
0
100
AcDbLine
 10
442.9232349999999
 20
160.3881399999999
 30
0.0
 11
444.9232349999999
 21
160.3881399999999
 31
0.0
  0
LINE
  5
24A
330
1E
100
AcDbEntity
  8
0
100
AcDbLine
 10
442.9232349999999
 20
161.68814
 30
0.0
 11
442.9232349999999
 21
159.68814
 31
0.0
  0
LINE
  5
24B
330
1E
100
AcDbEntity
  8
0
100
AcDbLine
 10
442.9232349999999
 20
161.68814
 30
0.0
 11
442.9232349999999
 21
165.0881399999999
 31
0.0
  0
LINE
  5
24C
330
1E
100
AcDbEntity
  8
0
100
AcDbLine
 10
444.9232349999999
 20
161.0881399999999
 30
0.0
 11
444.9232349999999
 21
160.3881399999999
 31
0.0
  0
LINE
  5
24D
330
1E
100
AcDbEntity
  8
0
100
AcDbLine
 10
442.9232349999999
 20
169.3881399999999
 30
0.0
 11
442.9232349999999
 21
165.0881399999999
 31
0.0
  0
LINE
  5
24E
330
1E
100
AcDbEntity
  8
0
100
AcDbLine
 10
442.9232349999999
 20
169.3881399999999
 30
0.0
 11
442.9232349999999
 21
174.4881399999999
 31
0.0
  0
LINE
  5
24F
330
1E
100
AcDbEntity
  8
0
100
AcDbLine
 10
442.9232349999999
 20
165.0881399999999
 30
0.0
 11
442.9232349999999
 21
161.68814
 31
0.0
  0
LINE
  5
250
330
1E
100
AcDbEntity
  8
0
100
AcDbLine
 10
442.9232349999999
 20
165.0881399999999
 30
0.0
 11
442.9232349999999
 21
169.3881399999999
 31
0.0
  0
LINE
  5
251
330
1E
100
AcDbEntity
  8
0
100
AcDbLine
 10
444.9232349999999
 20
162.9881399999999
 30
0.0
 11
444.9232349999999
 21
161.0881399999999
 31
0.0
  0
LINE
  5
252
330
1E
100
AcDbEntity
  8
0
100
AcDbLine
 10
444.9232349999999
 20
166.0881399999999
 30
0.0
 11
444.9232349999999
 21
162.9881399999999
 31
0.0
  0
LINE
  5
253
330
1E
100
AcDbEntity
  8
0
100
AcDbLine
 10
444.9232349999999
 20
161.68814
 30
0.0
 11
444.9232349999999
 21
159.68814
 31
0.0
  0
LINE
  5
254
330
1E
100
AcDbEntity
  8
0
100
AcDbLine
 10
444.9232349999999
 20
161.68814
 30
0.0
 11
444.9232349999999
 21
165.0881399999999
 31
0.0
  0
LINE
  5
255
330
1E
100
AcDbEntity
  8
0
100
AcDbLine
 10
444.9232349999999
 20
165.0881399999999
 30
0.0
 11
444.9232349999999
 21
161.68814
 31
0.0
  0
LINE
  5
256
330
1E
100
AcDbEntity
  8
0
100
AcDbLine
 10
444.9232349999999
 20
165.0881399999999
 30
0.0
 11
444.9232349999999
 21
169.3881399999999
 31
0.0
  0
LINE
  5
257
330
1E
100
AcDbEntity
  8
0
100
AcDbLine
 10
444.9232349999999
 20
170.1881399999999
 30
0.0
 11
444.9232349999999
 21
166.0881399999999
 31
0.0
  0
LINE
  5
258
330
1E
100
AcDbEntity
  8
0
100
AcDbLine
 10
444.9232349999999
 20
169.3881399999999
 30
0.0
 11
444.9232349999999
 21
165.0881399999999
 31
0.0
  0
LINE
  5
259
330
1E
100
AcDbEntity
  8
0
100
AcDbLine
 10
444.9232349999999
 20
169.3881399999999
 30
0.0
 11
444.9232349999999
 21
174.4881399999999
 31
0.0
  0
LINE
  5
25A
330
1E
100
AcDbEntity
  8
0
100
AcDbLine
 10
487.9232349999999
 20
161.68814
 30
0.0
 11
487.9232349999999
 21
159.68814
 31
0.0
  0
LINE
  5
25B
330
1E
100
AcDbEntity
  8
0
100
AcDbLine
 10
487.9232349999999
 20
161.68814
 30
0.0
 11
487.9232349999999
 21
165.0881399999999
 31
0.0
  0
LINE
  5
25C
330
1E
100
AcDbEntity
  8
0
100
AcDbLine
 10
488.9232349999999
 20
160.5881399999999
 30
0.0
 11
488.9232349999999
 21
159.8881399999999
 31
0.0
  0
LINE
  5
25D
330
1E
100
AcDbEntity
  8
0
100
AcDbLine
 10
488.9232349999999
 20
160.5881399999999
 30
0.0
 11
488.9232349999999
 21
162.5881399999999
 31
0.0
  0
LINE
  5
25E
330
1E
100
AcDbEntity
  8
0
100
AcDbLine
 10
487.9232349999999
 20
165.0881399999999
 30
0.0
 11
487.9232349999999
 21
161.68814
 31
0.0
  0
LINE
  5
25F
330
1E
100
AcDbEntity
  8
0
100
AcDbLine
 10
487.9232349999999
 20
165.0881399999999
 30
0.0
 11
487.9232349999999
 21
169.3881399999999
 31
0.0
  0
LINE
  5
260
330
1E
100
AcDbEntity
  8
0
100
AcDbLine
 10
487.9232349999999
 20
169.3881399999999
 30
0.0
 11
487.9232349999999
 21
165.0881399999999
 31
0.0
  0
LINE
  5
261
330
1E
100
AcDbEntity
  8
0
100
AcDbLine
 10
487.9232349999999
 20
169.3881399999999
 30
0.0
 11
487.9232349999999
 21
174.4881399999999
 31
0.0
  0
LINE
  5
262
330
1E
100
AcDbEntity
  8
0
100
AcDbLine
 10
488.9232349999999
 20
162.5881399999999
 30
0.0
 11
488.9232349999999
 21
160.5881399999999
 31
0.0
  0
LINE
  5
263
330
1E
100
AcDbEntity
  8
0
100
AcDbLine
 10
488.9232349999999
 20
162.5881399999999
 30
0.0
 11
488.9232349999999
 21
165.7881399999999
 31
0.0
  0
LINE
  5
264
330
1E
100
AcDbEntity
  8
0
100
AcDbLine
 10
488.9232349999999
 20
165.7881399999999
 30
0.0
 11
488.9232349999999
 21
162.5881399999999
 31
0.0
  0
LINE
  5
265
330
1E
100
AcDbEntity
  8
0
100
AcDbLine
 10
488.9232349999999
 20
165.7881399999999
 30
0.0
 11
488.9232349999999
 21
169.8881399999999
 31
0.0
  0
LINE
  5
266
330
1E
100
AcDbEntity
  8
0
100
AcDbLine
 10
488.9232349999999
 20
169.8881399999999
 30
0.0
 11
488.9232349999999
 21
165.7881399999999
 31
0.0
  0
LINE
  5
267
330
1E
100
AcDbEntity
  8
0
100
AcDbLine
 10
488.9232349999999
 20
169.8881399999999
 30
0.0
 11
488.9232349999999
 21
174.68814
 31
0.0
  0
LINE
  5
268
330
1E
100
AcDbEntity
  8
0
100
AcDbLine
 10
444.9232349999999
 20
160.3881399999999
 30
0.0
 11
444.9232349999999
 21
159.68814
 31
0.0
  0
LINE
  5
269
330
1E
100
AcDbEntity
  8
0
100
AcDbLine
 10
444.9232349999999
 20
159.68814
 30
0.0
 11
444.9232349999999
 21
160.3881399999999
 31
0.0
  0
LINE
  5
26A
330
1E
100
AcDbEntity
  8
0
100
AcDbLine
 10
444.9232349999999
 20
159.68814
 30
0.0
 11
444.9232349999999
 21
158.8881399999999
 31
0.0
  0
LINE
  5
26B
330
1E
100
AcDbEntity
  8
0
100
AcDbLine
 10
444.9232349999999
 20
159.68814
 30
0.0
 11
444.9232349999999
 21
161.68814
 31
0.0
  0
LINE
  5
26C
330
1E
100
AcDbEntity
  8
0
100
AcDbLine
 10
490.9232349999999
 20
171.8881399999999
 30
0.0
 11
490.9232349999999
 21
172.18814
 31
0.0
  0
LINE
  5
26D
330
1E
100
AcDbEntity
  8
0
100
AcDbLine
 10
488.9232349999999
 20
159.8881399999999
 30
0.0
 11
490.423235
 21
171.8881399999999
 31
0.0
  0
LINE
  5
26E
330
1E
100
AcDbEntity
  8
0
100
AcDbLine
 10
488.9232349999999
 20
159.8881399999999
 30
0.0
 11
488.9232349999999
 21
160.5881399999999
 31
0.0
  0
LINE
  5
26F
330
1E
100
AcDbEntity
  8
0
100
AcDbLine
 10
442.9232349999999
 20
174.4881399999999
 30
0.0
 11
442.9232349999999
 21
169.3881399999999
 31
0.0
  0
LINE
  5
270
330
1E
100
AcDbEntity
  8
0
100
AcDbLine
 10
442.9232349999999
 20
174.4881399999999
 30
0.0
 11
442.9232349999999
 21
179.8881399999999
 31
0.0
  0
LINE
  5
271
330
1E
100
AcDbEntity
  8
0
100
AcDbLine
 10
444.9232349999999
 20
174.4881399999999
 30
0.0
 11
444.9232349999999
 21
169.3881399999999
 31
0.0
  0
LINE
  5
272
330
1E
100
AcDbEntity
  8
0
100
AcDbLine
 10
444.9232349999999
 20
174.4881399999999
 30
0.0
 11
444.9232349999999
 21
179.8881399999999
 31
0.0
  0
LINE
  5
273
330
1E
100
AcDbEntity
  8
0
100
AcDbLine
 10
444.9232349999999
 20
174.8881399999999
 30
0.0
 11
444.9232349999999
 21
170.1881399999999
 31
0.0
  0
LINE
  5
274
330
1E
100
AcDbEntity
  8
0
100
AcDbLine
 10
487.9232349999999
 20
174.4881399999999
 30
0.0
 11
487.9232349999999
 21
169.3881399999999
 31
0.0
  0
LINE
  5
275
330
1E
100
AcDbEntity
  8
0
100
AcDbLine
 10
487.9232349999999
 20
174.4881399999999
 30
0.0
 11
487.9232349999999
 21
179.8881399999999
 31
0.0
  0
LINE
  5
276
330
1E
100
AcDbEntity
  8
0
100
AcDbLine
 10
488.9232349999999
 20
174.68814
 30
0.0
 11
488.9232349999999
 21
169.8881399999999
 31
0.0
  0
LINE
  5
277
330
1E
100
AcDbEntity
  8
0
100
AcDbLine
 10
488.9232349999999
 20
174.68814
 30
0.0
 11
488.9232349999999
 21
179.8881399999999
 31
0.0
  0
LINE
  5
278
330
1E
100
AcDbEntity
  8
0
100
AcDbLine
 10
490.423235
 20
172.98814
 30
0.0
 11
490.423235
 21
172.18814
 31
0.0
  0
LINE
  5
279
330
1E
100
AcDbEntity
  8
0
100
AcDbLine
 10
490.423235
 20
172.98814
 30
0.0
 11
490.423235
 21
174.2881399999999
 31
0.0
  0
LINE
  5
27A
330
1E
100
AcDbEntity
  8
0
100
AcDbLine
 10
490.423235
 20
174.2881399999999
 30
0.0
 11
490.423235
 21
172.98814
 31
0.0
  0
LINE
  5
27B
330
1E
100
AcDbEntity
  8
0
100
AcDbLine
 10
490.423235
 20
174.2881399999999
 30
0.0
 11
490.423235
 21
175.8881399999999
 31
0.0
  0
LINE
  5
27C
330
1E
100
AcDbEntity
  8
0
100
AcDbLine
 10
442.9232349999999
 20
179.8881399999999
 30
0.0
 11
442.9232349999999
 21
174.4881399999999
 31
0.0
  0
LINE
  5
27D
330
1E
100
AcDbEntity
  8
0
100
AcDbLine
 10
442.9232349999999
 20
179.8881399999999
 30
0.0
 11
442.9232349999999
 21
185.28814
 31
0.0
  0
LINE
  5
27E
330
1E
100
AcDbEntity
  8
0
100
AcDbLine
 10
444.9232349999999
 20
179.8881399999999
 30
0.0
 11
444.9232349999999
 21
174.4881399999999
 31
0.0
  0
LINE
  5
27F
330
1E
100
AcDbEntity
  8
0
100
AcDbLine
 10
444.9232349999999
 20
179.8881399999999
 30
0.0
 11
444.9232349999999
 21
174.8881399999999
 31
0.0
  0
LINE
  5
280
330
1E
100
AcDbEntity
  8
0
100
AcDbLine
 10
444.9232349999999
 20
179.8881399999999
 30
0.0
 11
444.9232349999999
 21
185.28814
 31
0.0
  0
LINE
  5
281
330
1E
100
AcDbEntity
  8
0
100
AcDbLine
 10
487.9232349999999
 20
179.8881399999999
 30
0.0
 11
487.9232349999999
 21
174.4881399999999
 31
0.0
  0
LINE
  5
282
330
1E
100
AcDbEntity
  8
0
100
AcDbLine
 10
487.9232349999999
 20
179.8881399999999
 30
0.0
 11
487.9232349999999
 21
185.28814
 31
0.0
  0
LINE
  5
283
330
1E
100
AcDbEntity
  8
0
100
AcDbLine
 10
488.9232349999999
 20
179.8881399999999
 30
0.0
 11
488.9232349999999
 21
174.68814
 31
0.0
  0
LINE
  5
284
330
1E
100
AcDbEntity
  8
0
100
AcDbLine
 10
488.9232349999999
 20
179.8881399999999
 30
0.0
 11
488.9232349999999
 21
185.0881399999999
 31
0.0
  0
LINE
  5
285
330
1E
100
AcDbEntity
  8
0
100
AcDbLine
 10
490.423235
 20
175.8881399999999
 30
0.0
 11
490.423235
 21
174.2881399999999
 31
0.0
  0
LINE
  5
286
330
1E
100
AcDbEntity
  8
0
100
AcDbLine
 10
490.423235
 20
175.8881399999999
 30
0.0
 11
490.423235
 21
177.78814
 31
0.0
  0
LINE
  5
287
330
1E
100
AcDbEntity
  8
0
100
AcDbLine
 10
490.423235
 20
177.78814
 30
0.0
 11
490.423235
 21
175.8881399999999
 31
0.0
  0
LINE
  5
288
330
1E
100
AcDbEntity
  8
0
100
AcDbLine
 10
490.423235
 20
177.78814
 30
0.0
 11
490.423235
 21
179.8881399999999
 31
0.0
  0
LINE
  5
289
330
1E
100
AcDbEntity
  8
0
100
AcDbLine
 10
442.9232349999999
 20
185.28814
 30
0.0
 11
442.9232349999999
 21
179.8881399999999
 31
0.0
  0
LINE
  5
28A
330
1E
100
AcDbEntity
  8
0
100
AcDbLine
 10
442.9232349999999
 20
185.28814
 30
0.0
 11
442.9232349999999
 21
190.3881399999999
 31
0.0
  0
LINE
  5
28B
330
1E
100
AcDbEntity
  8
0
100
AcDbLine
 10
444.9232349999999
 20
184.8881399999999
 30
0.0
 11
444.9232349999999
 21
179.8881399999999
 31
0.0
  0
LINE
  5
28C
330
1E
100
AcDbEntity
  8
0
100
AcDbLine
 10
444.9232349999999
 20
185.28814
 30
0.0
 11
444.9232349999999
 21
179.8881399999999
 31
0.0
  0
LINE
  5
28D
330
1E
100
AcDbEntity
  8
0
100
AcDbLine
 10
444.9232349999999
 20
185.28814
 30
0.0
 11
444.9232349999999
 21
190.3881399999999
 31
0.0
  0
LINE
  5
28E
330
1E
100
AcDbEntity
  8
0
100
AcDbLine
 10
487.9232349999999
 20
185.28814
 30
0.0
 11
487.9232349999999
 21
179.8881399999999
 31
0.0
  0
LINE
  5
28F
330
1E
100
AcDbEntity
  8
0
100
AcDbLine
 10
487.9232349999999
 20
185.28814
 30
0.0
 11
487.9232349999999
 21
190.3881399999999
 31
0.0
  0
LINE
  5
290
330
1E
100
AcDbEntity
  8
0
100
AcDbLine
 10
488.9232349999999
 20
185.0881399999999
 30
0.0
 11
488.9232349999999
 21
179.8881399999999
 31
0.0
  0
LINE
  5
291
330
1E
100
AcDbEntity
  8
0
100
AcDbLine
 10
488.9232349999999
 20
185.0881399999999
 30
0.0
 11
488.9232349999999
 21
189.88814
 31
0.0
  0
LINE
  5
292
330
1E
100
AcDbEntity
  8
0
100
AcDbLine
 10
490.423235
 20
186.7881399999999
 30
0.0
 11
490.423235
 21
185.48814
 31
0.0
  0
LINE
  5
293
330
1E
100
AcDbEntity
  8
0
100
AcDbLine
 10
490.423235
 20
186.7881399999999
 30
0.0
 11
490.423235
 21
187.5881399999999
 31
0.0
  0
LINE
  5
294
330
1E
100
AcDbEntity
  8
0
100
AcDbLine
 10
490.423235
 20
185.48814
 30
0.0
 11
490.423235
 21
183.8881399999999
 31
0.0
  0
LINE
  5
295
330
1E
100
AcDbEntity
  8
0
100
AcDbLine
 10
490.423235
 20
185.48814
 30
0.0
 11
490.423235
 21
186.7881399999999
 31
0.0
  0
LINE
  5
296
330
1E
100
AcDbEntity
  8
0
100
AcDbLine
 10
490.423235
 20
183.8881399999999
 30
0.0
 11
490.423235
 21
181.9881399999999
 31
0.0
  0
LINE
  5
297
330
1E
100
AcDbEntity
  8
0
100
AcDbLine
 10
490.423235
 20
183.8881399999999
 30
0.0
 11
490.423235
 21
185.48814
 31
0.0
  0
LINE
  5
298
330
1E
100
AcDbEntity
  8
0
100
AcDbLine
 10
490.423235
 20
181.9881399999999
 30
0.0
 11
490.423235
 21
179.8881399999999
 31
0.0
  0
LINE
  5
299
330
1E
100
AcDbEntity
  8
0
100
AcDbLine
 10
490.423235
 20
181.9881399999999
 30
0.0
 11
490.423235
 21
183.8881399999999
 31
0.0
  0
LINE
  5
29A
330
1E
100
AcDbEntity
  8
0
100
AcDbLine
 10
490.423235
 20
187.5881399999999
 30
0.0
 11
490.423235
 21
187.88814
 31
0.0
  0
LINE
  5
29B
330
1E
100
AcDbEntity
  8
0
100
AcDbLine
 10
490.423235
 20
187.5881399999999
 30
0.0
 11
490.423235
 21
186.7881399999999
 31
0.0
  0
LINE
  5
29C
330
1E
100
AcDbEntity
  8
0
100
AcDbLine
 10
444.9232349999999
 20
189.58814
 30
0.0
 11
444.9232349999999
 21
184.8881399999999
 31
0.0
  0
LINE
  5
29D
330
1E
100
AcDbEntity
  8
0
100
AcDbLine
 10
444.9232349999999
 20
190.3881399999999
 30
0.0
 11
444.9232349999999
 21
185.28814
 31
0.0
  0
LINE
  5
29E
330
1E
100
AcDbEntity
  8
0
100
AcDbLine
 10
444.9232349999999
 20
190.3881399999999
 30
0.0
 11
444.9232349999999
 21
194.68814
 31
0.0
  0
LINE
  5
29F
330
1E
100
AcDbEntity
  8
0
100
AcDbLine
 10
487.9232349999999
 20
190.3881399999999
 30
0.0
 11
487.9232349999999
 21
185.28814
 31
0.0
  0
LINE
  5
2A0
330
1E
100
AcDbEntity
  8
0
100
AcDbLine
 10
487.9232349999999
 20
190.3881399999999
 30
0.0
 11
487.9232349999999
 21
194.68814
 31
0.0
  0
LINE
  5
2A1
330
1E
100
AcDbEntity
  8
0
100
AcDbLine
 10
488.9232349999999
 20
189.88814
 30
0.0
 11
488.9232349999999
 21
185.0881399999999
 31
0.0
  0
LINE
  5
2A2
330
1E
100
AcDbEntity
  8
0
100
AcDbLine
 10
488.9232349999999
 20
189.88814
 30
0.0
 11
488.9232349999999
 21
193.9881399999999
 31
0.0
  0
LINE
  5
2A3
330
1E
100
AcDbEntity
  8
0
100
AcDbLine
 10
490.423235
 20
187.88814
 30
0.0
 11
490.9232349999999
 21
187.88814
 31
0.0
  0
LINE
  5
2A4
330
1E
100
AcDbEntity
  8
0
100
AcDbLine
 10
490.423235
 20
187.88814
 30
0.0
 11
490.423235
 21
187.5881399999999
 31
0.0
  0
LINE
  5
2A5
330
1E
100
AcDbEntity
  8
0
100
AcDbLine
 10
442.9232349999999
 20
190.3881399999999
 30
0.0
 11
442.9232349999999
 21
185.28814
 31
0.0
  0
LINE
  5
2A6
330
1E
100
AcDbEntity
  8
0
100
AcDbLine
 10
442.9232349999999
 20
190.3881399999999
 30
0.0
 11
442.9232349999999
 21
194.68814
 31
0.0
  0
LINE
  5
2A7
330
1E
100
AcDbEntity
  8
0
100
AcDbLine
 10
490.423235
 20
179.8881399999999
 30
0.0
 11
490.423235
 21
177.78814
 31
0.0
  0
LINE
  5
2A8
330
1E
100
AcDbEntity
  8
0
100
AcDbLine
 10
490.423235
 20
179.8881399999999
 30
0.0
 11
490.423235
 21
181.9881399999999
 31
0.0
  0
LINE
  5
2A9
330
1E
100
AcDbEntity
  8
0
100
AcDbLine
 10
490.9232349999999
 20
172.18814
 30
0.0
 11
490.9232349999999
 21
171.8881399999999
 31
0.0
  0
LINE
  5
2AA
330
1E
100
AcDbEntity
  8
0
100
AcDbLine
 10
490.9232349999999
 20
172.18814
 30
0.0
 11
490.9232349999999
 21
172.98814
 31
0.0
  0
LINE
  5
2AB
330
1E
100
AcDbEntity
  8
0
100
AcDbLine
 10
490.9232349999999
 20
172.98814
 30
0.0
 11
490.9232349999999
 21
172.18814
 31
0.0
  0
LINE
  5
2AC
330
1E
100
AcDbEntity
  8
0
100
AcDbLine
 10
490.9232349999999
 20
172.98814
 30
0.0
 11
490.9232349999999
 21
174.2881399999999
 31
0.0
  0
LINE
  5
2AD
330
1E
100
AcDbEntity
  8
0
100
AcDbLine
 10
490.9232349999999
 20
174.2881399999999
 30
0.0
 11
490.9232349999999
 21
172.98814
 31
0.0
  0
LINE
  5
2AE
330
1E
100
AcDbEntity
  8
0
100
AcDbLine
 10
490.9232349999999
 20
174.2881399999999
 30
0.0
 11
490.9232349999999
 21
175.8881399999999
 31
0.0
  0
LINE
  5
2AF
330
1E
100
AcDbEntity
  8
0
100
AcDbLine
 10
490.9232349999999
 20
175.8881399999999
 30
0.0
 11
490.9232349999999
 21
174.2881399999999
 31
0.0
  0
LINE
  5
2B0
330
1E
100
AcDbEntity
  8
0
100
AcDbLine
 10
490.9232349999999
 20
175.8881399999999
 30
0.0
 11
490.9232349999999
 21
177.78814
 31
0.0
  0
LINE
  5
2B1
330
1E
100
AcDbEntity
  8
0
100
AcDbLine
 10
490.9232349999999
 20
177.78814
 30
0.0
 11
490.9232349999999
 21
175.8881399999999
 31
0.0
  0
LINE
  5
2B2
330
1E
100
AcDbEntity
  8
0
100
AcDbLine
 10
490.9232349999999
 20
177.78814
 30
0.0
 11
490.9232349999999
 21
179.8881399999999
 31
0.0
  0
LINE
  5
2B3
330
1E
100
AcDbEntity
  8
0
100
AcDbLine
 10
490.9232349999999
 20
187.88814
 30
0.0
 11
490.9232349999999
 21
187.5881399999999
 31
0.0
  0
LINE
  5
2B4
330
1E
100
AcDbEntity
  8
0
100
AcDbLine
 10
490.9232349999999
 20
187.5881399999999
 30
0.0
 11
490.9232349999999
 21
186.7881399999999
 31
0.0
  0
LINE
  5
2B5
330
1E
100
AcDbEntity
  8
0
100
AcDbLine
 10
490.9232349999999
 20
187.5881399999999
 30
0.0
 11
490.9232349999999
 21
187.88814
 31
0.0
  0
LINE
  5
2B6
330
1E
100
AcDbEntity
  8
0
100
AcDbLine
 10
490.9232349999999
 20
186.7881399999999
 30
0.0
 11
490.9232349999999
 21
185.48814
 31
0.0
  0
LINE
  5
2B7
330
1E
100
AcDbEntity
  8
0
100
AcDbLine
 10
490.9232349999999
 20
186.7881399999999
 30
0.0
 11
490.9232349999999
 21
187.5881399999999
 31
0.0
  0
LINE
  5
2B8
330
1E
100
AcDbEntity
  8
0
100
AcDbLine
 10
490.9232349999999
 20
185.48814
 30
0.0
 11
490.9232349999999
 21
183.8881399999999
 31
0.0
  0
LINE
  5
2B9
330
1E
100
AcDbEntity
  8
0
100
AcDbLine
 10
490.9232349999999
 20
185.48814
 30
0.0
 11
490.9232349999999
 21
186.7881399999999
 31
0.0
  0
LINE
  5
2BA
330
1E
100
AcDbEntity
  8
0
100
AcDbLine
 10
490.9232349999999
 20
183.8881399999999
 30
0.0
 11
490.9232349999999
 21
181.9881399999999
 31
0.0
  0
LINE
  5
2BB
330
1E
100
AcDbEntity
  8
0
100
AcDbLine
 10
490.9232349999999
 20
183.8881399999999
 30
0.0
 11
490.9232349999999
 21
185.48814
 31
0.0
  0
LINE
  5
2BC
330
1E
100
AcDbEntity
  8
0
100
AcDbLine
 10
490.9232349999999
 20
181.9881399999999
 30
0.0
 11
490.9232349999999
 21
179.8881399999999
 31
0.0
  0
LINE
  5
2BD
330
1E
100
AcDbEntity
  8
0
100
AcDbLine
 10
490.9232349999999
 20
181.9881399999999
 30
0.0
 11
490.9232349999999
 21
183.8881399999999
 31
0.0
  0
LINE
  5
2BE
330
1E
100
AcDbEntity
  8
0
100
AcDbLine
 10
490.9232349999999
 20
179.8881399999999
 30
0.0
 11
490.9232349999999
 21
177.78814
 31
0.0
  0
LINE
  5
2BF
330
1E
100
AcDbEntity
  8
0
100
AcDbLine
 10
490.9232349999999
 20
179.8881399999999
 30
0.0
 11
490.9232349999999
 21
181.9881399999999
 31
0.0
  0
LINE
  5
2C0
330
1E
100
AcDbEntity
  8
0
100
AcDbLine
 10
490.423235
 20
172.18814
 30
0.0
 11
490.423235
 21
171.8881399999999
 31
0.0
  0
LINE
  5
2C1
330
1E
100
AcDbEntity
  8
0
100
AcDbLine
 10
490.423235
 20
172.18814
 30
0.0
 11
490.423235
 21
172.98814
 31
0.0
  0
LINE
  5
2C2
330
1E
100
AcDbEntity
  8
0
100
AcDbLine
 10
490.423235
 20
171.8881399999999
 30
0.0
 11
490.423235
 21
172.18814
 31
0.0
  0
LINE
  5
2C3
330
1E
100
AcDbEntity
  8
0
100
AcDbLine
 10
490.423235
 20
171.8881399999999
 30
0.0
 11
490.9232349999999
 21
171.8881399999999
 31
0.0
  0
LINE
  5
2C4
330
1E
100
AcDbEntity
  8
0
100
AcDbLine
 10
258.923235
 20
159.68814
 30
0.0
 11
258.923235
 21
158.8881399999999
 31
0.0
  0
LINE
  5
2C5
330
1E
100
AcDbEntity
  8
0
100
AcDbLine
 10
258.923235
 20
159.68814
 30
0.0
 11
258.923235
 21
160.3881399999999
 31
0.0
  0
LINE
  5
2C6
330
1E
100
AcDbEntity
  8
0
100
AcDbLine
 10
258.923235
 20
159.68814
 30
0.0
 11
258.923235
 21
161.68814
 31
0.0
  0
LINE
  5
2C7
330
1E
100
AcDbEntity
  8
0
100
AcDbLine
 10
258.923235
 20
158.8881399999999
 30
0.0
 11
350.923235
 21
158.8881399999999
 31
0.0
  0
LINE
  5
2C8
330
1E
100
AcDbEntity
  8
0
100
AcDbLine
 10
258.923235
 20
158.8881399999999
 30
0.0
 11
258.923235
 21
159.68814
 31
0.0
  0
LINE
  5
2C9
330
1E
100
AcDbEntity
  8
0
100
AcDbLine
 10
108.923235
 20
159.0881399999999
 30
0.0
 11
110.323235
 21
152.0881399999999
 31
0.0
  0
LINE
  5
2CA
330
1E
100
AcDbEntity
  8
0
100
AcDbLine
 10
110.323235
 20
152.0881399999999
 30
0.0
 11
110.923235
 21
144.8881399999999
 31
0.0
  0
LINE
  5
2CB
330
1E
100
AcDbEntity
  8
0
100
AcDbLine
 10
108.423235
 20
137.9881399999999
 30
0.0
 11
108.923235
 21
144.8881399999999
 31
0.0
  0
LINE
  5
2CC
330
1E
100
AcDbEntity
  8
0
100
AcDbLine
 10
110.323235
 20
137.68814
 30
0.0
 11
110.923235
 21
144.8881399999999
 31
0.0
  0
LINE
  5
2CD
330
1E
100
AcDbEntity
  8
0
100
AcDbLine
 10
103.523235
 20
117.4881399999999
 30
0.0
 11
106.623235
 21
123.8881399999999
 31
0.0
  0
LINE
  5
2CF
330
1E
100
AcDbEntity
  8
0
100
AcDbLine
 10
79.50723499999999
 20
193.8561399999999
 30
0.0
 11
79.79523499999999
 21
194.0931399999999
 31
0.0
  0
LINE
  5
2D0
330
1E
100
AcDbEntity
  8
0
100
AcDbLine
 10
98.17923499999999
 20
195.15314
 30
0.0
 11
100.0512349999999
 21
194.0931399999999
 31
0.0
  0
LINE
  5
2D4
330
1E
100
AcDbEntity
  8
0
100
AcDbLine
 10
92.94723499999999
 20
196.4631399999999
 30
0.0
 11
95.73123499999999
 21
195.9641399999999
 31
0.0
  0
LINE
  5
2D5
330
1E
100
AcDbEntity
  8
0
100
AcDbLine
 10
95.73123499999999
 20
195.9641399999999
 30
0.0
 11
98.17923499999999
 21
195.15314
 31
0.0
  0
LINE
  5
2D7
330
1E
100
AcDbEntity
  8
0
100
AcDbLine
 10
89.92323499999999
 20
196.65014
 30
0.0
 11
92.94723499999999
 21
196.4631399999999
 31
0.0
  0
LINE
  5
2D8
330
1E
100
AcDbEntity
  8
0
100
AcDbLine
 10
86.899235
 20
196.4631399999999
 30
0.0
 11
89.92323499999999
 21
196.65014
 31
0.0
  0
LINE
  5
2D9
330
1E
100
AcDbEntity
  8
0
100
AcDbLine
 10
84.11523499999999
 20
195.9641399999999
 30
0.0
 11
86.899235
 21
196.4631399999999
 31
0.0
  0
LINE
  5
2DA
330
1E
100
AcDbEntity
  8
0
100
AcDbLine
 10
81.66723499999999
 20
195.15314
 30
0.0
 11
84.11523499999999
 21
195.9641399999999
 31
0.0
  0
LINE
  5
2DB
330
1E
100
AcDbEntity
  8
0
100
AcDbLine
 10
79.79523499999999
 20
194.0931399999999
 30
0.0
 11
81.66723499999999
 21
195.15314
 31
0.0
  0
LINE
  5
2EE
330
1E
100
AcDbEntity
  8
0
100
AcDbLine
 10
444.9232349999999
 20
193.68814
 30
0.0
 11
444.9232349999999
 21
189.58814
 31
0.0
  0
LINE
  5
2EF
330
1E
100
AcDbEntity
  8
0
100
AcDbLine
 10
258.923235
 20
193.68814
 30
0.0
 11
258.923235
 21
196.7881399999999
 31
0.0
  0
LINE
  5
2F1
330
1E
100
AcDbEntity
  8
0
100
AcDbLine
 10
256.923235
 20
194.68814
 30
0.0
 11
256.923235
 21
198.0881399999999
 31
0.0
  0
LINE
  5
2F2
330
1E
100
AcDbEntity
  8
0
100
AcDbLine
 10
256.923235
 20
194.68814
 30
0.0
 11
256.923235
 21
190.3881399999999
 31
0.0
  0
LINE
  5
2F3
330
1E
100
AcDbEntity
  8
0
100
AcDbLine
 10
213.9232349999999
 20
194.68814
 30
0.0
 11
213.9232349999999
 21
198.0881399999999
 31
0.0
  0
LINE
  5
2F4
330
1E
100
AcDbEntity
  8
0
100
AcDbLine
 10
213.9232349999999
 20
194.68814
 30
0.0
 11
213.9232349999999
 21
190.3881399999999
 31
0.0
  0
LINE
  5
2F5
330
1E
100
AcDbEntity
  8
0
100
AcDbLine
 10
212.923235
 20
193.9881399999999
 30
0.0
 11
212.923235
 21
197.18814
 31
0.0
  0
LINE
  5
2F6
330
1E
100
AcDbEntity
  8
0
100
AcDbLine
 10
212.923235
 20
193.9881399999999
 30
0.0
 11
212.923235
 21
189.88814
 31
0.0
  0
LINE
  5
2F7
330
1E
100
AcDbEntity
  8
0
100
AcDbLine
 10
256.923235
 20
198.0881399999999
 30
0.0
 11
256.923235
 21
200.0881399999999
 31
0.0
  0
LINE
  5
2F8
330
1E
100
AcDbEntity
  8
0
100
AcDbLine
 10
256.923235
 20
198.0881399999999
 30
0.0
 11
256.923235
 21
194.68814
 31
0.0
  0
LINE
  5
2F9
330
1E
100
AcDbEntity
  8
0
100
AcDbLine
 10
213.9232349999999
 20
198.0881399999999
 30
0.0
 11
213.9232349999999
 21
200.0881399999999
 31
0.0
  0
LINE
  5
2FA
330
1E
100
AcDbEntity
  8
0
100
AcDbLine
 10
213.9232349999999
 20
198.0881399999999
 30
0.0
 11
213.9232349999999
 21
194.68814
 31
0.0
  0
LINE
  5
2FB
330
1E
100
AcDbEntity
  8
0
100
AcDbLine
 10
212.923235
 20
197.18814
 30
0.0
 11
212.923235
 21
199.18814
 31
0.0
  0
LINE
  5
2FC
330
1E
100
AcDbEntity
  8
0
100
AcDbLine
 10
212.923235
 20
197.18814
 30
0.0
 11
212.923235
 21
193.9881399999999
 31
0.0
  0
LINE
  5
2FD
330
1E
100
AcDbEntity
  8
0
100
AcDbLine
 10
258.923235
 20
196.7881399999999
 30
0.0
 11
258.923235
 21
198.68814
 31
0.0
  0
LINE
  5
2FE
330
1E
100
AcDbEntity
  8
0
100
AcDbLine
 10
258.923235
 20
194.68814
 30
0.0
 11
258.923235
 21
198.0881399999999
 31
0.0
  0
LINE
  5
2FF
330
1E
100
AcDbEntity
  8
0
100
AcDbLine
 10
258.923235
 20
194.68814
 30
0.0
 11
258.923235
 21
190.3881399999999
 31
0.0
  0
LINE
  5
300
330
1E
100
AcDbEntity
  8
0
100
AcDbLine
 10
256.923235
 20
199.38814
 30
0.0
 11
258.923235
 21
199.38814
 31
0.0
  0
LINE
  5
301
330
1E
100
AcDbEntity
  8
0
100
AcDbLine
 10
212.923235
 20
199.18814
 30
0.0
 11
212.923235
 21
199.8881399999999
 31
0.0
  0
LINE
  5
302
330
1E
100
AcDbEntity
  8
0
100
AcDbLine
 10
212.923235
 20
199.18814
 30
0.0
 11
212.923235
 21
197.18814
 31
0.0
  0
LINE
  5
303
330
1E
100
AcDbEntity
  8
0
100
AcDbLine
 10
256.923235
 20
200.0881399999999
 30
0.0
 11
256.923235
 21
200.8881399999999
 31
0.0
  0
LINE
  5
304
330
1E
100
AcDbEntity
  8
0
100
AcDbLine
 10
256.923235
 20
200.0881399999999
 30
0.0
 11
256.923235
 21
198.0881399999999
 31
0.0
  0
LINE
  5
305
330
1E
100
AcDbEntity
  8
0
100
AcDbLine
 10
213.9232349999999
 20
200.0881399999999
 30
0.0
 11
213.9232349999999
 21
200.8881399999999
 31
0.0
  0
LINE
  5
306
330
1E
100
AcDbEntity
  8
0
100
AcDbLine
 10
213.9232349999999
 20
200.0881399999999
 30
0.0
 11
213.9232349999999
 21
198.0881399999999
 31
0.0
  0
LINE
  5
307
330
1E
100
AcDbEntity
  8
0
100
AcDbLine
 10
212.923235
 20
199.8881399999999
 30
0.0
 11
213.9232349999999
 21
200.8881399999999
 31
0.0
  0
LINE
  5
308
330
1E
100
AcDbEntity
  8
0
100
AcDbLine
 10
212.923235
 20
199.8881399999999
 30
0.0
 11
212.923235
 21
199.18814
 31
0.0
  0
LINE
  5
309
330
1E
100
AcDbEntity
  8
0
100
AcDbLine
 10
258.923235
 20
198.68814
 30
0.0
 11
258.923235
 21
199.38814
 31
0.0
  0
LINE
  5
30A
330
1E
100
AcDbEntity
  8
0
100
AcDbLine
 10
258.923235
 20
198.0881399999999
 30
0.0
 11
258.923235
 21
200.0881399999999
 31
0.0
  0
LINE
  5
30B
330
1E
100
AcDbEntity
  8
0
100
AcDbLine
 10
258.923235
 20
198.0881399999999
 30
0.0
 11
258.923235
 21
194.68814
 31
0.0
  0
LINE
  5
30C
330
1E
100
AcDbEntity
  8
0
100
AcDbLine
 10
258.923235
 20
199.38814
 30
0.0
 11
258.923235
 21
200.0881399999999
 31
0.0
  0
LINE
  5
30D
330
1E
100
AcDbEntity
  8
0
100
AcDbLine
 10
225.923235
 20
200.8881399999999
 30
0.0
 11
225.923235
 21
202.8881399999999
 31
0.0
  0
LINE
  5
30E
330
1E
100
AcDbEntity
  8
0
100
AcDbLine
 10
261.923235
 20
200.862053043478
 30
0.0
 11
261.923235
 21
216.88814
 31
0.0
  0
LINE
  5
30F
330
1E
100
AcDbEntity
  8
0
100
AcDbLine
 10
256.923235
 20
200.8881399999999
 30
0.0
 11
256.923235
 21
200.0881399999999
 31
0.0
  0
LINE
  5
310
330
1E
100
AcDbEntity
  8
0
100
AcDbLine
 10
239.923235
 20
200.8881399999999
 30
0.0
 11
239.923235
 21
202.8881399999999
 31
0.0
  0
LINE
  5
311
330
1E
100
AcDbEntity
  8
0
100
AcDbLine
 10
225.923235
 20
200.8881399999999
 30
0.0
 11
256.923235
 21
200.8881399999999
 31
0.0
  0
LINE
  5
312
330
1E
100
AcDbEntity
  8
0
100
AcDbLine
 10
213.9232349999999
 20
200.8881399999999
 30
0.0
 11
225.923235
 21
200.8881399999999
 31
0.0
  0
LINE
  5
313
330
1E
100
AcDbEntity
  8
0
100
AcDbLine
 10
213.9232349999999
 20
200.8881399999999
 30
0.0
 11
213.9232349999999
 21
200.0881399999999
 31
0.0
  0
LINE
  5
314
330
1E
100
AcDbEntity
  8
0
100
AcDbLine
 10
258.923235
 20
200.0881399999999
 30
0.0
 11
258.923235
 21
199.38814
 31
0.0
  0
LINE
  5
315
330
1E
100
AcDbEntity
  8
0
100
AcDbLine
 10
258.923235
 20
200.0881399999999
 30
0.0
 11
258.923235
 21
200.8881399999999
 31
0.0
  0
LINE
  5
316
330
1E
100
AcDbEntity
  8
0
100
AcDbLine
 10
258.923235
 20
200.0881399999999
 30
0.0
 11
258.923235
 21
198.0881399999999
 31
0.0
  0
LINE
  5
317
330
1E
100
AcDbEntity
  8
0
100
AcDbLine
 10
442.9232349999999
 20
194.68814
 30
0.0
 11
442.9232349999999
 21
190.3881399999999
 31
0.0
  0
LINE
  5
318
330
1E
100
AcDbEntity
  8
0
100
AcDbLine
 10
442.9232349999999
 20
194.68814
 30
0.0
 11
442.9232349999999
 21
198.0881399999999
 31
0.0
  0
LINE
  5
319
330
1E
100
AcDbEntity
  8
0
100
AcDbLine
 10
442.9232349999999
 20
199.38814
 30
0.0
 11
444.9232349999999
 21
199.38814
 31
0.0
  0
LINE
  5
31A
330
1E
100
AcDbEntity
  8
0
100
AcDbLine
 10
411.923235
 20
200.8881399999999
 30
0.0
 11
411.923235
 21
216.88814
 31
0.0
  0
LINE
  5
31B
330
1E
100
AcDbEntity
  8
0
100
AcDbLine
 10
442.9232349999999
 20
198.0881399999999
 30
0.0
 11
442.9232349999999
 21
194.68814
 31
0.0
  0
LINE
  5
31C
330
1E
100
AcDbEntity
  8
0
100
AcDbLine
 10
442.9232349999999
 20
198.0881399999999
 30
0.0
 11
442.9232349999999
 21
200.0881399999999
 31
0.0
  0
LINE
  5
31D
330
1E
100
AcDbEntity
  8
0
100
AcDbLine
 10
444.9232349999999
 20
196.7881399999999
 30
0.0
 11
444.9232349999999
 21
193.68814
 31
0.0
  0
LINE
  5
31E
330
1E
100
AcDbEntity
  8
0
100
AcDbLine
 10
444.9232349999999
 20
198.68814
 30
0.0
 11
444.9232349999999
 21
196.7881399999999
 31
0.0
  0
LINE
  5
31F
330
1E
100
AcDbEntity
  8
0
100
AcDbLine
 10
444.9232349999999
 20
198.0881399999999
 30
0.0
 11
444.9232349999999
 21
194.68814
 31
0.0
  0
LINE
  5
320
330
1E
100
AcDbEntity
  8
0
100
AcDbLine
 10
444.9232349999999
 20
198.0881399999999
 30
0.0
 11
444.9232349999999
 21
200.0881399999999
 31
0.0
  0
LINE
  5
321
330
1E
100
AcDbEntity
  8
0
100
AcDbLine
 10
444.9232349999999
 20
194.68814
 30
0.0
 11
444.9232349999999
 21
190.3881399999999
 31
0.0
  0
LINE
  5
322
330
1E
100
AcDbEntity
  8
0
100
AcDbLine
 10
444.9232349999999
 20
194.68814
 30
0.0
 11
444.9232349999999
 21
198.0881399999999
 31
0.0
  0
LINE
  5
323
330
1E
100
AcDbEntity
  8
0
100
AcDbLine
 10
444.9232349999999
 20
200.0881399999999
 30
0.0
 11
444.9232349999999
 21
200.8881399999999
 31
0.0
  0
LINE
  5
324
330
1E
100
AcDbEntity
  8
0
100
AcDbLine
 10
444.9232349999999
 20
200.0881399999999
 30
0.0
 11
444.9232349999999
 21
199.38814
 31
0.0
  0
LINE
  5
325
330
1E
100
AcDbEntity
  8
0
100
AcDbLine
 10
444.9232349999999
 20
200.0881399999999
 30
0.0
 11
444.9232349999999
 21
198.0881399999999
 31
0.0
  0
LINE
  5
326
330
1E
100
AcDbEntity
  8
0
100
AcDbLine
 10
444.9232349999999
 20
200.8881399999999
 30
0.0
 11
475.8232349999999
 21
200.8881399999999
 31
0.0
  0
LINE
  5
327
330
1E
100
AcDbEntity
  8
0
100
AcDbLine
 10
444.9232349999999
 20
200.8881399999999
 30
0.0
 11
444.9232349999999
 21
200.0881399999999
 31
0.0
  0
LINE
  5
328
330
1E
100
AcDbEntity
  8
0
100
AcDbLine
 10
444.9232349999999
 20
199.38814
 30
0.0
 11
444.9232349999999
 21
200.0881399999999
 31
0.0
  0
LINE
  5
329
330
1E
100
AcDbEntity
  8
0
100
AcDbLine
 10
444.9232349999999
 20
199.38814
 30
0.0
 11
444.9232349999999
 21
198.68814
 31
0.0
  0
LINE
  5
32A
330
1E
100
AcDbEntity
  8
0
100
AcDbLine
 10
487.9232349999999
 20
194.68814
 30
0.0
 11
487.9232349999999
 21
190.3881399999999
 31
0.0
  0
LINE
  5
32B
330
1E
100
AcDbEntity
  8
0
100
AcDbLine
 10
487.9232349999999
 20
194.68814
 30
0.0
 11
487.9232349999999
 21
198.0881399999999
 31
0.0
  0
LINE
  5
32C
330
1E
100
AcDbEntity
  8
0
100
AcDbLine
 10
487.9232349999999
 20
198.0881399999999
 30
0.0
 11
487.9232349999999
 21
194.68814
 31
0.0
  0
LINE
  5
32D
330
1E
100
AcDbEntity
  8
0
100
AcDbLine
 10
487.9232349999999
 20
198.0881399999999
 30
0.0
 11
487.9232349999999
 21
200.0881399999999
 31
0.0
  0
LINE
  5
32E
330
1E
100
AcDbEntity
  8
0
100
AcDbLine
 10
488.9232349999999
 20
199.18814
 30
0.0
 11
488.9232349999999
 21
197.18814
 31
0.0
  0
LINE
  5
32F
330
1E
100
AcDbEntity
  8
0
100
AcDbLine
 10
488.9232349999999
 20
199.18814
 30
0.0
 11
488.9232349999999
 21
199.8881399999999
 31
0.0
  0
LINE
  5
330
330
1E
100
AcDbEntity
  8
0
100
AcDbLine
 10
488.9232349999999
 20
197.18814
 30
0.0
 11
488.9232349999999
 21
193.9881399999999
 31
0.0
  0
LINE
  5
331
330
1E
100
AcDbEntity
  8
0
100
AcDbLine
 10
488.9232349999999
 20
197.18814
 30
0.0
 11
488.9232349999999
 21
199.18814
 31
0.0
  0
LINE
  5
332
330
1E
100
AcDbEntity
  8
0
100
AcDbLine
 10
488.9232349999999
 20
193.9881399999999
 30
0.0
 11
488.9232349999999
 21
189.88814
 31
0.0
  0
LINE
  5
333
330
1E
100
AcDbEntity
  8
0
100
AcDbLine
 10
488.9232349999999
 20
193.9881399999999
 30
0.0
 11
488.9232349999999
 21
197.18814
 31
0.0
  0
LINE
  5
334
330
1E
100
AcDbEntity
  8
0
100
AcDbLine
 10
487.9232349999999
 20
200.0881399999999
 30
0.0
 11
487.9232349999999
 21
198.0881399999999
 31
0.0
  0
LINE
  5
335
330
1E
100
AcDbEntity
  8
0
100
AcDbLine
 10
487.9232349999999
 20
200.0881399999999
 30
0.0
 11
487.9232349999999
 21
200.8881399999999
 31
0.0
  0
LINE
  5
336
330
1E
100
AcDbEntity
  8
0
100
AcDbLine
 10
475.8232349999999
 20
200.8881399999999
 30
0.0
 11
487.9232349999999
 21
200.8881399999999
 31
0.0
  0
LINE
  5
337
330
1E
100
AcDbEntity
  8
0
100
AcDbLine
 10
487.9232349999999
 20
200.8881399999999
 30
0.0
 11
488.9232349999999
 21
199.8881399999999
 31
0.0
  0
LINE
  5
338
330
1E
100
AcDbEntity
  8
0
100
AcDbLine
 10
487.9232349999999
 20
200.8881399999999
 30
0.0
 11
487.9232349999999
 21
200.0881399999999
 31
0.0
  0
LINE
  5
339
330
1E
100
AcDbEntity
  8
0
100
AcDbLine
 10
488.9232349999999
 20
199.8881399999999
 30
0.0
 11
490.423235
 21
187.88814
 31
0.0
  0
LINE
  5
33A
330
1E
100
AcDbEntity
  8
0
100
AcDbLine
 10
488.9232349999999
 20
199.8881399999999
 30
0.0
 11
488.9232349999999
 21
199.18814
 31
0.0
  0
LINE
  5
33B
330
1E
100
AcDbEntity
  8
0
100
AcDbLine
 10
461.9232349999999
 20
200.8881399999999
 30
0.0
 11
461.9232349999999
 21
202.8881399999999
 31
0.0
  0
LINE
  5
33C
330
1E
100
AcDbEntity
  8
0
100
AcDbLine
 10
475.9232349999999
 20
200.8881399999999
 30
0.0
 11
475.9232349999999
 21
202.8881399999999
 31
0.0
  0
LINE
  5
33D
330
1E
100
AcDbEntity
  8
0
100
AcDbLine
 10
442.9232349999999
 20
200.0881399999999
 30
0.0
 11
442.9232349999999
 21
198.0881399999999
 31
0.0
  0
LINE
  5
33E
330
1E
100
AcDbEntity
  8
0
100
AcDbLine
 10
442.9232349999999
 20
200.0881399999999
 30
0.0
 11
442.9232349999999
 21
200.8881399999999
 31
0.0
  0
LINE
  5
33F
330
1E
100
AcDbEntity
  8
0
100
AcDbLine
 10
439.923235
 20
200.8881399999999
 30
0.0
 11
442.9232349999999
 21
200.8881399999999
 31
0.0
  0
LINE
  5
340
330
1E
100
AcDbEntity
  8
0
100
AcDbLine
 10
439.923235
 20
200.8881399999999
 30
0.0
 11
439.923235
 21
216.88814
 31
0.0
  0
LINE
  5
341
330
1E
100
AcDbEntity
  8
0
100
AcDbLine
 10
350.923235
 20
200.8881399999999
 30
0.0
 11
439.923235
 21
200.8881399999999
 31
0.0
  0
LINE
  5
342
330
1E
100
AcDbEntity
  8
0
100
AcDbLine
 10
442.9232349999999
 20
200.8881399999999
 30
0.0
 11
442.9232349999999
 21
200.0881399999999
 31
0.0
  0
LINE
  5
343
330
1E
100
AcDbEntity
  8
0
100
AcDbLine
 10
289.923235
 20
200.8881399999999
 30
0.0
 11
350.923235
 21
200.8881399999999
 31
0.0
  0
LINE
  5
344
330
1E
100
AcDbEntity
  8
0
100
AcDbLine
 10
289.923235
 20
200.8881399999999
 30
0.0
 11
289.923235
 21
216.88814
 31
0.0
  0
LINE
  5
347
330
1E
100
AcDbEntity
  8
0
100
AcDbLine
 10
232.923235
 20
202.8881399999999
 30
0.0
 11
234.723235
 21
202.8881399999999
 31
0.0
  0
LINE
  5
348
330
1E
100
AcDbEntity
  8
0
100
AcDbLine
 10
234.723235
 20
202.8881399999999
 30
0.0
 11
236.4232349999999
 21
202.8881399999999
 31
0.0
  0
LINE
  5
349
330
1E
100
AcDbEntity
  8
0
100
AcDbLine
 10
236.4232349999999
 20
202.8881399999999
 30
0.0
 11
237.823235
 21
202.8881399999999
 31
0.0
  0
LINE
  5
34A
330
1E
100
AcDbEntity
  8
0
100
AcDbLine
 10
237.823235
 20
202.8881399999999
 30
0.0
 11
239.023235
 21
202.8881399999999
 31
0.0
  0
LINE
  5
34B
330
1E
100
AcDbEntity
  8
0
100
AcDbLine
 10
239.023235
 20
202.8881399999999
 30
0.0
 11
239.623235
 21
202.8881399999999
 31
0.0
  0
LINE
  5
34C
330
1E
100
AcDbEntity
  8
0
100
AcDbLine
 10
239.623235
 20
202.8881399999999
 30
0.0
 11
239.923235
 21
202.8881399999999
 31
0.0
  0
LINE
  5
34D
330
1E
100
AcDbEntity
  8
0
100
AcDbLine
 10
467.1232349999999
 20
202.8881399999999
 30
0.0
 11
468.923235
 21
202.8881399999999
 31
0.0
  0
LINE
  5
34E
330
1E
100
AcDbEntity
  8
0
100
AcDbLine
 10
465.423235
 20
202.8881399999999
 30
0.0
 11
467.1232349999999
 21
202.8881399999999
 31
0.0
  0
LINE
  5
34F
330
1E
100
AcDbEntity
  8
0
100
AcDbLine
 10
464.0232349999999
 20
202.8881399999999
 30
0.0
 11
465.423235
 21
202.8881399999999
 31
0.0
  0
LINE
  5
350
330
1E
100
AcDbEntity
  8
0
100
AcDbLine
 10
462.8232349999999
 20
202.8881399999999
 30
0.0
 11
464.0232349999999
 21
202.8881399999999
 31
0.0
  0
LINE
  5
351
330
1E
100
AcDbEntity
  8
0
100
AcDbLine
 10
462.2232349999999
 20
202.8881399999999
 30
0.0
 11
462.8232349999999
 21
202.8881399999999
 31
0.0
  0
LINE
  5
352
330
1E
100
AcDbEntity
  8
0
100
AcDbLine
 10
468.923235
 20
202.8881399999999
 30
0.0
 11
470.7232349999999
 21
202.8881399999999
 31
0.0
  0
LINE
  5
353
330
1E
100
AcDbEntity
  8
0
100
AcDbLine
 10
470.7232349999999
 20
202.8881399999999
 30
0.0
 11
472.423235
 21
202.8881399999999
 31
0.0
  0
LINE
  5
354
330
1E
100
AcDbEntity
  8
0
100
AcDbLine
 10
472.423235
 20
202.8881399999999
 30
0.0
 11
473.8232349999999
 21
202.8881399999999
 31
0.0
  0
LINE
  5
355
330
1E
100
AcDbEntity
  8
0
100
AcDbLine
 10
473.8232349999999
 20
202.8881399999999
 30
0.0
 11
475.0232349999999
 21
202.8881399999999
 31
0.0
  0
LINE
  5
356
330
1E
100
AcDbEntity
  8
0
100
AcDbLine
 10
475.0232349999999
 20
202.8881399999999
 30
0.0
 11
475.6232349999999
 21
202.8881399999999
 31
0.0
  0
LINE
  5
357
330
1E
100
AcDbEntity
  8
0
100
AcDbLine
 10
475.6232349999999
 20
202.8881399999999
 30
0.0
 11
475.9232349999999
 21
202.8881399999999
 31
0.0
  0
LINE
  5
358
330
1E
100
AcDbEntity
  8
0
100
AcDbLine
 10
475.9232349999999
 20
202.8881399999999
 30
0.0
 11
475.9232349999999
 21
200.8881399999999
 31
0.0
  0
LINE
  5
359
330
1E
100
AcDbEntity
  8
0
100
AcDbLine
 10
461.9232349999999
 20
202.8881399999999
 30
0.0
 11
461.9232349999999
 21
200.8881399999999
 31
0.0
  0
LINE
  5
35A
330
1E
100
AcDbEntity
  8
0
100
AcDbLine
 10
461.9232349999999
 20
202.8881399999999
 30
0.0
 11
462.2232349999999
 21
202.8881399999999
 31
0.0
  0
LINE
  5
35B
330
1E
100
AcDbEntity
  8
0
100
AcDbLine
 10
239.923235
 20
202.8881399999999
 30
0.0
 11
239.923235
 21
200.8881399999999
 31
0.0
  0
LINE
  5
35C
330
1E
100
AcDbEntity
  8
0
100
AcDbLine
 10
231.123235
 20
202.8881399999999
 30
0.0
 11
232.923235
 21
202.8881399999999
 31
0.0
  0
LINE
  5
35D
330
1E
100
AcDbEntity
  8
0
100
AcDbLine
 10
229.423235
 20
202.8881399999999
 30
0.0
 11
231.123235
 21
202.8881399999999
 31
0.0
  0
LINE
  5
35E
330
1E
100
AcDbEntity
  8
0
100
AcDbLine
 10
228.0232349999999
 20
202.8881399999999
 30
0.0
 11
229.423235
 21
202.8881399999999
 31
0.0
  0
LINE
  5
35F
330
1E
100
AcDbEntity
  8
0
100
AcDbLine
 10
226.823235
 20
202.8881399999999
 30
0.0
 11
228.0232349999999
 21
202.8881399999999
 31
0.0
  0
LINE
  5
360
330
1E
100
AcDbEntity
  8
0
100
AcDbLine
 10
226.223235
 20
202.8881399999999
 30
0.0
 11
226.823235
 21
202.8881399999999
 31
0.0
  0
LINE
  5
361
330
1E
100
AcDbEntity
  8
0
100
AcDbLine
 10
225.923235
 20
202.8881399999999
 30
0.0
 11
225.923235
 21
200.8881399999999
 31
0.0
  0
LINE
  5
362
330
1E
100
AcDbEntity
  8
0
100
AcDbLine
 10
225.923235
 20
202.8881399999999
 30
0.0
 11
226.223235
 21
202.8881399999999
 31
0.0
  0
LINE
  5
363
330
1E
100
AcDbEntity
  8
0
100
AcDbLine
 10
258.923235
 20
200.8881399999999
 30
0.0
 11
258.923235
 21
200.0881399999999
 31
0.0
  0
LINE
  5
364
330
1E
100
AcDbEntity
  8
0
100
AcDbLine
 10
258.923235
 20
200.8881399999999
 30
0.0
 11
289.923235
 21
200.8881399999999
 31
0.0
  0
LINE
  5
365
330
1E
100
AcDbEntity
  8
0
100
AcDbLine
 10
100.0512349999999
 20
194.0931399999999
 30
0.0
 11
100.3392349999999
 21
193.8561399999999
 31
0.0
  0
LINE
  5
367
330
1E
100
AcDbEntity
  8
0
100
AcDbLine
 10
100.3392349999999
 20
193.8561399999999
 30
0.0
 11
101.491235
 21
192.6091399999999
 31
0.0
  0
LINE
  5
36A
330
1E
100
AcDbEntity
  8
0
100
AcDbLine
 10
75.92323499999999
 20
201.34414
 30
0.0
 11
75.92323499999999
 21
204.2211399999999
 31
0.0
  0
LINE
  5
36B
330
1E
100
AcDbEntity
  8
0
100
AcDbLine
 10
75.92323499999999
 20
201.34414
 30
0.0
 11
75.92323499999999
 21
199.47914
 31
0.0
  0
LINE
  5
36D
330
1E
100
AcDbEntity
  8
0
100
AcDbLine
 10
75.92323499999999
 20
206.8881399999999
 30
0.0
 11
75.92323499999999
 21
184.8881399999999
 31
0.0
  0
LINE
  5
370
330
1E
100
AcDbEntity
  8
0
100
AcDbLine
 10
75.92323499999999
 20
206.8881399999999
 30
0.0
 11
75.92323499999999
 21
207.8881399999999
 31
0.0
  0
LINE
  5
371
330
1E
100
AcDbEntity
  8
0
100
AcDbLine
 10
75.92323499999999
 20
212.20314
 30
0.0
 11
75.92323499999999
 21
216.8081399999999
 31
0.0
  0
LINE
  5
372
330
1E
100
AcDbEntity
  8
0
100
AcDbLine
 10
75.92323499999999
 20
212.20314
 30
0.0
 11
75.92323499999999
 21
207.8881399999999
 31
0.0
  0
LINE
  5
3A8
330
1E
100
AcDbEntity
  8
0
100
AcDbLine
 10
75.92323499999999
 20
207.8881399999999
 30
0.0
 11
75.92323499999999
 21
212.20314
 31
0.0
  0
LINE
  5
3A9
330
1E
100
AcDbEntity
  8
0
100
AcDbLine
 10
75.92323499999999
 20
207.8881399999999
 30
0.0
 11
75.92323499999999
 21
206.8881399999999
 31
0.0
  0
LINE
  5
3AA
330
1E
100
AcDbEntity
  8
0
100
AcDbLine
 10
75.92323499999999
 20
207.8881399999999
 30
0.0
 11
75.92323499999999
 21
204.2211399999999
 31
0.0
  0
LINE
  5
3AB
330
1E
100
AcDbEntity
  8
0
100
AcDbLine
 10
75.92323499999999
 20
204.2211399999999
 30
0.0
 11
75.92323499999999
 21
207.8881399999999
 31
0.0
  0
LINE
  5
3AC
330
1E
100
AcDbEntity
  8
0
100
AcDbLine
 10
75.92323499999999
 20
204.2211399999999
 30
0.0
 11
75.92323499999999
 21
201.34414
 31
0.0
  0
LINE
  5
3AD
330
1E
100
AcDbEntity
  8
0
100
AcDbLine
 10
65.42323499999999
 20
211.3881399999999
 30
0.0
 11
66.523235
 21
214.08814
 31
0.0
  0
LINE
  5
3AE
330
1E
100
AcDbEntity
  8
0
100
AcDbLine
 10
66.523235
 20
214.08814
 30
0.0
 11
66.92323499999999
 21
216.88814
 31
0.0
  0
LINE
  5
3AF
330
1E
100
AcDbEntity
  8
0
100
AcDbLine
 10
63.723235
 20
209.0881399999999
 30
0.0
 11
65.42323499999999
 21
211.3881399999999
 31
0.0
  0
LINE
  5
3B0
330
1E
100
AcDbEntity
  8
0
100
AcDbLine
 10
45.423235
 20
216.88814
 30
0.0
 11
45.823235
 21
214.1881399999999
 31
0.0
  0
LINE
  5
3B1
330
1E
100
AcDbEntity
  8
0
100
AcDbLine
 10
45.423235
 20
216.88814
 30
0.0
 11
45.423235
 21
260.3881399999999
 31
0.0
  0
LINE
  5
3B2
330
1E
100
AcDbEntity
  8
0
100
AcDbLine
 10
45.423235
 20
260.3881399999999
 30
0.0
 11
55.923235
 21
260.3881399999999
 31
0.0
  0
LINE
  5
3B3
330
1E
100
AcDbEntity
  8
0
100
AcDbLine
 10
45.423235
 20
260.3881399999999
 30
0.0
 11
45.423235
 21
216.88814
 31
0.0
  0
LINE
  5
3B4
330
1E
100
AcDbEntity
  8
0
100
AcDbLine
 10
55.923235
 20
260.3881399999999
 30
0.0
 11
66.42323499999999
 21
260.3881399999999
 31
0.0
  0
LINE
  5
3C0
330
1E
100
AcDbEntity
  8
0
100
AcDbLine
 10
103.923235
 20
215.8881399999999
 30
0.0
 11
103.923235
 21
184.8881399999999
 31
0.0
  0
LINE
  5
3C8
330
1E
100
AcDbEntity
  8
0
100
AcDbLine
 10
265.923235
 20
216.88814
 30
0.0
 11
265.923235
 21
220.88814
 31
0.0
  0
LINE
  5
3C9
330
1E
100
AcDbEntity
  8
0
100
AcDbLine
 10
275.923235
 20
216.88814
 30
0.0
 11
279.547235
 21
216.88814
 31
0.0
  0
LINE
  5
3CA
330
1E
100
AcDbEntity
  8
0
100
AcDbLine
 10
279.547235
 20
216.88814
 30
0.0
 11
282.882235
 21
216.88814
 31
0.0
  0
LINE
  5
3CB
330
1E
100
AcDbEntity
  8
0
100
AcDbLine
 10
282.882235
 20
216.88814
 30
0.0
 11
285.8052349999999
 21
216.88814
 31
0.0
  0
LINE
  5
3CC
330
1E
100
AcDbEntity
  8
0
100
AcDbLine
 10
285.923235
 20
216.88814
 30
0.0
 11
285.923235
 21
220.88814
 31
0.0
  0
LINE
  5
3CD
330
1E
100
AcDbEntity
  8
0
100
AcDbLine
 10
285.8052349999999
 20
216.88814
 30
0.0
 11
288.029235
 21
216.88814
 31
0.0
  0
LINE
  5
3CE
330
1E
100
AcDbEntity
  8
0
100
AcDbLine
 10
288.029235
 20
216.88814
 30
0.0
 11
289.429235
 21
216.88814
 31
0.0
  0
LINE
  5
3CF
330
1E
100
AcDbEntity
  8
0
100
AcDbLine
 10
289.923235
 20
216.88814
 30
0.0
 11
289.923235
 21
200.8881399999999
 31
0.0
  0
LINE
  5
3D0
330
1E
100
AcDbEntity
  8
0
100
AcDbLine
 10
415.923235
 20
216.88814
 30
0.0
 11
415.923235
 21
220.88814
 31
0.0
  0
LINE
  5
3D1
330
1E
100
AcDbEntity
  8
0
100
AcDbLine
 10
422.2992349999999
 20
216.88814
 30
0.0
 11
425.9232349999999
 21
216.88814
 31
0.0
  0
LINE
  5
3D2
330
1E
100
AcDbEntity
  8
0
100
AcDbLine
 10
418.964235
 20
216.88814
 30
0.0
 11
422.2992349999999
 21
216.88814
 31
0.0
  0
LINE
  5
3D3
330
1E
100
AcDbEntity
  8
0
100
AcDbLine
 10
416.041235
 20
216.88814
 30
0.0
 11
418.964235
 21
216.88814
 31
0.0
  0
LINE
  5
3D4
330
1E
100
AcDbEntity
  8
0
100
AcDbLine
 10
413.8172349999999
 20
216.88814
 30
0.0
 11
416.041235
 21
216.88814
 31
0.0
  0
LINE
  5
3D5
330
1E
100
AcDbEntity
  8
0
100
AcDbLine
 10
412.417235
 20
216.88814
 30
0.0
 11
413.8172349999999
 21
216.88814
 31
0.0
  0
LINE
  5
3D6
330
1E
100
AcDbEntity
  8
0
100
AcDbLine
 10
411.923235
 20
216.88814
 30
0.0
 11
412.417235
 21
216.88814
 31
0.0
  0
LINE
  5
3D7
330
1E
100
AcDbEntity
  8
0
100
AcDbLine
 10
411.923235
 20
216.88814
 30
0.0
 11
411.923235
 21
200.8881399999999
 31
0.0
  0
LINE
  5
3D8
330
1E
100
AcDbEntity
  8
0
100
AcDbLine
 10
425.9232349999999
 20
216.88814
 30
0.0
 11
429.5472349999999
 21
216.88814
 31
0.0
  0
LINE
  5
3D9
330
1E
100
AcDbEntity
  8
0
100
AcDbLine
 10
429.5472349999999
 20
216.88814
 30
0.0
 11
432.882235
 21
216.88814
 31
0.0
  0
LINE
  5
3DA
330
1E
100
AcDbEntity
  8
0
100
AcDbLine
 10
435.923235
 20
216.88814
 30
0.0
 11
435.923235
 21
220.88814
 31
0.0
  0
LINE
  5
3DB
330
1E
100
AcDbEntity
  8
0
100
AcDbLine
 10
432.882235
 20
216.88814
 30
0.0
 11
435.805235
 21
216.88814
 31
0.0
  0
LINE
  5
3DC
330
1E
100
AcDbEntity
  8
0
100
AcDbLine
 10
435.805235
 20
216.88814
 30
0.0
 11
438.0292349999999
 21
216.88814
 31
0.0
  0
LINE
  5
3DD
330
1E
100
AcDbEntity
  8
0
100
AcDbLine
 10
439.923235
 20
216.88814
 30
0.0
 11
439.923235
 21
200.8881399999999
 31
0.0
  0
LINE
  5
3DE
330
1E
100
AcDbEntity
  8
0
100
AcDbLine
 10
438.0292349999999
 20
216.88814
 30
0.0
 11
439.4292349999999
 21
216.88814
 31
0.0
  0
LINE
  5
3DF
330
1E
100
AcDbEntity
  8
0
100
AcDbLine
 10
439.4292349999999
 20
216.88814
 30
0.0
 11
439.923235
 21
216.88814
 31
0.0
  0
LINE
  5
3E0
330
1E
100
AcDbEntity
  8
0
100
AcDbLine
 10
289.429235
 20
216.88814
 30
0.0
 11
289.923235
 21
216.88814
 31
0.0
  0
LINE
  5
3E1
330
1E
100
AcDbEntity
  8
0
100
AcDbLine
 10
272.299235
 20
216.88814
 30
0.0
 11
275.923235
 21
216.88814
 31
0.0
  0
LINE
  5
3E2
330
1E
100
AcDbEntity
  8
0
100
AcDbLine
 10
268.964235
 20
216.88814
 30
0.0
 11
272.299235
 21
216.88814
 31
0.0
  0
LINE
  5
3E3
330
1E
100
AcDbEntity
  8
0
100
AcDbLine
 10
266.041235
 20
216.88814
 30
0.0
 11
268.964235
 21
216.88814
 31
0.0
  0
LINE
  5
3E4
330
1E
100
AcDbEntity
  8
0
100
AcDbLine
 10
263.817235
 20
216.88814
 30
0.0
 11
266.041235
 21
216.88814
 31
0.0
  0
LINE
  5
3E5
330
1E
100
AcDbEntity
  8
0
100
AcDbLine
 10
262.417235
 20
216.88814
 30
0.0
 11
263.817235
 21
216.88814
 31
0.0
  0
LINE
  5
3E6
330
1E
100
AcDbEntity
  8
0
100
AcDbLine
 10
261.923235
 20
216.88814
 30
0.0
 11
262.417235
 21
216.88814
 31
0.0
  0
LINE
  5
3E7
330
1E
100
AcDbEntity
  8
0
100
AcDbLine
 10
261.923235
 20
216.88814
 30
0.0
 11
261.923235
 21
200.862053043478
 31
0.0
  0
LINE
  5
3E8
330
1E
100
AcDbEntity
  8
0
100
AcDbLine
 10
75.92323499999999
 20
216.8081399999999
 30
0.0
 11
75.92323499999999
 21
221.5531399999999
 31
0.0
  0
LINE
  5
3E9
330
1E
100
AcDbEntity
  8
0
100
AcDbLine
 10
75.92323499999999
 20
216.8081399999999
 30
0.0
 11
75.92323499999999
 21
212.20314
 31
0.0
  0
LINE
  5
3EA
330
1E
100
AcDbEntity
  8
0
100
AcDbLine
 10
66.42323499999999
 20
216.88814
 30
0.0
 11
66.42323499999999
 21
260.3881399999999
 31
0.0
  0
LINE
  5
3ED
330
1E
100
AcDbEntity
  8
0
100
AcDbLine
 10
75.92323499999999
 20
229.61114
 30
0.0
 11
75.92323499999999
 21
232.4771399999999
 31
0.0
  0
LINE
  5
3EE
330
1E
100
AcDbEntity
  8
0
100
AcDbLine
 10
75.92323499999999
 20
229.61114
 30
0.0
 11
75.92323499999999
 21
225.9551399999999
 31
0.0
  0
LINE
  5
3EF
330
1E
100
AcDbEntity
  8
0
100
AcDbLine
 10
75.92323499999999
 20
225.9551399999999
 30
0.0
 11
75.92323499999999
 21
229.61114
 31
0.0
  0
LINE
  5
3F0
330
1E
100
AcDbEntity
  8
0
100
AcDbLine
 10
75.92323499999999
 20
225.9551399999999
 30
0.0
 11
75.92323499999999
 21
221.5531399999999
 31
0.0
  0
LINE
  5
3F1
330
1E
100
AcDbEntity
  8
0
100
AcDbLine
 10
75.92323499999999
 20
221.5531399999999
 30
0.0
 11
75.92323499999999
 21
225.9551399999999
 31
0.0
  0
LINE
  5
3F2
330
1E
100
AcDbEntity
  8
0
100
AcDbLine
 10
75.92323499999999
 20
221.5531399999999
 30
0.0
 11
75.92323499999999
 21
216.8081399999999
 31
0.0
  0
LINE
  5
408
330
1E
100
AcDbEntity
  8
0
100
AcDbLine
 10
103.5532349999999
 20
219.1481399999999
 30
0.0
 11
103.923235
 21
215.8881399999999
 31
0.0
  0
LINE
  5
409
330
1E
100
AcDbEntity
  8
0
100
AcDbLine
 10
265.923235
 20
220.88814
 30
0.0
 11
266.2762349999999
 21
220.88814
 31
0.0
  0
LINE
  5
40A
330
1E
100
AcDbEntity
  8
0
100
AcDbLine
 10
265.923235
 20
220.88814
 30
0.0
 11
265.923235
 21
216.88814
 31
0.0
  0
LINE
  5
40B
330
1E
100
AcDbEntity
  8
0
100
AcDbLine
 10
266.2762349999999
 20
220.88814
 30
0.0
 11
267.2762349999999
 21
220.88814
 31
0.0
  0
LINE
  5
40D
330
1E
100
AcDbEntity
  8
0
100
AcDbLine
 10
102.384235
 20
222.4361399999999
 30
0.0
 11
103.5532349999999
 21
219.1481399999999
 31
0.0
  0
LINE
  5
40E
330
1E
100
AcDbEntity
  8
0
100
AcDbLine
 10
267.2762349999999
 20
220.88814
 30
0.0
 11
268.864235
 21
220.88814
 31
0.0
  0
LINE
  5
40F
330
1E
100
AcDbEntity
  8
0
100
AcDbLine
 10
268.864235
 20
220.88814
 30
0.0
 11
270.952235
 21
220.88814
 31
0.0
  0
LINE
  5
411
330
1E
100
AcDbEntity
  8
0
100
AcDbLine
 10
270.952235
 20
220.88814
 30
0.0
 11
273.335235
 21
220.88814
 31
0.0
  0
LINE
  5
413
330
1E
100
AcDbEntity
  8
0
100
AcDbLine
 10
415.923235
 20
220.88814
 30
0.0
 11
416.2762349999999
 21
220.88814
 31
0.0
  0
LINE
  5
414
330
1E
100
AcDbEntity
  8
0
100
AcDbLine
 10
415.923235
 20
220.88814
 30
0.0
 11
415.923235
 21
216.88814
 31
0.0
  0
LINE
  5
415
330
1E
100
AcDbEntity
  8
0
100
AcDbLine
 10
416.2762349999999
 20
220.88814
 30
0.0
 11
417.276235
 21
220.88814
 31
0.0
  0
LINE
  5
416
330
1E
100
AcDbEntity
  8
0
100
AcDbLine
 10
417.276235
 20
220.88814
 30
0.0
 11
418.864235
 21
220.88814
 31
0.0
  0
LINE
  5
417
330
1E
100
AcDbEntity
  8
0
100
AcDbLine
 10
418.864235
 20
220.88814
 30
0.0
 11
420.9522349999999
 21
220.88814
 31
0.0
  0
LINE
  5
418
330
1E
100
AcDbEntity
  8
0
100
AcDbLine
 10
420.9522349999999
 20
220.88814
 30
0.0
 11
423.3352349999999
 21
220.88814
 31
0.0
  0
LINE
  5
419
330
1E
100
AcDbEntity
  8
0
100
AcDbLine
 10
423.3352349999999
 20
220.88814
 30
0.0
 11
425.9232349999999
 21
220.88814
 31
0.0
  0
LINE
  5
41A
330
1E
100
AcDbEntity
  8
0
100
AcDbLine
 10
435.5702349999999
 20
220.88814
 30
0.0
 11
435.923235
 21
220.88814
 31
0.0
  0
LINE
  5
41B
330
1E
100
AcDbEntity
  8
0
100
AcDbLine
 10
434.5702349999999
 20
220.88814
 30
0.0
 11
435.5702349999999
 21
220.88814
 31
0.0
  0
LINE
  5
41C
330
1E
100
AcDbEntity
  8
0
100
AcDbLine
 10
432.9822349999999
 20
220.88814
 30
0.0
 11
434.5702349999999
 21
220.88814
 31
0.0
  0
LINE
  5
41D
330
1E
100
AcDbEntity
  8
0
100
AcDbLine
 10
430.8942349999999
 20
220.88814
 30
0.0
 11
432.9822349999999
 21
220.88814
 31
0.0
  0
LINE
  5
41E
330
1E
100
AcDbEntity
  8
0
100
AcDbLine
 10
428.5112349999999
 20
220.88814
 30
0.0
 11
430.8942349999999
 21
220.88814
 31
0.0
  0
LINE
  5
41F
330
1E
100
AcDbEntity
  8
0
100
AcDbLine
 10
425.9232349999999
 20
220.88814
 30
0.0
 11
428.5112349999999
 21
220.88814
 31
0.0
  0
LINE
  5
420
330
1E
100
AcDbEntity
  8
0
100
AcDbLine
 10
435.923235
 20
220.88814
 30
0.0
 11
438.9232349999999
 21
222.88814
 31
0.0
  0
LINE
  5
421
330
1E
100
AcDbEntity
  8
0
100
AcDbLine
 10
435.923235
 20
220.88814
 30
0.0
 11
435.923235
 21
216.88814
 31
0.0
  0
LINE
  5
422
330
1E
100
AcDbEntity
  8
0
100
AcDbLine
 10
285.570235
 20
220.88814
 30
0.0
 11
285.923235
 21
220.88814
 31
0.0
  0
LINE
  5
423
330
1E
100
AcDbEntity
  8
0
100
AcDbLine
 10
284.570235
 20
220.88814
 30
0.0
 11
285.570235
 21
220.88814
 31
0.0
  0
LINE
  5
424
330
1E
100
AcDbEntity
  8
0
100
AcDbLine
 10
282.982235
 20
220.88814
 30
0.0
 11
284.570235
 21
220.88814
 31
0.0
  0
LINE
  5
425
330
1E
100
AcDbEntity
  8
0
100
AcDbLine
 10
280.894235
 20
220.88814
 30
0.0
 11
282.982235
 21
220.88814
 31
0.0
  0
LINE
  5
426
330
1E
100
AcDbEntity
  8
0
100
AcDbLine
 10
278.5112349999999
 20
220.88814
 30
0.0
 11
280.894235
 21
220.88814
 31
0.0
  0
LINE
  5
427
330
1E
100
AcDbEntity
  8
0
100
AcDbLine
 10
275.923235
 20
220.88814
 30
0.0
 11
278.5112349999999
 21
220.88814
 31
0.0
  0
LINE
  5
42A
330
1E
100
AcDbEntity
  8
0
100
AcDbLine
 10
412.923235
 20
222.88814
 30
0.0
 11
415.923235
 21
220.88814
 31
0.0
  0
LINE
  5
42B
330
1E
100
AcDbEntity
  8
0
100
AcDbLine
 10
412.923235
 20
222.88814
 30
0.0
 11
412.923235
 21
224.88814
 31
0.0
  0
LINE
  5
42C
330
1E
100
AcDbEntity
  8
0
100
AcDbLine
 10
412.923235
 20
222.88814
 30
0.0
 11
413.423235
 21
222.88814
 31
0.0
  0
LINE
  5
42D
330
1E
100
AcDbEntity
  8
0
100
AcDbLine
 10
438.9232349999999
 20
222.88814
 30
0.0
 11
438.9232349999999
 21
224.88814
 31
0.0
  0
LINE
  5
42E
330
1E
100
AcDbEntity
  8
0
100
AcDbLine
 10
413.423235
 20
222.88814
 30
0.0
 11
438.9232349999999
 21
222.88814
 31
0.0
  0
LINE
  5
431
330
1E
100
AcDbEntity
  8
0
100
AcDbLine
 10
263.423235
 20
222.88814
 30
0.0
 11
288.923235
 21
222.88814
 31
0.0
  0
LINE
  5
434
330
1E
100
AcDbEntity
  8
0
100
AcDbLine
 10
285.923235
 20
220.88814
 30
0.0
 11
288.923235
 21
222.88814
 31
0.0
  0
LINE
  5
435
330
1E
100
AcDbEntity
  8
0
100
AcDbLine
 10
285.923235
 20
220.88814
 30
0.0
 11
285.923235
 21
216.88814
 31
0.0
  0
LINE
  5
436
330
1E
100
AcDbEntity
  8
0
100
AcDbLine
 10
273.335235
 20
220.88814
 30
0.0
 11
275.923235
 21
220.88814
 31
0.0
  0
LINE
  5
437
330
1E
100
AcDbEntity
  8
0
100
AcDbLine
 10
262.923235
 20
222.88814
 30
0.0
 11
265.923235
 21
220.88814
 31
0.0
  0
LINE
  5
438
330
1E
100
AcDbEntity
  8
0
100
AcDbLine
 10
262.923235
 20
222.88814
 30
0.0
 11
263.423235
 21
222.88814
 31
0.0
  0
LINE
  5
439
330
1E
100
AcDbEntity
  8
0
100
AcDbLine
 10
262.923235
 20
222.88814
 30
0.0
 11
262.923235
 21
224.88814
 31
0.0
  0
LINE
  5
443
330
1E
100
AcDbEntity
  8
0
100
AcDbLine
 10
78.92323499999999
 20
229.5551399999999
 30
0.0
 11
78.92323499999999
 21
232.43214
 31
0.0
  0
LINE
  5
444
330
1E
100
AcDbEntity
  8
0
100
AcDbLine
 10
78.92323499999999
 20
229.61114
 30
0.0
 11
78.92323499999999
 21
232.4771399999999
 31
0.0
  0
LINE
  5
446
330
1E
100
AcDbEntity
  8
0
100
AcDbLine
 10
79.977035
 20
230.1841399999999
 30
0.0
 11
82.931535
 21
231.7251399999999
 31
0.0
  0
LINE
  5
449
330
1E
100
AcDbEntity
  8
0
100
AcDbLine
 10
78.92323499999999
 20
232.43214
 30
0.0
 11
78.92323499999999
 21
229.5551399999999
 31
0.0
  0
LINE
  5
44A
330
1E
100
AcDbEntity
  8
0
100
AcDbLine
 10
78.92323499999999
 20
232.43214
 30
0.0
 11
78.92323499999999
 21
234.2971399999999
 31
0.0
  0
LINE
  5
44B
330
1E
100
AcDbEntity
  8
0
100
AcDbLine
 10
78.92323499999999
 20
234.2191399999999
 30
0.0
 11
78.92323499999999
 21
234.8831399999999
 31
0.0
  0
LINE
  5
44C
330
1E
100
AcDbEntity
  8
0
100
AcDbLine
 10
78.92323499999999
 20
234.2191399999999
 30
0.0
 11
78.92323499999999
 21
232.4771399999999
 31
0.0
  0
LINE
  5
44D
330
1E
100
AcDbEntity
  8
0
100
AcDbLine
 10
78.92323499999999
 20
232.4771399999999
 30
0.0
 11
78.92323499999999
 21
229.61114
 31
0.0
  0
LINE
  5
44E
330
1E
100
AcDbEntity
  8
0
100
AcDbLine
 10
78.92323499999999
 20
232.4771399999999
 30
0.0
 11
78.92323499999999
 21
234.2191399999999
 31
0.0
  0
LINE
  5
454
330
1E
100
AcDbEntity
  8
0
100
AcDbLine
 10
96.993135
 20
228.64914
 30
0.0
 11
99.86843499999999
 21
225.84214
 31
0.0
  0
LINE
  5
455
330
1E
100
AcDbEntity
  8
0
100
AcDbLine
 10
93.668735
 20
230.64814
 30
0.0
 11
96.993135
 21
228.64914
 31
0.0
  0
LINE
  5
459
330
1E
100
AcDbEntity
  8
0
100
AcDbLine
 10
99.86843499999999
 20
225.84214
 30
0.0
 11
102.384235
 21
222.4361399999999
 31
0.0
  0
LINE
  5
45A
330
1E
100
AcDbEntity
  8
0
100
AcDbLine
 10
262.923235
 20
230.88814
 30
0.0
 11
262.923235
 21
232.8881399999999
 31
0.0
  0
LINE
  5
45B
330
1E
100
AcDbEntity
  8
0
100
AcDbLine
 10
262.923235
 20
230.88814
 30
0.0
 11
262.923235
 21
227.8881399999999
 31
0.0
  0
LINE
  5
45C
330
1E
100
AcDbEntity
  8
0
100
AcDbLine
 10
262.923235
 20
227.8881399999999
 30
0.0
 11
262.923235
 21
224.88814
 31
0.0
  0
LINE
  5
45D
330
1E
100
AcDbEntity
  8
0
100
AcDbLine
 10
262.923235
 20
227.8881399999999
 30
0.0
 11
262.923235
 21
230.88814
 31
0.0
  0
LINE
  5
45E
330
1E
100
AcDbEntity
  8
0
100
AcDbLine
 10
412.923235
 20
227.8881399999999
 30
0.0
 11
412.923235
 21
224.88814
 31
0.0
  0
LINE
  5
45F
330
1E
100
AcDbEntity
  8
0
100
AcDbLine
 10
412.923235
 20
227.8881399999999
 30
0.0
 11
412.923235
 21
230.88814
 31
0.0
  0
LINE
  5
460
330
1E
100
AcDbEntity
  8
0
100
AcDbLine
 10
412.923235
 20
224.88814
 30
0.0
 11
412.923235
 21
222.88814
 31
0.0
  0
LINE
  5
461
330
1E
100
AcDbEntity
  8
0
100
AcDbLine
 10
412.923235
 20
224.88814
 30
0.0
 11
412.923235
 21
227.8881399999999
 31
0.0
  0
LINE
  5
462
330
1E
100
AcDbEntity
  8
0
100
AcDbLine
 10
412.923235
 20
230.88814
 30
0.0
 11
412.923235
 21
232.8881399999999
 31
0.0
  0
LINE
  5
463
330
1E
100
AcDbEntity
  8
0
100
AcDbLine
 10
412.923235
 20
230.88814
 30
0.0
 11
412.923235
 21
227.8881399999999
 31
0.0
  0
LINE
  5
464
330
1E
100
AcDbEntity
  8
0
100
AcDbLine
 10
438.9232349999999
 20
232.8881399999999
 30
0.0
 11
438.9232349999999
 21
227.8881399999999
 31
0.0
  0
LINE
  5
465
330
1E
100
AcDbEntity
  8
0
100
AcDbLine
 10
438.9232349999999
 20
227.8881399999999
 30
0.0
 11
438.9232349999999
 21
224.88814
 31
0.0
  0
LINE
  5
466
330
1E
100
AcDbEntity
  8
0
100
AcDbLine
 10
438.9232349999999
 20
227.8881399999999
 30
0.0
 11
438.9232349999999
 21
232.8881399999999
 31
0.0
  0
LINE
  5
467
330
1E
100
AcDbEntity
  8
0
100
AcDbLine
 10
438.9232349999999
 20
224.88814
 30
0.0
 11
438.9232349999999
 21
222.88814
 31
0.0
  0
LINE
  5
468
330
1E
100
AcDbEntity
  8
0
100
AcDbLine
 10
438.9232349999999
 20
224.88814
 30
0.0
 11
438.9232349999999
 21
227.8881399999999
 31
0.0
  0
LINE
  5
469
330
1E
100
AcDbEntity
  8
0
100
AcDbLine
 10
288.923235
 20
222.88814
 30
0.0
 11
288.923235
 21
232.8881399999999
 31
0.0
  0
LINE
  5
46A
330
1E
100
AcDbEntity
  8
0
100
AcDbLine
 10
262.923235
 20
224.88814
 30
0.0
 11
262.923235
 21
222.88814
 31
0.0
  0
LINE
  5
46B
330
1E
100
AcDbEntity
  8
0
100
AcDbLine
 10
262.923235
 20
224.88814
 30
0.0
 11
262.923235
 21
227.8881399999999
 31
0.0
  0
LINE
  5
46C
330
1E
100
AcDbEntity
  8
0
100
AcDbLine
 10
97.982835
 20
231.08414
 30
0.0
 11
97.99903499999999
 21
232.9851399999999
 31
0.0
  0
LINE
  5
46D
330
1E
100
AcDbEntity
  8
0
100
AcDbLine
 10
97.95383499999999
 20
227.7851399999999
 30
0.0
 11
97.982835
 21
231.08414
 31
0.0
  0
LINE
  5
46E
330
1E
100
AcDbEntity
  8
0
100
AcDbLine
 10
90.164535
 20
231.9531399999999
 30
0.0
 11
93.668735
 21
230.64814
 31
0.0
  0
LINE
  5
46F
330
1E
100
AcDbEntity
  8
0
100
AcDbLine
 10
86.256035
 20
232.30914
 30
0.0
 11
90.164535
 21
231.9531399999999
 31
0.0
  0
LINE
  5
470
330
1E
100
AcDbEntity
  8
0
100
AcDbLine
 10
82.931535
 20
231.7251399999999
 30
0.0
 11
86.256035
 21
232.30914
 31
0.0
  0
LINE
  5
471
330
1E
100
AcDbEntity
  8
0
100
AcDbLine
 10
262.923235
 20
232.8881399999999
 30
0.0
 11
264.923235
 21
234.8881399999999
 31
0.0
  0
LINE
  5
472
330
1E
100
AcDbEntity
  8
0
100
AcDbLine
 10
262.923235
 20
232.8881399999999
 30
0.0
 11
263.423235
 21
232.8881399999999
 31
0.0
  0
LINE
  5
473
330
1E
100
AcDbEntity
  8
0
100
AcDbLine
 10
262.923235
 20
232.8881399999999
 30
0.0
 11
262.923235
 21
230.88814
 31
0.0
  0
LINE
  5
477
330
1E
100
AcDbEntity
  8
0
100
AcDbLine
 10
412.923235
 20
232.8881399999999
 30
0.0
 11
414.923235
 21
234.8881399999999
 31
0.0
  0
LINE
  5
478
330
1E
100
AcDbEntity
  8
0
100
AcDbLine
 10
412.923235
 20
232.8881399999999
 30
0.0
 11
413.423235
 21
232.8881399999999
 31
0.0
  0
LINE
  5
479
330
1E
100
AcDbEntity
  8
0
100
AcDbLine
 10
412.923235
 20
232.8881399999999
 30
0.0
 11
412.923235
 21
230.88814
 31
0.0
  0
LINE
  5
47A
330
1E
100
AcDbEntity
  8
0
100
AcDbLine
 10
413.423235
 20
232.8881399999999
 30
0.0
 11
438.9232349999999
 21
232.8881399999999
 31
0.0
  0
LINE
  5
47D
330
1E
100
AcDbEntity
  8
0
100
AcDbLine
 10
288.923235
 20
232.8881399999999
 30
0.0
 11
288.923235
 21
222.88814
 31
0.0
  0
LINE
  5
47E
330
1E
100
AcDbEntity
  8
0
100
AcDbLine
 10
263.423235
 20
232.8881399999999
 30
0.0
 11
288.923235
 21
232.8881399999999
 31
0.0
  0
LINE
  5
485
330
1E
100
AcDbEntity
  8
0
100
AcDbLine
 10
75.92323499999999
 20
232.4771399999999
 30
0.0
 11
75.92323499999999
 21
234.2191399999999
 31
0.0
  0
LINE
  5
486
330
1E
100
AcDbEntity
  8
0
100
AcDbLine
 10
75.92323499999999
 20
232.4771399999999
 30
0.0
 11
75.92323499999999
 21
229.61114
 31
0.0
  0
LINE
  5
487
330
1E
100
AcDbEntity
  8
0
100
AcDbLine
 10
78.92323499999999
 20
234.2971399999999
 30
0.0
 11
78.92323499999999
 21
232.43214
 31
0.0
  0
LINE
  5
488
330
1E
100
AcDbEntity
  8
0
100
AcDbLine
 10
78.92323499999999
 20
234.2971399999999
 30
0.0
 11
78.92323499999999
 21
234.8831399999999
 31
0.0
  0
LINE
  5
489
330
1E
100
AcDbEntity
  8
0
100
AcDbLine
 10
78.92323499999999
 20
234.8831399999999
 30
0.0
 11
78.92323499999999
 21
234.2971399999999
 31
0.0
  0
LINE
  5
48A
330
1E
100
AcDbEntity
  8
0
100
AcDbLine
 10
78.92323499999999
 20
234.8831399999999
 30
0.0
 11
78.92323499999999
 21
234.2191399999999
 31
0.0
  0
LINE
  5
48B
330
1E
100
AcDbEntity
  8
0
100
AcDbLine
 10
75.92323499999999
 20
234.8831399999999
 30
0.0
 11
75.92323499999999
 21
234.2191399999999
 31
0.0
  0
LINE
  5
48C
330
1E
100
AcDbEntity
  8
0
100
AcDbLine
 10
75.92323499999999
 20
234.8831399999999
 30
0.0
 11
78.92323499999999
 21
234.8831399999999
 31
0.0
  0
LINE
  5
48D
330
1E
100
AcDbEntity
  8
0
100
AcDbLine
 10
243.123235
 20
236.8881399999999
 30
0.0
 11
246.5232349999999
 21
236.8881399999999
 31
0.0
  0
LINE
  5
48E
330
1E
100
AcDbEntity
  8
0
100
AcDbLine
 10
264.923235
 20
234.8881399999999
 30
0.0
 11
265.323235
 21
234.8881399999999
 31
0.0
  0
LINE
  5
48F
330
1E
100
AcDbEntity
  8
0
100
AcDbLine
 10
265.323235
 20
234.8881399999999
 30
0.0
 11
266.423235
 21
234.8881399999999
 31
0.0
  0
LINE
  5
490
330
1E
100
AcDbEntity
  8
0
100
AcDbLine
 10
266.423235
 20
234.8881399999999
 30
0.0
 11
268.123235
 21
234.8881399999999
 31
0.0
  0
LINE
  5
491
330
1E
100
AcDbEntity
  8
0
100
AcDbLine
 10
268.123235
 20
234.8881399999999
 30
0.0
 11
270.423235
 21
234.8881399999999
 31
0.0
  0
LINE
  5
492
330
1E
100
AcDbEntity
  8
0
100
AcDbLine
 10
270.423235
 20
234.8881399999999
 30
0.0
 11
273.123235
 21
234.8881399999999
 31
0.0
  0
LINE
  5
493
330
1E
100
AcDbEntity
  8
0
100
AcDbLine
 10
273.123235
 20
234.8881399999999
 30
0.0
 11
275.923235
 21
234.8881399999999
 31
0.0
  0
LINE
  5
494
330
1E
100
AcDbEntity
  8
0
100
AcDbLine
 10
286.5232349999999
 20
234.8881399999999
 30
0.0
 11
286.923235
 21
234.8881399999999
 31
0.0
  0
LINE
  5
495
330
1E
100
AcDbEntity
  8
0
100
AcDbLine
 10
285.423235
 20
234.8881399999999
 30
0.0
 11
286.5232349999999
 21
234.8881399999999
 31
0.0
  0
LINE
  5
496
330
1E
100
AcDbEntity
  8
0
100
AcDbLine
 10
283.7232349999999
 20
234.8881399999999
 30
0.0
 11
285.423235
 21
234.8881399999999
 31
0.0
  0
LINE
  5
497
330
1E
100
AcDbEntity
  8
0
100
AcDbLine
 10
281.423235
 20
234.8881399999999
 30
0.0
 11
283.7232349999999
 21
234.8881399999999
 31
0.0
  0
LINE
  5
498
330
1E
100
AcDbEntity
  8
0
100
AcDbLine
 10
278.723235
 20
234.8881399999999
 30
0.0
 11
281.423235
 21
234.8881399999999
 31
0.0
  0
LINE
  5
499
330
1E
100
AcDbEntity
  8
0
100
AcDbLine
 10
275.923235
 20
234.8881399999999
 30
0.0
 11
284.2232349999999
 21
234.8881399999999
 31
0.0
  0
LINE
  5
49A
330
1E
100
AcDbEntity
  8
0
100
AcDbLine
 10
275.923235
 20
234.8881399999999
 30
0.0
 11
278.723235
 21
234.8881399999999
 31
0.0
  0
LINE
  5
49B
330
1E
100
AcDbEntity
  8
0
100
AcDbLine
 10
284.2232349999999
 20
234.8881399999999
 30
0.0
 11
291.823235
 21
234.8881399999999
 31
0.0
  0
LINE
  5
49C
330
1E
100
AcDbEntity
  8
0
100
AcDbLine
 10
286.923235
 20
234.8881399999999
 30
0.0
 11
291.823235
 21
234.8881399999999
 31
0.0
  0
LINE
  5
49D
330
1E
100
AcDbEntity
  8
0
100
AcDbLine
 10
286.923235
 20
234.8881399999999
 30
0.0
 11
288.923235
 21
232.8881399999999
 31
0.0
  0
LINE
  5
49E
330
1E
100
AcDbEntity
  8
0
100
AcDbLine
 10
291.823235
 20
234.8881399999999
 30
0.0
 11
298.523235
 21
234.8881399999999
 31
0.0
  0
LINE
  5
49F
330
1E
100
AcDbEntity
  8
0
100
AcDbLine
 10
298.523235
 20
234.8881399999999
 30
0.0
 11
303.623235
 21
234.8881399999999
 31
0.0
  0
LINE
  5
4A0
330
1E
100
AcDbEntity
  8
0
100
AcDbLine
 10
303.623235
 20
234.8881399999999
 30
0.0
 11
306.7232349999999
 21
234.8881399999999
 31
0.0
  0
LINE
  5
4A1
330
1E
100
AcDbEntity
  8
0
100
AcDbLine
 10
414.923235
 20
234.8881399999999
 30
0.0
 11
415.323235
 21
234.8881399999999
 31
0.0
  0
LINE
  5
4A2
330
1E
100
AcDbEntity
  8
0
100
AcDbLine
 10
415.323235
 20
234.8881399999999
 30
0.0
 11
416.423235
 21
234.8881399999999
 31
0.0
  0
LINE
  5
4A3
330
1E
100
AcDbEntity
  8
0
100
AcDbLine
 10
416.423235
 20
234.8881399999999
 30
0.0
 11
418.123235
 21
234.8881399999999
 31
0.0
  0
LINE
  5
4A4
330
1E
100
AcDbEntity
  8
0
100
AcDbLine
 10
418.123235
 20
234.8881399999999
 30
0.0
 11
420.4232349999999
 21
234.8881399999999
 31
0.0
  0
LINE
  5
4A5
330
1E
100
AcDbEntity
  8
0
100
AcDbLine
 10
420.4232349999999
 20
234.8881399999999
 30
0.0
 11
423.1232349999999
 21
234.8881399999999
 31
0.0
  0
LINE
  5
4A6
330
1E
100
AcDbEntity
  8
0
100
AcDbLine
 10
423.1232349999999
 20
234.8881399999999
 30
0.0
 11
425.9232349999999
 21
234.8881399999999
 31
0.0
  0
LINE
  5
4A7
330
1E
100
AcDbEntity
  8
0
100
AcDbLine
 10
433.7232349999999
 20
234.8881399999999
 30
0.0
 11
435.423235
 21
234.8881399999999
 31
0.0
  0
LINE
  5
4A8
330
1E
100
AcDbEntity
  8
0
100
AcDbLine
 10
431.423235
 20
234.8881399999999
 30
0.0
 11
433.7232349999999
 21
234.8881399999999
 31
0.0
  0
LINE
  5
4A9
330
1E
100
AcDbEntity
  8
0
100
AcDbLine
 10
428.723235
 20
234.8881399999999
 30
0.0
 11
431.423235
 21
234.8881399999999
 31
0.0
  0
LINE
  5
4AA
330
1E
100
AcDbEntity
  8
0
100
AcDbLine
 10
417.623235
 20
234.8881399999999
 30
0.0
 11
425.9232349999999
 21
234.8881399999999
 31
0.0
  0
LINE
  5
4AB
330
1E
100
AcDbEntity
  8
0
100
AcDbLine
 10
410.0232349999999
 20
234.8881399999999
 30
0.0
 11
417.623235
 21
234.8881399999999
 31
0.0
  0
LINE
  5
4AC
330
1E
100
AcDbEntity
  8
0
100
AcDbLine
 10
410.0232349999999
 20
234.8881399999999
 30
0.0
 11
414.923235
 21
234.8881399999999
 31
0.0
  0
LINE
  5
4AD
330
1E
100
AcDbEntity
  8
0
100
AcDbLine
 10
403.323235
 20
234.8881399999999
 30
0.0
 11
410.0232349999999
 21
234.8881399999999
 31
0.0
  0
LINE
  5
4AE
330
1E
100
AcDbEntity
  8
0
100
AcDbLine
 10
398.2232349999999
 20
234.8881399999999
 30
0.0
 11
403.323235
 21
234.8881399999999
 31
0.0
  0
LINE
  5
4AF
330
1E
100
AcDbEntity
  8
0
100
AcDbLine
 10
395.123235
 20
234.8881399999999
 30
0.0
 11
398.2232349999999
 21
234.8881399999999
 31
0.0
  0
LINE
  5
4B0
330
1E
100
AcDbEntity
  8
0
100
AcDbLine
 10
393.923235
 20
234.8881399999999
 30
0.0
 11
395.123235
 21
234.8881399999999
 31
0.0
  0
LINE
  5
4B1
330
1E
100
AcDbEntity
  8
0
100
AcDbLine
 10
425.9232349999999
 20
234.8881399999999
 30
0.0
 11
434.2232349999999
 21
234.8881399999999
 31
0.0
  0
LINE
  5
4B2
330
1E
100
AcDbEntity
  8
0
100
AcDbLine
 10
425.9232349999999
 20
234.8881399999999
 30
0.0
 11
428.723235
 21
234.8881399999999
 31
0.0
  0
LINE
  5
4B3
330
1E
100
AcDbEntity
  8
0
100
AcDbLine
 10
436.5232349999999
 20
234.8881399999999
 30
0.0
 11
436.9232349999999
 21
234.8881399999999
 31
0.0
  0
LINE
  5
4B4
330
1E
100
AcDbEntity
  8
0
100
AcDbLine
 10
435.423235
 20
234.8881399999999
 30
0.0
 11
436.5232349999999
 21
234.8881399999999
 31
0.0
  0
LINE
  5
4B5
330
1E
100
AcDbEntity
  8
0
100
AcDbLine
 10
436.9232349999999
 20
234.8881399999999
 30
0.0
 11
441.8232349999999
 21
234.8881399999999
 31
0.0
  0
LINE
  5
4B6
330
1E
100
AcDbEntity
  8
0
100
AcDbLine
 10
436.9232349999999
 20
234.8881399999999
 30
0.0
 11
438.9232349999999
 21
232.8881399999999
 31
0.0
  0
LINE
  5
4B7
330
1E
100
AcDbEntity
  8
0
100
AcDbLine
 10
434.2232349999999
 20
234.8881399999999
 30
0.0
 11
441.8232349999999
 21
234.8881399999999
 31
0.0
  0
LINE
  5
4B8
330
1E
100
AcDbEntity
  8
0
100
AcDbLine
 10
441.8232349999999
 20
234.8881399999999
 30
0.0
 11
448.5232349999999
 21
234.8881399999999
 31
0.0
  0
LINE
  5
4B9
330
1E
100
AcDbEntity
  8
0
100
AcDbLine
 10
448.5232349999999
 20
234.8881399999999
 30
0.0
 11
453.6232349999999
 21
234.8881399999999
 31
0.0
  0
LINE
  5
4BA
330
1E
100
AcDbEntity
  8
0
100
AcDbLine
 10
453.6232349999999
 20
234.8881399999999
 30
0.0
 11
456.723235
 21
234.8881399999999
 31
0.0
  0
LINE
  5
4BB
330
1E
100
AcDbEntity
  8
0
100
AcDbLine
 10
457.9232349999999
 20
234.8881399999999
 30
0.0
 11
459.923235
 21
236.8881399999999
 31
0.0
  0
LINE
  5
4BC
330
1E
100
AcDbEntity
  8
0
100
AcDbLine
 10
456.723235
 20
234.8881399999999
 30
0.0
 11
457.9232349999999
 21
234.8881399999999
 31
0.0
  0
LINE
  5
4BD
330
1E
100
AcDbEntity
  8
0
100
AcDbLine
 10
307.923235
 20
234.8881399999999
 30
0.0
 11
309.923235
 21
236.8881399999999
 31
0.0
  0
LINE
  5
4BE
330
1E
100
AcDbEntity
  8
0
100
AcDbLine
 10
306.7232349999999
 20
234.8881399999999
 30
0.0
 11
307.923235
 21
234.8881399999999
 31
0.0
  0
LINE
  5
4BF
330
1E
100
AcDbEntity
  8
0
100
AcDbLine
 10
267.623235
 20
234.8881399999999
 30
0.0
 11
275.923235
 21
234.8881399999999
 31
0.0
  0
LINE
  5
4C0
330
1E
100
AcDbEntity
  8
0
100
AcDbLine
 10
260.023235
 20
234.8881399999999
 30
0.0
 11
264.923235
 21
234.8881399999999
 31
0.0
  0
LINE
  5
4C1
330
1E
100
AcDbEntity
  8
0
100
AcDbLine
 10
260.023235
 20
234.8881399999999
 30
0.0
 11
267.623235
 21
234.8881399999999
 31
0.0
  0
LINE
  5
4C2
330
1E
100
AcDbEntity
  8
0
100
AcDbLine
 10
253.323235
 20
234.8881399999999
 30
0.0
 11
260.023235
 21
234.8881399999999
 31
0.0
  0
LINE
  5
4C3
330
1E
100
AcDbEntity
  8
0
100
AcDbLine
 10
248.223235
 20
234.8881399999999
 30
0.0
 11
253.323235
 21
234.8881399999999
 31
0.0
  0
LINE
  5
4C4
330
1E
100
AcDbEntity
  8
0
100
AcDbLine
 10
275.923235
 20
236.8881399999999
 30
0.0
 11
284.723235
 21
236.8881399999999
 31
0.0
  0
LINE
  5
4C5
330
1E
100
AcDbEntity
  8
0
100
AcDbLine
 10
284.723235
 20
236.8881399999999
 30
0.0
 11
292.823235
 21
236.8881399999999
 31
0.0
  0
LINE
  5
4C6
330
1E
100
AcDbEntity
  8
0
100
AcDbLine
 10
292.823235
 20
236.8881399999999
 30
0.0
 11
299.923235
 21
236.8881399999999
 31
0.0
  0
LINE
  5
4C7
330
1E
100
AcDbEntity
  8
0
100
AcDbLine
 10
299.923235
 20
236.8881399999999
 30
0.0
 11
305.323235
 21
236.8881399999999
 31
0.0
  0
LINE
  5
4C8
330
1E
100
AcDbEntity
  8
0
100
AcDbLine
 10
305.323235
 20
236.8881399999999
 30
0.0
 11
308.7232349999999
 21
236.8881399999999
 31
0.0
  0
LINE
  5
4C9
330
1E
100
AcDbEntity
  8
0
100
AcDbLine
 10
308.7232349999999
 20
236.8881399999999
 30
0.0
 11
309.923235
 21
236.8881399999999
 31
0.0
  0
LINE
  5
4CA
330
1E
100
AcDbEntity
  8
0
100
AcDbLine
 10
417.123235
 20
236.8881399999999
 30
0.0
 11
425.9232349999999
 21
236.8881399999999
 31
0.0
  0
LINE
  5
4CB
330
1E
100
AcDbEntity
  8
0
100
AcDbLine
 10
409.0232349999999
 20
236.8881399999999
 30
0.0
 11
417.123235
 21
236.8881399999999
 31
0.0
  0
LINE
  5
4CC
330
1E
100
AcDbEntity
  8
0
100
AcDbLine
 10
401.923235
 20
236.8881399999999
 30
0.0
 11
409.0232349999999
 21
236.8881399999999
 31
0.0
  0
LINE
  5
4CD
330
1E
100
AcDbEntity
  8
0
100
AcDbLine
 10
396.5232349999999
 20
236.8881399999999
 30
0.0
 11
401.923235
 21
236.8881399999999
 31
0.0
  0
LINE
  5
4CE
330
1E
100
AcDbEntity
  8
0
100
AcDbLine
 10
393.123235
 20
236.8881399999999
 30
0.0
 11
396.5232349999999
 21
236.8881399999999
 31
0.0
  0
LINE
  5
4CF
330
1E
100
AcDbEntity
  8
0
100
AcDbLine
 10
391.923235
 20
236.8881399999999
 30
0.0
 11
393.123235
 21
236.8881399999999
 31
0.0
  0
LINE
  5
4D0
330
1E
100
AcDbEntity
  8
0
100
AcDbLine
 10
391.923235
 20
236.8881399999999
 30
0.0
 11
393.923235
 21
234.8881399999999
 31
0.0
  0
LINE
  5
4D1
330
1E
100
AcDbEntity
  8
0
100
AcDbLine
 10
391.923235
 20
236.8881399999999
 30
0.0
 11
391.923235
 21
260.8881399999999
 31
0.0
  0
LINE
  5
4D2
330
1E
100
AcDbEntity
  8
0
100
AcDbLine
 10
425.9232349999999
 20
236.8881399999999
 30
0.0
 11
434.7232349999999
 21
236.8881399999999
 31
0.0
  0
LINE
  5
4D3
330
1E
100
AcDbEntity
  8
0
100
AcDbLine
 10
434.7232349999999
 20
236.8881399999999
 30
0.0
 11
442.823235
 21
236.8881399999999
 31
0.0
  0
LINE
  5
4D4
330
1E
100
AcDbEntity
  8
0
100
AcDbLine
 10
442.823235
 20
236.8881399999999
 30
0.0
 11
449.9232349999999
 21
236.8881399999999
 31
0.0
  0
LINE
  5
4D5
330
1E
100
AcDbEntity
  8
0
100
AcDbLine
 10
449.9232349999999
 20
236.8881399999999
 30
0.0
 11
455.323235
 21
236.8881399999999
 31
0.0
  0
LINE
  5
4D6
330
1E
100
AcDbEntity
  8
0
100
AcDbLine
 10
455.323235
 20
236.8881399999999
 30
0.0
 11
458.7232349999999
 21
236.8881399999999
 31
0.0
  0
LINE
  5
4D7
330
1E
100
AcDbEntity
  8
0
100
AcDbLine
 10
458.7232349999999
 20
236.8881399999999
 30
0.0
 11
459.923235
 21
236.8881399999999
 31
0.0
  0
LINE
  5
4D8
330
1E
100
AcDbEntity
  8
0
100
AcDbLine
 10
459.923235
 20
236.8881399999999
 30
0.0
 11
459.923235
 21
260.8881399999999
 31
0.0
  0
LINE
  5
4D9
330
1E
100
AcDbEntity
  8
0
100
AcDbLine
 10
309.923235
 20
236.8881399999999
 30
0.0
 11
309.923235
 21
260.8881399999999
 31
0.0
  0
LINE
  5
4DA
330
1E
100
AcDbEntity
  8
0
100
AcDbLine
 10
267.123235
 20
236.8881399999999
 30
0.0
 11
275.923235
 21
236.8881399999999
 31
0.0
  0
LINE
  5
4DB
330
1E
100
AcDbEntity
  8
0
100
AcDbLine
 10
259.0232349999999
 20
236.8881399999999
 30
0.0
 11
267.123235
 21
236.8881399999999
 31
0.0
  0
LINE
  5
4DC
330
1E
100
AcDbEntity
  8
0
100
AcDbLine
 10
251.923235
 20
236.8881399999999
 30
0.0
 11
259.0232349999999
 21
236.8881399999999
 31
0.0
  0
LINE
  5
4DD
330
1E
100
AcDbEntity
  8
0
100
AcDbLine
 10
246.5232349999999
 20
236.8881399999999
 30
0.0
 11
251.923235
 21
236.8881399999999
 31
0.0
  0
LINE
  5
4DE
330
1E
100
AcDbEntity
  8
0
100
AcDbLine
 10
245.123235
 20
234.8881399999999
 30
0.0
 11
248.223235
 21
234.8881399999999
 31
0.0
  0
LINE
  5
4DF
330
1E
100
AcDbEntity
  8
0
100
AcDbLine
 10
243.923235
 20
234.8881399999999
 30
0.0
 11
245.123235
 21
234.8881399999999
 31
0.0
  0
LINE
  5
4E0
330
1E
100
AcDbEntity
  8
0
100
AcDbLine
 10
241.923235
 20
236.8881399999999
 30
0.0
 11
241.923235
 21
260.8881399999999
 31
0.0
  0
LINE
  5
4E1
330
1E
100
AcDbEntity
  8
0
100
AcDbLine
 10
241.923235
 20
236.8881399999999
 30
0.0
 11
243.923235
 21
234.8881399999999
 31
0.0
  0
LINE
  5
4E2
330
1E
100
AcDbEntity
  8
0
100
AcDbLine
 10
241.923235
 20
236.8881399999999
 30
0.0
 11
243.123235
 21
236.8881399999999
 31
0.0
  0
LINE
  5
4E3
330
1E
100
AcDbEntity
  8
0
100
AcDbLine
 10
97.424835
 20
236.0891399999999
 30
0.0
 11
97.99903499999999
 21
232.9851399999999
 31
0.0
  0
LINE
  5
4E4
330
1E
100
AcDbEntity
  8
0
100
AcDbLine
 10
93.162035
 20
240.42614
 30
0.0
 11
95.64593499999999
 21
238.6051399999999
 31
0.0
  0
LINE
  5
4E5
330
1E
100
AcDbEntity
  8
0
100
AcDbLine
 10
95.64593499999999
 20
238.6051399999999
 30
0.0
 11
97.424835
 21
236.0891399999999
 31
0.0
  0
LINE
  5
4E6
330
1E
100
AcDbEntity
  8
0
100
AcDbLine
 10
275.923235
 20
260.8881399999999
 30
0.0
 11
284.723235
 21
260.8881399999999
 31
0.0
  0
LINE
  5
4E7
330
1E
100
AcDbEntity
  8
0
100
AcDbLine
 10
284.723235
 20
260.8881399999999
 30
0.0
 11
292.823235
 21
260.8881399999999
 31
0.0
  0
LINE
  5
4E8
330
1E
100
AcDbEntity
  8
0
100
AcDbLine
 10
292.823235
 20
260.8881399999999
 30
0.0
 11
299.923235
 21
260.8881399999999
 31
0.0
  0
LINE
  5
4E9
330
1E
100
AcDbEntity
  8
0
100
AcDbLine
 10
299.923235
 20
260.8881399999999
 30
0.0
 11
305.323235
 21
260.8881399999999
 31
0.0
  0
LINE
  5
4EA
330
1E
100
AcDbEntity
  8
0
100
AcDbLine
 10
305.323235
 20
260.8881399999999
 30
0.0
 11
308.7232349999999
 21
260.8881399999999
 31
0.0
  0
LINE
  5
4EB
330
1E
100
AcDbEntity
  8
0
100
AcDbLine
 10
417.123235
 20
260.8881399999999
 30
0.0
 11
425.9232349999999
 21
260.8881399999999
 31
0.0
  0
LINE
  5
4EC
330
1E
100
AcDbEntity
  8
0
100
AcDbLine
 10
409.0232349999999
 20
260.8881399999999
 30
0.0
 11
417.123235
 21
260.8881399999999
 31
0.0
  0
LINE
  5
4ED
330
1E
100
AcDbEntity
  8
0
100
AcDbLine
 10
401.923235
 20
260.8881399999999
 30
0.0
 11
409.0232349999999
 21
260.8881399999999
 31
0.0
  0
LINE
  5
4EE
330
1E
100
AcDbEntity
  8
0
100
AcDbLine
 10
396.5232349999999
 20
260.8881399999999
 30
0.0
 11
401.923235
 21
260.8881399999999
 31
0.0
  0
LINE
  5
4EF
330
1E
100
AcDbEntity
  8
0
100
AcDbLine
 10
393.123235
 20
260.8881399999999
 30
0.0
 11
396.5232349999999
 21
260.8881399999999
 31
0.0
  0
LINE
  5
4F0
330
1E
100
AcDbEntity
  8
0
100
AcDbLine
 10
391.923235
 20
260.8881399999999
 30
0.0
 11
391.923235
 21
236.8881399999999
 31
0.0
  0
LINE
  5
4F1
330
1E
100
AcDbEntity
  8
0
100
AcDbLine
 10
391.923235
 20
260.8881399999999
 30
0.0
 11
393.123235
 21
260.8881399999999
 31
0.0
  0
LINE
  5
4F2
330
1E
100
AcDbEntity
  8
0
100
AcDbLine
 10
425.9232349999999
 20
260.8881399999999
 30
0.0
 11
434.7232349999999
 21
260.8881399999999
 31
0.0
  0
LINE
  5
4F3
330
1E
100
AcDbEntity
  8
0
100
AcDbLine
 10
434.7232349999999
 20
260.8881399999999
 30
0.0
 11
442.823235
 21
260.8881399999999
 31
0.0
  0
LINE
  5
4F4
330
1E
100
AcDbEntity
  8
0
100
AcDbLine
 10
442.823235
 20
260.8881399999999
 30
0.0
 11
449.9232349999999
 21
260.8881399999999
 31
0.0
  0
LINE
  5
4F5
330
1E
100
AcDbEntity
  8
0
100
AcDbLine
 10
449.9232349999999
 20
260.8881399999999
 30
0.0
 11
455.323235
 21
260.8881399999999
 31
0.0
  0
LINE
  5
4F6
330
1E
100
AcDbEntity
  8
0
100
AcDbLine
 10
459.923235
 20
260.8881399999999
 30
0.0
 11
459.923235
 21
236.8881399999999
 31
0.0
  0
LINE
  5
4F7
330
1E
100
AcDbEntity
  8
0
100
AcDbLine
 10
455.323235
 20
260.8881399999999
 30
0.0
 11
458.7232349999999
 21
260.8881399999999
 31
0.0
  0
LINE
  5
4F8
330
1E
100
AcDbEntity
  8
0
100
AcDbLine
 10
458.7232349999999
 20
260.8881399999999
 30
0.0
 11
459.923235
 21
260.8881399999999
 31
0.0
  0
LINE
  5
4F9
330
1E
100
AcDbEntity
  8
0
100
AcDbLine
 10
308.7232349999999
 20
260.8881399999999
 30
0.0
 11
309.923235
 21
260.8881399999999
 31
0.0
  0
LINE
  5
4FA
330
1E
100
AcDbEntity
  8
0
100
AcDbLine
 10
309.923235
 20
260.8881399999999
 30
0.0
 11
309.923235
 21
236.8881399999999
 31
0.0
  0
LINE
  5
4FB
330
1E
100
AcDbEntity
  8
0
100
AcDbLine
 10
267.123235
 20
260.8881399999999
 30
0.0
 11
275.923235
 21
260.8881399999999
 31
0.0
  0
LINE
  5
4FC
330
1E
100
AcDbEntity
  8
0
100
AcDbLine
 10
259.0232349999999
 20
260.8881399999999
 30
0.0
 11
267.123235
 21
260.8881399999999
 31
0.0
  0
LINE
  5
4FD
330
1E
100
AcDbEntity
  8
0
100
AcDbLine
 10
251.923235
 20
260.8881399999999
 30
0.0
 11
259.0232349999999
 21
260.8881399999999
 31
0.0
  0
LINE
  5
4FE
330
1E
100
AcDbEntity
  8
0
100
AcDbLine
 10
246.5232349999999
 20
260.8881399999999
 30
0.0
 11
251.923235
 21
260.8881399999999
 31
0.0
  0
LINE
  5
4FF
330
1E
100
AcDbEntity
  8
0
100
AcDbLine
 10
243.123235
 20
260.8881399999999
 30
0.0
 11
246.5232349999999
 21
260.8881399999999
 31
0.0
  0
LINE
  5
500
330
1E
100
AcDbEntity
  8
0
100
AcDbLine
 10
241.923235
 20
260.8881399999999
 30
0.0
 11
241.923235
 21
236.8881399999999
 31
0.0
  0
LINE
  5
501
330
1E
100
AcDbEntity
  8
0
100
AcDbLine
 10
241.923235
 20
260.8881399999999
 30
0.0
 11
243.123235
 21
260.8881399999999
 31
0.0
  0
LINE
  5
502
330
1E
100
AcDbEntity
  8
0
100
AcDbLine
 10
90.02853499999998
 20
241.3611399999999
 30
0.0
 11
93.162035
 21
240.42614
 31
0.0
  0
LINE
  5
503
330
1E
100
AcDbEntity
  8
0
100
AcDbLine
 10
86.88473499999998
 20
241.09814
 30
0.0
 11
90.02853499999998
 21
241.3611399999999
 31
0.0
  0
LINE
  5
504
330
1E
100
AcDbEntity
  8
0
100
AcDbLine
 10
84.086935
 20
239.6691399999999
 30
0.0
 11
86.88473499999998
 21
241.09814
 31
0.0
  0
LINE
  5
505
330
1E
100
AcDbEntity
  8
0
100
AcDbLine
 10
82.149035
 20
237.2771399999999
 30
0.0
 11
84.086935
 21
239.6691399999999
 31
0.0
  0
LINE
  5
506
330
1E
100
AcDbEntity
  8
0
100
AcDbLine
 10
81.11303499999999
 20
234.37114
 30
0.0
 11
81.37613499999998
 21
230.913878737519
 31
0.0
  0
LINE
  5
507
330
1E
100
AcDbEntity
  8
0
100
AcDbLine
 10
81.11303499999999
 20
234.37114
 30
0.0
 11
82.149035
 21
237.2771399999999
 31
0.0
  0
LINE
  5
508
330
1E
100
AcDbEntity
  8
0
100
AcDbLine
 10
75.92323499999999
 20
234.2191399999999
 30
0.0
 11
75.92323499999999
 21
234.8831399999999
 31
0.0
  0
LINE
  5
509
330
1E
100
AcDbEntity
  8
0
100
AcDbLine
 10
75.92323499999999
 20
234.2191399999999
 30
0.0
 11
75.92323499999999
 21
232.4771399999999
 31
0.0
  0
LINE
  5
50A
330
1E
100
AcDbEntity
  8
0
100
AcDbLine
 10
66.92323499999999
 20
234.8831399999999
 30
0.0
 11
75.92323499999999
 21
234.8831399999999
 31
0.0
  0
LINE
  5
50B
330
1E
100
AcDbEntity
  8
0
100
AcDbLine
 10
66.92323499999999
 20
260.8881399999999
 30
0.0
 11
66.92323499999999
 21
216.88814
 31
0.0
  0
LINE
  5
50C
330
1E
100
AcDbEntity
  8
0
100
AcDbLine
 10
66.42323499999999
 20
260.3881399999999
 30
0.0
 11
66.92323499999999
 21
260.8881399999999
 31
0.0
  0
LINE
  5
50D
330
1E
100
AcDbEntity
  8
0
100
AcDbLine
 10
66.42323499999999
 20
260.3881399999999
 30
0.0
 11
66.42323499999999
 21
216.88814
 31
0.0
  0
LINE
  5
50E
330
1E
100
AcDbEntity
  8
0
100
AcDbLine
 10
66.92323499999999
 20
216.88814
 30
0.0
 11
66.92323499999999
 21
260.8881399999999
 31
0.0
  0
LINE
  5
50F
330
1E
100
AcDbEntity
  8
0
100
AcDbLine
 10
55.923235
 20
260.8881399999999
 30
0.0
 11
66.92323499999999
 21
260.8881399999999
 31
0.0
  0
LINE
  5
510
330
1E
100
AcDbEntity
  8
0
100
AcDbLine
 10
66.023235
 20
214.1881399999999
 30
0.0
 11
66.42323499999999
 21
216.88814
 31
0.0
  0
LINE
  5
511
330
1E
100
AcDbEntity
  8
0
100
AcDbLine
 10
44.923235
 20
260.8881399999999
 30
0.0
 11
44.923235
 21
234.8831399999999
 31
0.0
  0
LINE
  5
516
330
1E
100
AcDbEntity
  8
0
100
AcDbLine
 10
79.977035
 20
230.1841399999999
 30
0.0
 11
78.92323499999999
 21
229.5551399999999
 31
0.0
  0
ENDSEC
  0
SECTION
  2
OBJECTS
  0
DICTIONARY
  5
C
330
0
100
AcDbDictionary
281
     1
  3
ACAD_GROUP
350
D
  3
ACAD_LAYOUT
350
19
  3
ACAD_MLINESTYLE
350
16
  3
ACAD_PLOTSETTINGS
350
18
  3
ACAD_PLOTSTYLENAME
350
E
  3
AcDbVariableDictionary
350
517
  0
DICTIONARY
  5
D
102
{ACAD_REACTORS
330
C
102
}
330
C
100
AcDbDictionary
281
     1
  0
DICTIONARY
  5
19
102
{ACAD_REACTORS
330
C
102
}
330
C
100
AcDbDictionary
281
     1
  3
Layout1
350
1D
  3
Model
350
21
  0
DICTIONARY
  5
16
102
{ACAD_REACTORS
330
C
102
}
330
C
100
AcDbDictionary
281
     1
  3
Standard
350
17
  0
DICTIONARY
  5
18
102
{ACAD_REACTORS
330
C
102
}
330
C
100
AcDbDictionary
281
     1
  0
ACDBDICTIONARYWDFLT
  5
E
102
{ACAD_REACTORS
330
C
102
}
330
C
100
AcDbDictionary
281
     1
  3
Normal
350
F
100
AcDbDictionaryWithDefault
340
F
  0
DICTIONARY
  5
517
102
{ACAD_REACTORS
330
C
102
}
330
C
100
AcDbDictionary
281
     1
  3
DIMASSOC
350
518
  0
LAYOUT
  5
1D
102
{ACAD_REACTORS
330
19
102
}
330
19
100
AcDbPlotSettings
  1

  2
hp deskjet 980c series
  4

  6

 40
0.0
 41
0.0
 42
0.0
 43
0.0
 44
0.0
 45
0.0
 46
0.0
 47
0.0
 48
0.0
 49
0.0
140
0.0
141
0.0
142
1.0
143
1.0
 70
   688
 72
     0
 73
     0
 74
     5
  7

 75
    16
147
1.0
148
0.0
149
0.0
100
AcDbLayout
  1
Layout1
 70
     1
 71
     1
 10
0.0
 20
0.0
 11
12.0
 21
9.0
 12
0.0
 22
0.0
 32
0.0
 14
1.000000000000000E+20
 24
1.000000000000000E+20
 34
1.000000000000000E+20
 15
-1.000000000000000E+20
 25
-1.000000000000000E+20
 35
-1.000000000000000E+20
146
0.0
 13
0.0
 23
0.0
 33
0.0
 16
1.0
 26
0.0
 36
0.0
 17
0.0
 27
1.0
 37
0.0
 76
     0
330
1A
  0
LAYOUT
  5
21
102
{ACAD_REACTORS
330
19
102
}
330
19
100
AcDbPlotSettings
  1

  2
hp deskjet 980c series
  4

  6

 40
0.0
 41
0.0
 42
0.0
 43
0.0
 44
0.0
 45
0.0
 46
0.0
 47
0.0
 48
0.0
 49
0.0
140
0.0
141
0.0
142
1.0
143
1.0
 70
  1712
 72
     0
 73
     0
 74
     0
  7

 75
     0
147
1.0
148
0.0
149
0.0
100
AcDbLayout
  1
Model
 70
     1
 71
     0
 10
0.0
 20
0.0
 11
12.0
 21
9.0
 12
0.0
 22
0.0
 32
0.0
 14
0.0
 24
0.0
 34
0.0
 15
0.0
 25
0.0
 35
0.0
146
0.0
 13
0.0
 23
0.0
 33
0.0
 16
1.0
 26
0.0
 36
0.0
 17
0.0
 27
1.0
 37
0.0
 76
     0
330
1E
  0
MLINESTYLE
  5
17
102
{ACAD_REACTORS
330
16
102
}
330
16
100
AcDbMlineStyle
  2
STANDARD
 70
     0
  3

 62
   256
 51
90.0
 52
90.0
 71
     2
 49
0.5
 62
   256
  6
BYLAYER
 49
-0.5
 62
   256
  6
BYLAYER
  0
ACDBPLACEHOLDER
  5
F
102
{ACAD_REACTORS
330
E
102
}
330
E
  0
DICTIONARYVAR
  5
518
102
{ACAD_REACTORS
330
517
102
}
330
517
100
DictionaryVariables
280
     0
  1
1
  0
ENDSEC
  0
EOF
