  0
SECTION
  2
HEADER
  9
$ACADVER
  1
AC1015
  9
$ACADMAINTVER
 70
    13
  9
$DWGCODEPAGE
  3
ANSI_1252
  9
$INSBASE
 10
0.0
 20
0.0
 30
0.0
  9
$EXTMIN
 10
0.0767650000000284
 20
-0.23949999999991
 30
0.0
  9
$EXTMAX
 10
490.9232349999999
 20
1493.2395
 30
0.0
  9
$LIMMIN
 10
0.0
 20
0.0
  9
$LIMMAX
 10
12.0
 20
9.0
  9
$ORTHOMODE
 70
     0
  9
$REGENMODE
 70
     1
  9
$FILLMODE
 70
     1
  9
$QTEXTMODE
 70
     0
  9
$MIRRTEXT
 70
     1
  9
$LTSCALE
 40
1.0
  9
$ATTMODE
 70
     1
  9
$TEXTSIZE
 40
0.2
  9
$TRACEWID
 40
0.05
  9
$TEXTSTYLE
  7
Standard
  9
$CLAYER
  8
0
  9
$CELTYPE
  6
Continuous
  9
$CECOLOR
 62
   256
  9
$CELTSCALE
 40
1.0
  9
$DISPSILH
 70
     0
  9
$DIMSCALE
 40
1.0
  9
$DIMASZ
 40
0.18
  9
$DIMEXO
 40
0.0625
  9
$DIMDLI
 40
0.38
  9
$DIMRND
 40
0.0
  9
$DIMDLE
 40
0.0
  9
$DIMEXE
 40
0.18
  9
$DIMTP
 40
0.0
  9
$DIMTM
 40
0.0
  9
$DIMTXT
 40
0.18
  9
$DIMCEN
 40
0.09
  9
$DIMTSZ
 40
0.0
  9
$DIMTOL
 70
     0
  9
$DIMLIM
 70
     0
  9
$DIMTIH
 70
     1
  9
$DIMTOH
 70
     1
  9
$DIMSE1
 70
     0
  9
$DIMSE2
 70
     0
  9
$DIMTAD
 70
     0
  9
$DIMZIN
 70
     0
  9
$DIMBLK
  1

  9
$DIMASO
 70
     1
  9
$DIMSHO
 70
     1
  9
$DIMPOST
  1

  9
$DIMAPOST
  1

  9
$DIMALT
 70
     0
  9
$DIMALTD
 70
     2
  9
$DIMALTF
 40
25.4
  9
$DIMLFAC
 40
1.0
  9
$DIMTOFL
 70
     0
  9
$DIMTVP
 40
0.0
  9
$DIMTIX
 70
     0
  9
$DIMSOXD
 70
     0
  9
$DIMSAH
 70
     0
  9
$DIMBLK1
  1

  9
$DIMBLK2
  1

  9
$DIMSTYLE
  2
Standard
  9
$DIMCLRD
 70
     0
  9
$DIMCLRE
 70
     0
  9
$DIMCLRT
 70
     0
  9
$DIMTFAC
 40
1.0
  9
$DIMGAP
 40
0.09
  9
$DIMJUST
 70
     0
  9
$DIMSD1
 70
     0
  9
$DIMSD2
 70
     0
  9
$DIMTOLJ
 70
     1
  9
$DIMTZIN
 70
     0
  9
$DIMALTZ
 70
     0
  9
$DIMALTTZ
 70
     0
  9
$DIMUPT
 70
     0
  9
$DIMDEC
 70
     4
  9
$DIMTDEC
 70
     4
  9
$DIMALTU
 70
     2
  9
$DIMALTTD
 70
     2
  9
$DIMTXSTY
  7
Standard
  9
$DIMAUNIT
 70
     0
  9
$DIMADEC
 70
     0
  9
$DIMALTRND
 40
0.0
  9
$DIMAZIN
 70
     0
  9
$DIMDSEP
 70
    46
  9
$DIMATFIT
 70
     3
  9
$DIMFRAC
 70
     0
  9
$DIMLDRBLK
  1

  9
$DIMLUNIT
 70
     2
  9
$DIMLWD
 70
    -2
  9
$DIMLWE
 70
    -2
  9
$DIMTMOVE
 70
     0
  9
$LUNITS
 70
     2
  9
$LUPREC
 70
     4
  9
$SKETCHINC
 40
0.1
  9
$FILLETRAD
 40
0.0
  9
$AUNITS
 70
     0
  9
$AUPREC
 70
     0
  9
$MENU
  1
.
  9
$ELEVATION
 40
0.0
  9
$PELEVATION
 40
0.0
  9
$THICKNESS
 40
0.0
  9
$LIMCHECK
 70
     0
  9
$CHAMFERA
 40
0.0
  9
$CHAMFERB
 40
0.0
  9
$CHAMFERC
 40
0.0
  9
$CHAMFERD
 40
0.0
  9
$SKPOLY
 70
     0
  9
$TDCREATE
 40
2454739.460123692
  9
$TDUCREATE
 40
2454739.376790358
  9
$TDUPDATE
 40
2454739.468032222
  9
$TDUUPDATE
 40
2454739.384698888
  9
$TDINDWG
 40
0.0079085301
  9
$TDUSRTIMER
 40
0.0079085301
  9
$USRTIMER
 70
     1
  9
$ANGBASE
 50
0.0
  9
$ANGDIR
 70
     0
  9
$PDMODE
 70
     0
  9
$PDSIZE
 40
0.0
  9
$PLINEWID
 40
0.0
  9
$SPLFRAME
 70
     0
  9
$SPLINETYPE
 70
     6
  9
$SPLINESEGS
 70
     8
  9
$HANDSEED
  5
CFE
  9
$SURFTAB1
 70
     6
  9
$SURFTAB2
 70
     6
  9
$SURFTYPE
 70
     6
  9
$SURFU
 70
     6
  9
$SURFV
 70
     6
  9
$UCSBASE
  2

  9
$UCSNAME
  2

  9
$UCSORG
 10
0.0
 20
0.0
 30
0.0
  9
$UCSXDIR
 10
1.0
 20
0.0
 30
0.0
  9
$UCSYDIR
 10
0.0
 20
1.0
 30
0.0
  9
$UCSORTHOREF
  2

  9
$UCSORTHOVIEW
 70
     1
  9
$UCSORGTOP
 10
0.0
 20
0.0
 30
0.0
  9
$UCSORGBOTTOM
 10
0.0
 20
0.0
 30
0.0
  9
$UCSORGLEFT
 10
0.0
 20
0.0
 30
0.0
  9
$UCSORGRIGHT
 10
0.0
 20
0.0
 30
0.0
  9
$UCSORGFRONT
 10
0.0
 20
0.0
 30
0.0
  9
$UCSORGBACK
 10
0.0
 20
0.0
 30
0.0
  9
$PUCSBASE
  2

  9
$PUCSNAME
  2

  9
$PUCSORG
 10
0.0
 20
0.0
 30
0.0
  9
$PUCSXDIR
 10
1.0
 20
0.0
 30
0.0
  9
$PUCSYDIR
 10
0.0
 20
1.0
 30
0.0
  9
$PUCSORTHOREF
  2

  9
$PUCSORTHOVIEW
 70
     0
  9
$PUCSORGTOP
 10
0.0
 20
0.0
 30
0.0
  9
$PUCSORGBOTTOM
 10
0.0
 20
0.0
 30
0.0
  9
$PUCSORGLEFT
 10
0.0
 20
0.0
 30
0.0
  9
$PUCSORGRIGHT
 10
0.0
 20
0.0
 30
0.0
  9
$PUCSORGFRONT
 10
0.0
 20
0.0
 30
0.0
  9
$PUCSORGBACK
 10
0.0
 20
0.0
 30
0.0
  9
$USERI1
 70
     0
  9
$USERI2
 70
     0
  9
$USERI3
 70
     0
  9
$USERI4
 70
     0
  9
$USERI5
 70
     0
  9
$USERR1
 40
0.0
  9
$USERR2
 40
0.0
  9
$USERR3
 40
0.0
  9
$USERR4
 40
0.0
  9
$USERR5
 40
0.0
  9
$WORLDVIEW
 70
     1
  9
$SHADEDGE
 70
     3
  9
$SHADEDIF
 70
    70
  9
$TILEMODE
 70
     1
  9
$MAXACTVP
 70
    64
  9
$PINSBASE
 10
0.0
 20
0.0
 30
0.0
  9
$PLIMCHECK
 70
     0
  9
$PEXTMIN
 10
1.000000000000000E+20
 20
1.000000000000000E+20
 30
1.000000000000000E+20
  9
$PEXTMAX
 10
-1.000000000000000E+20
 20
-1.000000000000000E+20
 30
-1.000000000000000E+20
  9
$PLIMMIN
 10
0.0
 20
0.0
  9
$PLIMMAX
 10
12.0
 20
9.0
  9
$UNITMODE
 70
     0
  9
$VISRETAIN
 70
     1
  9
$PLINEGEN
 70
     0
  9
$PSLTSCALE
 70
     1
  9
$TREEDEPTH
 70
  3020
  9
$CMLSTYLE
  2
Standard
  9
$CMLJUST
 70
     0
  9
$CMLSCALE
 40
1.0
  9
$PROXYGRAPHICS
 70
     1
  9
$MEASUREMENT
 70
     0
  9
$CELWEIGHT
370
    -1
  9
$ENDCAPS
280
     0
  9
$JOINSTYLE
280
     0
  9
$LWDISPLAY
290
     0
  9
$INSUNITS
 70
     0
  9
$HYPERLINKBASE
  1

  9
$STYLESHEET
  1

  9
$XEDIT
290
     1
  9
$CEPSNTYPE
380
     0
  9
$PSTYLEMODE
290
     1
  9
$FINGERPRINTGUID
  2
{2D1B2922-E80B-4AFC-A3BC-1DCA7E8621B5}
  9
$VERSIONGUID
  2
{2357A4C8-14A2-496F-AC7A-4E806F0A5801}
  9
$EXTNAMES
290
     1
  9
$PSVPSCALE
 40
0.0
  9
$OLESTARTUP
290
     0
  0
ENDSEC
  0
SECTION
  2
CLASSES
  0
CLASS
  1
ACDBDICTIONARYWDFLT
  2
AcDbDictionaryWithDefault
  3
AutoCAD 2000
 90
        0
280
     0
281
     0
  0
CLASS
  1
ACDBPLACEHOLDER
  2
AcDbPlaceHolder
  3
AutoCAD 2000
 90
        0
280
     0
281
     0
  0
CLASS
  1
LAYOUT
  2
AcDbLayout
  3
AutoCAD 2000
 90
        0
280
     0
281
     0
  0
CLASS
  1
DICTIONARYVAR
  2
AcDbDictionaryVar
  3
AutoCAD 2000
 90
        0
280
     0
281
     0
  0
ENDSEC
  0
SECTION
  2
TABLES
  0
TABLE
  2
VPORT
  5
8
330
0
100
AcDbSymbolTable
 70
     3
  0
VPORT
  5
CFD
330
8
100
AcDbSymbolTableRecord
100
AcDbViewportTableRecord
  2
*Active
 70
     0
 10
0.0
 20
0.0
 11
1.0
 21
1.0
 12
245.5
 22
746.4999999999999
 13
0.0
 23
0.0
 14
1.0
 24
1.0
 15
0.0
 25
0.0
 16
0.0
 26
0.0
 36
1.0
 17
0.0
 27
0.0
 37
0.0
 40
1504.937918158567
 41
2.078104993597951
 42
50.0
 43
0.0
 44
0.0
 50
0.0
 51
0.0
 71
     0
 72
   100
 73
     1
 74
     3
 75
     0
 76
     0
 77
     0
 78
     0
281
     0
 65
     1
110
0.0
120
0.0
130
0.0
111
1.0
121
0.0
131
0.0
112
0.0
122
1.0
132
0.0
 79
     1
146
0.0
  0
ENDTAB
  0
TABLE
  2
LTYPE
  5
5
330
0
100
AcDbSymbolTable
 70
     1
  0
LTYPE
  5
13
330
5
100
AcDbSymbolTableRecord
100
AcDbLinetypeTableRecord
  2
ByBlock
 70
     0
  3

 72
    65
 73
     0
 40
0.0
  0
LTYPE
  5
14
330
5
100
AcDbSymbolTableRecord
100
AcDbLinetypeTableRecord
  2
ByLayer
 70
     0
  3

 72
    65
 73
     0
 40
0.0
  0
LTYPE
  5
15
330
5
100
AcDbSymbolTableRecord
100
AcDbLinetypeTableRecord
  2
Continuous
 70
     0
  3
Solid line
 72
    65
 73
     0
 40
0.0
  0
ENDTAB
  0
TABLE
  2
LAYER
  5
2
330
0
100
AcDbSymbolTable
 70
     1
  0
LAYER
  5
10
330
2
100
AcDbSymbolTableRecord
100
AcDbLayerTableRecord
  2
0
 70
     0
 62
     7
  6
Continuous
370
    -3
390
F
  0
ENDTAB
  0
TABLE
  2
STYLE
  5
3
330
0
100
AcDbSymbolTable
 70
     1
  0
STYLE
  5
11
330
3
100
AcDbSymbolTableRecord
100
AcDbTextStyleTableRecord
  2
Standard
 70
     0
 40
0.0
 41
1.0
 50
0.0
 71
     0
 42
0.2
  3
txt
  4

  0
ENDTAB
  0
TABLE
  2
VIEW
  5
6
330
0
100
AcDbSymbolTable
 70
     0
  0
ENDTAB
  0
TABLE
  2
UCS
  5
7
330
0
100
AcDbSymbolTable
 70
     0
  0
ENDTAB
  0
TABLE
  2
APPID
  5
9
330
0
100
AcDbSymbolTable
 70
     1
  0
APPID
  5
12
330
9
100
AcDbSymbolTableRecord
100
AcDbRegAppTableRecord
  2
ACAD
 70
     0
  0
ENDTAB
  0
TABLE
  2
DIMSTYLE
  5
A
330
0
100
AcDbSymbolTable
 70
     1
100
AcDbDimStyleTable
 71
     0
  0
DIMSTYLE
105
CF1
330
A
100
AcDbSymbolTableRecord
100
AcDbDimStyleTableRecord
  2
Standard
 70
     0
340
11
  0
ENDTAB
  0
TABLE
  2
BLOCK_RECORD
  5
1
330
0
100
AcDbSymbolTable
 70
     0
  0
BLOCK_RECORD
  5
1E
330
1
100
AcDbSymbolTableRecord
100
AcDbBlockTableRecord
  2
*Model_Space
340
21
  0
BLOCK_RECORD
  5
1A
330
1
100
AcDbSymbolTableRecord
100
AcDbBlockTableRecord
  2
*Paper_Space
340
1D
  0
ENDTAB
  0
ENDSEC
  0
SECTION
  2
BLOCKS
  0
BLOCK
  5
1F
330
1E
100
AcDbEntity
  8
0
100
AcDbBlockBegin
  2
*Model_Space
 70
     0
 10
0.0
 20
0.0
 30
0.0
  3
*Model_Space
  1

  0
ENDBLK
  5
20
330
1E
100
AcDbEntity
  8
0
100
AcDbBlockEnd
  0
BLOCK
  5
1B
330
1A
100
AcDbEntity
 67
     1
  8
0
100
AcDbBlockBegin
  2
*Paper_Space
 70
     0
 10
0.0
 20
0.0
 30
0.0
  3
*Paper_Space
  1

  0
ENDBLK
  5
1C
330
1A
100
AcDbEntity
 67
     1
  8
0
100
AcDbBlockEnd
  0
ENDSEC
  0
SECTION
  2
ENTITIES
  0
LINE
  5
22
330
1E
100
AcDbEntity
  8
0
100
AcDbLine
 10
45.32323499999999
 20
825.7395
 30
0.0
 11
46.42323499999999
 21
825.7395
 31
0.0
  0
LINE
  5
23
330
1E
100
AcDbEntity
  8
0
100
AcDbLine
 10
44.923235
 20
825.7395
 30
0.0
 11
44.923235
 21
876.7395
 31
0.0
  0
LINE
  5
24
330
1E
100
AcDbEntity
  8
0
100
AcDbLine
 10
44.923235
 20
825.7395
 30
0.0
 11
45.32323499999999
 21
825.7395
 31
0.0
  0
LINE
  5
25
330
1E
100
AcDbEntity
  8
0
100
AcDbLine
 10
44.923235
 20
825.7395
 30
0.0
 11
45.423235
 21
825.2394999999999
 31
0.0
  0
LINE
  5
26
330
1E
100
AcDbEntity
  8
0
100
AcDbLine
 10
45.423235
 20
825.2394999999999
 30
0.0
 11
55.923235
 21
825.2394999999999
 31
0.0
  0
LINE
  5
27
330
1E
100
AcDbEntity
  8
0
100
AcDbLine
 10
45.423235
 20
825.2394999999999
 30
0.0
 11
45.823235
 21
825.2394999999999
 31
0.0
  0
LINE
  5
28
330
1E
100
AcDbEntity
  8
0
100
AcDbLine
 10
45.32323499999999
 20
876.7395
 30
0.0
 11
46.42323499999999
 21
876.7395
 31
0.0
  0
LINE
  5
29
330
1E
100
AcDbEntity
  8
0
100
AcDbLine
 10
5.22323500000003
 20
925.2394999999999
 30
0.0
 11
8.32323500000003
 21
925.2394999999999
 31
0.0
  0
LINE
  5
2A
330
1E
100
AcDbEntity
  8
0
100
AcDbLine
 10
5.22323500000003
 20
925.2394999999999
 30
0.0
 11
8.32323500000003
 21
925.2394999999999
 31
0.0
  0
LINE
  5
2B
330
1E
100
AcDbEntity
  8
0
100
AcDbLine
 10
2.923235000000029
 20
925.2394999999999
 30
0.0
 11
5.22323500000003
 21
925.2394999999999
 31
0.0
  0
LINE
  5
2C
330
1E
100
AcDbEntity
  8
0
100
AcDbLine
 10
1.52323500000003
 20
925.2394999999999
 30
0.0
 11
2.923235000000029
 21
925.2394999999999
 31
0.0
  0
LINE
  5
2D
330
1E
100
AcDbEntity
  8
0
100
AcDbLine
 10
5.22323500000003
 20
948.2395
 30
0.0
 11
8.32323500000003
 21
948.2395
 31
0.0
  0
LINE
  5
2E
330
1E
100
AcDbEntity
  8
0
100
AcDbLine
 10
2.923235000000029
 20
948.2395
 30
0.0
 11
5.22323500000003
 21
948.2395
 31
0.0
  0
LINE
  5
2F
330
1E
100
AcDbEntity
  8
0
100
AcDbLine
 10
1.52323500000003
 20
948.2395
 30
0.0
 11
2.923235000000029
 21
948.2395
 31
0.0
  0
LINE
  5
30
330
1E
100
AcDbEntity
  8
0
100
AcDbLine
 10
0.923235000000028
 20
948.2395
 30
0.0
 11
0.923235000000028
 21
925.2394999999999
 31
0.0
  0
LINE
  5
31
330
1E
100
AcDbEntity
  8
0
100
AcDbLine
 10
0.923235000000028
 20
948.2395
 30
0.0
 11
1.52323500000003
 21
948.2395
 31
0.0
  0
LINE
  5
32
330
1E
100
AcDbEntity
  8
0
100
AcDbLine
 10
0.923235000000028
 20
925.2394999999999
 30
0.0
 11
1.52323500000003
 21
925.2394999999999
 31
0.0
  0
LINE
  5
33
330
1E
100
AcDbEntity
  8
0
100
AcDbLine
 10
0.923235000000028
 20
925.2394999999999
 30
0.0
 11
0.923235000000028
 21
948.2395
 31
0.0
  0
LINE
  5
34
330
1E
100
AcDbEntity
  8
0
100
AcDbLine
 10
12.323235
 20
925.2394999999999
 30
0.0
 11
17.123235
 21
925.2394999999999
 31
0.0
  0
LINE
  5
35
330
1E
100
AcDbEntity
  8
0
100
AcDbLine
 10
8.32323500000003
 20
925.2394999999999
 30
0.0
 11
12.323235
 21
925.2394999999999
 31
0.0
  0
LINE
  5
36
330
1E
100
AcDbEntity
  8
0
100
AcDbLine
 10
17.123235
 20
925.2394999999999
 30
0.0
 11
22.523235
 21
925.2394999999999
 31
0.0
  0
LINE
  5
37
330
1E
100
AcDbEntity
  8
0
100
AcDbLine
 10
22.523235
 20
925.2394999999999
 30
0.0
 11
28.52323499999999
 21
925.2394999999999
 31
0.0
  0
LINE
  5
38
330
1E
100
AcDbEntity
  8
0
100
AcDbLine
 10
17.123235
 20
925.2394999999999
 30
0.0
 11
22.523235
 21
925.2394999999999
 31
0.0
  0
LINE
  5
39
330
1E
100
AcDbEntity
  8
0
100
AcDbLine
 10
28.52323499999999
 20
925.2394999999999
 30
0.0
 11
34.92323499999999
 21
925.2394999999999
 31
0.0
  0
LINE
  5
3A
330
1E
100
AcDbEntity
  8
0
100
AcDbLine
 10
34.92323499999999
 20
925.2394999999999
 30
0.0
 11
40.52323499999999
 21
925.2394999999999
 31
0.0
  0
LINE
  5
3B
330
1E
100
AcDbEntity
  8
0
100
AcDbLine
 10
22.523235
 20
925.2394999999999
 30
0.0
 11
28.52323499999999
 21
925.2394999999999
 31
0.0
  0
LINE
  5
3C
330
1E
100
AcDbEntity
  8
0
100
AcDbLine
 10
28.52323499999999
 20
925.2394999999999
 30
0.0
 11
34.92323499999999
 21
925.2394999999999
 31
0.0
  0
LINE
  5
3D
330
1E
100
AcDbEntity
  8
0
100
AcDbLine
 10
44.63923499999999
 20
925.2394999999999
 30
0.0
 11
44.923235
 21
925.2394999999999
 31
0.0
  0
LINE
  5
3E
330
1E
100
AcDbEntity
  8
0
100
AcDbLine
 10
43.39123499999999
 20
925.2394999999999
 30
0.0
 11
44.63923499999999
 21
925.2394999999999
 31
0.0
  0
LINE
  5
3F
330
1E
100
AcDbEntity
  8
0
100
AcDbLine
 10
40.52323499999999
 20
925.2394999999999
 30
0.0
 11
42.923235
 21
925.2394999999999
 31
0.0
  0
LINE
  5
40
330
1E
100
AcDbEntity
  8
0
100
AcDbLine
 10
42.923235
 20
925.2394999999999
 30
0.0
 11
55.923235
 21
925.2394999999999
 31
0.0
  0
LINE
  5
41
330
1E
100
AcDbEntity
  8
0
100
AcDbLine
 10
42.923235
 20
925.2394999999999
 30
0.0
 11
43.39123499999999
 21
925.2394999999999
 31
0.0
  0
LINE
  5
42
330
1E
100
AcDbEntity
  8
0
100
AcDbLine
 10
34.92323499999999
 20
925.2394999999999
 30
0.0
 11
41.723235
 21
925.2394999999999
 31
0.0
  0
LINE
  5
43
330
1E
100
AcDbEntity
  8
0
100
AcDbLine
 10
41.723235
 20
925.2394999999999
 30
0.0
 11
48.723235
 21
925.2394999999999
 31
0.0
  0
LINE
  5
44
330
1E
100
AcDbEntity
  8
0
100
AcDbLine
 10
12.323235
 20
925.2394999999999
 30
0.0
 11
17.123235
 21
925.2394999999999
 31
0.0
  0
LINE
  5
45
330
1E
100
AcDbEntity
  8
0
100
AcDbLine
 10
17.123235
 20
948.2395
 30
0.0
 11
22.523235
 21
948.2395
 31
0.0
  0
LINE
  5
46
330
1E
100
AcDbEntity
  8
0
100
AcDbLine
 10
22.523235
 20
948.2395
 30
0.0
 11
28.52323499999999
 21
948.2395
 31
0.0
  0
LINE
  5
47
330
1E
100
AcDbEntity
  8
0
100
AcDbLine
 10
28.52323499999999
 20
948.2395
 30
0.0
 11
34.92323499999999
 21
948.2395
 31
0.0
  0
LINE
  5
48
330
1E
100
AcDbEntity
  8
0
100
AcDbLine
 10
34.92323499999999
 20
948.2395
 30
0.0
 11
41.723235
 21
948.2395
 31
0.0
  0
LINE
  5
49
330
1E
100
AcDbEntity
  8
0
100
AcDbLine
 10
41.723235
 20
948.2395
 30
0.0
 11
48.723235
 21
948.2395
 31
0.0
  0
LINE
  5
4A
330
1E
100
AcDbEntity
  8
0
100
AcDbLine
 10
12.323235
 20
948.2395
 30
0.0
 11
17.123235
 21
948.2395
 31
0.0
  0
LINE
  5
4B
330
1E
100
AcDbEntity
  8
0
100
AcDbLine
 10
8.32323500000003
 20
948.2395
 30
0.0
 11
12.323235
 21
948.2395
 31
0.0
  0
LINE
  5
4C
330
1E
100
AcDbEntity
  8
0
100
AcDbLine
 10
8.32323500000003
 20
925.2394999999999
 30
0.0
 11
12.323235
 21
925.2394999999999
 31
0.0
  0
LINE
  5
4D
330
1E
100
AcDbEntity
  8
0
100
AcDbLine
 10
44.923235
 20
925.2394999999999
 30
0.0
 11
44.923235
 21
877.7395
 31
0.0
  0
LINE
  5
4E
330
1E
100
AcDbEntity
  8
0
100
AcDbLine
 10
44.923235
 20
925.2394999999999
 30
0.0
 11
48.92323499999999
 21
925.2394999999999
 31
0.0
  0
LINE
  5
4F
330
1E
100
AcDbEntity
  8
0
100
AcDbLine
 10
44.923235
 20
948.2395
 30
0.0
 11
44.923235
 21
1415.33796785768
 31
0.0
  0
LINE
  5
50
330
1E
100
AcDbEntity
  8
0
100
AcDbLine
 10
45.32323499999999
 20
877.7395
 30
0.0
 11
46.42323499999999
 21
877.7395
 31
0.0
  0
LINE
  5
51
330
1E
100
AcDbEntity
  8
0
100
AcDbLine
 10
44.923235
 20
877.7395
 30
0.0
 11
45.32323499999999
 21
877.7395
 31
0.0
  0
LINE
  5
52
330
1E
100
AcDbEntity
  8
0
100
AcDbLine
 10
44.923235
 20
877.7395
 30
0.0
 11
45.423235
 21
877.2395000000001
 31
0.0
  0
LINE
  5
53
330
1E
100
AcDbEntity
  8
0
100
AcDbLine
 10
44.923235
 20
877.7395
 30
0.0
 11
44.923235
 21
925.2394999999999
 31
0.0
  0
LINE
  5
54
330
1E
100
AcDbEntity
  8
0
100
AcDbLine
 10
39.34373499999999
 20
1125.2495
 30
0.0
 11
44.923235
 21
1125.2495
 31
0.0
  0
LINE
  5
55
330
1E
100
AcDbEntity
  8
0
100
AcDbLine
 10
6.67708500000003
 20
1125.2495
 30
0.0
 11
37.83603499999999
 21
1125.2495
 31
0.0
  0
LINE
  5
56
330
1E
100
AcDbEntity
  8
0
100
AcDbLine
 10
5.92323500000003
 20
1125.7295
 30
0.0
 11
5.92323500000003
 21
1126.3195
 31
0.0
  0
LINE
  5
57
330
1E
100
AcDbEntity
  8
0
100
AcDbLine
 10
5.92323500000003
 20
1125.7295
 30
0.0
 11
6.67708500000003
 21
1125.2495
 31
0.0
  0
LINE
  5
58
330
1E
100
AcDbEntity
  8
0
100
AcDbLine
 10
5.92323500000003
 20
1126.3195
 30
0.0
 11
5.92323500000003
 21
1128.0295
 31
0.0
  0
LINE
  5
59
330
1E
100
AcDbEntity
  8
0
100
AcDbLine
 10
5.92323500000003
 20
1126.3195
 30
0.0
 11
5.92323500000003
 21
1125.7295
 31
0.0
  0
LINE
  5
5A
330
1E
100
AcDbEntity
  8
0
100
AcDbLine
 10
5.92323500000003
 20
1126.3195
 30
0.0
 11
5.92323500000003
 21
1128.0995
 31
0.0
  0
LINE
  5
5B
330
1E
100
AcDbEntity
  8
0
100
AcDbLine
 10
5.92323500000003
 20
1128.0295
 30
0.0
 11
5.92323500000003
 21
1126.3195
 31
0.0
  0
LINE
  5
5C
330
1E
100
AcDbEntity
  8
0
100
AcDbLine
 10
5.92323500000003
 20
1128.0295
 30
0.0
 11
5.92323500000003
 21
1130.8495
 31
0.0
  0
LINE
  5
5D
330
1E
100
AcDbEntity
  8
0
100
AcDbLine
 10
5.92323500000003
 20
1130.8495
 30
0.0
 11
5.92323500000003
 21
1128.0995
 31
0.0
  0
LINE
  5
5E
330
1E
100
AcDbEntity
  8
0
100
AcDbLine
 10
5.92323500000003
 20
1130.8495
 30
0.0
 11
5.92323500000003
 21
1134.459499999999
 31
0.0
  0
LINE
  5
5F
330
1E
100
AcDbEntity
  8
0
100
AcDbLine
 10
5.92323500000003
 20
1130.8495
 30
0.0
 11
5.92323500000003
 21
1134.4395
 31
0.0
  0
LINE
  5
60
330
1E
100
AcDbEntity
  8
0
100
AcDbLine
 10
5.92323500000003
 20
1130.8495
 30
0.0
 11
5.92323500000003
 21
1128.0295
 31
0.0
  0
LINE
  5
61
330
1E
100
AcDbEntity
  8
0
100
AcDbLine
 10
5.92323500000003
 20
1128.0995
 30
0.0
 11
5.92323500000003
 21
1126.3195
 31
0.0
  0
LINE
  5
62
330
1E
100
AcDbEntity
  8
0
100
AcDbLine
 10
5.92323500000003
 20
1128.0995
 30
0.0
 11
5.92323500000003
 21
1130.8495
 31
0.0
  0
LINE
  5
63
330
1E
100
AcDbEntity
  8
0
100
AcDbLine
 10
5.92323500000003
 20
1134.4395
 30
0.0
 11
5.92323500000003
 21
1138.7095
 31
0.0
  0
LINE
  5
64
330
1E
100
AcDbEntity
  8
0
100
AcDbLine
 10
5.92323500000003
 20
1134.4395
 30
0.0
 11
5.92323500000003
 21
1130.8495
 31
0.0
  0
LINE
  5
65
330
1E
100
AcDbEntity
  8
0
100
AcDbLine
 10
5.92323500000003
 20
1143.189499999999
 30
0.0
 11
5.92323500000003
 21
1138.7095
 31
0.0
  0
LINE
  5
66
330
1E
100
AcDbEntity
  8
0
100
AcDbLine
 10
5.92323500000003
 20
1143.189499999999
 30
0.0
 11
5.92323500000003
 21
1147.7695
 31
0.0
  0
LINE
  5
67
330
1E
100
AcDbEntity
  8
0
100
AcDbLine
 10
5.92323500000003
 20
1155.565610275109
 30
0.0
 11
5.92323500000003
 21
1152.0195
 31
0.0
  0
LINE
  5
68
330
1E
100
AcDbEntity
  8
0
100
AcDbLine
 10
5.92323500000003
 20
1152.0395
 30
0.0
 11
5.92323500000003
 21
1147.7695
 31
0.0
  0
LINE
  5
69
330
1E
100
AcDbEntity
  8
0
100
AcDbLine
 10
5.92323500000003
 20
1152.0395
 30
0.0
 11
5.92323500000003
 21
1155.6295
 31
0.0
  0
LINE
  5
6A
330
1E
100
AcDbEntity
  8
0
100
AcDbLine
 10
0.0767650000000285
 20
1171.8395
 30
0.0
 11
0.178835276582526
 21
1171.8769682816
 31
0.0
  0
LINE
  5
6B
330
1E
100
AcDbEntity
  8
0
100
AcDbLine
 10
0.214315000000028
 20
1171.259499999999
 30
0.0
 11
5.92323500000003
 21
1155.565610275109
 31
0.0
  0
LINE
  5
6C
330
1E
100
AcDbEntity
  8
0
100
AcDbLine
 10
0.0767650000000284
 20
1171.8395
 30
0.0
 11
0.178245000000028
 21
1171.879499999999
 31
0.0
  0
LINE
  5
6D
330
1E
100
AcDbEntity
  8
0
100
AcDbLine
 10
0.0767650000000284
 20
1171.8395
 30
0.0
 11
0.178835276582526
 21
1171.8769682816
 31
0.0
  0
LINE
  5
6E
330
1E
100
AcDbEntity
  8
0
100
AcDbLine
 10
0.0767650000000284
 20
1171.8395
 30
0.0
 11
0.214315000000028
 21
1171.259499999999
 31
0.0
  0
LINE
  5
6F
330
1E
100
AcDbEntity
  8
0
100
AcDbLine
 10
0.178245000000028
 20
1171.879499999999
 30
0.0
 11
0.448875000000028
 21
1171.979499999999
 31
0.0
  0
LINE
  5
70
330
1E
100
AcDbEntity
  8
0
100
AcDbLine
 10
0.178245000000028
 20
1171.879499999999
 30
0.0
 11
0.448875000000028
 21
1171.979499999999
 31
0.0
  0
LINE
  5
71
330
1E
100
AcDbEntity
  8
0
100
AcDbLine
 10
0.0767650000000284
 20
1171.8395
 30
0.0
 11
0.214315000000028
 21
1171.259499999999
 31
0.0
  0
LINE
  5
72
330
1E
100
AcDbEntity
  8
0
100
AcDbLine
 10
2.11777500000003
 20
1172.5895
 30
0.0
 11
2.828185000000029
 21
1172.8495
 31
0.0
  0
LINE
  5
73
330
1E
100
AcDbEntity
  8
0
100
AcDbLine
 10
1.46374500000003
 20
1172.349499999999
 30
0.0
 11
2.11777500000003
 21
1172.5895
 31
0.0
  0
LINE
  5
74
330
1E
100
AcDbEntity
  8
0
100
AcDbLine
 10
0.888655000000028
 20
1172.139499999999
 30
0.0
 11
1.46374500000003
 21
1172.349499999999
 31
0.0
  0
LINE
  5
75
330
1E
100
AcDbEntity
  8
0
100
AcDbLine
 10
0.448875000000028
 20
1171.979499999999
 30
0.0
 11
0.888655000000028
 21
1172.139499999999
 31
0.0
  0
LINE
  5
76
330
1E
100
AcDbEntity
  8
0
100
AcDbLine
 10
0.448875000000028
 20
1171.979499999999
 30
0.0
 11
2.828185000000029
 21
1172.8495
 31
0.0
  0
LINE
  5
77
330
1E
100
AcDbEntity
  8
0
100
AcDbLine
 10
0.214315000000028
 20
1171.259499999999
 30
0.0
 11
5.92323500000003
 21
1155.565610275109
 31
0.0
  0
LINE
  5
78
330
1E
100
AcDbEntity
  8
0
100
AcDbLine
 10
2.828185000000029
 20
1172.8495
 30
0.0
 11
3.538595000000029
 21
1173.099499999999
 31
0.0
  0
LINE
  5
79
330
1E
100
AcDbEntity
  8
0
100
AcDbLine
 10
2.828185000000029
 20
1172.8495
 30
0.0
 11
5.57960500000003
 21
1173.849499999999
 31
0.0
  0
LINE
  5
7A
330
1E
100
AcDbEntity
  8
0
100
AcDbLine
 10
3.538595000000029
 20
1173.099499999999
 30
0.0
 11
4.19261500000003
 21
1173.339499999999
 31
0.0
  0
LINE
  5
7B
330
1E
100
AcDbEntity
  8
0
100
AcDbLine
 10
4.19261500000003
 20
1173.339499999999
 30
0.0
 11
4.76770500000003
 21
1173.5495
 31
0.0
  0
LINE
  5
7C
330
1E
100
AcDbEntity
  8
0
100
AcDbLine
 10
4.76770500000003
 20
1173.5495
 30
0.0
 11
5.20748500000003
 21
1173.709499999999
 31
0.0
  0
LINE
  5
7D
330
1E
100
AcDbEntity
  8
0
100
AcDbLine
 10
5.20748500000003
 20
1173.709499999999
 30
0.0
 11
5.47811500000003
 21
1173.8095
 31
0.0
  0
LINE
  5
7E
330
1E
100
AcDbEntity
  8
0
100
AcDbLine
 10
5.47811500000003
 20
1173.8095
 30
0.0
 11
5.57960500000003
 21
1173.849499999999
 31
0.0
  0
LINE
  5
7F
330
1E
100
AcDbEntity
  8
0
100
AcDbLine
 10
5.57960500000003
 20
1173.849499999999
 30
0.0
 11
5.852475000000029
 21
1173.3095
 31
0.0
  0
LINE
  5
80
330
1E
100
AcDbEntity
  8
0
100
AcDbLine
 10
5.852475000000029
 20
1173.3095
 30
0.0
 11
10.2493155320995
 21
1161.229499999999
 31
0.0
  0
LINE
  5
81
330
1E
100
AcDbEntity
  8
0
100
AcDbLine
 10
5.92323500000003
 20
1160.1595
 30
0.0
 11
5.92323500000003
 21
1158.4495
 31
0.0
  0
LINE
  5
82
330
1E
100
AcDbEntity
  8
0
100
AcDbLine
 10
5.92323500000003
 20
1155.6295
 30
0.0
 11
5.92323500000003
 21
1152.0395
 31
0.0
  0
LINE
  5
83
330
1E
100
AcDbEntity
  8
0
100
AcDbLine
 10
5.92323500000003
 20
1155.6295
 30
0.0
 11
5.92323500000003
 21
1158.4495
 31
0.0
  0
LINE
  5
84
330
1E
100
AcDbEntity
  8
0
100
AcDbLine
 10
5.92323500000003
 20
1158.4495
 30
0.0
 11
5.92323500000003
 21
1155.6295
 31
0.0
  0
LINE
  5
85
330
1E
100
AcDbEntity
  8
0
100
AcDbLine
 10
5.92323500000003
 20
1158.4495
 30
0.0
 11
5.92323500000003
 21
1160.1595
 31
0.0
  0
LINE
  5
86
330
1E
100
AcDbEntity
  8
0
100
AcDbLine
 10
5.92323500000003
 20
1152.0195
 30
0.0
 11
5.92323500000003
 21
1147.7695
 31
0.0
  0
LINE
  5
87
330
1E
100
AcDbEntity
  8
0
100
AcDbLine
 10
5.92323500000003
 20
1152.0195
 30
0.0
 11
5.92323500000003
 21
1155.565610275109
 31
0.0
  0
LINE
  5
88
330
1E
100
AcDbEntity
  8
0
100
AcDbLine
 10
5.92323500000003
 20
1147.7695
 30
0.0
 11
5.92323500000003
 21
1152.0195
 31
0.0
  0
LINE
  5
89
330
1E
100
AcDbEntity
  8
0
100
AcDbLine
 10
5.92323500000003
 20
1147.7695
 30
0.0
 11
5.92323500000003
 21
1143.2895
 31
0.0
  0
LINE
  5
8A
330
1E
100
AcDbEntity
  8
0
100
AcDbLine
 10
5.92323500000003
 20
1147.7695
 30
0.0
 11
5.92323500000003
 21
1143.189499999999
 31
0.0
  0
LINE
  5
8B
330
1E
100
AcDbEntity
  8
0
100
AcDbLine
 10
5.92323500000003
 20
1147.7695
 30
0.0
 11
5.92323500000003
 21
1152.0395
 31
0.0
  0
LINE
  5
8C
330
1E
100
AcDbEntity
  8
0
100
AcDbLine
 10
5.92323500000003
 20
1143.2895
 30
0.0
 11
5.92323500000003
 21
1147.7695
 31
0.0
  0
LINE
  5
8D
330
1E
100
AcDbEntity
  8
0
100
AcDbLine
 10
5.92323500000003
 20
1143.2895
 30
0.0
 11
5.92323500000003
 21
1138.7095
 31
0.0
  0
LINE
  5
8E
330
1E
100
AcDbEntity
  8
0
100
AcDbLine
 10
38.589935
 20
1138.7095
 30
0.0
 11
38.589935
 21
1143.189499999999
 31
0.0
  0
LINE
  5
8F
330
1E
100
AcDbEntity
  8
0
100
AcDbLine
 10
38.589935
 20
1138.7095
 30
0.0
 11
38.589935
 21
1134.459499999999
 31
0.0
  0
LINE
  5
90
330
1E
100
AcDbEntity
  8
0
100
AcDbLine
 10
38.589935
 20
1143.189499999999
 30
0.0
 11
38.589935
 21
1147.7695
 31
0.0
  0
LINE
  5
91
330
1E
100
AcDbEntity
  8
0
100
AcDbLine
 10
38.589935
 20
1143.189499999999
 30
0.0
 11
38.589935
 21
1138.7095
 31
0.0
  0
LINE
  5
92
330
1E
100
AcDbEntity
  8
0
100
AcDbLine
 10
38.589935
 20
1147.7695
 30
0.0
 11
38.589935
 21
1152.0395
 31
0.0
  0
LINE
  5
93
330
1E
100
AcDbEntity
  8
0
100
AcDbLine
 10
38.589935
 20
1147.7695
 30
0.0
 11
38.589935
 21
1143.189499999999
 31
0.0
  0
LINE
  5
94
330
1E
100
AcDbEntity
  8
0
100
AcDbLine
 10
38.589935
 20
1160.749499999999
 30
0.0
 11
38.589935
 21
1160.1595
 31
0.0
  0
LINE
  5
95
330
1E
100
AcDbEntity
  8
0
100
AcDbLine
 10
38.589935
 20
1160.749499999999
 30
0.0
 11
39.34373499999999
 21
1161.229499999999
 31
0.0
  0
LINE
  5
96
330
1E
100
AcDbEntity
  8
0
100
AcDbLine
 10
38.589935
 20
1160.1595
 30
0.0
 11
38.589935
 21
1160.749499999999
 31
0.0
  0
LINE
  5
97
330
1E
100
AcDbEntity
  8
0
100
AcDbLine
 10
38.589935
 20
1160.1595
 30
0.0
 11
38.589935
 21
1158.4495
 31
0.0
  0
LINE
  5
98
330
1E
100
AcDbEntity
  8
0
100
AcDbLine
 10
37.83603499999999
 20
1161.229499999999
 30
0.0
 11
38.589935
 21
1160.749499999999
 31
0.0
  0
LINE
  5
99
330
1E
100
AcDbEntity
  8
0
100
AcDbLine
 10
38.589935
 20
1158.4495
 30
0.0
 11
38.589935
 21
1155.6295
 31
0.0
  0
LINE
  5
9A
330
1E
100
AcDbEntity
  8
0
100
AcDbLine
 10
38.589935
 20
1158.4495
 30
0.0
 11
38.589935
 21
1160.1595
 31
0.0
  0
LINE
  5
9B
330
1E
100
AcDbEntity
  8
0
100
AcDbLine
 10
38.589935
 20
1152.0395
 30
0.0
 11
38.589935
 21
1155.6295
 31
0.0
  0
LINE
  5
9C
330
1E
100
AcDbEntity
  8
0
100
AcDbLine
 10
38.589935
 20
1152.0395
 30
0.0
 11
38.589935
 21
1147.7695
 31
0.0
  0
LINE
  5
9D
330
1E
100
AcDbEntity
  8
0
100
AcDbLine
 10
38.589935
 20
1155.6295
 30
0.0
 11
38.589935
 21
1158.4495
 31
0.0
  0
LINE
  5
9E
330
1E
100
AcDbEntity
  8
0
100
AcDbLine
 10
38.589935
 20
1155.6295
 30
0.0
 11
38.589935
 21
1152.0395
 31
0.0
  0
LINE
  5
9F
330
1E
100
AcDbEntity
  8
0
100
AcDbLine
 10
10.1332594939271
 20
1161.229499999999
 30
0.0
 11
37.83603499999999
 21
1161.229499999999
 31
0.0
  0
LINE
  5
A0
330
1E
100
AcDbEntity
  8
0
100
AcDbLine
 10
5.92323500000003
 20
1138.7095
 30
0.0
 11
5.92323500000003
 21
1143.2895
 31
0.0
  0
LINE
  5
A1
330
1E
100
AcDbEntity
  8
0
100
AcDbLine
 10
5.92323500000003
 20
1138.7095
 30
0.0
 11
5.92323500000003
 21
1134.4395
 31
0.0
  0
LINE
  5
A2
330
1E
100
AcDbEntity
  8
0
100
AcDbLine
 10
5.92323500000003
 20
1138.7095
 30
0.0
 11
5.92323500000003
 21
1134.459499999999
 31
0.0
  0
LINE
  5
A3
330
1E
100
AcDbEntity
  8
0
100
AcDbLine
 10
5.92323500000003
 20
1138.7095
 30
0.0
 11
5.92323500000003
 21
1143.189499999999
 31
0.0
  0
LINE
  5
A4
330
1E
100
AcDbEntity
  8
0
100
AcDbLine
 10
5.92323500000003
 20
1134.459499999999
 30
0.0
 11
5.92323500000003
 21
1130.8495
 31
0.0
  0
LINE
  5
A5
330
1E
100
AcDbEntity
  8
0
100
AcDbLine
 10
5.92323500000003
 20
1134.459499999999
 30
0.0
 11
5.92323500000003
 21
1138.7095
 31
0.0
  0
LINE
  5
A6
330
1E
100
AcDbEntity
  8
0
100
AcDbLine
 10
38.589935
 20
1134.459499999999
 30
0.0
 11
38.589935
 21
1130.8495
 31
0.0
  0
LINE
  5
A7
330
1E
100
AcDbEntity
  8
0
100
AcDbLine
 10
38.589935
 20
1134.459499999999
 30
0.0
 11
38.589935
 21
1138.7095
 31
0.0
  0
LINE
  5
A8
330
1E
100
AcDbEntity
  8
0
100
AcDbLine
 10
38.589935
 20
1130.8495
 30
0.0
 11
38.589935
 21
1134.459499999999
 31
0.0
  0
LINE
  5
A9
330
1E
100
AcDbEntity
  8
0
100
AcDbLine
 10
38.589935
 20
1130.8495
 30
0.0
 11
38.589935
 21
1128.0995
 31
0.0
  0
LINE
  5
AA
330
1E
100
AcDbEntity
  8
0
100
AcDbLine
 10
38.589935
 20
1128.0995
 30
0.0
 11
38.589935
 21
1130.8495
 31
0.0
  0
LINE
  5
AB
330
1E
100
AcDbEntity
  8
0
100
AcDbLine
 10
38.589935
 20
1128.0995
 30
0.0
 11
38.589935
 21
1126.3195
 31
0.0
  0
LINE
  5
AC
330
1E
100
AcDbEntity
  8
0
100
AcDbLine
 10
38.589935
 20
1126.3195
 30
0.0
 11
38.589935
 21
1128.0995
 31
0.0
  0
LINE
  5
AD
330
1E
100
AcDbEntity
  8
0
100
AcDbLine
 10
38.589935
 20
1126.3195
 30
0.0
 11
38.589935
 21
1125.7295
 31
0.0
  0
LINE
  5
AE
330
1E
100
AcDbEntity
  8
0
100
AcDbLine
 10
44.923235
 20
1415.33796785768
 30
0.0
 11
44.923235
 21
948.2395
 31
0.0
  0
LINE
  5
AF
330
1E
100
AcDbEntity
  8
0
100
AcDbLine
 10
44.923235
 20
1161.229499999999
 30
0.0
 11
44.923235
 21
1317.003249999999
 31
0.0
  0
LINE
  5
B0
330
1E
100
AcDbEntity
  8
0
100
AcDbLine
 10
39.92323499999999
 20
1330.1795
 30
0.0
 11
39.92323499999999
 21
1332.219499999999
 31
0.0
  0
LINE
  5
B1
330
1E
100
AcDbEntity
  8
0
100
AcDbLine
 10
39.92323499999999
 20
1332.219499999999
 30
0.0
 11
39.92323499999999
 21
1330.1795
 31
0.0
  0
LINE
  5
B2
330
1E
100
AcDbEntity
  8
0
100
AcDbLine
 10
39.92323499999999
 20
1332.219499999999
 30
0.0
 11
41.723235
 21
1339.5695
 31
0.0
  0
LINE
  5
B3
330
1E
100
AcDbEntity
  8
0
100
AcDbLine
 10
40.8232350000026
 20
1326.50949999999
 30
0.0
 11
41.723235
 21
1322.8395
 31
0.0
  0
LINE
  5
B4
330
1E
100
AcDbEntity
  8
0
100
AcDbLine
 10
41.723235
 20
1322.8395
 30
0.0
 11
42.22323499999999
 21
1320.8395
 31
0.0
  0
LINE
  5
B5
330
1E
100
AcDbEntity
  8
0
100
AcDbLine
 10
42.22323499999999
 20
1320.8395
 30
0.0
 11
47.023235
 21
1314.0195
 31
0.0
  0
LINE
  5
B6
330
1E
100
AcDbEntity
  8
0
100
AcDbLine
 10
41.723235
 20
1339.5695
 30
0.0
 11
46.623235
 21
1346.5095
 31
0.0
  0
LINE
  5
B7
330
1E
100
AcDbEntity
  8
0
100
AcDbLine
 10
41.723235
 20
1340.3895
 30
0.0
 11
46.623235
 21
1347.3295
 31
0.0
  0
LINE
  5
B8
330
1E
100
AcDbEntity
  8
0
100
AcDbLine
 10
39.92323499999999
 20
1341.649499999999
 30
0.0
 11
41.723235
 21
1348.9895
 31
0.0
  0
LINE
  5
B9
330
1E
100
AcDbEntity
  8
0
100
AcDbLine
 10
39.92323499999999
 20
1341.649499999999
 30
0.0
 11
39.92323499999999
 21
1333.0395
 31
0.0
  0
LINE
  5
BA
330
1E
100
AcDbEntity
  8
0
100
AcDbLine
 10
42.22323499999999
 20
1349.749499999999
 30
0.0
 11
47.023235
 21
1356.5695
 31
0.0
  0
LINE
  5
BB
330
1E
100
AcDbEntity
  8
0
100
AcDbLine
 10
41.723235
 20
1348.9895
 30
0.0
 11
42.22323499999999
 21
1349.749499999999
 31
0.0
  0
LINE
  5
BC
330
1E
100
AcDbEntity
  8
0
100
AcDbLine
 10
39.92323499999999
 20
1333.0395
 30
0.0
 11
40.0237115146358
 21
1332.62977910143
 31
0.0
  0
LINE
  5
BD
330
1E
100
AcDbEntity
  8
0
100
AcDbLine
 10
39.92323499999999
 20
1333.0395
 30
0.0
 11
39.92323499999999
 21
1341.649499999999
 31
0.0
  0
LINE
  5
BE
330
1E
100
AcDbEntity
  8
0
100
AcDbLine
 10
39.92323499999999
 20
1333.0395
 30
0.0
 11
41.723235
 21
1340.3895
 31
0.0
  0
LINE
  5
BF
330
1E
100
AcDbEntity
  8
0
100
AcDbLine
 10
44.923235
 20
1317.003249999999
 30
0.0
 11
44.923235
 21
1161.229499999999
 31
0.0
  0
LINE
  5
C0
330
1E
100
AcDbEntity
  8
0
100
AcDbLine
 10
44.923235
 20
1440.7395
 30
0.0
 11
45.32323499999999
 21
1440.7395
 31
0.0
  0
LINE
  5
C1
330
1E
100
AcDbEntity
  8
0
100
AcDbLine
 10
44.923235
 20
1440.7395
 30
0.0
 11
45.423235
 21
1441.2395
 31
0.0
  0
LINE
  5
C2
330
1E
100
AcDbEntity
  8
0
100
AcDbLine
 10
44.923235
 20
1440.7395
 30
0.0
 11
44.923235
 21
1353.58575
 31
0.0
  0
LINE
  5
C3
330
1E
100
AcDbEntity
  8
0
100
AcDbLine
 10
45.32323499999999
 20
1440.7395
 30
0.0
 11
46.42323499999999
 21
1440.7395
 31
0.0
  0
LINE
  5
C4
330
1E
100
AcDbEntity
  8
0
100
AcDbLine
 10
44.923235
 20
1353.58575
 30
0.0
 11
44.923235
 21
1440.7395
 31
0.0
  0
LINE
  5
C5
330
1E
100
AcDbEntity
  8
0
100
AcDbLine
 10
39.34373499999999
 20
1161.229499999999
 30
0.0
 11
44.923235
 21
1161.229499999999
 31
0.0
  0
LINE
  5
C6
330
1E
100
AcDbEntity
  8
0
100
AcDbLine
 10
38.589935
 20
1125.7295
 30
0.0
 11
38.589935
 21
1126.3195
 31
0.0
  0
LINE
  5
C7
330
1E
100
AcDbEntity
  8
0
100
AcDbLine
 10
38.589935
 20
1125.7295
 30
0.0
 11
39.34373499999999
 21
1125.2495
 31
0.0
  0
LINE
  5
C8
330
1E
100
AcDbEntity
  8
0
100
AcDbLine
 10
37.83603499999999
 20
1125.2495
 30
0.0
 11
38.589935
 21
1125.7295
 31
0.0
  0
LINE
  5
C9
330
1E
100
AcDbEntity
  8
0
100
AcDbLine
 10
45.32323499999999
 20
1441.739499999999
 30
0.0
 11
46.42323499999999
 21
1441.739499999999
 31
0.0
  0
LINE
  5
CA
330
1E
100
AcDbEntity
  8
0
100
AcDbLine
 10
45.423235
 20
1493.2395
 30
0.0
 11
45.823235
 21
1493.2395
 31
0.0
  0
LINE
  5
CB
330
1E
100
AcDbEntity
  8
0
100
AcDbLine
 10
45.32323499999999
 20
1492.739499999999
 30
0.0
 11
46.42323499999999
 21
1492.739499999999
 31
0.0
  0
LINE
  5
CC
330
1E
100
AcDbEntity
  8
0
100
AcDbLine
 10
44.923235
 20
1492.739499999999
 30
0.0
 11
44.923235
 21
1441.739499999999
 31
0.0
  0
LINE
  5
CD
330
1E
100
AcDbEntity
  8
0
100
AcDbLine
 10
44.923235
 20
1492.739499999999
 30
0.0
 11
45.32323499999999
 21
1492.739499999999
 31
0.0
  0
LINE
  5
CE
330
1E
100
AcDbEntity
  8
0
100
AcDbLine
 10
44.923235
 20
1492.739499999999
 30
0.0
 11
45.423235
 21
1493.2395
 31
0.0
  0
LINE
  5
CF
330
1E
100
AcDbEntity
  8
0
100
AcDbLine
 10
44.923235
 20
1441.739499999999
 30
0.0
 11
45.32323499999999
 21
1441.739499999999
 31
0.0
  0
LINE
  5
D0
330
1E
100
AcDbEntity
  8
0
100
AcDbLine
 10
44.923235
 20
1441.739499999999
 30
0.0
 11
44.923235
 21
1492.739499999999
 31
0.0
  0
LINE
  5
D1
330
1E
100
AcDbEntity
  8
0
100
AcDbLine
 10
45.423235
 20
1441.2395
 30
0.0
 11
45.823235
 21
1441.2395
 31
0.0
  0
LINE
  5
D2
330
1E
100
AcDbEntity
  8
0
100
AcDbLine
 10
44.923235
 20
876.7395
 30
0.0
 11
45.423235
 21
877.2395000000001
 31
0.0
  0
LINE
  5
D3
330
1E
100
AcDbEntity
  8
0
100
AcDbLine
 10
44.923235
 20
876.7395
 30
0.0
 11
45.32323499999999
 21
876.7395
 31
0.0
  0
LINE
  5
D4
330
1E
100
AcDbEntity
  8
0
100
AcDbLine
 10
44.923235
 20
876.7395
 30
0.0
 11
44.923235
 21
825.7395
 31
0.0
  0
LINE
  5
D5
330
1E
100
AcDbEntity
  8
0
100
AcDbLine
 10
45.823235
 20
825.2394999999999
 30
0.0
 11
46.82323499999999
 21
825.2394999999999
 31
0.0
  0
LINE
  5
D6
330
1E
100
AcDbEntity
  8
0
100
AcDbLine
 10
46.82323499999999
 20
825.2394999999999
 30
0.0
 11
48.523235
 21
825.2394999999999
 31
0.0
  0
LINE
  5
D7
330
1E
100
AcDbEntity
  8
0
100
AcDbLine
 10
46.42323499999999
 20
825.7395
 30
0.0
 11
48.123235
 21
825.7395
 31
0.0
  0
LINE
  5
D8
330
1E
100
AcDbEntity
  8
0
100
AcDbLine
 10
46.42323499999999
 20
876.7395
 30
0.0
 11
48.123235
 21
876.7395
 31
0.0
  0
LINE
  5
D9
330
1E
100
AcDbEntity
  8
0
100
AcDbLine
 10
48.523235
 20
825.2394999999999
 30
0.0
 11
50.72323499999999
 21
825.2394999999999
 31
0.0
  0
LINE
  5
DA
330
1E
100
AcDbEntity
  8
0
100
AcDbLine
 10
50.423235
 20
825.7395
 30
0.0
 11
53.123235
 21
825.7395
 31
0.0
  0
LINE
  5
DB
330
1E
100
AcDbEntity
  8
0
100
AcDbLine
 10
48.123235
 20
825.7395
 30
0.0
 11
50.423235
 21
825.7395
 31
0.0
  0
LINE
  5
DC
330
1E
100
AcDbEntity
  8
0
100
AcDbLine
 10
50.72323499999999
 20
825.2394999999999
 30
0.0
 11
53.22323499999999
 21
825.2394999999999
 31
0.0
  0
LINE
  5
DD
330
1E
100
AcDbEntity
  8
0
100
AcDbLine
 10
50.423235
 20
876.7395
 30
0.0
 11
53.123235
 21
876.7395
 31
0.0
  0
LINE
  5
DE
330
1E
100
AcDbEntity
  8
0
100
AcDbLine
 10
48.123235
 20
876.7395
 30
0.0
 11
50.423235
 21
876.7395
 31
0.0
  0
LINE
  5
DF
330
1E
100
AcDbEntity
  8
0
100
AcDbLine
 10
53.123235
 20
825.7395
 30
0.0
 11
55.923235
 21
825.7395
 31
0.0
  0
LINE
  5
E0
330
1E
100
AcDbEntity
  8
0
100
AcDbLine
 10
58.623235
 20
825.2394999999999
 30
0.0
 11
61.123235
 21
825.2394999999999
 31
0.0
  0
LINE
  5
E1
330
1E
100
AcDbEntity
  8
0
100
AcDbLine
 10
61.123235
 20
825.2394999999999
 30
0.0
 11
63.323235
 21
825.2394999999999
 31
0.0
  0
LINE
  5
E2
330
1E
100
AcDbEntity
  8
0
100
AcDbLine
 10
63.323235
 20
825.2394999999999
 30
0.0
 11
65.023235
 21
825.2394999999999
 31
0.0
  0
LINE
  5
E3
330
1E
100
AcDbEntity
  8
0
100
AcDbLine
 10
65.023235
 20
825.2394999999999
 30
0.0
 11
66.023235
 21
825.2394999999999
 31
0.0
  0
LINE
  5
E4
330
1E
100
AcDbEntity
  8
0
100
AcDbLine
 10
81.11303499999999
 20
786.5294999999999
 30
0.0
 11
96.76853499999999
 21
794.2094999999999
 31
0.0
  0
LINE
  5
E8
330
1E
100
AcDbEntity
  8
0
100
AcDbLine
 10
213.9232349999999
 20
87.73950000000009
 30
0.0
 11
256.923235
 21
87.73950000000009
 31
0.0
  0
LINE
  5
E9
330
1E
100
AcDbEntity
  8
0
100
AcDbLine
 10
213.9232349999999
 20
87.73950000000009
 30
0.0
 11
213.9232349999999
 21
88.53950000000009
 31
0.0
  0
LINE
  5
EA
330
1E
100
AcDbEntity
  8
0
100
AcDbLine
 10
256.923235
 20
87.73950000000009
 30
0.0
 11
256.923235
 21
88.53950000000009
 31
0.0
  0
LINE
  5
EB
330
1E
100
AcDbEntity
  8
0
100
AcDbLine
 10
253.323235
 20
86.13950000000009
 30
0.0
 11
260.023235
 21
81.03950000000009
 31
0.0
  0
LINE
  5
EC
330
1E
100
AcDbEntity
  8
0
100
AcDbLine
 10
252.105324552239
 20
87.73950000000009
 30
0.0
 11
253.323235
 21
86.13950000000009
 31
0.0
  0
LINE
  5
ED
330
1E
100
AcDbEntity
  8
0
100
AcDbLine
 10
251.923235
 20
84.73950000000009
 30
0.0
 11
259.0232349999999
 21
79.3395000000001
 31
0.0
  0
LINE
  5
EE
330
1E
100
AcDbEntity
  8
0
100
AcDbLine
 10
249.6415448591549
 20
87.73950000000009
 30
0.0
 11
251.923235
 21
84.73950000000009
 31
0.0
  0
LINE
  5
EF
330
1E
100
AcDbEntity
  8
0
100
AcDbLine
 10
256.923235
 20
88.53950000000009
 30
0.0
 11
256.923235
 21
90.53950000000009
 31
0.0
  0
LINE
  5
F0
330
1E
100
AcDbEntity
  8
0
100
AcDbLine
 10
256.923235
 20
88.53950000000009
 30
0.0
 11
256.923235
 21
87.73950000000009
 31
0.0
  0
LINE
  5
F1
330
1E
100
AcDbEntity
  8
0
100
AcDbLine
 10
256.923235
 20
89.2395000000001
 30
0.0
 11
258.923235
 21
89.2395000000001
 31
0.0
  0
LINE
  5
F2
330
1E
100
AcDbEntity
  8
0
100
AcDbLine
 10
213.9232349999999
 20
88.53950000000009
 30
0.0
 11
213.9232349999999
 21
90.53950000000009
 31
0.0
  0
LINE
  5
F3
330
1E
100
AcDbEntity
  8
0
100
AcDbLine
 10
213.9232349999999
 20
88.53950000000009
 30
0.0
 11
213.9232349999999
 21
87.73950000000009
 31
0.0
  0
LINE
  5
F4
330
1E
100
AcDbEntity
  8
0
100
AcDbLine
 10
212.923235
 20
88.73950000000009
 30
0.0
 11
213.9232349999999
 21
87.73950000000009
 31
0.0
  0
LINE
  5
F5
330
1E
100
AcDbEntity
  8
0
100
AcDbLine
 10
212.923235
 20
88.73950000000009
 30
0.0
 11
212.923235
 21
89.4395000000002
 31
0.0
  0
LINE
  5
F6
330
1E
100
AcDbEntity
  8
0
100
AcDbLine
 10
256.923235
 20
90.53950000000009
 30
0.0
 11
256.923235
 21
93.93950000000021
 31
0.0
  0
LINE
  5
F7
330
1E
100
AcDbEntity
  8
0
100
AcDbLine
 10
256.923235
 20
90.53950000000009
 30
0.0
 11
256.923235
 21
88.53950000000009
 31
0.0
  0
LINE
  5
F8
330
1E
100
AcDbEntity
  8
0
100
AcDbLine
 10
213.9232349999999
 20
90.53950000000009
 30
0.0
 11
213.9232349999999
 21
93.93950000000021
 31
0.0
  0
LINE
  5
F9
330
1E
100
AcDbEntity
  8
0
100
AcDbLine
 10
213.9232349999999
 20
90.53950000000009
 30
0.0
 11
213.9232349999999
 21
88.53950000000009
 31
0.0
  0
LINE
  5
FA
330
1E
100
AcDbEntity
  8
0
100
AcDbLine
 10
212.923235
 20
89.4395000000002
 30
0.0
 11
212.923235
 21
91.43950000000021
 31
0.0
  0
LINE
  5
FB
330
1E
100
AcDbEntity
  8
0
100
AcDbLine
 10
212.923235
 20
89.4395000000002
 30
0.0
 11
212.923235
 21
88.73950000000009
 31
0.0
  0
LINE
  5
FC
330
1E
100
AcDbEntity
  8
0
100
AcDbLine
 10
258.923235
 20
89.2395000000001
 30
0.0
 11
258.923235
 21
89.93950000000021
 31
0.0
  0
LINE
  5
FD
330
1E
100
AcDbEntity
  8
0
100
AcDbLine
 10
258.923235
 20
89.2395000000001
 30
0.0
 11
258.923235
 21
88.53950000000009
 31
0.0
  0
LINE
  5
FE
330
1E
100
AcDbEntity
  8
0
100
AcDbLine
 10
258.923235
 20
89.93950000000021
 30
0.0
 11
258.923235
 21
91.83950000000022
 31
0.0
  0
LINE
  5
FF
330
1E
100
AcDbEntity
  8
0
100
AcDbLine
 10
258.923235
 20
87.73950000000009
 30
0.0
 11
258.923235
 21
88.53950000000009
 31
0.0
  0
LINE
  5
100
330
1E
100
AcDbEntity
  8
0
100
AcDbLine
 10
258.923235
 20
87.73950000000009
 30
0.0
 11
361.9217349999999
 21
87.73950000000009
 31
0.0
  0
LINE
  5
101
330
1E
100
AcDbEntity
  8
0
100
AcDbLine
 10
258.923235
 20
88.53950000000009
 30
0.0
 11
258.923235
 21
90.53950000000009
 31
0.0
  0
LINE
  5
102
330
1E
100
AcDbEntity
  8
0
100
AcDbLine
 10
258.923235
 20
88.53950000000009
 30
0.0
 11
258.923235
 21
87.73950000000009
 31
0.0
  0
LINE
  5
103
330
1E
100
AcDbEntity
  8
0
100
AcDbLine
 10
258.923235
 20
88.53950000000009
 30
0.0
 11
258.923235
 21
89.2395000000001
 31
0.0
  0
LINE
  5
104
330
1E
100
AcDbEntity
  8
0
100
AcDbLine
 10
212.923235
 20
91.43950000000021
 30
0.0
 11
212.923235
 21
94.63950000000009
 31
0.0
  0
LINE
  5
105
330
1E
100
AcDbEntity
  8
0
100
AcDbLine
 10
212.923235
 20
91.43950000000021
 30
0.0
 11
212.923235
 21
89.4395000000002
 31
0.0
  0
LINE
  5
106
330
1E
100
AcDbEntity
  8
0
100
AcDbLine
 10
256.923235
 20
93.93950000000021
 30
0.0
 11
256.923235
 21
98.2395000000001
 31
0.0
  0
LINE
  5
107
330
1E
100
AcDbEntity
  8
0
100
AcDbLine
 10
256.923235
 20
93.93950000000021
 30
0.0
 11
256.923235
 21
90.53950000000009
 31
0.0
  0
LINE
  5
108
330
1E
100
AcDbEntity
  8
0
100
AcDbLine
 10
256.923235
 20
98.2395000000001
 30
0.0
 11
256.923235
 21
103.3395
 31
0.0
  0
LINE
  5
109
330
1E
100
AcDbEntity
  8
0
100
AcDbLine
 10
256.923235
 20
98.2395000000001
 30
0.0
 11
256.923235
 21
93.93950000000021
 31
0.0
  0
LINE
  5
10A
330
1E
100
AcDbEntity
  8
0
100
AcDbLine
 10
213.9232349999999
 20
98.2395000000001
 30
0.0
 11
213.9232349999999
 21
103.3395
 31
0.0
  0
LINE
  5
10B
330
1E
100
AcDbEntity
  8
0
100
AcDbLine
 10
213.9232349999999
 20
98.2395000000001
 30
0.0
 11
213.9232349999999
 21
93.93950000000021
 31
0.0
  0
LINE
  5
10C
330
1E
100
AcDbEntity
  8
0
100
AcDbLine
 10
213.9232349999999
 20
93.93950000000021
 30
0.0
 11
213.9232349999999
 21
98.2395000000001
 31
0.0
  0
LINE
  5
10D
330
1E
100
AcDbEntity
  8
0
100
AcDbLine
 10
213.9232349999999
 20
93.93950000000021
 30
0.0
 11
213.9232349999999
 21
90.53950000000009
 31
0.0
  0
LINE
  5
10E
330
1E
100
AcDbEntity
  8
0
100
AcDbLine
 10
212.923235
 20
94.63950000000009
 30
0.0
 11
212.923235
 21
98.73950000000009
 31
0.0
  0
LINE
  5
10F
330
1E
100
AcDbEntity
  8
0
100
AcDbLine
 10
212.923235
 20
94.63950000000009
 30
0.0
 11
212.923235
 21
91.43950000000021
 31
0.0
  0
LINE
  5
110
330
1E
100
AcDbEntity
  8
0
100
AcDbLine
 10
258.923235
 20
91.83950000000022
 30
0.0
 11
258.923235
 21
94.93950000000021
 31
0.0
  0
LINE
  5
111
330
1E
100
AcDbEntity
  8
0
100
AcDbLine
 10
258.923235
 20
94.93950000000021
 30
0.0
 11
258.923235
 21
99.03950000000008
 31
0.0
  0
LINE
  5
112
330
1E
100
AcDbEntity
  8
0
100
AcDbLine
 10
258.923235
 20
90.53950000000009
 30
0.0
 11
258.923235
 21
93.93950000000021
 31
0.0
  0
LINE
  5
113
330
1E
100
AcDbEntity
  8
0
100
AcDbLine
 10
258.923235
 20
90.53950000000009
 30
0.0
 11
258.923235
 21
88.53950000000009
 31
0.0
  0
LINE
  5
114
330
1E
100
AcDbEntity
  8
0
100
AcDbLine
 10
258.923235
 20
93.93950000000021
 30
0.0
 11
258.923235
 21
98.2395000000001
 31
0.0
  0
LINE
  5
115
330
1E
100
AcDbEntity
  8
0
100
AcDbLine
 10
258.923235
 20
93.93950000000021
 30
0.0
 11
258.923235
 21
90.53950000000009
 31
0.0
  0
LINE
  5
116
330
1E
100
AcDbEntity
  8
0
100
AcDbLine
 10
212.923235
 20
98.73950000000009
 30
0.0
 11
212.923235
 21
103.5395
 31
0.0
  0
LINE
  5
117
330
1E
100
AcDbEntity
  8
0
100
AcDbLine
 10
212.923235
 20
98.73950000000009
 30
0.0
 11
212.923235
 21
94.63950000000009
 31
0.0
  0
LINE
  5
118
330
1E
100
AcDbEntity
  8
0
100
AcDbLine
 10
211.4232349999999
 20
101.0395
 30
0.0
 11
211.4232349999999
 21
101.8394999999999
 31
0.0
  0
LINE
  5
119
330
1E
100
AcDbEntity
  8
0
100
AcDbLine
 10
211.4232349999999
 20
101.0395
 30
0.0
 11
211.4232349999999
 21
100.7395
 31
0.0
  0
LINE
  5
11A
330
1E
100
AcDbEntity
  8
0
100
AcDbLine
 10
211.4232349999999
 20
100.7395
 30
0.0
 11
212.923235
 21
88.73950000000009
 31
0.0
  0
LINE
  5
11B
330
1E
100
AcDbEntity
  8
0
100
AcDbLine
 10
211.4232349999999
 20
100.7395
 30
0.0
 11
211.4232349999999
 21
101.0395
 31
0.0
  0
LINE
  5
11C
330
1E
100
AcDbEntity
  8
0
100
AcDbLine
 10
210.923235
 20
100.7395
 30
0.0
 11
210.923235
 21
101.0395
 31
0.0
  0
LINE
  5
11D
330
1E
100
AcDbEntity
  8
0
100
AcDbLine
 10
210.923235
 20
100.7395
 30
0.0
 11
211.4232349999999
 21
100.7395
 31
0.0
  0
LINE
  5
11E
330
1E
100
AcDbEntity
  8
0
100
AcDbLine
 10
210.923235
 20
103.1395
 30
0.0
 11
210.923235
 21
101.8394999999999
 31
0.0
  0
LINE
  5
11F
330
1E
100
AcDbEntity
  8
0
100
AcDbLine
 10
210.923235
 20
103.1395
 30
0.0
 11
210.923235
 21
104.7395
 31
0.0
  0
LINE
  5
120
330
1E
100
AcDbEntity
  8
0
100
AcDbLine
 10
256.923235
 20
103.3395
 30
0.0
 11
256.923235
 21
108.7395
 31
0.0
  0
LINE
  5
121
330
1E
100
AcDbEntity
  8
0
100
AcDbLine
 10
256.923235
 20
103.3395
 30
0.0
 11
256.923235
 21
98.2395000000001
 31
0.0
  0
LINE
  5
122
330
1E
100
AcDbEntity
  8
0
100
AcDbLine
 10
213.9232349999999
 20
103.3395
 30
0.0
 11
213.9232349999999
 21
108.7395
 31
0.0
  0
LINE
  5
123
330
1E
100
AcDbEntity
  8
0
100
AcDbLine
 10
213.9232349999999
 20
103.3395
 30
0.0
 11
213.9232349999999
 21
98.2395000000001
 31
0.0
  0
LINE
  5
124
330
1E
100
AcDbEntity
  8
0
100
AcDbLine
 10
232.923235
 20
103.7395
 30
0.0
 11
234.723235
 21
103.9395
 31
0.0
  0
LINE
  5
125
330
1E
100
AcDbEntity
  8
0
100
AcDbLine
 10
212.923235
 20
103.5395
 30
0.0
 11
212.923235
 21
108.7395
 31
0.0
  0
LINE
  5
126
330
1E
100
AcDbEntity
  8
0
100
AcDbLine
 10
212.923235
 20
103.5395
 30
0.0
 11
212.923235
 21
98.73950000000009
 31
0.0
  0
LINE
  5
127
330
1E
100
AcDbEntity
  8
0
100
AcDbLine
 10
211.4232349999999
 20
103.1395
 30
0.0
 11
211.4232349999999
 21
104.7395
 31
0.0
  0
LINE
  5
128
330
1E
100
AcDbEntity
  8
0
100
AcDbLine
 10
211.4232349999999
 20
103.1395
 30
0.0
 11
211.4232349999999
 21
101.8394999999999
 31
0.0
  0
LINE
  5
129
330
1E
100
AcDbEntity
  8
0
100
AcDbLine
 10
211.4232349999999
 20
101.8394999999999
 30
0.0
 11
211.4232349999999
 21
103.1395
 31
0.0
  0
LINE
  5
12A
330
1E
100
AcDbEntity
  8
0
100
AcDbLine
 10
211.4232349999999
 20
101.8394999999999
 30
0.0
 11
211.4232349999999
 21
101.0395
 31
0.0
  0
LINE
  5
12B
330
1E
100
AcDbEntity
  8
0
100
AcDbLine
 10
210.923235
 20
101.8394999999999
 30
0.0
 11
210.923235
 21
101.0395
 31
0.0
  0
LINE
  5
12C
330
1E
100
AcDbEntity
  8
0
100
AcDbLine
 10
210.923235
 20
101.8394999999999
 30
0.0
 11
210.923235
 21
103.1395
 31
0.0
  0
LINE
  5
12D
330
1E
100
AcDbEntity
  8
0
100
AcDbLine
 10
210.923235
 20
101.0395
 30
0.0
 11
210.923235
 21
100.7395
 31
0.0
  0
LINE
  5
12E
330
1E
100
AcDbEntity
  8
0
100
AcDbLine
 10
210.923235
 20
101.0395
 30
0.0
 11
210.923235
 21
101.8394999999999
 31
0.0
  0
LINE
  5
12F
330
1E
100
AcDbEntity
  8
0
100
AcDbLine
 10
258.923235
 20
99.03950000000008
 30
0.0
 11
258.923235
 21
103.7395
 31
0.0
  0
LINE
  5
130
330
1E
100
AcDbEntity
  8
0
100
AcDbLine
 10
234.723235
 20
103.9395
 30
0.0
 11
236.4232349999999
 21
104.4394999999999
 31
0.0
  0
LINE
  5
131
330
1E
100
AcDbEntity
  8
0
100
AcDbLine
 10
236.4232349999999
 20
104.4394999999999
 30
0.0
 11
237.823235
 21
105.2395
 31
0.0
  0
LINE
  5
132
330
1E
100
AcDbEntity
  8
0
100
AcDbLine
 10
229.423235
 20
104.4394999999999
 30
0.0
 11
231.123235
 21
103.9395
 31
0.0
  0
LINE
  5
133
330
1E
100
AcDbEntity
  8
0
100
AcDbLine
 10
231.123235
 20
103.9395
 30
0.0
 11
232.923235
 21
103.7395
 31
0.0
  0
LINE
  5
134
330
1E
100
AcDbEntity
  8
0
100
AcDbLine
 10
211.4232349999999
 20
104.7395
 30
0.0
 11
211.4232349999999
 21
106.6394999999999
 31
0.0
  0
LINE
  5
135
330
1E
100
AcDbEntity
  8
0
100
AcDbLine
 10
211.4232349999999
 20
104.7395
 30
0.0
 11
211.4232349999999
 21
103.1395
 31
0.0
  0
LINE
  5
136
330
1E
100
AcDbEntity
  8
0
100
AcDbLine
 10
210.923235
 20
110.8395
 30
0.0
 11
210.923235
 21
112.7395
 31
0.0
  0
LINE
  5
137
330
1E
100
AcDbEntity
  8
0
100
AcDbLine
 10
210.923235
 20
110.8395
 30
0.0
 11
210.923235
 21
108.7395
 31
0.0
  0
LINE
  5
138
330
1E
100
AcDbEntity
  8
0
100
AcDbLine
 10
210.923235
 20
112.7395
 30
0.0
 11
210.923235
 21
114.3394999999999
 31
0.0
  0
LINE
  5
139
330
1E
100
AcDbEntity
  8
0
100
AcDbLine
 10
210.923235
 20
112.7395
 30
0.0
 11
210.923235
 21
110.8395
 31
0.0
  0
LINE
  5
13A
330
1E
100
AcDbEntity
  8
0
100
AcDbLine
 10
210.923235
 20
108.7395
 30
0.0
 11
210.923235
 21
106.6394999999999
 31
0.0
  0
LINE
  5
13B
330
1E
100
AcDbEntity
  8
0
100
AcDbLine
 10
210.923235
 20
108.7395
 30
0.0
 11
210.923235
 21
110.8395
 31
0.0
  0
LINE
  5
13C
330
1E
100
AcDbEntity
  8
0
100
AcDbLine
 10
237.823235
 20
105.2395
 30
0.0
 11
239.023235
 21
106.2394999999999
 31
0.0
  0
LINE
  5
13D
330
1E
100
AcDbEntity
  8
0
100
AcDbLine
 10
239.023235
 20
106.2394999999999
 30
0.0
 11
239.623235
 21
107.4394999999999
 31
0.0
  0
LINE
  5
13E
330
1E
100
AcDbEntity
  8
0
100
AcDbLine
 10
228.0232349999999
 20
105.2395
 30
0.0
 11
229.423235
 21
104.4394999999999
 31
0.0
  0
LINE
  5
13F
330
1E
100
AcDbEntity
  8
0
100
AcDbLine
 10
226.823235
 20
106.2394999999999
 30
0.0
 11
228.0232349999999
 21
105.2395
 31
0.0
  0
LINE
  5
140
330
1E
100
AcDbEntity
  8
0
100
AcDbLine
 10
211.4232349999999
 20
110.8395
 30
0.0
 11
211.4232349999999
 21
112.7395
 31
0.0
  0
LINE
  5
141
330
1E
100
AcDbEntity
  8
0
100
AcDbLine
 10
211.4232349999999
 20
110.8395
 30
0.0
 11
211.4232349999999
 21
108.7395
 31
0.0
  0
LINE
  5
142
330
1E
100
AcDbEntity
  8
0
100
AcDbLine
 10
211.4232349999999
 20
112.7395
 30
0.0
 11
211.4232349999999
 21
114.3394999999999
 31
0.0
  0
LINE
  5
143
330
1E
100
AcDbEntity
  8
0
100
AcDbLine
 10
211.4232349999999
 20
112.7395
 30
0.0
 11
211.4232349999999
 21
110.8395
 31
0.0
  0
LINE
  5
144
330
1E
100
AcDbEntity
  8
0
100
AcDbLine
 10
239.623235
 20
107.4394999999999
 30
0.0
 11
239.923235
 21
108.7395
 31
0.0
  0
LINE
  5
145
330
1E
100
AcDbEntity
  8
0
100
AcDbLine
 10
226.223235
 20
107.4394999999999
 30
0.0
 11
226.823235
 21
106.2394999999999
 31
0.0
  0
LINE
  5
146
330
1E
100
AcDbEntity
  8
0
100
AcDbLine
 10
225.923235
 20
108.7395
 30
0.0
 11
226.223235
 21
107.4394999999999
 31
0.0
  0
LINE
  5
147
330
1E
100
AcDbEntity
  8
0
100
AcDbLine
 10
225.923235
 20
108.7395
 30
0.0
 11
226.223235
 21
110.0395
 31
0.0
  0
LINE
  5
148
330
1E
100
AcDbEntity
  8
0
100
AcDbLine
 10
256.923235
 20
108.7395
 30
0.0
 11
256.923235
 21
103.3395
 31
0.0
  0
LINE
  5
149
330
1E
100
AcDbEntity
  8
0
100
AcDbLine
 10
256.923235
 20
108.7395
 30
0.0
 11
256.923235
 21
114.1394999999999
 31
0.0
  0
LINE
  5
14A
330
1E
100
AcDbEntity
  8
0
100
AcDbLine
 10
213.9232349999999
 20
108.7395
 30
0.0
 11
213.9232349999999
 21
103.3395
 31
0.0
  0
LINE
  5
14B
330
1E
100
AcDbEntity
  8
0
100
AcDbLine
 10
213.9232349999999
 20
108.7395
 30
0.0
 11
213.9232349999999
 21
114.1394999999999
 31
0.0
  0
LINE
  5
14C
330
1E
100
AcDbEntity
  8
0
100
AcDbLine
 10
239.023235
 20
111.2395
 30
0.0
 11
239.623235
 21
110.0395
 31
0.0
  0
LINE
  5
14D
330
1E
100
AcDbEntity
  8
0
100
AcDbLine
 10
239.623235
 20
110.0395
 30
0.0
 11
239.923235
 21
108.7395
 31
0.0
  0
LINE
  5
14E
330
1E
100
AcDbEntity
  8
0
100
AcDbLine
 10
234.723235
 20
113.5395
 30
0.0
 11
236.4232349999999
 21
113.0395
 31
0.0
  0
LINE
  5
14F
330
1E
100
AcDbEntity
  8
0
100
AcDbLine
 10
236.4232349999999
 20
113.0395
 30
0.0
 11
237.823235
 21
112.2395
 31
0.0
  0
LINE
  5
150
330
1E
100
AcDbEntity
  8
0
100
AcDbLine
 10
237.823235
 20
112.2395
 30
0.0
 11
239.023235
 21
111.2395
 31
0.0
  0
LINE
  5
151
330
1E
100
AcDbEntity
  8
0
100
AcDbLine
 10
229.423235
 20
113.0395
 30
0.0
 11
231.123235
 21
113.5395
 31
0.0
  0
LINE
  5
152
330
1E
100
AcDbEntity
  8
0
100
AcDbLine
 10
231.123235
 20
113.5395
 30
0.0
 11
232.923235
 21
113.7395
 31
0.0
  0
LINE
  5
153
330
1E
100
AcDbEntity
  8
0
100
AcDbLine
 10
228.0232349999999
 20
112.2395
 30
0.0
 11
229.423235
 21
113.0395
 31
0.0
  0
LINE
  5
154
330
1E
100
AcDbEntity
  8
0
100
AcDbLine
 10
226.823235
 20
111.2395
 30
0.0
 11
228.0232349999999
 21
112.2395
 31
0.0
  0
LINE
  5
155
330
1E
100
AcDbEntity
  8
0
100
AcDbLine
 10
226.223235
 20
110.0395
 30
0.0
 11
226.823235
 21
111.2395
 31
0.0
  0
LINE
  5
156
330
1E
100
AcDbEntity
  8
0
100
AcDbLine
 10
232.923235
 20
113.7395
 30
0.0
 11
234.723235
 21
113.5395
 31
0.0
  0
LINE
  5
157
330
1E
100
AcDbEntity
  8
0
100
AcDbLine
 10
256.923235
 20
114.1394999999999
 30
0.0
 11
256.923235
 21
119.2395
 31
0.0
  0
LINE
  5
158
330
1E
100
AcDbEntity
  8
0
100
AcDbLine
 10
256.923235
 20
114.1394999999999
 30
0.0
 11
256.923235
 21
108.7395
 31
0.0
  0
LINE
  5
159
330
1E
100
AcDbEntity
  8
0
100
AcDbLine
 10
213.9232349999999
 20
114.1394999999999
 30
0.0
 11
213.9232349999999
 21
119.2395
 31
0.0
  0
LINE
  5
15A
330
1E
100
AcDbEntity
  8
0
100
AcDbLine
 10
213.9232349999999
 20
114.1394999999999
 30
0.0
 11
213.9232349999999
 21
108.7395
 31
0.0
  0
LINE
  5
15B
330
1E
100
AcDbEntity
  8
0
100
AcDbLine
 10
212.923235
 20
113.9394999999999
 30
0.0
 11
212.923235
 21
118.7395
 31
0.0
  0
LINE
  5
15C
330
1E
100
AcDbEntity
  8
0
100
AcDbLine
 10
212.923235
 20
113.9394999999999
 30
0.0
 11
212.923235
 21
108.7395
 31
0.0
  0
LINE
  5
15D
330
1E
100
AcDbEntity
  8
0
100
AcDbLine
 10
212.923235
 20
108.7395
 30
0.0
 11
212.923235
 21
103.5395
 31
0.0
  0
LINE
  5
15E
330
1E
100
AcDbEntity
  8
0
100
AcDbLine
 10
212.923235
 20
108.7395
 30
0.0
 11
212.923235
 21
113.9394999999999
 31
0.0
  0
LINE
  5
15F
330
1E
100
AcDbEntity
  8
0
100
AcDbLine
 10
211.4232349999999
 20
108.7395
 30
0.0
 11
211.4232349999999
 21
106.6394999999999
 31
0.0
  0
LINE
  5
160
330
1E
100
AcDbEntity
  8
0
100
AcDbLine
 10
211.4232349999999
 20
108.7395
 30
0.0
 11
211.4232349999999
 21
110.8395
 31
0.0
  0
LINE
  5
161
330
1E
100
AcDbEntity
  8
0
100
AcDbLine
 10
211.4232349999999
 20
106.6394999999999
 30
0.0
 11
211.4232349999999
 21
108.7395
 31
0.0
  0
LINE
  5
162
330
1E
100
AcDbEntity
  8
0
100
AcDbLine
 10
211.4232349999999
 20
106.6394999999999
 30
0.0
 11
211.4232349999999
 21
104.7395
 31
0.0
  0
LINE
  5
163
330
1E
100
AcDbEntity
  8
0
100
AcDbLine
 10
210.923235
 20
106.6394999999999
 30
0.0
 11
210.923235
 21
104.7395
 31
0.0
  0
LINE
  5
164
330
1E
100
AcDbEntity
  8
0
100
AcDbLine
 10
210.923235
 20
106.6394999999999
 30
0.0
 11
210.923235
 21
108.7395
 31
0.0
  0
LINE
  5
165
330
1E
100
AcDbEntity
  8
0
100
AcDbLine
 10
210.923235
 20
104.7395
 30
0.0
 11
210.923235
 21
103.1395
 31
0.0
  0
LINE
  5
166
330
1E
100
AcDbEntity
  8
0
100
AcDbLine
 10
210.923235
 20
104.7395
 30
0.0
 11
210.923235
 21
106.6394999999999
 31
0.0
  0
LINE
  5
167
330
1E
100
AcDbEntity
  8
0
100
AcDbLine
 10
258.923235
 20
113.7395
 30
0.0
 11
258.923235
 21
118.4395
 31
0.0
  0
LINE
  5
168
330
1E
100
AcDbEntity
  8
0
100
AcDbLine
 10
210.923235
 20
114.3394999999999
 30
0.0
 11
210.923235
 21
115.6395
 31
0.0
  0
LINE
  5
169
330
1E
100
AcDbEntity
  8
0
100
AcDbLine
 10
210.923235
 20
114.3394999999999
 30
0.0
 11
210.923235
 21
112.7395
 31
0.0
  0
LINE
  5
16A
330
1E
100
AcDbEntity
  8
0
100
AcDbLine
 10
210.923235
 20
116.7395
 30
0.0
 11
210.923235
 21
116.4395
 31
0.0
  0
LINE
  5
16B
330
1E
100
AcDbEntity
  8
0
100
AcDbLine
 10
210.923235
 20
116.7395
 30
0.0
 11
211.4232349999999
 21
116.7395
 31
0.0
  0
LINE
  5
16C
330
1E
100
AcDbEntity
  8
0
100
AcDbLine
 10
210.923235
 20
115.6395
 30
0.0
 11
210.923235
 21
116.4395
 31
0.0
  0
LINE
  5
16D
330
1E
100
AcDbEntity
  8
0
100
AcDbLine
 10
210.923235
 20
115.6395
 30
0.0
 11
210.923235
 21
114.3394999999999
 31
0.0
  0
LINE
  5
16E
330
1E
100
AcDbEntity
  8
0
100
AcDbLine
 10
211.4232349999999
 20
114.3394999999999
 30
0.0
 11
211.4232349999999
 21
115.6395
 31
0.0
  0
LINE
  5
16F
330
1E
100
AcDbEntity
  8
0
100
AcDbLine
 10
211.4232349999999
 20
114.3394999999999
 30
0.0
 11
211.4232349999999
 21
112.7395
 31
0.0
  0
LINE
  5
170
330
1E
100
AcDbEntity
  8
0
100
AcDbLine
 10
211.4232349999999
 20
115.6395
 30
0.0
 11
211.4232349999999
 21
116.4395
 31
0.0
  0
LINE
  5
171
330
1E
100
AcDbEntity
  8
0
100
AcDbLine
 10
211.4232349999999
 20
115.6395
 30
0.0
 11
211.4232349999999
 21
114.3394999999999
 31
0.0
  0
LINE
  5
172
330
1E
100
AcDbEntity
  8
0
100
AcDbLine
 10
256.923235
 20
119.2395
 30
0.0
 11
256.923235
 21
123.5395
 31
0.0
  0
LINE
  5
173
330
1E
100
AcDbEntity
  8
0
100
AcDbLine
 10
256.923235
 20
119.2395
 30
0.0
 11
256.923235
 21
114.1394999999999
 31
0.0
  0
LINE
  5
174
330
1E
100
AcDbEntity
  8
0
100
AcDbLine
 10
213.9232349999999
 20
119.2395
 30
0.0
 11
213.9232349999999
 21
123.5395
 31
0.0
  0
LINE
  5
175
330
1E
100
AcDbEntity
  8
0
100
AcDbLine
 10
213.9232349999999
 20
119.2395
 30
0.0
 11
213.9232349999999
 21
114.1394999999999
 31
0.0
  0
LINE
  5
176
330
1E
100
AcDbEntity
  8
0
100
AcDbLine
 10
212.923235
 20
118.7395
 30
0.0
 11
212.923235
 21
122.8395
 31
0.0
  0
LINE
  5
177
330
1E
100
AcDbEntity
  8
0
100
AcDbLine
 10
212.923235
 20
118.7395
 30
0.0
 11
212.923235
 21
113.9394999999999
 31
0.0
  0
LINE
  5
178
330
1E
100
AcDbEntity
  8
0
100
AcDbLine
 10
211.4232349999999
 20
116.7395
 30
0.0
 11
211.4232349999999
 21
116.4395
 31
0.0
  0
LINE
  5
179
330
1E
100
AcDbEntity
  8
0
100
AcDbLine
 10
211.4232349999999
 20
116.7395
 30
0.0
 11
212.923235
 21
128.7394999999999
 31
0.0
  0
LINE
  5
17A
330
1E
100
AcDbEntity
  8
0
100
AcDbLine
 10
211.4232349999999
 20
116.4395
 30
0.0
 11
211.4232349999999
 21
116.7395
 31
0.0
  0
LINE
  5
17B
330
1E
100
AcDbEntity
  8
0
100
AcDbLine
 10
211.4232349999999
 20
116.4395
 30
0.0
 11
211.4232349999999
 21
115.6395
 31
0.0
  0
LINE
  5
17C
330
1E
100
AcDbEntity
  8
0
100
AcDbLine
 10
210.923235
 20
116.4395
 30
0.0
 11
210.923235
 21
116.7395
 31
0.0
  0
LINE
  5
17D
330
1E
100
AcDbEntity
  8
0
100
AcDbLine
 10
210.923235
 20
116.4395
 30
0.0
 11
210.923235
 21
115.6395
 31
0.0
  0
LINE
  5
17E
330
1E
100
AcDbEntity
  8
0
100
AcDbLine
 10
256.923235
 20
123.5395
 30
0.0
 11
256.923235
 21
126.9395
 31
0.0
  0
LINE
  5
17F
330
1E
100
AcDbEntity
  8
0
100
AcDbLine
 10
256.923235
 20
123.5395
 30
0.0
 11
256.923235
 21
119.2395
 31
0.0
  0
LINE
  5
180
330
1E
100
AcDbEntity
  8
0
100
AcDbLine
 10
213.9232349999999
 20
123.5395
 30
0.0
 11
213.9232349999999
 21
126.9395
 31
0.0
  0
LINE
  5
181
330
1E
100
AcDbEntity
  8
0
100
AcDbLine
 10
213.9232349999999
 20
123.5395
 30
0.0
 11
213.9232349999999
 21
119.2395
 31
0.0
  0
LINE
  5
182
330
1E
100
AcDbEntity
  8
0
100
AcDbLine
 10
212.923235
 20
122.8395
 30
0.0
 11
212.923235
 21
126.0395
 31
0.0
  0
LINE
  5
183
330
1E
100
AcDbEntity
  8
0
100
AcDbLine
 10
212.923235
 20
122.8395
 30
0.0
 11
212.923235
 21
118.7395
 31
0.0
  0
LINE
  5
184
330
1E
100
AcDbEntity
  8
0
100
AcDbLine
 10
258.923235
 20
122.5395
 30
0.0
 11
258.923235
 21
125.6394999999999
 31
0.0
  0
LINE
  5
185
330
1E
100
AcDbEntity
  8
0
100
AcDbLine
 10
258.923235
 20
118.4395
 30
0.0
 11
258.923235
 21
122.5395
 31
0.0
  0
LINE
  5
186
330
1E
100
AcDbEntity
  8
0
100
AcDbLine
 10
213.9232349999999
 20
126.9395
 30
0.0
 11
213.9232349999999
 21
128.9395
 31
0.0
  0
LINE
  5
187
330
1E
100
AcDbEntity
  8
0
100
AcDbLine
 10
213.9232349999999
 20
126.9395
 30
0.0
 11
213.9232349999999
 21
123.5395
 31
0.0
  0
LINE
  5
188
330
1E
100
AcDbEntity
  8
0
100
AcDbLine
 10
212.923235
 20
126.0395
 30
0.0
 11
212.923235
 21
128.0395
 31
0.0
  0
LINE
  5
189
330
1E
100
AcDbEntity
  8
0
100
AcDbLine
 10
212.923235
 20
126.0395
 30
0.0
 11
212.923235
 21
122.8395
 31
0.0
  0
LINE
  5
18A
330
1E
100
AcDbEntity
  8
0
100
AcDbLine
 10
213.9232349999999
 20
129.7394999999999
 30
0.0
 11
213.9232349999999
 21
128.9395
 31
0.0
  0
LINE
  5
18B
330
1E
100
AcDbEntity
  8
0
100
AcDbLine
 10
213.9232349999999
 20
129.7394999999999
 30
0.0
 11
256.923235
 21
129.7394999999999
 31
0.0
  0
LINE
  5
18C
330
1E
100
AcDbEntity
  8
0
100
AcDbLine
 10
212.923235
 20
128.7394999999999
 30
0.0
 11
212.923235
 21
128.0395
 31
0.0
  0
LINE
  5
18D
330
1E
100
AcDbEntity
  8
0
100
AcDbLine
 10
212.923235
 20
128.7394999999999
 30
0.0
 11
213.9232349999999
 21
129.7394999999999
 31
0.0
  0
LINE
  5
18E
330
1E
100
AcDbEntity
  8
0
100
AcDbLine
 10
213.9232349999999
 20
128.9395
 30
0.0
 11
213.9232349999999
 21
129.7394999999999
 31
0.0
  0
LINE
  5
18F
330
1E
100
AcDbEntity
  8
0
100
AcDbLine
 10
213.9232349999999
 20
128.9395
 30
0.0
 11
213.9232349999999
 21
126.9395
 31
0.0
  0
LINE
  5
190
330
1E
100
AcDbEntity
  8
0
100
AcDbLine
 10
212.923235
 20
128.0395
 30
0.0
 11
212.923235
 21
128.7394999999999
 31
0.0
  0
LINE
  5
191
330
1E
100
AcDbEntity
  8
0
100
AcDbLine
 10
212.923235
 20
128.0395
 30
0.0
 11
212.923235
 21
126.0395
 31
0.0
  0
LINE
  5
192
330
1E
100
AcDbEntity
  8
0
100
AcDbLine
 10
256.923235
 20
128.2394999999999
 30
0.0
 11
258.923235
 21
128.2394999999999
 31
0.0
  0
LINE
  5
193
330
1E
100
AcDbEntity
  8
0
100
AcDbLine
 10
256.923235
 20
126.9395
 30
0.0
 11
256.923235
 21
128.9395
 31
0.0
  0
LINE
  5
194
330
1E
100
AcDbEntity
  8
0
100
AcDbLine
 10
256.923235
 20
126.9395
 30
0.0
 11
256.923235
 21
123.5395
 31
0.0
  0
LINE
  5
195
330
1E
100
AcDbEntity
  8
0
100
AcDbLine
 10
256.923235
 20
129.7394999999999
 30
0.0
 11
256.923235
 21
128.9395
 31
0.0
  0
LINE
  5
196
330
1E
100
AcDbEntity
  8
0
100
AcDbLine
 10
256.923235
 20
128.9395
 30
0.0
 11
256.923235
 21
129.7394999999999
 31
0.0
  0
LINE
  5
197
330
1E
100
AcDbEntity
  8
0
100
AcDbLine
 10
256.923235
 20
128.9395
 30
0.0
 11
256.923235
 21
126.9395
 31
0.0
  0
LINE
  5
198
330
1E
100
AcDbEntity
  8
0
100
AcDbLine
 10
252.105324552239
 20
129.7394999999999
 30
0.0
 11
253.323235
 21
131.3394999999999
 31
0.0
  0
LINE
  5
199
330
1E
100
AcDbEntity
  8
0
100
AcDbLine
 10
249.6415448591549
 20
129.7394999999999
 30
0.0
 11
251.923235
 21
132.7394999999999
 31
0.0
  0
LINE
  5
19A
330
1E
100
AcDbEntity
  8
0
100
AcDbLine
 10
258.923235
 20
127.5395
 30
0.0
 11
258.923235
 21
128.2394999999999
 31
0.0
  0
LINE
  5
19B
330
1E
100
AcDbEntity
  8
0
100
AcDbLine
 10
258.923235
 20
125.6394999999999
 30
0.0
 11
258.923235
 21
127.5395
 31
0.0
  0
LINE
  5
19C
330
1E
100
AcDbEntity
  8
0
100
AcDbLine
 10
258.923235
 20
126.9395
 30
0.0
 11
258.923235
 21
128.9395
 31
0.0
  0
LINE
  5
19D
330
1E
100
AcDbEntity
  8
0
100
AcDbLine
 10
258.923235
 20
126.9395
 30
0.0
 11
258.923235
 21
123.5395
 31
0.0
  0
LINE
  5
19E
330
1E
100
AcDbEntity
  8
0
100
AcDbLine
 10
258.923235
 20
123.5395
 30
0.0
 11
258.923235
 21
126.9395
 31
0.0
  0
LINE
  5
19F
330
1E
100
AcDbEntity
  8
0
100
AcDbLine
 10
258.923235
 20
123.5395
 30
0.0
 11
258.923235
 21
119.2395
 31
0.0
  0
LINE
  5
1A0
330
1E
100
AcDbEntity
  8
0
100
AcDbLine
 10
258.923235
 20
119.2395
 30
0.0
 11
258.923235
 21
123.5395
 31
0.0
  0
LINE
  5
1A1
330
1E
100
AcDbEntity
  8
0
100
AcDbLine
 10
258.923235
 20
119.2395
 30
0.0
 11
258.923235
 21
114.1394999999999
 31
0.0
  0
LINE
  5
1A2
330
1E
100
AcDbEntity
  8
0
100
AcDbLine
 10
258.923235
 20
114.1394999999999
 30
0.0
 11
258.923235
 21
119.2395
 31
0.0
  0
LINE
  5
1A3
330
1E
100
AcDbEntity
  8
0
100
AcDbLine
 10
258.923235
 20
114.1394999999999
 30
0.0
 11
258.923235
 21
108.7395
 31
0.0
  0
LINE
  5
1A4
330
1E
100
AcDbEntity
  8
0
100
AcDbLine
 10
258.923235
 20
128.2394999999999
 30
0.0
 11
258.923235
 21
128.9395
 31
0.0
  0
LINE
  5
1A5
330
1E
100
AcDbEntity
  8
0
100
AcDbLine
 10
253.323235
 20
131.3394999999999
 30
0.0
 11
260.023235
 21
136.4395
 31
0.0
  0
LINE
  5
1A6
330
1E
100
AcDbEntity
  8
0
100
AcDbLine
 10
251.923235
 20
132.7394999999999
 30
0.0
 11
259.0232349999999
 21
138.1394999999999
 31
0.0
  0
LINE
  5
1A7
330
1E
100
AcDbEntity
  8
0
100
AcDbLine
 10
258.923235
 20
129.7394999999999
 30
0.0
 11
258.923235
 21
128.9395
 31
0.0
  0
LINE
  5
1A8
330
1E
100
AcDbEntity
  8
0
100
AcDbLine
 10
258.923235
 20
129.7394999999999
 30
0.0
 11
350.923235
 21
129.7394999999999
 31
0.0
  0
LINE
  5
1A9
330
1E
100
AcDbEntity
  8
0
100
AcDbLine
 10
258.923235
 20
128.9395
 30
0.0
 11
258.923235
 21
128.2394999999999
 31
0.0
  0
LINE
  5
1AA
330
1E
100
AcDbEntity
  8
0
100
AcDbLine
 10
258.923235
 20
128.9395
 30
0.0
 11
258.923235
 21
129.7394999999999
 31
0.0
  0
LINE
  5
1AB
330
1E
100
AcDbEntity
  8
0
100
AcDbLine
 10
258.923235
 20
128.9395
 30
0.0
 11
258.923235
 21
126.9395
 31
0.0
  0
LINE
  5
1AC
330
1E
100
AcDbEntity
  8
0
100
AcDbLine
 10
258.923235
 20
103.7395
 30
0.0
 11
258.923235
 21
108.7395
 31
0.0
  0
LINE
  5
1AD
330
1E
100
AcDbEntity
  8
0
100
AcDbLine
 10
258.923235
 20
108.7395
 30
0.0
 11
258.923235
 21
103.3395
 31
0.0
  0
LINE
  5
1AE
330
1E
100
AcDbEntity
  8
0
100
AcDbLine
 10
258.923235
 20
108.7395
 30
0.0
 11
258.923235
 21
114.1394999999999
 31
0.0
  0
LINE
  5
1AF
330
1E
100
AcDbEntity
  8
0
100
AcDbLine
 10
258.923235
 20
108.7395
 30
0.0
 11
258.923235
 21
113.7395
 31
0.0
  0
LINE
  5
1B0
330
1E
100
AcDbEntity
  8
0
100
AcDbLine
 10
258.923235
 20
98.2395000000001
 30
0.0
 11
258.923235
 21
103.3395
 31
0.0
  0
LINE
  5
1B1
330
1E
100
AcDbEntity
  8
0
100
AcDbLine
 10
258.923235
 20
98.2395000000001
 30
0.0
 11
258.923235
 21
93.93950000000021
 31
0.0
  0
LINE
  5
1B2
330
1E
100
AcDbEntity
  8
0
100
AcDbLine
 10
275.923235
 20
74.73950000000009
 30
0.0
 11
284.723235
 21
75.93950000000019
 31
0.0
  0
LINE
  5
1B3
330
1E
100
AcDbEntity
  8
0
100
AcDbLine
 10
275.923235
 20
76.73950000000009
 30
0.0
 11
284.2232349999999
 21
77.9395000000002
 31
0.0
  0
LINE
  5
1B4
330
1E
100
AcDbEntity
  8
0
100
AcDbLine
 10
284.2232349999999
 20
77.9395000000002
 30
0.0
 11
291.823235
 21
81.03950000000009
 31
0.0
  0
LINE
  5
1B5
330
1E
100
AcDbEntity
  8
0
100
AcDbLine
 10
275.923235
 20
74.73950000000009
 30
0.0
 11
284.723235
 21
75.93950000000019
 31
0.0
  0
LINE
  5
1B6
330
1E
100
AcDbEntity
  8
0
100
AcDbLine
 10
343.786235
 20
-0.212499999999862
 30
0.0
 11
344.4612349999999
 21
-0.137499999999816
 31
0.0
  0
LINE
  5
1B7
330
1E
100
AcDbEntity
  8
0
100
AcDbLine
 10
344.4612349999999
 20
-0.137499999999816
 30
0.0
 11
345.699235
 21
0.236500000000094
 31
0.0
  0
LINE
  5
1B8
330
1E
100
AcDbEntity
  8
0
100
AcDbLine
 10
344.423235
 20
59.76050000000011
 30
0.0
 11
345.623235
 21
59.76050000000011
 31
0.0
  0
LINE
  5
1B9
330
1E
100
AcDbEntity
  8
0
100
AcDbLine
 10
344.4612349999999
 20
-0.137499999999816
 30
0.0
 11
345.699235
 21
0.236500000000094
 31
0.0
  0
LINE
  5
1BA
330
1E
100
AcDbEntity
  8
0
100
AcDbLine
 10
343.7232349999999
 20
59.76050000000011
 30
0.0
 11
344.423235
 21
59.76050000000011
 31
0.0
  0
LINE
  5
1BB
330
1E
100
AcDbEntity
  8
0
100
AcDbLine
 10
343.786235
 20
-0.212499999999861
 30
0.0
 11
344.4612349999999
 21
-0.137499999999816
 31
0.0
  0
LINE
  5
1BC
330
1E
100
AcDbEntity
  8
0
100
AcDbLine
 10
343.423235
 20
59.76050000000011
 30
0.0
 11
343.423235
 21
-0.23949999999991
 31
0.0
  0
LINE
  5
1BD
330
1E
100
AcDbEntity
  8
0
100
AcDbLine
 10
343.423235
 20
59.76050000000011
 30
0.0
 11
343.7232349999999
 21
59.76050000000011
 31
0.0
  0
LINE
  5
1BE
330
1E
100
AcDbEntity
  8
0
100
AcDbLine
 10
343.423235
 20
-0.239499999999905
 30
0.0
 11
343.786235
 21
-0.212499999999861
 31
0.0
  0
LINE
  5
1BF
330
1E
100
AcDbEntity
  8
0
100
AcDbLine
 10
343.423235
 20
-0.239499999999905
 30
0.0
 11
343.423235
 21
59.76050000000011
 31
0.0
  0
LINE
  5
1C0
330
1E
100
AcDbEntity
  8
0
100
AcDbLine
 10
343.423235
 20
-0.239499999999905
 30
0.0
 11
343.786235
 21
-0.212499999999862
 31
0.0
  0
LINE
  5
1C1
330
1E
100
AcDbEntity
  8
0
100
AcDbLine
 10
347.1992349999999
 20
0.911500000000162
 30
0.0
 11
349.000235
 21
2.03650000000016
 31
0.0
  0
LINE
  5
1C2
330
1E
100
AcDbEntity
  8
0
100
AcDbLine
 10
347.223235
 20
59.76050000000011
 30
0.0
 11
349.0232349999999
 21
59.76050000000011
 31
0.0
  0
LINE
  5
1C3
330
1E
100
AcDbEntity
  8
0
100
AcDbLine
 10
347.1992349999999
 20
0.911500000000162
 30
0.0
 11
349.000235
 21
2.03650000000016
 31
0.0
  0
LINE
  5
1C4
330
1E
100
AcDbEntity
  8
0
100
AcDbLine
 10
345.623235
 20
59.76050000000011
 30
0.0
 11
347.223235
 21
59.76050000000011
 31
0.0
  0
LINE
  5
1C5
330
1E
100
AcDbEntity
  8
0
100
AcDbLine
 10
345.699235
 20
0.236500000000094
 30
0.0
 11
347.1992349999999
 21
0.911500000000162
 31
0.0
  0
LINE
  5
1C6
330
1E
100
AcDbEntity
  8
0
100
AcDbLine
 10
344.5232349999999
 20
59.76050000000011
 30
0.0
 11
346.423235
 21
59.76050000000011
 31
0.0
  0
LINE
  5
1C7
330
1E
100
AcDbEntity
  8
0
100
AcDbLine
 10
346.423235
 20
59.76050000000011
 30
0.0
 11
348.623235
 21
59.76050000000011
 31
0.0
  0
LINE
  5
1C8
330
1E
100
AcDbEntity
  8
0
100
AcDbLine
 10
349.000235
 20
2.03650000000016
 30
0.0
 11
350.951235
 21
4.02250000000026
 31
0.0
  0
LINE
  5
1C9
330
1E
100
AcDbEntity
  8
0
100
AcDbLine
 10
349.0232349999999
 20
59.76050000000011
 30
0.0
 11
350.923235
 21
59.76050000000011
 31
0.0
  0
LINE
  5
1CA
330
1E
100
AcDbEntity
  8
0
100
AcDbLine
 10
349.000235
 20
2.03650000000016
 30
0.0
 11
350.951235
 21
4.022500000000269
 31
0.0
  0
LINE
  5
1CB
330
1E
100
AcDbEntity
  8
0
100
AcDbLine
 10
350.951235
 20
4.02250000000026
 30
0.0
 11
352.714235
 21
5.37250000000017
 31
0.0
  0
LINE
  5
1CC
330
1E
100
AcDbEntity
  8
0
100
AcDbLine
 10
350.951235
 20
4.022500000000269
 30
0.0
 11
352.714235
 21
5.372500000000179
 31
0.0
  0
LINE
  5
1CD
330
1E
100
AcDbEntity
  8
0
100
AcDbLine
 10
352.714235
 20
5.372500000000179
 30
0.0
 11
354.552235
 21
6.571500000000018
 31
0.0
  0
LINE
  5
1CE
330
1E
100
AcDbEntity
  8
0
100
AcDbLine
 10
352.823235
 20
59.76050000000011
 30
0.0
 11
354.623235
 21
59.76050000000011
 31
0.0
  0
LINE
  5
1CF
330
1E
100
AcDbEntity
  8
0
100
AcDbLine
 10
354.623235
 20
59.76050000000011
 30
0.0
 11
356.2232349999999
 21
59.76050000000011
 31
0.0
  0
LINE
  5
1D0
330
1E
100
AcDbEntity
  8
0
100
AcDbLine
 10
354.552235
 20
6.571500000000018
 30
0.0
 11
356.353235
 21
7.770500000000089
 31
0.0
  0
LINE
  5
1D1
330
1E
100
AcDbEntity
  8
0
100
AcDbLine
 10
356.2232349999999
 20
59.76050000000011
 30
0.0
 11
357.423235
 21
59.76050000000011
 31
0.0
  0
LINE
  5
1D2
330
1E
100
AcDbEntity
  8
0
100
AcDbLine
 10
357.441235
 20
8.82050000000015
 30
0.0
 11
358.154235
 21
9.532500000000259
 31
0.0
  0
LINE
  5
1D3
330
1E
100
AcDbEntity
  8
0
100
AcDbLine
 10
356.353235
 20
7.770500000000089
 30
0.0
 11
357.441235
 21
8.82050000000015
 31
0.0
  0
LINE
  5
1D4
330
1E
100
AcDbEntity
  8
0
100
AcDbLine
 10
356.353235
 20
7.770500000000089
 30
0.0
 11
357.441235
 21
8.82050000000015
 31
0.0
  0
LINE
  5
1D5
330
1E
100
AcDbEntity
  8
0
100
AcDbLine
 10
357.423235
 20
59.76050000000011
 30
0.0
 11
358.123235
 21
59.76050000000011
 31
0.0
  0
LINE
  5
1D6
330
1E
100
AcDbEntity
  8
0
100
AcDbLine
 10
357.441235
 20
8.82050000000015
 30
0.0
 11
358.154235
 21
9.532500000000259
 31
0.0
  0
LINE
  5
1D7
330
1E
100
AcDbEntity
  8
0
100
AcDbLine
 10
358.123235
 20
59.76050000000011
 30
0.0
 11
358.423235
 21
59.76050000000011
 31
0.0
  0
LINE
  5
1D8
330
1E
100
AcDbEntity
  8
0
100
AcDbLine
 10
358.423235
 20
9.760500000000089
 30
0.0
 11
358.423235
 21
59.76050000000011
 31
0.0
  0
LINE
  5
1D9
330
1E
100
AcDbEntity
  8
0
100
AcDbLine
 10
358.154235
 20
9.532500000000259
 30
0.0
 11
358.423235
 21
9.760500000000089
 31
0.0
  0
LINE
  5
1DA
330
1E
100
AcDbEntity
  8
0
100
AcDbLine
 10
357.323235
 20
59.76050000000011
 30
0.0
 11
358.7232349999999
 21
59.76050000000011
 31
0.0
  0
LINE
  5
1DB
330
1E
100
AcDbEntity
  8
0
100
AcDbLine
 10
355.423235
 20
59.76050000000011
 30
0.0
 11
357.323235
 21
59.76050000000011
 31
0.0
  0
LINE
  5
1DC
330
1E
100
AcDbEntity
  8
0
100
AcDbLine
 10
353.223235
 20
59.76050000000011
 30
0.0
 11
355.423235
 21
59.76050000000011
 31
0.0
  0
LINE
  5
1DD
330
1E
100
AcDbEntity
  8
0
100
AcDbLine
 10
350.923235
 20
59.76050000000011
 30
0.0
 11
353.223235
 21
59.76050000000011
 31
0.0
  0
LINE
  5
1DE
330
1E
100
AcDbEntity
  8
0
100
AcDbLine
 10
350.923235
 20
59.76050000000011
 30
0.0
 11
352.823235
 21
59.76050000000011
 31
0.0
  0
LINE
  5
1DF
330
1E
100
AcDbEntity
  8
0
100
AcDbLine
 10
358.423235
 20
59.76050000000011
 30
0.0
 11
358.7232349999999
 21
59.76050000000011
 31
0.0
  0
LINE
  5
1E0
330
1E
100
AcDbEntity
  8
0
100
AcDbLine
 10
358.423235
 20
59.76050000000011
 30
0.0
 11
358.423235
 21
9.760500000000089
 31
0.0
  0
LINE
  5
1E1
330
1E
100
AcDbEntity
  8
0
100
AcDbLine
 10
359.923235
 20
59.76050000000011
 30
0.0
 11
361.923235
 21
87.7605000000001
 31
0.0
  0
LINE
  5
1E2
330
1E
100
AcDbEntity
  8
0
100
AcDbLine
 10
358.7232349999999
 20
59.76050000000011
 30
0.0
 11
359.623235
 21
59.76050000000011
 31
0.0
  0
LINE
  5
1E3
330
1E
100
AcDbEntity
  8
0
100
AcDbLine
 10
359.623235
 20
59.76050000000011
 30
0.0
 11
359.923235
 21
59.76050000000011
 31
0.0
  0
LINE
  5
1E4
330
1E
100
AcDbEntity
  8
0
100
AcDbLine
 10
348.623235
 20
59.76050000000011
 30
0.0
 11
350.923235
 21
59.76050000000011
 31
0.0
  0
LINE
  5
1E5
330
1E
100
AcDbEntity
  8
0
100
AcDbLine
 10
343.123235
 20
59.76050000000011
 30
0.0
 11
344.5232349999999
 21
59.76050000000011
 31
0.0
  0
LINE
  5
1E6
330
1E
100
AcDbEntity
  8
0
100
AcDbLine
 10
343.123235
 20
59.76050000000011
 30
0.0
 11
343.423235
 21
59.76050000000011
 31
0.0
  0
LINE
  5
1E7
330
1E
100
AcDbEntity
  8
0
100
AcDbLine
 10
342.2232349999999
 20
59.76050000000011
 30
0.0
 11
343.123235
 21
59.76050000000011
 31
0.0
  0
LINE
  5
1E8
330
1E
100
AcDbEntity
  8
0
100
AcDbLine
 10
341.923235
 20
59.76050000000011
 30
0.0
 11
342.2232349999999
 21
59.76050000000011
 31
0.0
  0
LINE
  5
1E9
330
1E
100
AcDbEntity
  8
0
100
AcDbLine
 10
425.9232349999999
 20
74.73950000000009
 30
0.0
 11
434.7232349999999
 21
75.93950000000019
 31
0.0
  0
LINE
  5
1EA
330
1E
100
AcDbEntity
  8
0
100
AcDbLine
 10
425.9232349999999
 20
74.73950000000009
 30
0.0
 11
434.7232349999999
 21
75.93950000000019
 31
0.0
  0
LINE
  5
1EB
330
1E
100
AcDbEntity
  8
0
100
AcDbLine
 10
434.7232349999999
 20
75.93950000000019
 30
0.0
 11
442.823235
 21
79.3395000000001
 31
0.0
  0
LINE
  5
1EC
330
1E
100
AcDbEntity
  8
0
100
AcDbLine
 10
425.9232349999999
 20
76.73950000000009
 30
0.0
 11
434.2232349999999
 21
77.9395000000002
 31
0.0
  0
LINE
  5
1ED
330
1E
100
AcDbEntity
  8
0
100
AcDbLine
 10
434.2232349999999
 20
77.9395000000002
 30
0.0
 11
441.8232349999999
 21
81.03950000000009
 31
0.0
  0
LINE
  5
1EE
330
1E
100
AcDbEntity
  8
0
100
AcDbLine
 10
417.623235
 20
77.9395000000002
 30
0.0
 11
425.9232349999999
 21
76.73950000000009
 31
0.0
  0
LINE
  5
1EF
330
1E
100
AcDbEntity
  8
0
100
AcDbLine
 10
417.123235
 20
75.93950000000019
 30
0.0
 11
425.9232349999999
 21
74.73950000000009
 31
0.0
  0
LINE
  5
1F0
330
1E
100
AcDbEntity
  8
0
100
AcDbLine
 10
417.123235
 20
75.93950000000019
 30
0.0
 11
425.9232349999999
 21
74.73950000000009
 31
0.0
  0
LINE
  5
1F1
330
1E
100
AcDbEntity
  8
0
100
AcDbLine
 10
284.723235
 20
75.93950000000019
 30
0.0
 11
292.823235
 21
79.3395000000001
 31
0.0
  0
LINE
  5
1F2
330
1E
100
AcDbEntity
  8
0
100
AcDbLine
 10
442.823235
 20
79.3395000000001
 30
0.0
 11
449.9232349999999
 21
84.73950000000009
 31
0.0
  0
LINE
  5
1F3
330
1E
100
AcDbEntity
  8
0
100
AcDbLine
 10
409.0232349999999
 20
79.3395000000001
 30
0.0
 11
417.123235
 21
75.93950000000019
 31
0.0
  0
LINE
  5
1F4
330
1E
100
AcDbEntity
  8
0
100
AcDbLine
 10
292.823235
 20
79.3395000000001
 30
0.0
 11
299.923235
 21
84.73950000000009
 31
0.0
  0
LINE
  5
1F5
330
1E
100
AcDbEntity
  8
0
100
AcDbLine
 10
267.623235
 20
77.9395000000002
 30
0.0
 11
275.923235
 21
76.73950000000009
 31
0.0
  0
LINE
  5
1F6
330
1E
100
AcDbEntity
  8
0
100
AcDbLine
 10
267.123235
 20
75.93950000000019
 30
0.0
 11
275.923235
 21
74.73950000000009
 31
0.0
  0
LINE
  5
1F7
330
1E
100
AcDbEntity
  8
0
100
AcDbLine
 10
267.123235
 20
75.93950000000019
 30
0.0
 11
275.923235
 21
74.73950000000009
 31
0.0
  0
LINE
  5
1F8
330
1E
100
AcDbEntity
  8
0
100
AcDbLine
 10
260.023235
 20
136.4395
 30
0.0
 11
267.623235
 21
139.5395
 31
0.0
  0
LINE
  5
1F9
330
1E
100
AcDbEntity
  8
0
100
AcDbLine
 10
259.0232349999999
 20
138.1394999999999
 30
0.0
 11
267.123235
 21
141.5395
 31
0.0
  0
LINE
  5
1FA
330
1E
100
AcDbEntity
  8
0
100
AcDbLine
 10
441.8232349999999
 20
81.03950000000009
 30
0.0
 11
448.5232349999999
 21
86.13950000000009
 31
0.0
  0
LINE
  5
1FB
330
1E
100
AcDbEntity
  8
0
100
AcDbLine
 10
449.9232349999999
 20
84.73950000000009
 30
0.0
 11
452.204925140845
 21
87.73950000000009
 31
0.0
  0
LINE
  5
1FC
330
1E
100
AcDbEntity
  8
0
100
AcDbLine
 10
410.0232349999999
 20
81.03950000000009
 30
0.0
 11
417.623235
 21
77.9395000000002
 31
0.0
  0
LINE
  5
1FD
330
1E
100
AcDbEntity
  8
0
100
AcDbLine
 10
401.923235
 20
84.73950000000009
 30
0.0
 11
409.0232349999999
 21
79.3395000000001
 31
0.0
  0
LINE
  5
1FE
330
1E
100
AcDbEntity
  8
0
100
AcDbLine
 10
291.823235
 20
81.03950000000009
 30
0.0
 11
298.523235
 21
86.13950000000009
 31
0.0
  0
LINE
  5
1FF
330
1E
100
AcDbEntity
  8
0
100
AcDbLine
 10
291.823235
 20
136.4395
 30
0.0
 11
298.523235
 21
131.3394999999999
 31
0.0
  0
LINE
  5
200
330
1E
100
AcDbEntity
  8
0
100
AcDbLine
 10
298.523235
 20
131.3394999999999
 30
0.0
 11
299.741145447761
 21
129.7394999999999
 31
0.0
  0
LINE
  5
201
330
1E
100
AcDbEntity
  8
0
100
AcDbLine
 10
275.923235
 20
140.7394999999999
 30
0.0
 11
284.2232349999999
 21
139.5395
 31
0.0
  0
LINE
  5
202
330
1E
100
AcDbEntity
  8
0
100
AcDbLine
 10
284.2232349999999
 20
139.5395
 30
0.0
 11
291.823235
 21
136.4395
 31
0.0
  0
LINE
  5
203
330
1E
100
AcDbEntity
  8
0
100
AcDbLine
 10
284.723235
 20
141.5395
 30
0.0
 11
292.823235
 21
138.1394999999999
 31
0.0
  0
LINE
  5
204
330
1E
100
AcDbEntity
  8
0
100
AcDbLine
 10
292.823235
 20
138.1394999999999
 30
0.0
 11
299.923235
 21
132.7394999999999
 31
0.0
  0
LINE
  5
205
330
1E
100
AcDbEntity
  8
0
100
AcDbLine
 10
361.9217349999999
 20
87.73950000000009
 30
0.0
 11
442.9232349999999
 21
87.73950000000009
 31
0.0
  0
LINE
  5
206
330
1E
100
AcDbEntity
  8
0
100
AcDbLine
 10
442.9232349999999
 20
87.73950000000009
 30
0.0
 11
442.9232349999999
 21
88.53950000000009
 31
0.0
  0
LINE
  5
207
330
1E
100
AcDbEntity
  8
0
100
AcDbLine
 10
403.323235
 20
86.13950000000009
 30
0.0
 11
410.0232349999999
 21
81.03950000000009
 31
0.0
  0
LINE
  5
208
330
1E
100
AcDbEntity
  8
0
100
AcDbLine
 10
402.105324552239
 20
87.73950000000009
 30
0.0
 11
403.323235
 21
86.13950000000009
 31
0.0
  0
LINE
  5
209
330
1E
100
AcDbEntity
  8
0
100
AcDbLine
 10
339.923235
 20
87.7605000000001
 30
0.0
 11
341.923235
 21
59.76050000000011
 31
0.0
  0
LINE
  5
20A
330
1E
100
AcDbEntity
  8
0
100
AcDbLine
 10
339.923235
 20
87.7605000000001
 30
0.0
 11
339.960399502164
 21
87.83482900432909
 31
0.0
  0
LINE
  5
20B
330
1E
100
AcDbEntity
  8
0
100
AcDbLine
 10
442.9232349999999
 20
88.53950000000009
 30
0.0
 11
442.9232349999999
 21
87.73950000000009
 31
0.0
  0
LINE
  5
20C
330
1E
100
AcDbEntity
  8
0
100
AcDbLine
 10
442.9232349999999
 20
88.53950000000009
 30
0.0
 11
442.9232349999999
 21
90.53950000000009
 31
0.0
  0
LINE
  5
20D
330
1E
100
AcDbEntity
  8
0
100
AcDbLine
 10
399.641544859155
 20
87.73950000000009
 30
0.0
 11
401.923235
 21
84.73950000000009
 31
0.0
  0
LINE
  5
20E
330
1E
100
AcDbEntity
  8
0
100
AcDbLine
 10
448.5232349999999
 20
86.13950000000009
 30
0.0
 11
449.741145447761
 21
87.73950000000009
 31
0.0
  0
LINE
  5
20F
330
1E
100
AcDbEntity
  8
0
100
AcDbLine
 10
444.9232349999999
 20
87.73950000000009
 30
0.0
 11
487.9232349999999
 21
87.73950000000009
 31
0.0
  0
LINE
  5
210
330
1E
100
AcDbEntity
  8
0
100
AcDbLine
 10
444.9232349999999
 20
87.73950000000009
 30
0.0
 11
444.9232349999999
 21
88.53950000000009
 31
0.0
  0
LINE
  5
211
330
1E
100
AcDbEntity
  8
0
100
AcDbLine
 10
442.9232349999999
 20
89.2395000000001
 30
0.0
 11
444.9232349999999
 21
89.2395000000001
 31
0.0
  0
LINE
  5
212
330
1E
100
AcDbEntity
  8
0
100
AcDbLine
 10
444.9232349999999
 20
89.2395000000001
 30
0.0
 11
444.9232349999999
 21
88.53950000000009
 31
0.0
  0
LINE
  5
213
330
1E
100
AcDbEntity
  8
0
100
AcDbLine
 10
442.9232349999999
 20
90.53950000000009
 30
0.0
 11
442.9232349999999
 21
88.53950000000009
 31
0.0
  0
LINE
  5
214
330
1E
100
AcDbEntity
  8
0
100
AcDbLine
 10
442.9232349999999
 20
90.53950000000009
 30
0.0
 11
442.9232349999999
 21
93.93950000000021
 31
0.0
  0
LINE
  5
215
330
1E
100
AcDbEntity
  8
0
100
AcDbLine
 10
442.9232349999999
 20
93.93950000000021
 30
0.0
 11
442.9232349999999
 21
90.53950000000009
 31
0.0
  0
LINE
  5
216
330
1E
100
AcDbEntity
  8
0
100
AcDbLine
 10
442.9232349999999
 20
93.93950000000021
 30
0.0
 11
442.9232349999999
 21
98.2395000000001
 31
0.0
  0
LINE
  5
217
330
1E
100
AcDbEntity
  8
0
100
AcDbLine
 10
444.9232349999999
 20
91.83950000000022
 30
0.0
 11
444.9232349999999
 21
89.93950000000021
 31
0.0
  0
LINE
  5
218
330
1E
100
AcDbEntity
  8
0
100
AcDbLine
 10
444.9232349999999
 20
89.93950000000021
 30
0.0
 11
444.9232349999999
 21
89.2395000000001
 31
0.0
  0
LINE
  5
219
330
1E
100
AcDbEntity
  8
0
100
AcDbLine
 10
442.9232349999999
 20
98.2395000000001
 30
0.0
 11
442.9232349999999
 21
93.93950000000021
 31
0.0
  0
LINE
  5
21A
330
1E
100
AcDbEntity
  8
0
100
AcDbLine
 10
442.9232349999999
 20
98.2395000000001
 30
0.0
 11
442.9232349999999
 21
103.3395
 31
0.0
  0
LINE
  5
21B
330
1E
100
AcDbEntity
  8
0
100
AcDbLine
 10
442.9232349999999
 20
103.3395
 30
0.0
 11
442.9232349999999
 21
98.2395000000001
 31
0.0
  0
LINE
  5
21C
330
1E
100
AcDbEntity
  8
0
100
AcDbLine
 10
442.9232349999999
 20
103.3395
 30
0.0
 11
442.9232349999999
 21
108.7395
 31
0.0
  0
LINE
  5
21D
330
1E
100
AcDbEntity
  8
0
100
AcDbLine
 10
444.9232349999999
 20
99.03950000000008
 30
0.0
 11
444.9232349999999
 21
94.93950000000021
 31
0.0
  0
LINE
  5
21E
330
1E
100
AcDbEntity
  8
0
100
AcDbLine
 10
444.9232349999999
 20
94.93950000000021
 30
0.0
 11
444.9232349999999
 21
91.83950000000022
 31
0.0
  0
LINE
  5
21F
330
1E
100
AcDbEntity
  8
0
100
AcDbLine
 10
442.9232349999999
 20
108.7395
 30
0.0
 11
442.9232349999999
 21
114.1394999999999
 31
0.0
  0
LINE
  5
220
330
1E
100
AcDbEntity
  8
0
100
AcDbLine
 10
442.9232349999999
 20
108.7395
 30
0.0
 11
442.9232349999999
 21
103.3395
 31
0.0
  0
LINE
  5
221
330
1E
100
AcDbEntity
  8
0
100
AcDbLine
 10
442.9232349999999
 20
114.1394999999999
 30
0.0
 11
442.9232349999999
 21
108.7395
 31
0.0
  0
LINE
  5
222
330
1E
100
AcDbEntity
  8
0
100
AcDbLine
 10
442.9232349999999
 20
114.1394999999999
 30
0.0
 11
442.9232349999999
 21
119.2395
 31
0.0
  0
LINE
  5
223
330
1E
100
AcDbEntity
  8
0
100
AcDbLine
 10
444.9232349999999
 20
113.7395
 30
0.0
 11
444.9232349999999
 21
108.7395
 31
0.0
  0
LINE
  5
224
330
1E
100
AcDbEntity
  8
0
100
AcDbLine
 10
442.9232349999999
 20
123.5395
 30
0.0
 11
442.9232349999999
 21
119.2395
 31
0.0
  0
LINE
  5
225
330
1E
100
AcDbEntity
  8
0
100
AcDbLine
 10
442.9232349999999
 20
123.5395
 30
0.0
 11
442.9232349999999
 21
126.9395
 31
0.0
  0
LINE
  5
226
330
1E
100
AcDbEntity
  8
0
100
AcDbLine
 10
442.9232349999999
 20
119.2395
 30
0.0
 11
442.9232349999999
 21
114.1394999999999
 31
0.0
  0
LINE
  5
227
330
1E
100
AcDbEntity
  8
0
100
AcDbLine
 10
442.9232349999999
 20
119.2395
 30
0.0
 11
442.9232349999999
 21
123.5395
 31
0.0
  0
LINE
  5
228
330
1E
100
AcDbEntity
  8
0
100
AcDbLine
 10
444.9232349999999
 20
118.4395
 30
0.0
 11
444.9232349999999
 21
113.7395
 31
0.0
  0
LINE
  5
229
330
1E
100
AcDbEntity
  8
0
100
AcDbLine
 10
444.9232349999999
 20
122.5395
 30
0.0
 11
444.9232349999999
 21
118.4395
 31
0.0
  0
LINE
  5
22A
330
1E
100
AcDbEntity
  8
0
100
AcDbLine
 10
444.9232349999999
 20
114.1394999999999
 30
0.0
 11
444.9232349999999
 21
108.7395
 31
0.0
  0
LINE
  5
22B
330
1E
100
AcDbEntity
  8
0
100
AcDbLine
 10
444.9232349999999
 20
114.1394999999999
 30
0.0
 11
444.9232349999999
 21
119.2395
 31
0.0
  0
LINE
  5
22C
330
1E
100
AcDbEntity
  8
0
100
AcDbLine
 10
444.9232349999999
 20
119.2395
 30
0.0
 11
444.9232349999999
 21
114.1394999999999
 31
0.0
  0
LINE
  5
22D
330
1E
100
AcDbEntity
  8
0
100
AcDbLine
 10
444.9232349999999
 20
119.2395
 30
0.0
 11
444.9232349999999
 21
123.5395
 31
0.0
  0
LINE
  5
22E
330
1E
100
AcDbEntity
  8
0
100
AcDbLine
 10
442.9232349999999
 20
126.9395
 30
0.0
 11
442.9232349999999
 21
123.5395
 31
0.0
  0
LINE
  5
22F
330
1E
100
AcDbEntity
  8
0
100
AcDbLine
 10
442.9232349999999
 20
126.9395
 30
0.0
 11
442.9232349999999
 21
128.9395
 31
0.0
  0
LINE
  5
230
330
1E
100
AcDbEntity
  8
0
100
AcDbLine
 10
444.9232349999999
 20
125.6394999999999
 30
0.0
 11
444.9232349999999
 21
122.5395
 31
0.0
  0
LINE
  5
231
330
1E
100
AcDbEntity
  8
0
100
AcDbLine
 10
442.9232349999999
 20
128.2394999999999
 30
0.0
 11
444.9232349999999
 21
128.2394999999999
 31
0.0
  0
LINE
  5
232
330
1E
100
AcDbEntity
  8
0
100
AcDbLine
 10
442.9232349999999
 20
128.9395
 30
0.0
 11
442.9232349999999
 21
126.9395
 31
0.0
  0
LINE
  5
233
330
1E
100
AcDbEntity
  8
0
100
AcDbLine
 10
442.9232349999999
 20
128.9395
 30
0.0
 11
442.9232349999999
 21
129.7394999999999
 31
0.0
  0
LINE
  5
234
330
1E
100
AcDbEntity
  8
0
100
AcDbLine
 10
444.9232349999999
 20
127.5395
 30
0.0
 11
444.9232349999999
 21
125.6394999999999
 31
0.0
  0
LINE
  5
235
330
1E
100
AcDbEntity
  8
0
100
AcDbLine
 10
444.9232349999999
 20
128.2394999999999
 30
0.0
 11
444.9232349999999
 21
127.5395
 31
0.0
  0
LINE
  5
236
330
1E
100
AcDbEntity
  8
0
100
AcDbLine
 10
444.9232349999999
 20
128.2394999999999
 30
0.0
 11
444.9232349999999
 21
128.9395
 31
0.0
  0
LINE
  5
237
330
1E
100
AcDbEntity
  8
0
100
AcDbLine
 10
444.9232349999999
 20
123.5395
 30
0.0
 11
444.9232349999999
 21
119.2395
 31
0.0
  0
LINE
  5
238
330
1E
100
AcDbEntity
  8
0
100
AcDbLine
 10
444.9232349999999
 20
123.5395
 30
0.0
 11
444.9232349999999
 21
126.9395
 31
0.0
  0
LINE
  5
239
330
1E
100
AcDbEntity
  8
0
100
AcDbLine
 10
444.9232349999999
 20
126.9395
 30
0.0
 11
444.9232349999999
 21
123.5395
 31
0.0
  0
LINE
  5
23A
330
1E
100
AcDbEntity
  8
0
100
AcDbLine
 10
444.9232349999999
 20
126.9395
 30
0.0
 11
444.9232349999999
 21
128.9395
 31
0.0
  0
LINE
  5
23B
330
1E
100
AcDbEntity
  8
0
100
AcDbLine
 10
350.923235
 20
129.7394999999999
 30
0.0
 11
442.9232349999999
 21
129.7394999999999
 31
0.0
  0
LINE
  5
23C
330
1E
100
AcDbEntity
  8
0
100
AcDbLine
 10
401.923235
 20
132.7394999999999
 30
0.0
 11
409.0232349999999
 21
138.1394999999999
 31
0.0
  0
LINE
  5
23D
330
1E
100
AcDbEntity
  8
0
100
AcDbLine
 10
399.641544859155
 20
129.7394999999999
 30
0.0
 11
401.923235
 21
132.7394999999999
 31
0.0
  0
LINE
  5
23E
330
1E
100
AcDbEntity
  8
0
100
AcDbLine
 10
442.9232349999999
 20
129.7394999999999
 30
0.0
 11
442.9232349999999
 21
128.9395
 31
0.0
  0
LINE
  5
23F
330
1E
100
AcDbEntity
  8
0
100
AcDbLine
 10
403.323235
 20
131.3394999999999
 30
0.0
 11
410.0232349999999
 21
136.4395
 31
0.0
  0
LINE
  5
240
330
1E
100
AcDbEntity
  8
0
100
AcDbLine
 10
402.105324552239
 20
129.7394999999999
 30
0.0
 11
403.323235
 21
131.3394999999999
 31
0.0
  0
LINE
  5
241
330
1E
100
AcDbEntity
  8
0
100
AcDbLine
 10
444.9232349999999
 20
128.9395
 30
0.0
 11
444.9232349999999
 21
126.9395
 31
0.0
  0
LINE
  5
242
330
1E
100
AcDbEntity
  8
0
100
AcDbLine
 10
444.9232349999999
 20
128.9395
 30
0.0
 11
444.9232349999999
 21
129.7394999999999
 31
0.0
  0
LINE
  5
243
330
1E
100
AcDbEntity
  8
0
100
AcDbLine
 10
444.9232349999999
 20
128.9395
 30
0.0
 11
444.9232349999999
 21
128.2394999999999
 31
0.0
  0
LINE
  5
244
330
1E
100
AcDbEntity
  8
0
100
AcDbLine
 10
444.9232349999999
 20
129.7394999999999
 30
0.0
 11
444.9232349999999
 21
128.9395
 31
0.0
  0
LINE
  5
245
330
1E
100
AcDbEntity
  8
0
100
AcDbLine
 10
444.9232349999999
 20
129.7394999999999
 30
0.0
 11
487.9232349999999
 21
129.7394999999999
 31
0.0
  0
LINE
  5
246
330
1E
100
AcDbEntity
  8
0
100
AcDbLine
 10
444.9232349999999
 20
103.7395
 30
0.0
 11
444.9232349999999
 21
99.03950000000008
 31
0.0
  0
LINE
  5
247
330
1E
100
AcDbEntity
  8
0
100
AcDbLine
 10
444.9232349999999
 20
108.7395
 30
0.0
 11
444.9232349999999
 21
103.3395
 31
0.0
  0
LINE
  5
248
330
1E
100
AcDbEntity
  8
0
100
AcDbLine
 10
444.9232349999999
 20
108.7395
 30
0.0
 11
444.9232349999999
 21
103.7395
 31
0.0
  0
LINE
  5
249
330
1E
100
AcDbEntity
  8
0
100
AcDbLine
 10
444.9232349999999
 20
108.7395
 30
0.0
 11
444.9232349999999
 21
114.1394999999999
 31
0.0
  0
LINE
  5
24A
330
1E
100
AcDbEntity
  8
0
100
AcDbLine
 10
444.9232349999999
 20
103.3395
 30
0.0
 11
444.9232349999999
 21
98.2395000000001
 31
0.0
  0
LINE
  5
24B
330
1E
100
AcDbEntity
  8
0
100
AcDbLine
 10
444.9232349999999
 20
103.3395
 30
0.0
 11
444.9232349999999
 21
108.7395
 31
0.0
  0
LINE
  5
24C
330
1E
100
AcDbEntity
  8
0
100
AcDbLine
 10
444.9232349999999
 20
98.2395000000001
 30
0.0
 11
444.9232349999999
 21
93.93950000000021
 31
0.0
  0
LINE
  5
24D
330
1E
100
AcDbEntity
  8
0
100
AcDbLine
 10
444.9232349999999
 20
98.2395000000001
 30
0.0
 11
444.9232349999999
 21
103.3395
 31
0.0
  0
LINE
  5
24E
330
1E
100
AcDbEntity
  8
0
100
AcDbLine
 10
444.9232349999999
 20
93.93950000000021
 30
0.0
 11
444.9232349999999
 21
90.53950000000009
 31
0.0
  0
LINE
  5
24F
330
1E
100
AcDbEntity
  8
0
100
AcDbLine
 10
444.9232349999999
 20
93.93950000000021
 30
0.0
 11
444.9232349999999
 21
98.2395000000001
 31
0.0
  0
LINE
  5
250
330
1E
100
AcDbEntity
  8
0
100
AcDbLine
 10
444.9232349999999
 20
90.53950000000009
 30
0.0
 11
444.9232349999999
 21
88.53950000000009
 31
0.0
  0
LINE
  5
251
330
1E
100
AcDbEntity
  8
0
100
AcDbLine
 10
444.9232349999999
 20
90.53950000000009
 30
0.0
 11
444.9232349999999
 21
93.93950000000021
 31
0.0
  0
LINE
  5
252
330
1E
100
AcDbEntity
  8
0
100
AcDbLine
 10
444.9232349999999
 20
88.53950000000009
 30
0.0
 11
444.9232349999999
 21
87.73950000000009
 31
0.0
  0
LINE
  5
253
330
1E
100
AcDbEntity
  8
0
100
AcDbLine
 10
444.9232349999999
 20
88.53950000000009
 30
0.0
 11
444.9232349999999
 21
90.53950000000009
 31
0.0
  0
LINE
  5
254
330
1E
100
AcDbEntity
  8
0
100
AcDbLine
 10
444.9232349999999
 20
88.53950000000009
 30
0.0
 11
444.9232349999999
 21
89.2395000000001
 31
0.0
  0
LINE
  5
255
330
1E
100
AcDbEntity
  8
0
100
AcDbLine
 10
487.9232349999999
 20
87.73950000000009
 30
0.0
 11
488.9232349999999
 21
88.73950000000009
 31
0.0
  0
LINE
  5
256
330
1E
100
AcDbEntity
  8
0
100
AcDbLine
 10
487.9232349999999
 20
87.73950000000009
 30
0.0
 11
487.9232349999999
 21
88.53950000000009
 31
0.0
  0
LINE
  5
257
330
1E
100
AcDbEntity
  8
0
100
AcDbLine
 10
487.9232349999999
 20
88.53950000000009
 30
0.0
 11
487.9232349999999
 21
87.73950000000009
 31
0.0
  0
LINE
  5
258
330
1E
100
AcDbEntity
  8
0
100
AcDbLine
 10
487.9232349999999
 20
88.53950000000009
 30
0.0
 11
487.9232349999999
 21
90.53950000000009
 31
0.0
  0
LINE
  5
259
330
1E
100
AcDbEntity
  8
0
100
AcDbLine
 10
487.9232349999999
 20
93.93950000000021
 30
0.0
 11
487.9232349999999
 21
90.53950000000009
 31
0.0
  0
LINE
  5
25A
330
1E
100
AcDbEntity
  8
0
100
AcDbLine
 10
487.9232349999999
 20
93.93950000000021
 30
0.0
 11
487.9232349999999
 21
98.2395000000001
 31
0.0
  0
LINE
  5
25B
330
1E
100
AcDbEntity
  8
0
100
AcDbLine
 10
487.9232349999999
 20
90.53950000000009
 30
0.0
 11
487.9232349999999
 21
88.53950000000009
 31
0.0
  0
LINE
  5
25C
330
1E
100
AcDbEntity
  8
0
100
AcDbLine
 10
487.9232349999999
 20
90.53950000000009
 30
0.0
 11
487.9232349999999
 21
93.93950000000021
 31
0.0
  0
LINE
  5
25D
330
1E
100
AcDbEntity
  8
0
100
AcDbLine
 10
487.9232349999999
 20
98.2395000000001
 30
0.0
 11
487.9232349999999
 21
93.93950000000021
 31
0.0
  0
LINE
  5
25E
330
1E
100
AcDbEntity
  8
0
100
AcDbLine
 10
487.9232349999999
 20
98.2395000000001
 30
0.0
 11
487.9232349999999
 21
103.3395
 31
0.0
  0
LINE
  5
25F
330
1E
100
AcDbEntity
  8
0
100
AcDbLine
 10
488.9232349999999
 20
98.73950000000009
 30
0.0
 11
488.9232349999999
 21
94.63950000000009
 31
0.0
  0
LINE
  5
260
330
1E
100
AcDbEntity
  8
0
100
AcDbLine
 10
488.9232349999999
 20
98.73950000000009
 30
0.0
 11
488.9232349999999
 21
103.5395
 31
0.0
  0
LINE
  5
261
330
1E
100
AcDbEntity
  8
0
100
AcDbLine
 10
488.9232349999999
 20
94.63950000000009
 30
0.0
 11
488.9232349999999
 21
91.43950000000021
 31
0.0
  0
LINE
  5
262
330
1E
100
AcDbEntity
  8
0
100
AcDbLine
 10
488.9232349999999
 20
94.63950000000009
 30
0.0
 11
488.9232349999999
 21
98.73950000000009
 31
0.0
  0
LINE
  5
263
330
1E
100
AcDbEntity
  8
0
100
AcDbLine
 10
488.9232349999999
 20
91.43950000000021
 30
0.0
 11
488.9232349999999
 21
89.4395000000002
 31
0.0
  0
LINE
  5
264
330
1E
100
AcDbEntity
  8
0
100
AcDbLine
 10
488.9232349999999
 20
91.43950000000021
 30
0.0
 11
488.9232349999999
 21
94.63950000000009
 31
0.0
  0
LINE
  5
265
330
1E
100
AcDbEntity
  8
0
100
AcDbLine
 10
488.9232349999999
 20
89.4395000000002
 30
0.0
 11
488.9232349999999
 21
88.73950000000009
 31
0.0
  0
LINE
  5
266
330
1E
100
AcDbEntity
  8
0
100
AcDbLine
 10
488.9232349999999
 20
89.4395000000002
 30
0.0
 11
488.9232349999999
 21
91.43950000000021
 31
0.0
  0
LINE
  5
267
330
1E
100
AcDbEntity
  8
0
100
AcDbLine
 10
488.9232349999999
 20
88.73950000000009
 30
0.0
 11
490.423235
 21
100.7395
 31
0.0
  0
LINE
  5
268
330
1E
100
AcDbEntity
  8
0
100
AcDbLine
 10
488.9232349999999
 20
88.73950000000009
 30
0.0
 11
488.9232349999999
 21
89.4395000000002
 31
0.0
  0
LINE
  5
269
330
1E
100
AcDbEntity
  8
0
100
AcDbLine
 10
490.423235
 20
101.8394999999999
 30
0.0
 11
490.423235
 21
101.0395
 31
0.0
  0
LINE
  5
26A
330
1E
100
AcDbEntity
  8
0
100
AcDbLine
 10
490.423235
 20
101.8394999999999
 30
0.0
 11
490.423235
 21
103.1395
 31
0.0
  0
LINE
  5
26B
330
1E
100
AcDbEntity
  8
0
100
AcDbLine
 10
490.423235
 20
100.7395
 30
0.0
 11
490.9232349999999
 21
100.7395
 31
0.0
  0
LINE
  5
26C
330
1E
100
AcDbEntity
  8
0
100
AcDbLine
 10
490.423235
 20
100.7395
 30
0.0
 11
490.423235
 21
101.0395
 31
0.0
  0
LINE
  5
26D
330
1E
100
AcDbEntity
  8
0
100
AcDbLine
 10
490.9232349999999
 20
100.7395
 30
0.0
 11
490.9232349999999
 21
101.0395
 31
0.0
  0
LINE
  5
26E
330
1E
100
AcDbEntity
  8
0
100
AcDbLine
 10
490.423235
 20
101.0395
 30
0.0
 11
490.423235
 21
100.7395
 31
0.0
  0
LINE
  5
26F
330
1E
100
AcDbEntity
  8
0
100
AcDbLine
 10
490.423235
 20
101.0395
 30
0.0
 11
490.423235
 21
101.8394999999999
 31
0.0
  0
LINE
  5
270
330
1E
100
AcDbEntity
  8
0
100
AcDbLine
 10
465.423235
 20
104.4394999999999
 30
0.0
 11
467.1232349999999
 21
103.9395
 31
0.0
  0
LINE
  5
271
330
1E
100
AcDbEntity
  8
0
100
AcDbLine
 10
468.923235
 20
103.7395
 30
0.0
 11
470.7232349999999
 21
103.9395
 31
0.0
  0
LINE
  5
272
330
1E
100
AcDbEntity
  8
0
100
AcDbLine
 10
470.7232349999999
 20
103.9395
 30
0.0
 11
472.423235
 21
104.4394999999999
 31
0.0
  0
LINE
  5
273
330
1E
100
AcDbEntity
  8
0
100
AcDbLine
 10
472.423235
 20
104.4394999999999
 30
0.0
 11
473.8232349999999
 21
105.2395
 31
0.0
  0
LINE
  5
274
330
1E
100
AcDbEntity
  8
0
100
AcDbLine
 10
467.1232349999999
 20
103.9395
 30
0.0
 11
468.923235
 21
103.7395
 31
0.0
  0
LINE
  5
275
330
1E
100
AcDbEntity
  8
0
100
AcDbLine
 10
487.9232349999999
 20
103.3395
 30
0.0
 11
487.9232349999999
 21
98.2395000000001
 31
0.0
  0
LINE
  5
276
330
1E
100
AcDbEntity
  8
0
100
AcDbLine
 10
487.9232349999999
 20
103.3395
 30
0.0
 11
487.9232349999999
 21
108.7395
 31
0.0
  0
LINE
  5
277
330
1E
100
AcDbEntity
  8
0
100
AcDbLine
 10
488.9232349999999
 20
103.5395
 30
0.0
 11
488.9232349999999
 21
98.73950000000009
 31
0.0
  0
LINE
  5
278
330
1E
100
AcDbEntity
  8
0
100
AcDbLine
 10
488.9232349999999
 20
103.5395
 30
0.0
 11
488.9232349999999
 21
108.7395
 31
0.0
  0
LINE
  5
279
330
1E
100
AcDbEntity
  8
0
100
AcDbLine
 10
490.423235
 20
104.7395
 30
0.0
 11
490.423235
 21
103.1395
 31
0.0
  0
LINE
  5
27A
330
1E
100
AcDbEntity
  8
0
100
AcDbLine
 10
490.423235
 20
104.7395
 30
0.0
 11
490.423235
 21
106.6394999999999
 31
0.0
  0
LINE
  5
27B
330
1E
100
AcDbEntity
  8
0
100
AcDbLine
 10
490.423235
 20
103.1395
 30
0.0
 11
490.423235
 21
101.8394999999999
 31
0.0
  0
LINE
  5
27C
330
1E
100
AcDbEntity
  8
0
100
AcDbLine
 10
490.423235
 20
103.1395
 30
0.0
 11
490.423235
 21
104.7395
 31
0.0
  0
LINE
  5
27D
330
1E
100
AcDbEntity
  8
0
100
AcDbLine
 10
464.0232349999999
 20
105.2395
 30
0.0
 11
465.423235
 21
104.4394999999999
 31
0.0
  0
LINE
  5
27E
330
1E
100
AcDbEntity
  8
0
100
AcDbLine
 10
462.8232349999999
 20
106.2394999999999
 30
0.0
 11
464.0232349999999
 21
105.2395
 31
0.0
  0
LINE
  5
27F
330
1E
100
AcDbEntity
  8
0
100
AcDbLine
 10
461.9232349999999
 20
108.7395
 30
0.0
 11
462.2232349999999
 21
110.0395
 31
0.0
  0
LINE
  5
280
330
1E
100
AcDbEntity
  8
0
100
AcDbLine
 10
461.9232349999999
 20
108.7395
 30
0.0
 11
462.2232349999999
 21
107.4394999999999
 31
0.0
  0
LINE
  5
281
330
1E
100
AcDbEntity
  8
0
100
AcDbLine
 10
462.2232349999999
 20
107.4394999999999
 30
0.0
 11
462.8232349999999
 21
106.2394999999999
 31
0.0
  0
LINE
  5
282
330
1E
100
AcDbEntity
  8
0
100
AcDbLine
 10
475.0232349999999
 20
106.2394999999999
 30
0.0
 11
475.6232349999999
 21
107.4394999999999
 31
0.0
  0
LINE
  5
283
330
1E
100
AcDbEntity
  8
0
100
AcDbLine
 10
475.6232349999999
 20
107.4394999999999
 30
0.0
 11
475.9232349999999
 21
108.7395
 31
0.0
  0
LINE
  5
284
330
1E
100
AcDbEntity
  8
0
100
AcDbLine
 10
473.8232349999999
 20
105.2395
 30
0.0
 11
475.0232349999999
 21
106.2394999999999
 31
0.0
  0
LINE
  5
285
330
1E
100
AcDbEntity
  8
0
100
AcDbLine
 10
487.9232349999999
 20
108.7395
 30
0.0
 11
487.9232349999999
 21
103.3395
 31
0.0
  0
LINE
  5
286
330
1E
100
AcDbEntity
  8
0
100
AcDbLine
 10
487.9232349999999
 20
108.7395
 30
0.0
 11
487.9232349999999
 21
114.1394999999999
 31
0.0
  0
LINE
  5
287
330
1E
100
AcDbEntity
  8
0
100
AcDbLine
 10
488.9232349999999
 20
108.7395
 30
0.0
 11
488.9232349999999
 21
103.5395
 31
0.0
  0
LINE
  5
288
330
1E
100
AcDbEntity
  8
0
100
AcDbLine
 10
488.9232349999999
 20
108.7395
 30
0.0
 11
488.9232349999999
 21
113.9394999999999
 31
0.0
  0
LINE
  5
289
330
1E
100
AcDbEntity
  8
0
100
AcDbLine
 10
490.423235
 20
108.7395
 30
0.0
 11
490.423235
 21
106.6394999999999
 31
0.0
  0
LINE
  5
28A
330
1E
100
AcDbEntity
  8
0
100
AcDbLine
 10
490.423235
 20
108.7395
 30
0.0
 11
490.423235
 21
110.8395
 31
0.0
  0
LINE
  5
28B
330
1E
100
AcDbEntity
  8
0
100
AcDbLine
 10
490.423235
 20
106.6394999999999
 30
0.0
 11
490.423235
 21
104.7395
 31
0.0
  0
LINE
  5
28C
330
1E
100
AcDbEntity
  8
0
100
AcDbLine
 10
490.423235
 20
106.6394999999999
 30
0.0
 11
490.423235
 21
108.7395
 31
0.0
  0
LINE
  5
28D
330
1E
100
AcDbEntity
  8
0
100
AcDbLine
 10
475.6232349999999
 20
110.0395
 30
0.0
 11
475.9232349999999
 21
108.7395
 31
0.0
  0
LINE
  5
28E
330
1E
100
AcDbEntity
  8
0
100
AcDbLine
 10
462.2232349999999
 20
110.0395
 30
0.0
 11
462.8232349999999
 21
111.2395
 31
0.0
  0
LINE
  5
28F
330
1E
100
AcDbEntity
  8
0
100
AcDbLine
 10
490.423235
 20
110.8395
 30
0.0
 11
490.423235
 21
108.7395
 31
0.0
  0
LINE
  5
290
330
1E
100
AcDbEntity
  8
0
100
AcDbLine
 10
490.423235
 20
110.8395
 30
0.0
 11
490.423235
 21
112.7395
 31
0.0
  0
LINE
  5
291
330
1E
100
AcDbEntity
  8
0
100
AcDbLine
 10
473.8232349999999
 20
112.2395
 30
0.0
 11
475.0232349999999
 21
111.2395
 31
0.0
  0
LINE
  5
292
330
1E
100
AcDbEntity
  8
0
100
AcDbLine
 10
475.0232349999999
 20
111.2395
 30
0.0
 11
475.6232349999999
 21
110.0395
 31
0.0
  0
LINE
  5
293
330
1E
100
AcDbEntity
  8
0
100
AcDbLine
 10
464.0232349999999
 20
112.2395
 30
0.0
 11
465.423235
 21
113.0395
 31
0.0
  0
LINE
  5
294
330
1E
100
AcDbEntity
  8
0
100
AcDbLine
 10
462.8232349999999
 20
111.2395
 30
0.0
 11
464.0232349999999
 21
112.2395
 31
0.0
  0
LINE
  5
295
330
1E
100
AcDbEntity
  8
0
100
AcDbLine
 10
470.7232349999999
 20
113.5395
 30
0.0
 11
472.423235
 21
113.0395
 31
0.0
  0
LINE
  5
296
330
1E
100
AcDbEntity
  8
0
100
AcDbLine
 10
472.423235
 20
113.0395
 30
0.0
 11
473.8232349999999
 21
112.2395
 31
0.0
  0
LINE
  5
297
330
1E
100
AcDbEntity
  8
0
100
AcDbLine
 10
468.923235
 20
113.7395
 30
0.0
 11
470.7232349999999
 21
113.5395
 31
0.0
  0
LINE
  5
298
330
1E
100
AcDbEntity
  8
0
100
AcDbLine
 10
467.1232349999999
 20
113.5395
 30
0.0
 11
468.923235
 21
113.7395
 31
0.0
  0
LINE
  5
299
330
1E
100
AcDbEntity
  8
0
100
AcDbLine
 10
465.423235
 20
113.0395
 30
0.0
 11
467.1232349999999
 21
113.5395
 31
0.0
  0
LINE
  5
29A
330
1E
100
AcDbEntity
  8
0
100
AcDbLine
 10
487.9232349999999
 20
114.1394999999999
 30
0.0
 11
487.9232349999999
 21
108.7395
 31
0.0
  0
LINE
  5
29B
330
1E
100
AcDbEntity
  8
0
100
AcDbLine
 10
487.9232349999999
 20
114.1394999999999
 30
0.0
 11
487.9232349999999
 21
119.2395
 31
0.0
  0
LINE
  5
29C
330
1E
100
AcDbEntity
  8
0
100
AcDbLine
 10
488.9232349999999
 20
113.9394999999999
 30
0.0
 11
488.9232349999999
 21
108.7395
 31
0.0
  0
LINE
  5
29D
330
1E
100
AcDbEntity
  8
0
100
AcDbLine
 10
488.9232349999999
 20
113.9394999999999
 30
0.0
 11
488.9232349999999
 21
118.7395
 31
0.0
  0
LINE
  5
29E
330
1E
100
AcDbEntity
  8
0
100
AcDbLine
 10
490.423235
 20
112.7395
 30
0.0
 11
490.423235
 21
110.8395
 31
0.0
  0
LINE
  5
29F
330
1E
100
AcDbEntity
  8
0
100
AcDbLine
 10
490.423235
 20
112.7395
 30
0.0
 11
490.423235
 21
114.3394999999999
 31
0.0
  0
LINE
  5
2A0
330
1E
100
AcDbEntity
  8
0
100
AcDbLine
 10
490.423235
 20
114.3394999999999
 30
0.0
 11
490.423235
 21
112.7395
 31
0.0
  0
LINE
  5
2A1
330
1E
100
AcDbEntity
  8
0
100
AcDbLine
 10
490.423235
 20
114.3394999999999
 30
0.0
 11
490.423235
 21
115.6395
 31
0.0
  0
LINE
  5
2A2
330
1E
100
AcDbEntity
  8
0
100
AcDbLine
 10
490.9232349999999
 20
110.8395
 30
0.0
 11
490.9232349999999
 21
108.7395
 31
0.0
  0
LINE
  5
2A3
330
1E
100
AcDbEntity
  8
0
100
AcDbLine
 10
490.9232349999999
 20
110.8395
 30
0.0
 11
490.9232349999999
 21
112.7395
 31
0.0
  0
LINE
  5
2A4
330
1E
100
AcDbEntity
  8
0
100
AcDbLine
 10
490.9232349999999
 20
112.7395
 30
0.0
 11
490.9232349999999
 21
110.8395
 31
0.0
  0
LINE
  5
2A5
330
1E
100
AcDbEntity
  8
0
100
AcDbLine
 10
490.9232349999999
 20
112.7395
 30
0.0
 11
490.9232349999999
 21
114.3394999999999
 31
0.0
  0
LINE
  5
2A6
330
1E
100
AcDbEntity
  8
0
100
AcDbLine
 10
490.423235
 20
115.6395
 30
0.0
 11
490.423235
 21
114.3394999999999
 31
0.0
  0
LINE
  5
2A7
330
1E
100
AcDbEntity
  8
0
100
AcDbLine
 10
490.423235
 20
115.6395
 30
0.0
 11
490.423235
 21
116.4395
 31
0.0
  0
LINE
  5
2A8
330
1E
100
AcDbEntity
  8
0
100
AcDbLine
 10
490.423235
 20
116.4395
 30
0.0
 11
490.423235
 21
115.6395
 31
0.0
  0
LINE
  5
2A9
330
1E
100
AcDbEntity
  8
0
100
AcDbLine
 10
490.423235
 20
116.4395
 30
0.0
 11
490.423235
 21
116.7395
 31
0.0
  0
LINE
  5
2AA
330
1E
100
AcDbEntity
  8
0
100
AcDbLine
 10
490.9232349999999
 20
114.3394999999999
 30
0.0
 11
490.9232349999999
 21
112.7395
 31
0.0
  0
LINE
  5
2AB
330
1E
100
AcDbEntity
  8
0
100
AcDbLine
 10
490.9232349999999
 20
114.3394999999999
 30
0.0
 11
490.9232349999999
 21
115.6395
 31
0.0
  0
LINE
  5
2AC
330
1E
100
AcDbEntity
  8
0
100
AcDbLine
 10
490.9232349999999
 20
115.6395
 30
0.0
 11
490.9232349999999
 21
114.3394999999999
 31
0.0
  0
LINE
  5
2AD
330
1E
100
AcDbEntity
  8
0
100
AcDbLine
 10
490.9232349999999
 20
115.6395
 30
0.0
 11
490.9232349999999
 21
116.4395
 31
0.0
  0
LINE
  5
2AE
330
1E
100
AcDbEntity
  8
0
100
AcDbLine
 10
487.9232349999999
 20
119.2395
 30
0.0
 11
487.9232349999999
 21
114.1394999999999
 31
0.0
  0
LINE
  5
2AF
330
1E
100
AcDbEntity
  8
0
100
AcDbLine
 10
487.9232349999999
 20
119.2395
 30
0.0
 11
487.9232349999999
 21
123.5395
 31
0.0
  0
LINE
  5
2B0
330
1E
100
AcDbEntity
  8
0
100
AcDbLine
 10
487.9232349999999
 20
123.5395
 30
0.0
 11
487.9232349999999
 21
119.2395
 31
0.0
  0
LINE
  5
2B1
330
1E
100
AcDbEntity
  8
0
100
AcDbLine
 10
487.9232349999999
 20
123.5395
 30
0.0
 11
487.9232349999999
 21
126.9395
 31
0.0
  0
LINE
  5
2B2
330
1E
100
AcDbEntity
  8
0
100
AcDbLine
 10
488.9232349999999
 20
118.7395
 30
0.0
 11
488.9232349999999
 21
113.9394999999999
 31
0.0
  0
LINE
  5
2B3
330
1E
100
AcDbEntity
  8
0
100
AcDbLine
 10
488.9232349999999
 20
118.7395
 30
0.0
 11
488.9232349999999
 21
122.8395
 31
0.0
  0
LINE
  5
2B4
330
1E
100
AcDbEntity
  8
0
100
AcDbLine
 10
488.9232349999999
 20
122.8395
 30
0.0
 11
488.9232349999999
 21
118.7395
 31
0.0
  0
LINE
  5
2B5
330
1E
100
AcDbEntity
  8
0
100
AcDbLine
 10
488.9232349999999
 20
122.8395
 30
0.0
 11
488.9232349999999
 21
126.0395
 31
0.0
  0
LINE
  5
2B6
330
1E
100
AcDbEntity
  8
0
100
AcDbLine
 10
487.9232349999999
 20
126.9395
 30
0.0
 11
487.9232349999999
 21
123.5395
 31
0.0
  0
LINE
  5
2B7
330
1E
100
AcDbEntity
  8
0
100
AcDbLine
 10
487.9232349999999
 20
126.9395
 30
0.0
 11
487.9232349999999
 21
128.9395
 31
0.0
  0
LINE
  5
2B8
330
1E
100
AcDbEntity
  8
0
100
AcDbLine
 10
488.9232349999999
 20
126.0395
 30
0.0
 11
488.9232349999999
 21
122.8395
 31
0.0
  0
LINE
  5
2B9
330
1E
100
AcDbEntity
  8
0
100
AcDbLine
 10
488.9232349999999
 20
126.0395
 30
0.0
 11
488.9232349999999
 21
128.0395
 31
0.0
  0
LINE
  5
2BA
330
1E
100
AcDbEntity
  8
0
100
AcDbLine
 10
488.9232349999999
 20
128.0395
 30
0.0
 11
488.9232349999999
 21
126.0395
 31
0.0
  0
LINE
  5
2BB
330
1E
100
AcDbEntity
  8
0
100
AcDbLine
 10
488.9232349999999
 20
128.0395
 30
0.0
 11
488.9232349999999
 21
128.7394999999999
 31
0.0
  0
LINE
  5
2BC
330
1E
100
AcDbEntity
  8
0
100
AcDbLine
 10
487.9232349999999
 20
128.9395
 30
0.0
 11
487.9232349999999
 21
126.9395
 31
0.0
  0
LINE
  5
2BD
330
1E
100
AcDbEntity
  8
0
100
AcDbLine
 10
487.9232349999999
 20
128.9395
 30
0.0
 11
487.9232349999999
 21
129.7394999999999
 31
0.0
  0
LINE
  5
2BE
330
1E
100
AcDbEntity
  8
0
100
AcDbLine
 10
487.9232349999999
 20
129.7394999999999
 30
0.0
 11
487.9232349999999
 21
128.9395
 31
0.0
  0
LINE
  5
2BF
330
1E
100
AcDbEntity
  8
0
100
AcDbLine
 10
487.9232349999999
 20
129.7394999999999
 30
0.0
 11
488.9232349999999
 21
128.7394999999999
 31
0.0
  0
LINE
  5
2C0
330
1E
100
AcDbEntity
  8
0
100
AcDbLine
 10
488.9232349999999
 20
128.7394999999999
 30
0.0
 11
488.9232349999999
 21
128.0395
 31
0.0
  0
LINE
  5
2C1
330
1E
100
AcDbEntity
  8
0
100
AcDbLine
 10
488.9232349999999
 20
128.7394999999999
 30
0.0
 11
490.423235
 21
116.7395
 31
0.0
  0
LINE
  5
2C2
330
1E
100
AcDbEntity
  8
0
100
AcDbLine
 10
490.423235
 20
116.7395
 30
0.0
 11
490.423235
 21
116.4395
 31
0.0
  0
LINE
  5
2C3
330
1E
100
AcDbEntity
  8
0
100
AcDbLine
 10
490.423235
 20
116.7395
 30
0.0
 11
490.9232349999999
 21
116.7395
 31
0.0
  0
LINE
  5
2C4
330
1E
100
AcDbEntity
  8
0
100
AcDbLine
 10
490.9232349999999
 20
116.4395
 30
0.0
 11
490.9232349999999
 21
115.6395
 31
0.0
  0
LINE
  5
2C5
330
1E
100
AcDbEntity
  8
0
100
AcDbLine
 10
490.9232349999999
 20
116.4395
 30
0.0
 11
490.9232349999999
 21
116.7395
 31
0.0
  0
LINE
  5
2C6
330
1E
100
AcDbEntity
  8
0
100
AcDbLine
 10
490.9232349999999
 20
116.7395
 30
0.0
 11
490.9232349999999
 21
116.4395
 31
0.0
  0
LINE
  5
2C7
330
1E
100
AcDbEntity
  8
0
100
AcDbLine
 10
490.9232349999999
 20
108.7395
 30
0.0
 11
490.9232349999999
 21
106.6394999999999
 31
0.0
  0
LINE
  5
2C8
330
1E
100
AcDbEntity
  8
0
100
AcDbLine
 10
490.9232349999999
 20
108.7395
 30
0.0
 11
490.9232349999999
 21
110.8395
 31
0.0
  0
LINE
  5
2C9
330
1E
100
AcDbEntity
  8
0
100
AcDbLine
 10
490.9232349999999
 20
106.6394999999999
 30
0.0
 11
490.9232349999999
 21
104.7395
 31
0.0
  0
LINE
  5
2CA
330
1E
100
AcDbEntity
  8
0
100
AcDbLine
 10
490.9232349999999
 20
106.6394999999999
 30
0.0
 11
490.9232349999999
 21
108.7395
 31
0.0
  0
LINE
  5
2CB
330
1E
100
AcDbEntity
  8
0
100
AcDbLine
 10
490.9232349999999
 20
104.7395
 30
0.0
 11
490.9232349999999
 21
103.1395
 31
0.0
  0
LINE
  5
2CC
330
1E
100
AcDbEntity
  8
0
100
AcDbLine
 10
490.9232349999999
 20
104.7395
 30
0.0
 11
490.9232349999999
 21
106.6394999999999
 31
0.0
  0
LINE
  5
2CD
330
1E
100
AcDbEntity
  8
0
100
AcDbLine
 10
490.9232349999999
 20
103.1395
 30
0.0
 11
490.9232349999999
 21
101.8394999999999
 31
0.0
  0
LINE
  5
2CE
330
1E
100
AcDbEntity
  8
0
100
AcDbLine
 10
490.9232349999999
 20
103.1395
 30
0.0
 11
490.9232349999999
 21
104.7395
 31
0.0
  0
LINE
  5
2CF
330
1E
100
AcDbEntity
  8
0
100
AcDbLine
 10
490.9232349999999
 20
101.8394999999999
 30
0.0
 11
490.9232349999999
 21
101.0395
 31
0.0
  0
LINE
  5
2D0
330
1E
100
AcDbEntity
  8
0
100
AcDbLine
 10
490.9232349999999
 20
101.8394999999999
 30
0.0
 11
490.9232349999999
 21
103.1395
 31
0.0
  0
LINE
  5
2D1
330
1E
100
AcDbEntity
  8
0
100
AcDbLine
 10
490.9232349999999
 20
101.0395
 30
0.0
 11
490.9232349999999
 21
100.7395
 31
0.0
  0
LINE
  5
2D2
330
1E
100
AcDbEntity
  8
0
100
AcDbLine
 10
490.9232349999999
 20
101.0395
 30
0.0
 11
490.9232349999999
 21
101.8394999999999
 31
0.0
  0
LINE
  5
2D3
330
1E
100
AcDbEntity
  8
0
100
AcDbLine
 10
449.9232349999999
 20
132.7394999999999
 30
0.0
 11
452.204925140845
 21
129.7394999999999
 31
0.0
  0
LINE
  5
2D4
330
1E
100
AcDbEntity
  8
0
100
AcDbLine
 10
448.5232349999999
 20
131.3394999999999
 30
0.0
 11
449.741145447761
 21
129.7394999999999
 31
0.0
  0
LINE
  5
2D5
330
1E
100
AcDbEntity
  8
0
100
AcDbLine
 10
409.0232349999999
 20
138.1394999999999
 30
0.0
 11
417.123235
 21
141.5395
 31
0.0
  0
LINE
  5
2D6
330
1E
100
AcDbEntity
  8
0
100
AcDbLine
 10
417.623235
 20
139.5395
 30
0.0
 11
425.9232349999999
 21
140.7394999999999
 31
0.0
  0
LINE
  5
2D7
330
1E
100
AcDbEntity
  8
0
100
AcDbLine
 10
410.0232349999999
 20
136.4395
 30
0.0
 11
417.623235
 21
139.5395
 31
0.0
  0
LINE
  5
2D8
330
1E
100
AcDbEntity
  8
0
100
AcDbLine
 10
417.123235
 20
141.5395
 30
0.0
 11
425.9232349999999
 21
142.7394999999999
 31
0.0
  0
LINE
  5
2D9
330
1E
100
AcDbEntity
  8
0
100
AcDbLine
 10
434.7232349999999
 20
141.5395
 30
0.0
 11
442.823235
 21
138.1394999999999
 31
0.0
  0
LINE
  5
2DA
330
1E
100
AcDbEntity
  8
0
100
AcDbLine
 10
425.9232349999999
 20
140.7394999999999
 30
0.0
 11
434.2232349999999
 21
139.5395
 31
0.0
  0
LINE
  5
2DB
330
1E
100
AcDbEntity
  8
0
100
AcDbLine
 10
434.2232349999999
 20
139.5395
 30
0.0
 11
441.8232349999999
 21
136.4395
 31
0.0
  0
LINE
  5
2DC
330
1E
100
AcDbEntity
  8
0
100
AcDbLine
 10
442.823235
 20
138.1394999999999
 30
0.0
 11
449.9232349999999
 21
132.7394999999999
 31
0.0
  0
LINE
  5
2DD
330
1E
100
AcDbEntity
  8
0
100
AcDbLine
 10
441.8232349999999
 20
136.4395
 30
0.0
 11
448.5232349999999
 21
131.3394999999999
 31
0.0
  0
LINE
  5
2DE
330
1E
100
AcDbEntity
  8
0
100
AcDbLine
 10
299.923235
 20
132.7394999999999
 30
0.0
 11
302.204925140845
 21
129.7394999999999
 31
0.0
  0
LINE
  5
2DF
330
1E
100
AcDbEntity
  8
0
100
AcDbLine
 10
298.523235
 20
86.13950000000009
 30
0.0
 11
299.741145447761
 21
87.73950000000009
 31
0.0
  0
LINE
  5
2E0
330
1E
100
AcDbEntity
  8
0
100
AcDbLine
 10
299.923235
 20
84.73950000000009
 30
0.0
 11
302.204925140845
 21
87.73950000000009
 31
0.0
  0
LINE
  5
2E1
330
1E
100
AcDbEntity
  8
0
100
AcDbLine
 10
267.623235
 20
139.5395
 30
0.0
 11
275.923235
 21
140.7394999999999
 31
0.0
  0
LINE
  5
2E2
330
1E
100
AcDbEntity
  8
0
100
AcDbLine
 10
425.9232349999999
 20
142.7394999999999
 30
0.0
 11
434.7232349999999
 21
141.5395
 31
0.0
  0
LINE
  5
2E3
330
1E
100
AcDbEntity
  8
0
100
AcDbLine
 10
275.923235
 20
142.7394999999999
 30
0.0
 11
284.723235
 21
141.5395
 31
0.0
  0
LINE
  5
2E4
330
1E
100
AcDbEntity
  8
0
100
AcDbLine
 10
267.123235
 20
141.5395
 30
0.0
 11
275.923235
 21
142.7394999999999
 31
0.0
  0
LINE
  5
2E5
330
1E
100
AcDbEntity
  8
0
100
AcDbLine
 10
260.023235
 20
81.03950000000009
 30
0.0
 11
267.623235
 21
77.9395000000002
 31
0.0
  0
LINE
  5
2E6
330
1E
100
AcDbEntity
  8
0
100
AcDbLine
 10
259.0232349999999
 20
79.3395000000001
 30
0.0
 11
267.123235
 21
75.93950000000019
 31
0.0
  0
LINE
  5
2E7
330
1E
100
AcDbEntity
  8
0
100
AcDbLine
 10
258.923235
 20
103.3395
 30
0.0
 11
258.923235
 21
108.7395
 31
0.0
  0
LINE
  5
2E8
330
1E
100
AcDbEntity
  8
0
100
AcDbLine
 10
258.923235
 20
103.3395
 30
0.0
 11
258.923235
 21
98.2395000000001
 31
0.0
  0
LINE
  5
2EE
330
1E
100
AcDbEntity
  8
0
100
AcDbLine
 10
96.76853499999999
 20
794.2094999999999
 30
0.0
 11
97.03523500000001
 21
794.3395
 31
0.0
  0
LINE
  5
2F6
330
1E
100
AcDbEntity
  8
0
100
AcDbLine
 10
66.023235
 20
825.2394999999999
 30
0.0
 11
66.42323499999999
 21
825.2394999999999
 31
0.0
  0
LINE
  5
2F7
330
1E
100
AcDbEntity
  8
0
100
AcDbLine
 10
55.923235
 20
825.2394999999999
 30
0.0
 11
66.42323499999999
 21
825.2394999999999
 31
0.0
  0
LINE
  5
2F8
330
1E
100
AcDbEntity
  8
0
100
AcDbLine
 10
55.923235
 20
825.2394999999999
 30
0.0
 11
58.623235
 21
825.2394999999999
 31
0.0
  0
LINE
  5
2F9
330
1E
100
AcDbEntity
  8
0
100
AcDbLine
 10
55.923235
 20
825.7395
 30
0.0
 11
58.723235
 21
825.7395
 31
0.0
  0
LINE
  5
2FA
330
1E
100
AcDbEntity
  8
0
100
AcDbLine
 10
55.923235
 20
876.7395
 30
0.0
 11
58.723235
 21
876.7395
 31
0.0
  0
LINE
  5
2FB
330
1E
100
AcDbEntity
  8
0
100
AcDbLine
 10
55.923235
 20
877.2395000000001
 30
0.0
 11
58.623235
 21
877.2395000000001
 31
0.0
  0
LINE
  5
2FC
330
1E
100
AcDbEntity
  8
0
100
AcDbLine
 10
58.723235
 20
825.7395
 30
0.0
 11
61.42323499999999
 21
825.7395
 31
0.0
  0
LINE
  5
2FD
330
1E
100
AcDbEntity
  8
0
100
AcDbLine
 10
61.42323499999999
 20
825.7395
 30
0.0
 11
63.723235
 21
825.7395
 31
0.0
  0
LINE
  5
2FE
330
1E
100
AcDbEntity
  8
0
100
AcDbLine
 10
58.723235
 20
876.7395
 30
0.0
 11
61.42323499999999
 21
876.7395
 31
0.0
  0
LINE
  5
2FF
330
1E
100
AcDbEntity
  8
0
100
AcDbLine
 10
61.42323499999999
 20
876.7395
 30
0.0
 11
63.723235
 21
876.7395
 31
0.0
  0
LINE
  5
300
330
1E
100
AcDbEntity
  8
0
100
AcDbLine
 10
58.623235
 20
877.2395000000001
 30
0.0
 11
61.123235
 21
877.2395000000001
 31
0.0
  0
LINE
  5
301
330
1E
100
AcDbEntity
  8
0
100
AcDbLine
 10
61.123235
 20
877.2395000000001
 30
0.0
 11
63.323235
 21
877.2395000000001
 31
0.0
  0
LINE
  5
302
330
1E
100
AcDbEntity
  8
0
100
AcDbLine
 10
63.723235
 20
825.7395
 30
0.0
 11
65.42323499999999
 21
825.7395
 31
0.0
  0
LINE
  5
303
330
1E
100
AcDbEntity
  8
0
100
AcDbLine
 10
65.42323499999999
 20
825.7395
 30
0.0
 11
66.523235
 21
825.7395
 31
0.0
  0
LINE
  5
304
330
1E
100
AcDbEntity
  8
0
100
AcDbLine
 10
63.723235
 20
876.7395
 30
0.0
 11
65.42323499999999
 21
876.7395
 31
0.0
  0
LINE
  5
305
330
1E
100
AcDbEntity
  8
0
100
AcDbLine
 10
65.42323499999999
 20
876.7395
 30
0.0
 11
66.523235
 21
876.7395
 31
0.0
  0
LINE
  5
306
330
1E
100
AcDbEntity
  8
0
100
AcDbLine
 10
63.323235
 20
877.2395000000001
 30
0.0
 11
65.023235
 21
877.2395000000001
 31
0.0
  0
LINE
  5
307
330
1E
100
AcDbEntity
  8
0
100
AcDbLine
 10
65.023235
 20
877.2395000000001
 30
0.0
 11
66.023235
 21
877.2395000000001
 31
0.0
  0
LINE
  5
308
330
1E
100
AcDbEntity
  8
0
100
AcDbLine
 10
66.523235
 20
825.7395
 30
0.0
 11
66.92323499999999
 21
825.7395
 31
0.0
  0
LINE
  5
309
330
1E
100
AcDbEntity
  8
0
100
AcDbLine
 10
66.92323499999999
 20
825.7395
 30
0.0
 11
66.92323499999999
 21
876.7395
 31
0.0
  0
LINE
  5
30A
330
1E
100
AcDbEntity
  8
0
100
AcDbLine
 10
66.92323499999999
 20
876.7395
 30
0.0
 11
66.92323499999999
 21
825.7395
 31
0.0
  0
LINE
  5
30B
330
1E
100
AcDbEntity
  8
0
100
AcDbLine
 10
66.523235
 20
876.7395
 30
0.0
 11
66.92323499999999
 21
876.7395
 31
0.0
  0
LINE
  5
30C
330
1E
100
AcDbEntity
  8
0
100
AcDbLine
 10
66.42323499999999
 20
877.2395000000001
 30
0.0
 11
66.92323499999999
 21
876.7395
 31
0.0
  0
LINE
  5
30D
330
1E
100
AcDbEntity
  8
0
100
AcDbLine
 10
66.42323499999999
 20
877.2395000000001
 30
0.0
 11
66.92323499999999
 21
877.7395
 31
0.0
  0
LINE
  5
30E
330
1E
100
AcDbEntity
  8
0
100
AcDbLine
 10
66.023235
 20
877.2395000000001
 30
0.0
 11
66.42323499999999
 21
877.2395000000001
 31
0.0
  0
LINE
  5
30F
330
1E
100
AcDbEntity
  8
0
100
AcDbLine
 10
53.22323499999999
 20
825.2394999999999
 30
0.0
 11
55.923235
 21
825.2394999999999
 31
0.0
  0
LINE
  5
310
330
1E
100
AcDbEntity
  8
0
100
AcDbLine
 10
53.123235
 20
876.7395
 30
0.0
 11
55.923235
 21
876.7395
 31
0.0
  0
LINE
  5
311
330
1E
100
AcDbEntity
  8
0
100
AcDbLine
 10
53.22323499999999
 20
877.2395000000001
 30
0.0
 11
55.923235
 21
877.2395000000001
 31
0.0
  0
LINE
  5
312
330
1E
100
AcDbEntity
  8
0
100
AcDbLine
 10
50.72323499999999
 20
877.2395000000001
 30
0.0
 11
53.22323499999999
 21
877.2395000000001
 31
0.0
  0
LINE
  5
313
330
1E
100
AcDbEntity
  8
0
100
AcDbLine
 10
48.523235
 20
877.2395000000001
 30
0.0
 11
50.72323499999999
 21
877.2395000000001
 31
0.0
  0
LINE
  5
314
330
1E
100
AcDbEntity
  8
0
100
AcDbLine
 10
46.82323499999999
 20
877.2395000000001
 30
0.0
 11
48.523235
 21
877.2395000000001
 31
0.0
  0
LINE
  5
315
330
1E
100
AcDbEntity
  8
0
100
AcDbLine
 10
48.123235
 20
877.7395
 30
0.0
 11
50.423235
 21
877.7395
 31
0.0
  0
LINE
  5
316
330
1E
100
AcDbEntity
  8
0
100
AcDbLine
 10
46.623235
 20
1346.5095
 30
0.0
 11
54.623235
 21
1352.469499999999
 31
0.0
  0
LINE
  5
317
330
1E
100
AcDbEntity
  8
0
100
AcDbLine
 10
47.023235
 20
1314.0195
 30
0.0
 11
48.323235
 21
1312.369499999999
 31
0.0
  0
LINE
  5
318
330
1E
100
AcDbEntity
  8
0
100
AcDbLine
 10
46.623235
 20
1347.3295
 30
0.0
 11
54.623235
 21
1353.2895
 31
0.0
  0
LINE
  5
319
330
1E
100
AcDbEntity
  8
0
100
AcDbLine
 10
48.323235
 20
1312.369499999999
 30
0.0
 11
56.023235
 21
1306.6395
 31
0.0
  0
LINE
  5
31A
330
1E
100
AcDbEntity
  8
0
100
AcDbLine
 10
47.023235
 20
1356.5695
 30
0.0
 11
54.923235
 21
1362.5395
 31
0.0
  0
LINE
  5
31B
330
1E
100
AcDbEntity
  8
0
100
AcDbLine
 10
48.123235
 20
1440.7395
 30
0.0
 11
50.423235
 21
1440.7395
 31
0.0
  0
LINE
  5
31C
330
1E
100
AcDbEntity
  8
0
100
AcDbLine
 10
46.42323499999999
 20
1440.7395
 30
0.0
 11
48.123235
 21
1440.7395
 31
0.0
  0
LINE
  5
31D
330
1E
100
AcDbEntity
  8
0
100
AcDbLine
 10
46.42323499999999
 20
877.7395
 30
0.0
 11
48.123235
 21
877.7395
 31
0.0
  0
LINE
  5
31E
330
1E
100
AcDbEntity
  8
0
100
AcDbLine
 10
53.123235
 20
877.7395
 30
0.0
 11
55.923235
 21
877.7395
 31
0.0
  0
LINE
  5
31F
330
1E
100
AcDbEntity
  8
0
100
AcDbLine
 10
48.92323499999999
 20
925.2394999999999
 30
0.0
 11
55.923235
 21
925.2394999999999
 31
0.0
  0
LINE
  5
322
330
1E
100
AcDbEntity
  8
0
100
AcDbLine
 10
50.22323499999999
 20
1323.5095
 30
0.0
 11
50.923235
 21
1323.6795
 31
0.0
  0
LINE
  5
324
330
1E
100
AcDbEntity
  8
0
100
AcDbLine
 10
49.923235
 20
1323.1095
 30
0.0
 11
50.22323499999999
 21
1322.7095
 31
0.0
  0
LINE
  5
325
330
1E
100
AcDbEntity
  8
0
100
AcDbLine
 10
49.923235
 20
1323.1095
 30
0.0
 11
50.22323499999999
 21
1323.5095
 31
0.0
  0
LINE
  5
327
330
1E
100
AcDbEntity
  8
0
100
AcDbLine
 10
50.22323499999999
 20
1322.7095
 30
0.0
 11
50.923235
 21
1322.5395
 31
0.0
  0
LINE
  5
328
330
1E
100
AcDbEntity
  8
0
100
AcDbLine
 10
48.723235
 20
948.2395
 30
0.0
 11
55.923235
 21
948.2395
 31
0.0
  0
LINE
  5
329
330
1E
100
AcDbEntity
  8
0
100
AcDbLine
 10
48.723235
 20
925.2394999999999
 30
0.0
 11
55.923235
 21
925.2394999999999
 31
0.0
  0
LINE
  5
32C
330
1E
100
AcDbEntity
  8
0
100
AcDbLine
 10
50.530935
 20
1319.1295
 30
0.0
 11
50.70483499999999
 21
1319.5495
 31
0.0
  0
LINE
  5
32D
330
1E
100
AcDbEntity
  8
0
100
AcDbLine
 10
50.530935
 20
1319.1295
 30
0.0
 11
50.947935
 21
1318.7595
 31
0.0
  0
LINE
  5
32F
330
1E
100
AcDbEntity
  8
0
100
AcDbLine
 10
50.70483499999999
 20
1319.5495
 30
0.0
 11
51.34203499999999
 21
1319.7895
 31
0.0
  0
LINE
  5
332
330
1E
100
AcDbEntity
  8
0
100
AcDbLine
 10
50.530935
 20
1327.0895
 30
0.0
 11
50.70483499999999
 21
1326.6695
 31
0.0
  0
LINE
  5
333
330
1E
100
AcDbEntity
  8
0
100
AcDbLine
 10
50.530935
 20
1327.0895
 30
0.0
 11
50.947935
 21
1327.4595
 31
0.0
  0
LINE
  5
336
330
1E
100
AcDbEntity
  8
0
100
AcDbLine
 10
51.34203499999999
 20
1319.7895
 30
0.0
 11
52.083535
 21
1319.689499999999
 31
0.0
  0
LINE
  5
338
330
1E
100
AcDbEntity
  8
0
100
AcDbLine
 10
50.947935
 20
1318.7595
 30
0.0
 11
51.689335
 21
1318.6595
 31
0.0
  0
LINE
  5
339
330
1E
100
AcDbEntity
  8
0
100
AcDbLine
 10
50.923235
 20
1322.5395
 30
0.0
 11
51.623235
 21
1322.7095
 31
0.0
  0
LINE
  5
33B
330
1E
100
AcDbEntity
  8
0
100
AcDbLine
 10
50.923235
 20
1323.6795
 30
0.0
 11
51.623235
 21
1323.5095
 31
0.0
  0
LINE
  5
33E
330
1E
100
AcDbEntity
  8
0
100
AcDbLine
 10
52.083535
 20
1319.689499999999
 30
0.0
 11
52.50053499999999
 21
1319.3295
 31
0.0
  0
LINE
  5
340
330
1E
100
AcDbEntity
  8
0
100
AcDbLine
 10
52.326635
 20
1318.8995
 30
0.0
 11
52.50053499999999
 21
1319.3295
 31
0.0
  0
LINE
  5
341
330
1E
100
AcDbEntity
  8
0
100
AcDbLine
 10
51.689335
 20
1318.6595
 30
0.0
 11
52.326635
 21
1318.8995
 31
0.0
  0
LINE
  5
343
330
1E
100
AcDbEntity
  8
0
100
AcDbLine
 10
51.623235
 20
1322.7095
 30
0.0
 11
51.923235
 21
1323.1095
 31
0.0
  0
LINE
  5
346
330
1E
100
AcDbEntity
  8
0
100
AcDbLine
 10
51.623235
 20
1323.5095
 30
0.0
 11
51.923235
 21
1323.1095
 31
0.0
  0
LINE
  5
348
330
1E
100
AcDbEntity
  8
0
100
AcDbLine
 10
51.34203499999999
 20
1326.4295
 30
0.0
 11
52.083535
 21
1326.5295
 31
0.0
  0
LINE
  5
349
330
1E
100
AcDbEntity
  8
0
100
AcDbLine
 10
52.083535
 20
1326.5295
 30
0.0
 11
52.50053499999999
 21
1326.8995
 31
0.0
  0
LINE
  5
34A
330
1E
100
AcDbEntity
  8
0
100
AcDbLine
 10
52.335535
 20
1315.2595
 30
0.0
 11
52.378035
 21
1315.6995
 31
0.0
  0
LINE
  5
34B
330
1E
100
AcDbEntity
  8
0
100
AcDbLine
 10
52.335535
 20
1315.2595
 30
0.0
 11
52.856835
 21
1314.9395
 31
0.0
  0
LINE
  5
34F
330
1E
100
AcDbEntity
  8
0
100
AcDbLine
 10
52.378035
 20
1315.6995
 30
0.0
 11
52.93323499999999
 21
1315.999499999999
 31
0.0
  0
LINE
  5
351
330
1E
100
AcDbEntity
  8
0
100
AcDbLine
 10
52.326635
 20
1327.3195
 30
0.0
 11
52.50053499999999
 21
1326.8995
 31
0.0
  0
LINE
  5
356
330
1E
100
AcDbEntity
  8
0
100
AcDbLine
 10
51.689335
 20
1327.5595
 30
0.0
 11
52.326635
 21
1327.3195
 31
0.0
  0
LINE
  5
358
330
1E
100
AcDbEntity
  8
0
100
AcDbLine
 10
50.947935
 20
1327.4595
 30
0.0
 11
51.689335
 21
1327.5595
 31
0.0
  0
LINE
  5
35A
330
1E
100
AcDbEntity
  8
0
100
AcDbLine
 10
50.70483499999999
 20
1326.6695
 30
0.0
 11
51.34203499999999
 21
1326.4295
 31
0.0
  0
LINE
  5
35C
330
1E
100
AcDbEntity
  8
0
100
AcDbLine
 10
52.335535
 20
1330.9595
 30
0.0
 11
52.378035
 21
1330.5195
 31
0.0
  0
LINE
  5
35D
330
1E
100
AcDbEntity
  8
0
100
AcDbLine
 10
52.335535
 20
1330.9595
 30
0.0
 11
52.856835
 21
1331.2795
 31
0.0
  0
LINE
  5
362
330
1E
100
AcDbEntity
  8
0
100
AcDbLine
 10
52.93323499999999
 20
1315.999499999999
 30
0.0
 11
53.693635
 21
1315.9695
 31
0.0
  0
LINE
  5
364
330
1E
100
AcDbEntity
  8
0
100
AcDbLine
 10
52.856835
 20
1314.9395
 30
0.0
 11
53.617235
 21
1314.9195
 31
0.0
  0
LINE
  5
367
330
1E
100
AcDbEntity
  8
0
100
AcDbLine
 10
52.93323499999999
 20
1330.2195
 30
0.0
 11
53.693635
 21
1330.249499999999
 31
0.0
  0
LINE
  5
369
330
1E
100
AcDbEntity
  8
0
100
AcDbLine
 10
52.856835
 20
1331.2795
 30
0.0
 11
53.617235
 21
1331.2995
 31
0.0
  0
LINE
  5
36B
330
1E
100
AcDbEntity
  8
0
100
AcDbLine
 10
52.378035
 20
1330.5195
 30
0.0
 11
52.93323499999999
 21
1330.2195
 31
0.0
  0
LINE
  5
36C
330
1E
100
AcDbEntity
  8
0
100
AcDbLine
 10
53.123235
 20
1440.7395
 30
0.0
 11
55.923235
 21
1440.7395
 31
0.0
  0
LINE
  5
36D
330
1E
100
AcDbEntity
  8
0
100
AcDbLine
 10
50.423235
 20
1440.7395
 30
0.0
 11
53.123235
 21
1440.7395
 31
0.0
  0
LINE
  5
36E
330
1E
100
AcDbEntity
  8
0
100
AcDbLine
 10
50.423235
 20
877.7395
 30
0.0
 11
53.123235
 21
877.7395
 31
0.0
  0
LINE
  5
370
330
1E
100
AcDbEntity
  8
0
100
AcDbLine
 10
53.693635
 20
1315.9695
 30
0.0
 11
54.214935
 21
1315.659499999999
 31
0.0
  0
LINE
  5
372
330
1E
100
AcDbEntity
  8
0
100
AcDbLine
 10
54.172435
 20
1315.219499999999
 30
0.0
 11
54.214935
 21
1315.659499999999
 31
0.0
  0
LINE
  5
373
330
1E
100
AcDbEntity
  8
0
100
AcDbLine
 10
53.617235
 20
1314.9195
 30
0.0
 11
54.172435
 21
1315.219499999999
 31
0.0
  0
LINE
  5
374
330
1E
100
AcDbEntity
  8
0
100
AcDbLine
 10
53.693635
 20
1330.249499999999
 30
0.0
 11
54.214935
 21
1330.5595
 31
0.0
  0
LINE
  5
378
330
1E
100
AcDbEntity
  8
0
100
AcDbLine
 10
54.172435
 20
1330.999499999999
 30
0.0
 11
54.214935
 21
1330.5595
 31
0.0
  0
LINE
  5
37D
330
1E
100
AcDbEntity
  8
0
100
AcDbLine
 10
53.617235
 20
1331.2995
 30
0.0
 11
54.172435
 21
1330.999499999999
 31
0.0
  0
LINE
  5
37F
330
1E
100
AcDbEntity
  8
0
100
AcDbLine
 10
54.623235
 20
1352.469499999999
 30
0.0
 11
65.023235
 21
1357.0595
 31
0.0
  0
LINE
  5
380
330
1E
100
AcDbEntity
  8
0
100
AcDbLine
 10
54.623235
 20
1353.2895
 30
0.0
 11
65.023235
 21
1357.8795
 31
0.0
  0
LINE
  5
381
330
1E
100
AcDbEntity
  8
0
100
AcDbLine
 10
55.282235
 20
1311.6395
 30
0.0
 11
55.89203499999999
 21
1311.3795
 31
0.0
  0
LINE
  5
384
330
1E
100
AcDbEntity
  8
0
100
AcDbLine
 10
55.648235
 20
1312.4195
 30
0.0
 11
56.40443499999999
 21
1312.469499999999
 31
0.0
  0
LINE
  5
386
330
1E
100
AcDbEntity
  8
0
100
AcDbLine
 10
55.19203499999999
 20
1312.0695
 30
0.0
 11
55.648235
 21
1312.4195
 31
0.0
  0
LINE
  5
387
330
1E
100
AcDbEntity
  8
0
100
AcDbLine
 10
55.19203499999999
 20
1312.0695
 30
0.0
 11
55.282235
 21
1311.6395
 31
0.0
  0
LINE
  5
389
330
1E
100
AcDbEntity
  8
0
100
AcDbLine
 10
55.89203499999999
 20
1311.3795
 30
0.0
 11
56.648235
 21
1311.4295
 31
0.0
  0
LINE
  5
38A
330
1E
100
AcDbEntity
  8
0
100
AcDbLine
 10
55.648235
 20
1333.7995
 30
0.0
 11
56.40443499999999
 21
1333.749499999999
 31
0.0
  0
LINE
  5
38E
330
1E
100
AcDbEntity
  8
0
100
AcDbLine
 10
55.89203499999999
 20
1334.8395
 30
0.0
 11
56.648235
 21
1334.7895
 31
0.0
  0
LINE
  5
390
330
1E
100
AcDbEntity
  8
0
100
AcDbLine
 10
55.282235
 20
1334.5795
 30
0.0
 11
55.89203499999999
 21
1334.8395
 31
0.0
  0
LINE
  5
392
330
1E
100
AcDbEntity
  8
0
100
AcDbLine
 10
55.19203499999999
 20
1334.1495
 30
0.0
 11
55.648235
 21
1333.7995
 31
0.0
  0
LINE
  5
393
330
1E
100
AcDbEntity
  8
0
100
AcDbLine
 10
55.19203499999999
 20
1334.1495
 30
0.0
 11
55.282235
 21
1334.5795
 31
0.0
  0
LINE
  5
395
330
1E
100
AcDbEntity
  8
0
100
AcDbLine
 10
54.923235
 20
1362.5395
 30
0.0
 11
65.323235
 21
1367.0695
 31
0.0
  0
LINE
  5
396
330
1E
100
AcDbEntity
  8
0
100
AcDbLine
 10
55.923235
 20
948.2395
 30
0.0
 11
63.123235
 21
948.2395
 31
0.0
  0
LINE
  5
397
330
1E
100
AcDbEntity
  8
0
100
AcDbLine
 10
55.923235
 20
925.2394999999999
 30
0.0
 11
63.123235
 21
925.2394999999999
 31
0.0
  0
LINE
  5
398
330
1E
100
AcDbEntity
  8
0
100
AcDbLine
 10
55.923235
 20
925.2394999999999
 30
0.0
 11
68.92323499999999
 21
925.2394999999999
 31
0.0
  0
LINE
  5
399
330
1E
100
AcDbEntity
  8
0
100
AcDbLine
 10
55.923235
 20
925.2394999999999
 30
0.0
 11
62.923235
 21
925.2394999999999
 31
0.0
  0
LINE
  5
39D
330
1E
100
AcDbEntity
  8
0
100
AcDbLine
 10
56.648235
 20
1311.4295
 30
0.0
 11
57.104435
 21
1311.7795
 31
0.0
  0
LINE
  5
39F
330
1E
100
AcDbEntity
  8
0
100
AcDbLine
 10
56.40443499999999
 20
1333.749499999999
 30
0.0
 11
57.014235
 21
1334.0095
 31
0.0
  0
LINE
  5
3A7
330
1E
100
AcDbEntity
  8
0
100
AcDbLine
 10
58.080135
 20
1321.219499999999
 30
0.0
 11
58.31793499999999
 21
1321.6395
 31
0.0
  0
LINE
  5
3A8
330
1E
100
AcDbEntity
  8
0
100
AcDbLine
 10
58.080135
 20
1321.219499999999
 30
0.0
 11
58.43993499999999
 21
1320.8395
 31
0.0
  0
LINE
  5
3AA
330
1E
100
AcDbEntity
  8
0
100
AcDbLine
 10
58.31793499999999
 20
1321.6395
 30
0.0
 11
58.98913499999999
 21
1321.8495
 31
0.0
  0
LINE
  5
3AD
330
1E
100
AcDbEntity
  8
0
100
AcDbLine
 10
58.080135
 20
1324.4195
 30
0.0
 11
58.31793499999999
 21
1324.009499999999
 31
0.0
  0
LINE
  5
3AE
330
1E
100
AcDbEntity
  8
0
100
AcDbLine
 10
58.080135
 20
1324.4195
 30
0.0
 11
58.43993499999999
 21
1324.7995
 31
0.0
  0
LINE
  5
3B0
330
1E
100
AcDbEntity
  8
0
100
AcDbLine
 10
58.43993499999999
 20
1320.8395
 30
0.0
 11
59.16343499999999
 21
1320.699499999999
 31
0.0
  0
LINE
  5
3B2
330
1E
100
AcDbEntity
  8
0
100
AcDbLine
 10
58.43993499999999
 20
1324.7995
 30
0.0
 11
59.16343499999999
 21
1324.9395
 31
0.0
  0
LINE
  5
3B4
330
1E
100
AcDbEntity
  8
0
100
AcDbLine
 10
58.31793499999999
 20
1324.009499999999
 30
0.0
 11
58.98913499999999
 21
1323.7995
 31
0.0
  0
LINE
  5
3B7
330
1E
100
AcDbEntity
  8
0
100
AcDbLine
 10
57.014235
 20
1334.0095
 30
0.0
 11
57.104435
 21
1334.4395
 31
0.0
  0
LINE
  5
3B8
330
1E
100
AcDbEntity
  8
0
100
AcDbLine
 10
56.648235
 20
1334.7895
 30
0.0
 11
57.104435
 21
1334.4395
 31
0.0
  0
LINE
  5
3BA
330
1E
100
AcDbEntity
  8
0
100
AcDbLine
 10
56.023235
 20
1306.6395
 30
0.0
 11
66.023235
 21
1302.2195
 31
0.0
  0
LINE
  5
3BB
330
1E
100
AcDbEntity
  8
0
100
AcDbLine
 10
55.923235
 20
1440.7395
 30
0.0
 11
58.723235
 21
1440.7395
 31
0.0
  0
LINE
  5
3BC
330
1E
100
AcDbEntity
  8
0
100
AcDbLine
 10
55.923235
 20
877.7395
 30
0.0
 11
58.723235
 21
877.7395
 31
0.0
  0
LINE
  5
3BD
330
1E
100
AcDbEntity
  8
0
100
AcDbLine
 10
53.22323499999999
 20
1441.2395
 30
0.0
 11
55.923235
 21
1441.2395
 31
0.0
  0
LINE
  5
3BE
330
1E
100
AcDbEntity
  8
0
100
AcDbLine
 10
50.72323499999999
 20
1441.2395
 30
0.0
 11
53.22323499999999
 21
1441.2395
 31
0.0
  0
LINE
  5
3BF
330
1E
100
AcDbEntity
  8
0
100
AcDbLine
 10
48.523235
 20
1441.2395
 30
0.0
 11
50.72323499999999
 21
1441.2395
 31
0.0
  0
LINE
  5
3C0
330
1E
100
AcDbEntity
  8
0
100
AcDbLine
 10
46.82323499999999
 20
1441.2395
 30
0.0
 11
48.523235
 21
1441.2395
 31
0.0
  0
LINE
  5
3C1
330
1E
100
AcDbEntity
  8
0
100
AcDbLine
 10
45.823235
 20
1441.2395
 30
0.0
 11
46.82323499999999
 21
1441.2395
 31
0.0
  0
LINE
  5
3C2
330
1E
100
AcDbEntity
  8
0
100
AcDbLine
 10
55.923235
 20
1441.2395
 30
0.0
 11
58.623235
 21
1441.2395
 31
0.0
  0
LINE
  5
3C3
330
1E
100
AcDbEntity
  8
0
100
AcDbLine
 10
58.723235
 20
877.7395
 30
0.0
 11
61.42323499999999
 21
877.7395
 31
0.0
  0
LINE
  5
3C4
330
1E
100
AcDbEntity
  8
0
100
AcDbLine
 10
58.98913499999999
 20
1321.8495
 30
0.0
 11
59.712635
 21
1321.7095
 31
0.0
  0
LINE
  5
3C6
330
1E
100
AcDbEntity
  8
0
100
AcDbLine
 10
59.061335
 20
1308.7795
 30
0.0
 11
59.40473499999999
 21
1309.1695
 31
0.0
  0
LINE
  5
3C7
330
1E
100
AcDbEntity
  8
0
100
AcDbLine
 10
59.061335
 20
1308.7795
 30
0.0
 11
59.281435
 21
1308.3595
 31
0.0
  0
LINE
  5
3C9
330
1E
100
AcDbEntity
  8
0
100
AcDbLine
 10
59.047635
 20
1318.0795
 30
0.0
 11
59.15623499999999
 21
1318.5095
 31
0.0
  0
LINE
  5
3CA
330
1E
100
AcDbEntity
  8
0
100
AcDbLine
 10
59.047635
 20
1318.0795
 30
0.0
 11
59.518535
 21
1317.729499999999
 31
0.0
  0
LINE
  5
3CE
330
1E
100
AcDbEntity
  8
0
100
AcDbLine
 10
59.15623499999999
 20
1318.5095
 30
0.0
 11
59.75473499999999
 21
1318.7795
 31
0.0
  0
LINE
  5
3D0
330
1E
100
AcDbEntity
  8
0
100
AcDbLine
 10
58.98913499999999
 20
1323.7995
 30
0.0
 11
59.712635
 21
1323.9295
 31
0.0
  0
LINE
  5
3D2
330
1E
100
AcDbEntity
  8
0
100
AcDbLine
 10
59.061335
 20
1337.4395
 30
0.0
 11
59.40473499999999
 21
1337.0495
 31
0.0
  0
LINE
  5
3D3
330
1E
100
AcDbEntity
  8
0
100
AcDbLine
 10
59.061335
 20
1337.4395
 30
0.0
 11
59.281435
 21
1337.8595
 31
0.0
  0
LINE
  5
3D6
330
1E
100
AcDbEntity
  8
0
100
AcDbLine
 10
59.047635
 20
1327.5695
 30
0.0
 11
59.15623499999999
 21
1327.1395
 31
0.0
  0
LINE
  5
3D7
330
1E
100
AcDbEntity
  8
0
100
AcDbLine
 10
59.047635
 20
1327.5695
 30
0.0
 11
59.518535
 21
1327.9095
 31
0.0
  0
LINE
  5
3DA
330
1E
100
AcDbEntity
  8
0
100
AcDbLine
 10
59.40473499999999
 20
1309.1695
 30
0.0
 11
60.133735
 21
1309.2995
 31
0.0
  0
LINE
  5
3DC
330
1E
100
AcDbEntity
  8
0
100
AcDbLine
 10
59.281435
 20
1308.3595
 30
0.0
 11
59.96123499999999
 21
1308.169499999999
 31
0.0
  0
LINE
  5
3DD
330
1E
100
AcDbEntity
  8
0
100
AcDbLine
 10
59.518535
 20
1317.729499999999
 30
0.0
 11
60.272335
 21
1317.6695
 31
0.0
  0
LINE
  5
3DE
330
1E
100
AcDbEntity
  8
0
100
AcDbLine
 10
59.712635
 20
1321.7095
 30
0.0
 11
60.072435
 21
1321.3195
 31
0.0
  0
LINE
  5
3DF
330
1E
100
AcDbEntity
  8
0
100
AcDbLine
 10
59.16343499999999
 20
1320.699499999999
 30
0.0
 11
59.834635
 21
1320.909499999999
 31
0.0
  0
LINE
  5
3E1
330
1E
100
AcDbEntity
  8
0
100
AcDbLine
 10
59.75473499999999
 20
1318.7795
 30
0.0
 11
60.50853499999999
 21
1318.7195
 31
0.0
  0
LINE
  5
3E3
330
1E
100
AcDbEntity
  8
0
100
AcDbLine
 10
59.712635
 20
1323.9295
 30
0.0
 11
60.072435
 21
1324.3195
 31
0.0
  0
LINE
  5
3E5
330
1E
100
AcDbEntity
  8
0
100
AcDbLine
 10
59.16343499999999
 20
1324.9395
 30
0.0
 11
59.834635
 21
1324.7295
 31
0.0
  0
LINE
  5
3E9
330
1E
100
AcDbEntity
  8
0
100
AcDbLine
 10
60.133735
 20
1309.2995
 30
0.0
 11
60.81353499999999
 21
1309.0995
 31
0.0
  0
LINE
  5
3EB
330
1E
100
AcDbEntity
  8
0
100
AcDbLine
 10
60.81353499999999
 20
1309.0995
 30
0.0
 11
61.033635
 21
1308.6795
 31
0.0
  0
LINE
  5
3ED
330
1E
100
AcDbEntity
  8
0
100
AcDbLine
 10
60.69033499999999
 20
1308.2895
 30
0.0
 11
61.033635
 21
1308.6795
 31
0.0
  0
LINE
  5
3EE
330
1E
100
AcDbEntity
  8
0
100
AcDbLine
 10
59.96123499999999
 20
1308.169499999999
 30
0.0
 11
60.69033499999999
 21
1308.2895
 31
0.0
  0
LINE
  5
3F0
330
1E
100
AcDbEntity
  8
0
100
AcDbLine
 10
60.50853499999999
 20
1318.7195
 30
0.0
 11
60.97943499999999
 21
1318.3695
 31
0.0
  0
LINE
  5
3F2
330
1E
100
AcDbEntity
  8
0
100
AcDbLine
 10
60.870835
 20
1317.9395
 30
0.0
 11
60.97943499999999
 21
1318.3695
 31
0.0
  0
LINE
  5
3F3
330
1E
100
AcDbEntity
  8
0
100
AcDbLine
 10
60.272335
 20
1317.6695
 30
0.0
 11
60.870835
 21
1317.9395
 31
0.0
  0
LINE
  5
3F4
330
1E
100
AcDbEntity
  8
0
100
AcDbLine
 10
59.834635
 20
1320.909499999999
 30
0.0
 11
60.072435
 21
1321.3195
 31
0.0
  0
LINE
  5
3F6
330
1E
100
AcDbEntity
  8
0
100
AcDbLine
 10
59.834635
 20
1324.7295
 30
0.0
 11
60.072435
 21
1324.3195
 31
0.0
  0
LINE
  5
3F8
330
1E
100
AcDbEntity
  8
0
100
AcDbLine
 10
59.75473499999999
 20
1326.8695
 30
0.0
 11
60.50853499999999
 21
1326.9295
 31
0.0
  0
LINE
  5
3F9
330
1E
100
AcDbEntity
  8
0
100
AcDbLine
 10
60.50853499999999
 20
1326.9295
 30
0.0
 11
60.97943499999999
 21
1327.2695
 31
0.0
  0
LINE
  5
3FA
330
1E
100
AcDbEntity
  8
0
100
AcDbLine
 10
60.95333499999999
 20
1315.0695
 30
0.0
 11
61.52103499999999
 21
1314.7795
 31
0.0
  0
LINE
  5
3FE
330
1E
100
AcDbEntity
  8
0
100
AcDbLine
 10
60.929335
 20
1315.5095
 30
0.0
 11
61.43703499999999
 21
1315.8395
 31
0.0
  0
LINE
  5
3FF
330
1E
100
AcDbEntity
  8
0
100
AcDbLine
 10
60.929335
 20
1315.5095
 30
0.0
 11
60.95333499999999
 21
1315.0695
 31
0.0
  0
LINE
  5
405
330
1E
100
AcDbEntity
  8
0
100
AcDbLine
 10
60.870835
 20
1327.6995
 30
0.0
 11
60.97943499999999
 21
1327.2695
 31
0.0
  0
LINE
  5
409
330
1E
100
AcDbEntity
  8
0
100
AcDbLine
 10
59.40473499999999
 20
1337.0495
 30
0.0
 11
60.133735
 21
1336.9195
 31
0.0
  0
LINE
  5
40A
330
1E
100
AcDbEntity
  8
0
100
AcDbLine
 10
60.133735
 20
1336.9195
 30
0.0
 11
60.81353499999999
 21
1337.1195
 31
0.0
  0
LINE
  5
40C
330
1E
100
AcDbEntity
  8
0
100
AcDbLine
 10
59.96123499999999
 20
1338.0495
 30
0.0
 11
60.69033499999999
 21
1337.929499999999
 31
0.0
  0
LINE
  5
40E
330
1E
100
AcDbEntity
  8
0
100
AcDbLine
 10
59.281435
 20
1337.8595
 30
0.0
 11
59.96123499999999
 21
1338.0495
 31
0.0
  0
LINE
  5
412
330
1E
100
AcDbEntity
  8
0
100
AcDbLine
 10
60.81353499999999
 20
1337.1195
 30
0.0
 11
61.033635
 21
1337.5395
 31
0.0
  0
LINE
  5
413
330
1E
100
AcDbEntity
  8
0
100
AcDbLine
 10
60.69033499999999
 20
1337.929499999999
 30
0.0
 11
61.033635
 21
1337.5395
 31
0.0
  0
LINE
  5
415
330
1E
100
AcDbEntity
  8
0
100
AcDbLine
 10
60.929335
 20
1330.26572819672
 30
0.0
 11
60.929335
 21
1330.129499999999
 31
0.0
  0
LINE
  5
419
330
1E
100
AcDbEntity
  8
0
100
AcDbLine
 10
60.95333499999999
 20
1330.5695
 30
0.0
 11
61.52103499999999
 21
1330.8595
 31
0.0
  0
LINE
  5
41B
330
1E
100
AcDbEntity
  8
0
100
AcDbLine
 10
60.929335
 20
1330.129499999999
 30
0.0
 11
61.43703499999999
 21
1329.8095
 31
0.0
  0
LINE
  5
41C
330
1E
100
AcDbEntity
  8
0
100
AcDbLine
 10
60.929335
 20
1330.129499999999
 30
0.0
 11
60.95333499999999
 21
1330.5695
 31
0.0
  0
LINE
  5
41D
330
1E
100
AcDbEntity
  8
0
100
AcDbLine
 10
60.929335
 20
1330.129499999999
 30
0.0
 11
60.929335
 21
1330.26572819672
 31
0.0
  0
LINE
  5
41F
330
1E
100
AcDbEntity
  8
0
100
AcDbLine
 10
60.272335
 20
1327.9695
 30
0.0
 11
60.870835
 21
1327.6995
 31
0.0
  0
LINE
  5
421
330
1E
100
AcDbEntity
  8
0
100
AcDbLine
 10
59.518535
 20
1327.9095
 30
0.0
 11
60.272335
 21
1327.9695
 31
0.0
  0
LINE
  5
423
330
1E
100
AcDbEntity
  8
0
100
AcDbLine
 10
59.15623499999999
 20
1327.1395
 30
0.0
 11
59.75473499999999
 21
1326.8695
 31
0.0
  0
LINE
  5
424
330
1E
100
AcDbEntity
  8
0
100
AcDbLine
 10
58.723235
 20
1440.7395
 30
0.0
 11
61.42323499999999
 21
1440.7395
 31
0.0
  0
LINE
  5
425
330
1E
100
AcDbEntity
  8
0
100
AcDbLine
 10
62.923235
 20
925.2394999999999
 30
0.0
 11
66.92323499999999
 21
925.2394999999999
 31
0.0
  0
LINE
  5
427
330
1E
100
AcDbEntity
  8
0
100
AcDbLine
 10
61.43703499999999
 20
1315.8395
 30
0.0
 11
62.198235
 21
1315.8495
 31
0.0
  0
LINE
  5
42A
330
1E
100
AcDbEntity
  8
0
100
AcDbLine
 10
62.198235
 20
1315.8495
 30
0.0
 11
62.765935
 21
1315.5595
 31
0.0
  0
LINE
  5
42C
330
1E
100
AcDbEntity
  8
0
100
AcDbLine
 10
62.282235
 20
1314.7995
 30
0.0
 11
62.78983499999999
 21
1315.1195
 31
0.0
  0
LINE
  5
42D
330
1E
100
AcDbEntity
  8
0
100
AcDbLine
 10
61.52103499999999
 20
1314.7795
 30
0.0
 11
62.282235
 21
1314.7995
 31
0.0
  0
LINE
  5
42E
330
1E
100
AcDbEntity
  8
0
100
AcDbLine
 10
61.43703499999999
 20
1329.8095
 30
0.0
 11
62.198235
 21
1329.7995
 31
0.0
  0
LINE
  5
42F
330
1E
100
AcDbEntity
  8
0
100
AcDbLine
 10
62.198235
 20
1329.7995
 30
0.0
 11
62.765935
 21
1330.0895
 31
0.0
  0
LINE
  5
433
330
1E
100
AcDbEntity
  8
0
100
AcDbLine
 10
62.765935
 20
1315.5595
 30
0.0
 11
62.78983499999999
 21
1315.1195
 31
0.0
  0
LINE
  5
435
330
1E
100
AcDbEntity
  8
0
100
AcDbLine
 10
62.765935
 20
1330.0895
 30
0.0
 11
62.78983499999999
 21
1330.5195
 31
0.0
  0
LINE
  5
436
330
1E
100
AcDbEntity
  8
0
100
AcDbLine
 10
62.282235
 20
1330.8495
 30
0.0
 11
62.78983499999999
 21
1330.5195
 31
0.0
  0
LINE
  5
438
330
1E
100
AcDbEntity
  8
0
100
AcDbLine
 10
61.52103499999999
 20
1330.8595
 30
0.0
 11
62.282235
 21
1330.8495
 31
0.0
  0
LINE
  5
43A
330
1E
100
AcDbEntity
  8
0
100
AcDbLine
 10
63.123235
 20
948.2395
 30
0.0
 11
70.12323499999999
 21
948.2395
 31
0.0
  0
LINE
  5
43B
330
1E
100
AcDbEntity
  8
0
100
AcDbLine
 10
63.123235
 20
925.2394999999999
 30
0.0
 11
70.12323499999999
 21
925.2394999999999
 31
0.0
  0
LINE
  5
43C
330
1E
100
AcDbEntity
  8
0
100
AcDbLine
 10
61.42323499999999
 20
1440.7395
 30
0.0
 11
63.723235
 21
1440.7395
 31
0.0
  0
LINE
  5
43D
330
1E
100
AcDbEntity
  8
0
100
AcDbLine
 10
61.42323499999999
 20
877.7395
 30
0.0
 11
63.723235
 21
877.7395
 31
0.0
  0
LINE
  5
43E
330
1E
100
AcDbEntity
  8
0
100
AcDbLine
 10
58.623235
 20
1441.2395
 30
0.0
 11
61.123235
 21
1441.2395
 31
0.0
  0
LINE
  5
43F
330
1E
100
AcDbEntity
  8
0
100
AcDbLine
 10
61.123235
 20
1441.2395
 30
0.0
 11
63.323235
 21
1441.2395
 31
0.0
  0
LINE
  5
440
330
1E
100
AcDbEntity
  8
0
100
AcDbLine
 10
63.723235
 20
877.7395
 30
0.0
 11
65.42323499999999
 21
877.7395
 31
0.0
  0
LINE
  5
442
330
1E
100
AcDbEntity
  8
0
100
AcDbLine
 10
63.739235
 20
1312.3095
 30
0.0
 11
64.38643499999999
 21
1312.0795
 31
0.0
  0
LINE
  5
443
330
1E
100
AcDbEntity
  8
0
100
AcDbLine
 10
63.583435
 20
1312.7295
 30
0.0
 11
63.984835
 21
1313.0995
 31
0.0
  0
LINE
  5
444
330
1E
100
AcDbEntity
  8
0
100
AcDbLine
 10
63.583435
 20
1312.7295
 30
0.0
 11
63.739235
 21
1312.3095
 31
0.0
  0
LINE
  5
447
330
1E
100
AcDbEntity
  8
0
100
AcDbLine
 10
63.984835
 20
1313.0995
 30
0.0
 11
64.730235
 21
1313.1895
 31
0.0
  0
LINE
  5
449
330
1E
100
AcDbEntity
  8
0
100
AcDbLine
 10
64.730235
 20
1313.1895
 30
0.0
 11
65.37753499999999
 21
1312.9595
 31
0.0
  0
LINE
  5
44A
330
1E
100
AcDbEntity
  8
0
100
AcDbLine
 10
64.38643499999999
 20
1312.0795
 30
0.0
 11
65.13193499999999
 21
1312.1695
 31
0.0
  0
LINE
  5
44B
330
1E
100
AcDbEntity
  8
0
100
AcDbLine
 10
64.088435
 20
1306.339499999999
 30
0.0
 11
64.768235
 21
1306.5395
 31
0.0
  0
LINE
  5
44D
330
1E
100
AcDbEntity
  8
0
100
AcDbLine
 10
64.211735
 20
1305.5395
 30
0.0
 11
64.9408350000001
 21
1305.4095
 31
0.0
  0
LINE
  5
44E
330
1E
100
AcDbEntity
  8
0
100
AcDbLine
 10
63.86833499999999
 20
1305.9295
 30
0.0
 11
64.088435
 21
1306.339499999999
 31
0.0
  0
LINE
  5
44F
330
1E
100
AcDbEntity
  8
0
100
AcDbLine
 10
63.86833499999999
 20
1305.9295
 30
0.0
 11
64.211735
 21
1305.5395
 31
0.0
  0
LINE
  5
451
330
1E
100
AcDbEntity
  8
0
100
AcDbLine
 10
63.984835
 20
1332.5395
 30
0.0
 11
64.730235
 21
1332.4495
 31
0.0
  0
LINE
  5
453
330
1E
100
AcDbEntity
  8
0
100
AcDbLine
 10
64.768235
 20
1306.5395
 30
0.0
 11
65.49733499999999
 21
1306.4095
 31
0.0
  0
LINE
  5
455
330
1E
100
AcDbEntity
  8
0
100
AcDbLine
 10
64.9408350000001
 20
1305.4095
 30
0.0
 11
65.62053500000001
 21
1305.6095
 31
0.0
  0
LINE
  5
456
330
1E
100
AcDbEntity
  8
0
100
AcDbLine
 10
64.730235
 20
1332.4495
 30
0.0
 11
65.37753499999999
 21
1332.6795
 31
0.0
  0
LINE
  5
459
330
1E
100
AcDbEntity
  8
0
100
AcDbLine
 10
64.088435
 20
1339.8795
 30
0.0
 11
64.768235
 21
1339.679499999999
 31
0.0
  0
LINE
  5
45C
330
1E
100
AcDbEntity
  8
0
100
AcDbLine
 10
64.211735
 20
1340.6895
 30
0.0
 11
64.9408350000001
 21
1340.8095
 31
0.0
  0
LINE
  5
45E
330
1E
100
AcDbEntity
  8
0
100
AcDbLine
 10
63.86833499999999
 20
1340.2995
 30
0.0
 11
64.088435
 21
1339.8795
 31
0.0
  0
LINE
  5
45F
330
1E
100
AcDbEntity
  8
0
100
AcDbLine
 10
63.86833499999999
 20
1340.2995
 30
0.0
 11
64.211735
 21
1340.6895
 31
0.0
  0
LINE
  5
461
330
1E
100
AcDbEntity
  8
0
100
AcDbLine
 10
64.768235
 20
1339.679499999999
 30
0.0
 11
65.49733499999999
 21
1339.8095
 31
0.0
  0
LINE
  5
463
330
1E
100
AcDbEntity
  8
0
100
AcDbLine
 10
64.9408350000001
 20
1340.8095
 30
0.0
 11
65.62053500000001
 21
1340.6195
 31
0.0
  0
LINE
  5
466
330
1E
100
AcDbEntity
  8
0
100
AcDbLine
 10
64.38643499999999
 20
1333.5695
 30
0.0
 11
65.13193499999999
 21
1333.4795
 31
0.0
  0
LINE
  5
468
330
1E
100
AcDbEntity
  8
0
100
AcDbLine
 10
63.739235
 20
1333.3395
 30
0.0
 11
64.38643499999999
 21
1333.5695
 31
0.0
  0
LINE
  5
46A
330
1E
100
AcDbEntity
  8
0
100
AcDbLine
 10
63.583435
 20
1332.9095
 30
0.0
 11
63.984835
 21
1332.5395
 31
0.0
  0
LINE
  5
46B
330
1E
100
AcDbEntity
  8
0
100
AcDbLine
 10
63.583435
 20
1332.9095
 30
0.0
 11
63.739235
 21
1333.3395
 31
0.0
  0
LINE
  5
46D
330
1E
100
AcDbEntity
  8
0
100
AcDbLine
 10
65.13193499999999
 20
1312.1695
 30
0.0
 11
65.53323499999999
 21
1312.5395
 31
0.0
  0
LINE
  5
46F
330
1E
100
AcDbEntity
  8
0
100
AcDbLine
 10
65.13193499999999
 20
1333.4795
 30
0.0
 11
65.53323499999999
 21
1333.1095
 31
0.0
  0
LINE
  5
471
330
1E
100
AcDbEntity
  8
0
100
AcDbLine
 10
65.023235
 20
1357.0595
 30
0.0
 11
77.123235
 21
1359.8695
 31
0.0
  0
LINE
  5
472
330
1E
100
AcDbEntity
  8
0
100
AcDbLine
 10
65.023235
 20
1357.8795
 30
0.0
 11
77.123235
 21
1360.6895
 31
0.0
  0
LINE
  5
473
330
1E
100
AcDbEntity
  8
0
100
AcDbLine
 10
65.37753499999999
 20
1312.9595
 30
0.0
 11
65.53323499999999
 21
1312.5395
 31
0.0
  0
LINE
  5
474
330
1E
100
AcDbEntity
  8
0
100
AcDbLine
 10
65.37753499999999
 20
1332.6795
 30
0.0
 11
65.53323499999999
 21
1333.1095
 31
0.0
  0
LINE
  5
475
330
1E
100
AcDbEntity
  8
0
100
AcDbLine
 10
65.323235
 20
1367.0695
 30
0.0
 11
67.023235
 21
1367.749499999999
 31
0.0
  0
LINE
  5
476
330
1E
100
AcDbEntity
  8
0
100
AcDbLine
 10
63.723235
 20
1440.7395
 30
0.0
 11
65.42323499999999
 21
1440.7395
 31
0.0
  0
LINE
  5
47A
330
1E
100
AcDbEntity
  8
0
100
AcDbLine
 10
65.49733499999999
 20
1306.4095
 30
0.0
 11
65.84073499999999
 21
1306.0195
 31
0.0
  0
LINE
  5
47C
330
1E
100
AcDbEntity
  8
0
100
AcDbLine
 10
65.49733499999999
 20
1339.8095
 30
0.0
 11
65.84073499999999
 21
1340.199499999999
 31
0.0
  0
LINE
  5
480
330
1E
100
AcDbEntity
  8
0
100
AcDbLine
 10
65.62053500000001
 20
1305.6095
 30
0.0
 11
65.84073499999999
 21
1306.0195
 31
0.0
  0
LINE
  5
482
330
1E
100
AcDbEntity
  8
0
100
AcDbLine
 10
65.95843499999999
 20
1322.5295
 30
0.0
 11
66.25843499999999
 21
1322.129499999999
 31
0.0
  0
LINE
  5
483
330
1E
100
AcDbEntity
  8
0
100
AcDbLine
 10
65.95843499999999
 20
1322.5295
 30
0.0
 11
66.25843499999999
 21
1322.9295
 31
0.0
  0
LINE
  5
488
330
1E
100
AcDbEntity
  8
0
100
AcDbLine
 10
65.62053500000001
 20
1340.6195
 30
0.0
 11
65.84073499999999
 21
1340.199499999999
 31
0.0
  0
LINE
  5
48B
330
1E
100
AcDbEntity
  8
0
100
AcDbLine
 10
66.023235
 20
1302.2195
 30
0.0
 11
77.62323499999999
 21
1299.5295
 31
0.0
  0
LINE
  5
48C
330
1E
100
AcDbEntity
  8
0
100
AcDbLine
 10
65.42323499999999
 20
1440.7395
 30
0.0
 11
66.523235
 21
1440.7395
 31
0.0
  0
LINE
  5
48D
330
1E
100
AcDbEntity
  8
0
100
AcDbLine
 10
65.42323499999999
 20
877.7395
 30
0.0
 11
66.523235
 21
877.7395
 31
0.0
  0
LINE
  5
48E
330
1E
100
AcDbEntity
  8
0
100
AcDbLine
 10
63.323235
 20
1441.2395
 30
0.0
 11
65.023235
 21
1441.2395
 31
0.0
  0
LINE
  5
48F
330
1E
100
AcDbEntity
  8
0
100
AcDbLine
 10
53.123235
 20
1441.739499999999
 30
0.0
 11
55.923235
 21
1441.739499999999
 31
0.0
  0
LINE
  5
490
330
1E
100
AcDbEntity
  8
0
100
AcDbLine
 10
50.423235
 20
1441.739499999999
 30
0.0
 11
53.123235
 21
1441.739499999999
 31
0.0
  0
LINE
  5
491
330
1E
100
AcDbEntity
  8
0
100
AcDbLine
 10
48.123235
 20
1441.739499999999
 30
0.0
 11
50.423235
 21
1441.739499999999
 31
0.0
  0
LINE
  5
492
330
1E
100
AcDbEntity
  8
0
100
AcDbLine
 10
46.42323499999999
 20
1441.739499999999
 30
0.0
 11
48.123235
 21
1441.739499999999
 31
0.0
  0
LINE
  5
493
330
1E
100
AcDbEntity
  8
0
100
AcDbLine
 10
55.923235
 20
1441.739499999999
 30
0.0
 11
58.723235
 21
1441.739499999999
 31
0.0
  0
LINE
  5
494
330
1E
100
AcDbEntity
  8
0
100
AcDbLine
 10
58.723235
 20
1441.739499999999
 30
0.0
 11
61.42323499999999
 21
1441.739499999999
 31
0.0
  0
LINE
  5
495
330
1E
100
AcDbEntity
  8
0
100
AcDbLine
 10
61.42323499999999
 20
1441.739499999999
 30
0.0
 11
63.723235
 21
1441.739499999999
 31
0.0
  0
LINE
  5
496
330
1E
100
AcDbEntity
  8
0
100
AcDbLine
 10
53.123235
 20
1492.739499999999
 30
0.0
 11
55.923235
 21
1492.739499999999
 31
0.0
  0
LINE
  5
497
330
1E
100
AcDbEntity
  8
0
100
AcDbLine
 10
50.423235
 20
1492.739499999999
 30
0.0
 11
53.123235
 21
1492.739499999999
 31
0.0
  0
LINE
  5
498
330
1E
100
AcDbEntity
  8
0
100
AcDbLine
 10
48.123235
 20
1492.739499999999
 30
0.0
 11
50.423235
 21
1492.739499999999
 31
0.0
  0
LINE
  5
499
330
1E
100
AcDbEntity
  8
0
100
AcDbLine
 10
46.42323499999999
 20
1492.739499999999
 30
0.0
 11
48.123235
 21
1492.739499999999
 31
0.0
  0
LINE
  5
49A
330
1E
100
AcDbEntity
  8
0
100
AcDbLine
 10
55.923235
 20
1492.739499999999
 30
0.0
 11
58.723235
 21
1492.739499999999
 31
0.0
  0
LINE
  5
49B
330
1E
100
AcDbEntity
  8
0
100
AcDbLine
 10
58.723235
 20
1492.739499999999
 30
0.0
 11
61.42323499999999
 21
1492.739499999999
 31
0.0
  0
LINE
  5
49C
330
1E
100
AcDbEntity
  8
0
100
AcDbLine
 10
61.42323499999999
 20
1492.739499999999
 30
0.0
 11
63.723235
 21
1492.739499999999
 31
0.0
  0
LINE
  5
49D
330
1E
100
AcDbEntity
  8
0
100
AcDbLine
 10
53.22323499999999
 20
1493.2395
 30
0.0
 11
55.923235
 21
1493.2395
 31
0.0
  0
LINE
  5
49E
330
1E
100
AcDbEntity
  8
0
100
AcDbLine
 10
50.72323499999999
 20
1493.2395
 30
0.0
 11
53.22323499999999
 21
1493.2395
 31
0.0
  0
LINE
  5
49F
330
1E
100
AcDbEntity
  8
0
100
AcDbLine
 10
48.523235
 20
1493.2395
 30
0.0
 11
50.72323499999999
 21
1493.2395
 31
0.0
  0
LINE
  5
4A0
330
1E
100
AcDbEntity
  8
0
100
AcDbLine
 10
46.82323499999999
 20
1493.2395
 30
0.0
 11
48.523235
 21
1493.2395
 31
0.0
  0
LINE
  5
4A1
330
1E
100
AcDbEntity
  8
0
100
AcDbLine
 10
45.823235
 20
1493.2395
 30
0.0
 11
46.82323499999999
 21
1493.2395
 31
0.0
  0
LINE
  5
4A2
330
1E
100
AcDbEntity
  8
0
100
AcDbLine
 10
55.923235
 20
1493.2395
 30
0.0
 11
58.623235
 21
1493.2395
 31
0.0
  0
LINE
  5
4A3
330
1E
100
AcDbEntity
  8
0
100
AcDbLine
 10
58.623235
 20
1493.2395
 30
0.0
 11
61.123235
 21
1493.2395
 31
0.0
  0
LINE
  5
4A4
330
1E
100
AcDbEntity
  8
0
100
AcDbLine
 10
61.123235
 20
1493.2395
 30
0.0
 11
63.323235
 21
1493.2395
 31
0.0
  0
LINE
  5
4A5
330
1E
100
AcDbEntity
  8
0
100
AcDbLine
 10
63.323235
 20
1493.2395
 30
0.0
 11
65.023235
 21
1493.2395
 31
0.0
  0
LINE
  5
4A6
330
1E
100
AcDbEntity
  8
0
100
AcDbLine
 10
65.023235
 20
1493.2395
 30
0.0
 11
66.023235
 21
1493.2395
 31
0.0
  0
LINE
  5
4A7
330
1E
100
AcDbEntity
  8
0
100
AcDbLine
 10
63.723235
 20
1492.739499999999
 30
0.0
 11
65.42323499999999
 21
1492.739499999999
 31
0.0
  0
LINE
  5
4A8
330
1E
100
AcDbEntity
  8
0
100
AcDbLine
 10
65.42323499999999
 20
1492.739499999999
 30
0.0
 11
66.523235
 21
1492.739499999999
 31
0.0
  0
LINE
  5
4A9
330
1E
100
AcDbEntity
  8
0
100
AcDbLine
 10
63.723235
 20
1441.739499999999
 30
0.0
 11
65.42323499999999
 21
1441.739499999999
 31
0.0
  0
LINE
  5
4AA
330
1E
100
AcDbEntity
  8
0
100
AcDbLine
 10
66.023235
 20
1493.2395
 30
0.0
 11
66.42323499999999
 21
1493.2395
 31
0.0
  0
LINE
  5
4AB
330
1E
100
AcDbEntity
  8
0
100
AcDbLine
 10
65.42323499999999
 20
1441.739499999999
 30
0.0
 11
66.523235
 21
1441.739499999999
 31
0.0
  0
LINE
  5
4AC
330
1E
100
AcDbEntity
  8
0
100
AcDbLine
 10
65.023235
 20
1441.2395
 30
0.0
 11
66.023235
 21
1441.2395
 31
0.0
  0
LINE
  5
4AD
330
1E
100
AcDbEntity
  8
0
100
AcDbLine
 10
66.92323499999999
 20
877.7395
 30
0.0
 11
66.92323499999999
 21
925.2394999999999
 31
0.0
  0
LINE
  5
4AE
330
1E
100
AcDbEntity
  8
0
100
AcDbLine
 10
66.92323499999999
 20
948.2395
 30
0.0
 11
66.92323499999999
 21
1415.2495
 31
0.0
  0
LINE
  5
4AF
330
1E
100
AcDbEntity
  8
0
100
AcDbLine
 10
66.92323499999999
 20
1161.067113964109
 30
0.0
 11
66.92323499999999
 21
1302.01079310345
 31
0.0
  0
LINE
  5
4B0
330
1E
100
AcDbEntity
  8
0
100
AcDbLine
 10
66.92323499999999
 20
925.2394999999999
 30
0.0
 11
66.92323499999999
 21
877.7395
 31
0.0
  0
LINE
  5
4B1
330
1E
100
AcDbEntity
  8
0
100
AcDbLine
 10
66.92323499999999
 20
925.2394999999999
 30
0.0
 11
67.207235
 21
925.2394999999999
 31
0.0
  0
LINE
  5
4B2
330
1E
100
AcDbEntity
  8
0
100
AcDbLine
 10
66.523235
 20
877.7395
 30
0.0
 11
66.92323499999999
 21
877.7395
 31
0.0
  0
LINE
  5
4B4
330
1E
100
AcDbEntity
  8
0
100
AcDbLine
 10
66.25843499999999
 20
1322.9295
 30
0.0
 11
66.95843499999999
 21
1323.1095
 31
0.0
  0
LINE
  5
4B6
330
1E
100
AcDbEntity
  8
0
100
AcDbLine
 10
66.25843499999999
 20
1322.129499999999
 30
0.0
 11
66.95843499999999
 21
1321.9595
 31
0.0
  0
LINE
  5
4B7
330
1E
100
AcDbEntity
  8
0
100
AcDbLine
 10
66.42323499999999
 20
1441.2395
 30
0.0
 11
66.92323499999999
 21
1440.7395
 31
0.0
  0
LINE
  5
4B8
330
1E
100
AcDbEntity
  8
0
100
AcDbLine
 10
66.92323499999999
 20
1367.7095
 30
0.0
 11
66.92323499999999
 21
1440.7395
 31
0.0
  0
LINE
  5
4B9
330
1E
100
AcDbEntity
  8
0
100
AcDbLine
 10
66.523235
 20
1440.7395
 30
0.0
 11
66.92323499999999
 21
1440.7395
 31
0.0
  0
LINE
  5
4BA
330
1E
100
AcDbEntity
  8
0
100
AcDbLine
 10
66.92323499999999
 20
1302.01079310345
 30
0.0
 11
66.92323499999999
 21
1161.067113964109
 31
0.0
  0
LINE
  5
4BB
330
1E
100
AcDbEntity
  8
0
100
AcDbLine
 10
66.92323499999999
 20
1440.7395
 30
0.0
 11
66.92323499999999
 21
1367.7095
 31
0.0
  0
LINE
  5
4BC
330
1E
100
AcDbEntity
  8
0
100
AcDbLine
 10
66.92323499999999
 20
1161.229499999999
 30
0.0
 11
75.92323499999999
 21
1161.229499999999
 31
0.0
  0
LINE
  5
4BD
330
1E
100
AcDbEntity
  8
0
100
AcDbLine
 10
67.207235
 20
925.2394999999999
 30
0.0
 11
68.455235
 21
925.2394999999999
 31
0.0
  0
LINE
  5
4BE
330
1E
100
AcDbEntity
  8
0
100
AcDbLine
 10
68.455235
 20
925.2394999999999
 30
0.0
 11
68.92323499999999
 21
925.2394999999999
 31
0.0
  0
LINE
  5
4BF
330
1E
100
AcDbEntity
  8
0
100
AcDbLine
 10
76.92323499999999
 20
925.2394999999999
 30
0.0
 11
99.523235
 21
925.2394999999999
 31
0.0
  0
LINE
  5
4C0
330
1E
100
AcDbEntity
  8
0
100
AcDbLine
 10
70.12323499999999
 20
948.2395
 30
0.0
 11
76.92323499999999
 21
948.2395
 31
0.0
  0
LINE
  5
4C1
330
1E
100
AcDbEntity
  8
0
100
AcDbLine
 10
76.92323499999999
 20
948.2395
 30
0.0
 11
83.32323499999999
 21
948.2395
 31
0.0
  0
LINE
  5
4C2
330
1E
100
AcDbEntity
  8
0
100
AcDbLine
 10
76.92323499999999
 20
925.2394999999999
 30
0.0
 11
99.523235
 21
925.2394999999999
 31
0.0
  0
LINE
  5
4C3
330
1E
100
AcDbEntity
  8
0
100
AcDbLine
 10
70.12323499999999
 20
925.2394999999999
 30
0.0
 11
76.92323499999999
 21
925.2394999999999
 31
0.0
  0
LINE
  5
4C4
330
1E
100
AcDbEntity
  8
0
100
AcDbLine
 10
71.323235
 20
925.2394999999999
 30
0.0
 11
76.92323499999999
 21
925.2394999999999
 31
0.0
  0
LINE
  5
4C5
330
1E
100
AcDbEntity
  8
0
100
AcDbLine
 10
68.92323499999999
 20
925.2394999999999
 30
0.0
 11
71.323235
 21
925.2394999999999
 31
0.0
  0
LINE
  5
4C6
330
1E
100
AcDbEntity
  8
0
100
AcDbLine
 10
81.87466956362426
 20
948.2395
 30
0.0
 11
81.998835
 21
1021.8795
 31
0.0
  0
LINE
  5
4C9
330
1E
100
AcDbEntity
  8
0
100
AcDbLine
 10
83.32323499999999
 20
948.2395
 30
0.0
 11
89.323235
 21
948.2395
 31
0.0
  0
LINE
  5
4CC
330
1E
100
AcDbEntity
  8
0
100
AcDbLine
 10
89.323235
 20
948.2395
 30
0.0
 11
99.523235
 21
948.2395
 31
0.0
  0
LINE
  5
4D0
330
1E
100
AcDbEntity
  8
0
100
AcDbLine
 10
99.523235
 20
925.2394999999999
 30
0.0
 11
103.523235
 21
925.2394999999999
 31
0.0
  0
LINE
  5
4D1
330
1E
100
AcDbEntity
  8
0
100
AcDbLine
 10
103.523235
 20
925.2394999999999
 30
0.0
 11
106.623235
 21
925.2394999999999
 31
0.0
  0
LINE
  5
4D2
330
1E
100
AcDbEntity
  8
0
100
AcDbLine
 10
106.623235
 20
925.2394999999999
 30
0.0
 11
108.923235
 21
925.2394999999999
 31
0.0
  0
LINE
  5
4D3
330
1E
100
AcDbEntity
  8
0
100
AcDbLine
 10
110.923235
 20
925.2394999999999
 30
0.0
 11
110.923235
 21
948.2395
 31
0.0
  0
LINE
  5
4D4
330
1E
100
AcDbEntity
  8
0
100
AcDbLine
 10
108.923235
 20
925.2394999999999
 30
0.0
 11
110.323235
 21
925.2394999999999
 31
0.0
  0
LINE
  5
4D5
330
1E
100
AcDbEntity
  8
0
100
AcDbLine
 10
99.523235
 20
948.2395
 30
0.0
 11
103.523235
 21
948.2395
 31
0.0
  0
LINE
  5
4D6
330
1E
100
AcDbEntity
  8
0
100
AcDbLine
 10
103.523235
 20
948.2395
 30
0.0
 11
106.623235
 21
948.2395
 31
0.0
  0
LINE
  5
4D7
330
1E
100
AcDbEntity
  8
0
100
AcDbLine
 10
99.523235
 20
925.2394999999999
 30
0.0
 11
103.523235
 21
925.2394999999999
 31
0.0
  0
LINE
  5
4D8
330
1E
100
AcDbEntity
  8
0
100
AcDbLine
 10
110.923235
 20
948.2395
 30
0.0
 11
110.923235
 21
925.2394999999999
 31
0.0
  0
LINE
  5
4D9
330
1E
100
AcDbEntity
  8
0
100
AcDbLine
 10
106.623235
 20
948.2395
 30
0.0
 11
108.923235
 21
948.2395
 31
0.0
  0
LINE
  5
4DA
330
1E
100
AcDbEntity
  8
0
100
AcDbLine
 10
108.923235
 20
948.2395
 30
0.0
 11
110.323235
 21
948.2395
 31
0.0
  0
LINE
  5
4DB
330
1E
100
AcDbEntity
  8
0
100
AcDbLine
 10
110.323235
 20
948.2395
 30
0.0
 11
110.923235
 21
948.2395
 31
0.0
  0
LINE
  5
4DC
330
1E
100
AcDbEntity
  8
0
100
AcDbLine
 10
103.523235
 20
925.2394999999999
 30
0.0
 11
106.623235
 21
925.2394999999999
 31
0.0
  0
LINE
  5
4DD
330
1E
100
AcDbEntity
  8
0
100
AcDbLine
 10
110.323235
 20
925.2394999999999
 30
0.0
 11
110.923235
 21
925.2394999999999
 31
0.0
  0
LINE
  5
4DE
330
1E
100
AcDbEntity
  8
0
100
AcDbLine
 10
97.86191329884259
 20
948.2395
 30
0.0
 11
97.99903499999999
 21
1021.869499999999
 31
0.0
  0
LINE
  5
4DF
330
1E
100
AcDbEntity
  8
0
100
AcDbLine
 10
97.982835
 20
1054.879499999999
 30
0.0
 11
97.99903499999999
 21
1021.869499999999
 31
0.0
  0
LINE
  5
4E0
330
1E
100
AcDbEntity
  8
0
100
AcDbLine
 10
81.982935
 20
1054.879499999999
 30
0.0
 11
81.998835
 21
1021.8795
 31
0.0
  0
LINE
  5
4E1
330
1E
100
AcDbEntity
  8
0
100
AcDbLine
 10
81.92323499999998
 20
1125.239499999999
 30
0.0
 11
81.92323499999998
 21
1125.8295
 31
0.0
  0
LINE
  5
4E2
330
1E
100
AcDbEntity
  8
0
100
AcDbLine
 10
81.92323499999998
 20
1125.239499999999
 30
0.0
 11
81.92323499999998
 21
1152.3095
 31
0.0
  0
LINE
  5
4E3
330
1E
100
AcDbEntity
  8
0
100
AcDbLine
 10
97.95383499999999
 20
1077.8795
 30
0.0
 11
97.982835
 21
1054.879499999999
 31
0.0
  0
LINE
  5
4E4
330
1E
100
AcDbEntity
  8
0
100
AcDbLine
 10
97.912835
 20
1102.6795
 30
0.0
 11
97.95383499999999
 21
1077.8795
 31
0.0
  0
LINE
  5
4E5
330
1E
100
AcDbEntity
  8
0
100
AcDbLine
 10
81.95483499999999
 20
1077.8695
 30
0.0
 11
81.982935
 21
1054.879499999999
 31
0.0
  0
LINE
  5
4E6
330
1E
100
AcDbEntity
  8
0
100
AcDbLine
 10
81.912935
 20
1102.669499999999
 30
0.0
 11
81.95483499999999
 21
1077.8695
 31
0.0
  0
LINE
  5
4E9
330
1E
100
AcDbEntity
  8
0
100
AcDbLine
 10
75.92323499999999
 20
1134.2395
 30
0.0
 11
75.92323499999999
 21
1138.5495
 31
0.0
  0
LINE
  5
4EA
330
1E
100
AcDbEntity
  8
0
100
AcDbLine
 10
75.92323499999999
 20
1134.2395
 30
0.0
 11
75.92323499999999
 21
1130.5695
 31
0.0
  0
LINE
  5
4EB
330
1E
100
AcDbEntity
  8
0
100
AcDbLine
 10
75.92323499999999
 20
1138.5495
 30
0.0
 11
75.92323499999999
 21
1143.1595
 31
0.0
  0
LINE
  5
4EC
330
1E
100
AcDbEntity
  8
0
100
AcDbLine
 10
75.92323499999999
 20
1138.5495
 30
0.0
 11
75.92323499999999
 21
1134.2395
 31
0.0
  0
LINE
  5
4ED
330
1E
100
AcDbEntity
  8
0
100
AcDbLine
 10
75.92323499999999
 20
1143.1595
 30
0.0
 11
75.92323499999999
 21
1147.909499999999
 31
0.0
  0
LINE
  5
4EE
330
1E
100
AcDbEntity
  8
0
100
AcDbLine
 10
75.92323499999999
 20
1143.1595
 30
0.0
 11
75.92323499999999
 21
1138.5495
 31
0.0
  0
LINE
  5
4EF
330
1E
100
AcDbEntity
  8
0
100
AcDbLine
 10
75.92323499999999
 20
1147.909499999999
 30
0.0
 11
75.92323499999999
 21
1152.3095
 31
0.0
  0
LINE
  5
4F0
330
1E
100
AcDbEntity
  8
0
100
AcDbLine
 10
75.92323499999999
 20
1147.909499999999
 30
0.0
 11
75.92323499999999
 21
1143.1595
 31
0.0
  0
LINE
  5
4F1
330
1E
100
AcDbEntity
  8
0
100
AcDbLine
 10
75.92323499999999
 20
1152.3095
 30
0.0
 11
75.92323499999999
 21
1155.9595
 31
0.0
  0
LINE
  5
4F2
330
1E
100
AcDbEntity
  8
0
100
AcDbLine
 10
75.92323499999999
 20
1152.3095
 30
0.0
 11
75.92323499999999
 21
1147.909499999999
 31
0.0
  0
LINE
  5
4F4
330
1E
100
AcDbEntity
  8
0
100
AcDbLine
 10
75.92323499999999
 20
1160.5595
 30
0.0
 11
75.92323499999999
 21
1198.6695
 31
0.0
  0
LINE
  5
4F7
330
1E
100
AcDbEntity
  8
0
100
AcDbLine
 10
75.92323499999999
 20
1160.5595
 30
0.0
 11
75.92323499999999
 21
1158.8295
 31
0.0
  0
LINE
  5
4F8
330
1E
100
AcDbEntity
  8
0
100
AcDbLine
 10
66.95843499999999
 20
1321.9595
 30
0.0
 11
67.65843499999999
 21
1322.129499999999
 31
0.0
  0
LINE
  5
4FA
330
1E
100
AcDbEntity
  8
0
100
AcDbLine
 10
66.95843499999999
 20
1323.1095
 30
0.0
 11
67.65843499999999
 21
1322.9295
 31
0.0
  0
LINE
  5
4FD
330
1E
100
AcDbEntity
  8
0
100
AcDbLine
 10
67.320735
 20
1310.6695
 30
0.0
 11
68.027835
 21
1310.8295
 31
0.0
  0
LINE
  5
4FE
330
1E
100
AcDbEntity
  8
0
100
AcDbLine
 10
67.320735
 20
1309.8595
 30
0.0
 11
68.027835
 21
1309.6995
 31
0.0
  0
LINE
  5
4FF
330
1E
100
AcDbEntity
  8
0
100
AcDbLine
 10
67.037835
 20
1310.259499999999
 30
0.0
 11
67.320735
 21
1310.6695
 31
0.0
  0
LINE
  5
500
330
1E
100
AcDbEntity
  8
0
100
AcDbLine
 10
67.037835
 20
1310.259499999999
 30
0.0
 11
67.320735
 21
1309.8595
 31
0.0
  0
LINE
  5
503
330
1E
100
AcDbEntity
  8
0
100
AcDbLine
 10
67.403735
 20
1317.8295
 30
0.0
 11
67.446235
 21
1318.2695
 31
0.0
  0
LINE
  5
504
330
1E
100
AcDbEntity
  8
0
100
AcDbLine
 10
67.403735
 20
1317.8295
 30
0.0
 11
67.92503499999999
 21
1317.509499999999
 31
0.0
  0
LINE
  5
505
330
1E
100
AcDbEntity
  8
0
100
AcDbLine
 10
67.446235
 20
1318.2695
 30
0.0
 11
68.001335
 21
1318.5695
 31
0.0
  0
LINE
  5
508
330
1E
100
AcDbEntity
  8
0
100
AcDbLine
 10
67.320735
 20
1334.969499999999
 30
0.0
 11
68.027835
 21
1334.8095
 31
0.0
  0
LINE
  5
50A
330
1E
100
AcDbEntity
  8
0
100
AcDbLine
 10
67.320735
 20
1335.7895
 30
0.0
 11
68.027835
 21
1335.949499999999
 31
0.0
  0
LINE
  5
50C
330
1E
100
AcDbEntity
  8
0
100
AcDbLine
 10
67.037835
 20
1335.3795
 30
0.0
 11
67.320735
 21
1334.969499999999
 31
0.0
  0
LINE
  5
50D
330
1E
100
AcDbEntity
  8
0
100
AcDbLine
 10
67.037835
 20
1335.3795
 30
0.0
 11
67.320735
 21
1335.7895
 31
0.0
  0
LINE
  5
50F
330
1E
100
AcDbEntity
  8
0
100
AcDbLine
 10
67.403735
 20
1327.2295
 30
0.0
 11
67.446235
 21
1326.7995
 31
0.0
  0
LINE
  5
510
330
1E
100
AcDbEntity
  8
0
100
AcDbLine
 10
67.403735
 20
1327.2295
 30
0.0
 11
67.92503499999999
 21
1327.5495
 31
0.0
  0
LINE
  5
512
330
1E
100
AcDbEntity
  8
0
100
AcDbLine
 10
68.001335
 20
1318.5695
 30
0.0
 11
68.761735
 21
1318.5395
 31
0.0
  0
LINE
  5
514
330
1E
100
AcDbEntity
  8
0
100
AcDbLine
 10
67.92503499999999
 20
1317.509499999999
 30
0.0
 11
68.685435
 21
1317.489499999999
 31
0.0
  0
LINE
  5
516
330
1E
100
AcDbEntity
  8
0
100
AcDbLine
 10
67.65843499999999
 20
1322.129499999999
 30
0.0
 11
67.958435
 21
1322.5295
 31
0.0
  0
LINE
  5
519
330
1E
100
AcDbEntity
  8
0
100
AcDbLine
 10
67.65843499999999
 20
1322.9295
 30
0.0
 11
67.958435
 21
1322.5295
 31
0.0
  0
LINE
  5
51C
330
1E
100
AcDbEntity
  8
0
100
AcDbLine
 10
68.027835
 20
1310.8295
 30
0.0
 11
68.73493499999999
 21
1310.6695
 31
0.0
  0
LINE
  5
521
330
1E
100
AcDbEntity
  8
0
100
AcDbLine
 10
68.73493499999999
 20
1310.6695
 30
0.0
 11
69.017735
 21
1310.259499999999
 31
0.0
  0
LINE
  5
523
330
1E
100
AcDbEntity
  8
0
100
AcDbLine
 10
68.73493499999999
 20
1309.8595
 30
0.0
 11
69.017735
 21
1310.259499999999
 31
0.0
  0
LINE
  5
524
330
1E
100
AcDbEntity
  8
0
100
AcDbLine
 10
68.027835
 20
1309.6995
 30
0.0
 11
68.73493499999999
 21
1309.8595
 31
0.0
  0
LINE
  5
526
330
1E
100
AcDbEntity
  8
0
100
AcDbLine
 10
68.761735
 20
1318.5395
 30
0.0
 11
69.283135
 21
1318.2195
 31
0.0
  0
LINE
  5
528
330
1E
100
AcDbEntity
  8
0
100
AcDbLine
 10
69.24063499999999
 20
1317.7895
 30
0.0
 11
69.283135
 21
1318.2195
 31
0.0
  0
LINE
  5
529
330
1E
100
AcDbEntity
  8
0
100
AcDbLine
 10
68.685435
 20
1317.489499999999
 30
0.0
 11
69.24063499999999
 21
1317.7895
 31
0.0
  0
LINE
  5
52A
330
1E
100
AcDbEntity
  8
0
100
AcDbLine
 10
68.001335
 20
1326.499499999999
 30
0.0
 11
68.761735
 21
1326.5195
 31
0.0
  0
LINE
  5
52B
330
1E
100
AcDbEntity
  8
0
100
AcDbLine
 10
68.761735
 20
1326.5195
 30
0.0
 11
69.283135
 21
1326.8395
 31
0.0
  0
LINE
  5
52E
330
1E
100
AcDbEntity
  8
0
100
AcDbLine
 10
70.679435
 20
1303.1895
 30
0.0
 11
71.28923499999999
 21
1303.4495
 31
0.0
  0
LINE
  5
52F
330
1E
100
AcDbEntity
  8
0
100
AcDbLine
 10
69.55723499999999
 20
1304.0295
 30
0.0
 11
70.167035
 21
1304.2895
 31
0.0
  0
LINE
  5
534
330
1E
100
AcDbEntity
  8
0
100
AcDbLine
 10
70.167035
 20
1304.2895
 30
0.0
 11
70.92323499999999
 21
1304.229499999999
 31
0.0
  0
LINE
  5
536
330
1E
100
AcDbEntity
  8
0
100
AcDbLine
 10
70.92323499999999
 20
1304.229499999999
 30
0.0
 11
71.379435
 21
1303.8895
 31
0.0
  0
LINE
  5
53A
330
1E
100
AcDbEntity
  8
0
100
AcDbLine
 10
71.28923499999999
 20
1303.4495
 30
0.0
 11
71.379435
 21
1303.8895
 31
0.0
  0
LINE
  5
53B
330
1E
100
AcDbEntity
  8
0
100
AcDbLine
 10
69.92323499999999
 20
1303.2395
 30
0.0
 11
70.679435
 21
1303.1895
 31
0.0
  0
LINE
  5
53C
330
1E
100
AcDbEntity
  8
0
100
AcDbLine
 10
69.46703499999999
 20
1303.5895
 30
0.0
 11
69.55723499999999
 21
1304.0295
 31
0.0
  0
LINE
  5
53D
330
1E
100
AcDbEntity
  8
0
100
AcDbLine
 10
69.46703499999999
 20
1303.5895
 30
0.0
 11
69.92323499999999
 21
1303.2395
 31
0.0
  0
LINE
  5
541
330
1E
100
AcDbEntity
  8
0
100
AcDbLine
 10
71.34343499999999
 20
1308.5995
 30
0.0
 11
71.990635
 21
1308.8295
 31
0.0
  0
LINE
  5
543
330
1E
100
AcDbEntity
  8
0
100
AcDbLine
 10
71.187635
 20
1308.1795
 30
0.0
 11
71.34343499999999
 21
1308.5995
 31
0.0
  0
LINE
  5
544
330
1E
100
AcDbEntity
  8
0
100
AcDbLine
 10
71.187635
 20
1308.1795
 30
0.0
 11
71.589035
 21
1307.7995
 31
0.0
  0
LINE
  5
547
330
1E
100
AcDbEntity
  8
0
100
AcDbLine
 10
75.687235
 20
1301.8495
 30
0.0
 11
76.242435
 21
1301.5495
 31
0.0
  0
LINE
  5
548
330
1E
100
AcDbEntity
  8
0
100
AcDbLine
 10
75.644735
 20
1302.2895
 30
0.0
 11
75.687235
 21
1301.8495
 31
0.0
  0
LINE
  5
549
330
1E
100
AcDbEntity
  8
0
100
AcDbLine
 10
75.644735
 20
1302.2895
 30
0.0
 11
76.166035
 21
1302.5995
 31
0.0
  0
LINE
  5
54D
330
1E
100
AcDbEntity
  8
0
100
AcDbLine
 10
71.990635
 20
1308.8295
 30
0.0
 11
72.736135
 21
1308.739499999999
 31
0.0
  0
LINE
  5
54F
330
1E
100
AcDbEntity
  8
0
100
AcDbLine
 10
72.736135
 20
1308.739499999999
 30
0.0
 11
73.137435
 21
1308.3695
 31
0.0
  0
LINE
  5
553
330
1E
100
AcDbEntity
  8
0
100
AcDbLine
 10
72.981735
 20
1307.9395
 30
0.0
 11
73.137435
 21
1308.3695
 31
0.0
  0
LINE
  5
554
330
1E
100
AcDbEntity
  8
0
100
AcDbLine
 10
72.33443499999999
 20
1307.7095
 30
0.0
 11
72.981735
 21
1307.9395
 31
0.0
  0
LINE
  5
555
330
1E
100
AcDbEntity
  8
0
100
AcDbLine
 10
71.589035
 20
1307.7995
 30
0.0
 11
72.33443499999999
 21
1307.7095
 31
0.0
  0
LINE
  5
556
330
1E
100
AcDbEntity
  8
0
100
AcDbLine
 10
72.973935
 20
1313.6295
 30
0.0
 11
73.317335
 21
1314.0195
 31
0.0
  0
LINE
  5
557
330
1E
100
AcDbEntity
  8
0
100
AcDbLine
 10
72.244935
 20
1313.4995
 30
0.0
 11
72.973935
 21
1313.6295
 31
0.0
  0
LINE
  5
558
330
1E
100
AcDbEntity
  8
0
100
AcDbLine
 10
71.56513499999999
 20
1313.6995
 30
0.0
 11
72.244935
 21
1313.4995
 31
0.0
  0
LINE
  5
559
330
1E
100
AcDbEntity
  8
0
100
AcDbLine
 10
71.688435
 20
1314.509499999999
 30
0.0
 11
72.417435
 21
1314.6295
 31
0.0
  0
LINE
  5
55A
330
1E
100
AcDbEntity
  8
0
100
AcDbLine
 10
72.417435
 20
1314.6295
 30
0.0
 11
73.097235
 21
1314.439499999999
 31
0.0
  0
LINE
  5
55B
330
1E
100
AcDbEntity
  8
0
100
AcDbLine
 10
73.097235
 20
1314.439499999999
 30
0.0
 11
73.317335
 21
1314.0195
 31
0.0
  0
LINE
  5
55C
330
1E
100
AcDbEntity
  8
0
100
AcDbLine
 10
71.345035
 20
1314.1195
 30
0.0
 11
71.688435
 21
1314.509499999999
 31
0.0
  0
LINE
  5
55D
330
1E
100
AcDbEntity
  8
0
100
AcDbLine
 10
71.345035
 20
1314.1195
 30
0.0
 11
71.56513499999999
 21
1313.6995
 31
0.0
  0
LINE
  5
561
330
1E
100
AcDbEntity
  8
0
100
AcDbLine
 10
74.03753499999999
 20
1322.2395
 30
0.0
 11
74.275435
 21
1322.6495
 31
0.0
  0
LINE
  5
562
330
1E
100
AcDbEntity
  8
0
100
AcDbLine
 10
74.03753499999999
 20
1322.2395
 30
0.0
 11
74.397435
 21
1321.8495
 31
0.0
  0
LINE
  5
564
330
1E
100
AcDbEntity
  8
0
100
AcDbLine
 10
75.120935
 20
1321.7195
 30
0.0
 11
75.792135
 21
1321.919499999999
 31
0.0
  0
LINE
  5
567
330
1E
100
AcDbEntity
  8
0
100
AcDbLine
 10
74.946635
 20
1322.8595
 30
0.0
 11
75.670135
 21
1322.7195
 31
0.0
  0
LINE
  5
569
330
1E
100
AcDbEntity
  8
0
100
AcDbLine
 10
75.670135
 20
1322.7195
 30
0.0
 11
76.029935
 21
1322.3395
 31
0.0
  0
LINE
  5
56B
330
1E
100
AcDbEntity
  8
0
100
AcDbLine
 10
74.397435
 20
1321.8495
 30
0.0
 11
75.120935
 21
1321.7195
 31
0.0
  0
LINE
  5
56C
330
1E
100
AcDbEntity
  8
0
100
AcDbLine
 10
74.275435
 20
1322.6495
 30
0.0
 11
74.946635
 21
1322.8595
 31
0.0
  0
LINE
  5
570
330
1E
100
AcDbEntity
  8
0
100
AcDbLine
 10
75.92323499999999
 20
1161.229499999999
 30
0.0
 11
78.92323499999999
 21
1161.229499999999
 31
0.0
  0
LINE
  5
571
330
1E
100
AcDbEntity
  8
0
100
AcDbLine
 10
75.92323499999999
 20
1161.229499999999
 30
0.0
 11
75.92323499999999
 21
1160.5695
 31
0.0
  0
LINE
  5
572
330
1E
100
AcDbEntity
  8
0
100
AcDbLine
 10
75.92323499999999
 20
1198.6695
 30
0.0
 11
75.92323499999999
 21
1160.5595
 31
0.0
  0
LINE
  5
573
330
1E
100
AcDbEntity
  8
0
100
AcDbLine
 10
75.92323499999999
 20
1198.6695
 30
0.0
 11
76.42723499999999
 21
1196.899499999999
 31
0.0
  0
LINE
  5
574
330
1E
100
AcDbEntity
  8
0
100
AcDbLine
 10
75.92323499999999
 20
1198.6695
 30
0.0
 11
76.42723499999999
 21
1200.4295
 31
0.0
  0
LINE
  5
575
330
1E
100
AcDbEntity
  8
0
100
AcDbLine
 10
75.906735
 20
1306.5295
 30
0.0
 11
75.93063499999999
 21
1306.9695
 31
0.0
  0
LINE
  5
576
330
1E
100
AcDbEntity
  8
0
100
AcDbLine
 10
75.906735
 20
1306.5295
 30
0.0
 11
76.41433499999999
 21
1306.2095
 31
0.0
  0
LINE
  5
578
330
1E
100
AcDbEntity
  8
0
100
AcDbLine
 10
75.792135
 20
1321.919499999999
 30
0.0
 11
76.029935
 21
1322.3395
 31
0.0
  0
LINE
  5
579
330
1E
100
AcDbEntity
  8
0
100
AcDbLine
 10
75.79833499999999
 20
1318.1795
 30
0.0
 11
76.36603499999999
 21
1317.8895
 31
0.0
  0
LINE
  5
57A
330
1E
100
AcDbEntity
  8
0
100
AcDbLine
 10
75.774435
 20
1318.6195
 30
0.0
 11
76.28203499999999
 21
1318.949499999999
 31
0.0
  0
LINE
  5
57B
330
1E
100
AcDbEntity
  8
0
100
AcDbLine
 10
75.774435
 20
1318.6195
 30
0.0
 11
75.79833499999999
 21
1318.1795
 31
0.0
  0
LINE
  5
57D
330
1E
100
AcDbEntity
  8
0
100
AcDbLine
 10
75.774435
 20
1326.10115818182
 30
0.0
 11
75.774435
 21
1326.0395
 31
0.0
  0
LINE
  5
57E
330
1E
100
AcDbEntity
  8
0
100
AcDbLine
 10
75.79833499999999
 20
1326.4795
 30
0.0
 11
76.36603499999999
 21
1326.7695
 31
0.0
  0
LINE
  5
580
330
1E
100
AcDbEntity
  8
0
100
AcDbLine
 10
75.774435
 20
1326.0395
 30
0.0
 11
76.28203499999999
 21
1325.719499999999
 31
0.0
  0
LINE
  5
581
330
1E
100
AcDbEntity
  8
0
100
AcDbLine
 10
75.774435
 20
1326.0395
 30
0.0
 11
75.79833499999999
 21
1326.4795
 31
0.0
  0
LINE
  5
582
330
1E
100
AcDbEntity
  8
0
100
AcDbLine
 10
75.774435
 20
1326.0395
 30
0.0
 11
75.774435
 21
1326.10115818182
 31
0.0
  0
LINE
  5
583
330
1E
100
AcDbEntity
  8
0
100
AcDbLine
 10
69.24063499999999
 20
1327.2795
 30
0.0
 11
69.283135
 21
1326.8395
 31
0.0
  0
LINE
  5
584
330
1E
100
AcDbEntity
  8
0
100
AcDbLine
 10
68.027835
 20
1334.8095
 30
0.0
 11
68.73493499999999
 21
1334.969499999999
 31
0.0
  0
LINE
  5
586
330
1E
100
AcDbEntity
  8
0
100
AcDbLine
 10
68.027835
 20
1335.949499999999
 30
0.0
 11
68.73493499999999
 21
1335.7895
 31
0.0
  0
LINE
  5
588
330
1E
100
AcDbEntity
  8
0
100
AcDbLine
 10
68.73493499999999
 20
1334.969499999999
 30
0.0
 11
69.017735
 21
1335.3795
 31
0.0
  0
LINE
  5
589
330
1E
100
AcDbEntity
  8
0
100
AcDbLine
 10
71.688435
 20
1330.5595
 30
0.0
 11
72.417435
 21
1330.4295
 31
0.0
  0
LINE
  5
58A
330
1E
100
AcDbEntity
  8
0
100
AcDbLine
 10
72.417435
 20
1330.4295
 30
0.0
 11
73.097235
 21
1330.6295
 31
0.0
  0
LINE
  5
58B
330
1E
100
AcDbEntity
  8
0
100
AcDbLine
 10
73.097235
 20
1330.6295
 30
0.0
 11
73.317335
 21
1331.0495
 31
0.0
  0
LINE
  5
58D
330
1E
100
AcDbEntity
  8
0
100
AcDbLine
 10
72.973935
 20
1331.4395
 30
0.0
 11
73.317335
 21
1331.0495
 31
0.0
  0
LINE
  5
58E
330
1E
100
AcDbEntity
  8
0
100
AcDbLine
 10
72.244935
 20
1331.5695
 30
0.0
 11
72.973935
 21
1331.4395
 31
0.0
  0
LINE
  5
58F
330
1E
100
AcDbEntity
  8
0
100
AcDbLine
 10
71.56513499999999
 20
1331.3695
 30
0.0
 11
72.244935
 21
1331.5695
 31
0.0
  0
LINE
  5
591
330
1E
100
AcDbEntity
  8
0
100
AcDbLine
 10
71.345035
 20
1330.9495
 30
0.0
 11
71.688435
 21
1330.5595
 31
0.0
  0
LINE
  5
592
330
1E
100
AcDbEntity
  8
0
100
AcDbLine
 10
71.345035
 20
1330.9495
 30
0.0
 11
71.56513499999999
 21
1331.3695
 31
0.0
  0
LINE
  5
593
330
1E
100
AcDbEntity
  8
0
100
AcDbLine
 10
69.017735
 20
1335.3795
 30
0.0
 11
69.017735
 21
1335.43373146552
 31
0.0
  0
LINE
  5
595
330
1E
100
AcDbEntity
  8
0
100
AcDbLine
 10
71.187635
 20
1337.4695
 30
0.0
 11
71.34343499999999
 21
1337.0395
 31
0.0
  0
LINE
  5
596
330
1E
100
AcDbEntity
  8
0
100
AcDbLine
 10
71.187635
 20
1337.4695
 30
0.0
 11
71.589035
 21
1337.8395
 31
0.0
  0
LINE
  5
598
330
1E
100
AcDbEntity
  8
0
100
AcDbLine
 10
70.167035
 20
1341.929499999999
 30
0.0
 11
70.92323499999999
 21
1341.989499999999
 31
0.0
  0
LINE
  5
599
330
1E
100
AcDbEntity
  8
0
100
AcDbLine
 10
69.55723499999999
 20
1342.199499999999
 30
0.0
 11
70.167035
 21
1341.929499999999
 31
0.0
  0
LINE
  5
59A
330
1E
100
AcDbEntity
  8
0
100
AcDbLine
 10
70.92323499999999
 20
1341.989499999999
 30
0.0
 11
71.379435
 21
1342.3395
 31
0.0
  0
LINE
  5
59C
330
1E
100
AcDbEntity
  8
0
100
AcDbLine
 10
71.34343499999999
 20
1337.0395
 30
0.0
 11
71.990635
 21
1336.8095
 31
0.0
  0
LINE
  5
59D
330
1E
100
AcDbEntity
  8
0
100
AcDbLine
 10
71.990635
 20
1336.8095
 30
0.0
 11
72.736135
 21
1336.8995
 31
0.0
  0
LINE
  5
59E
330
1E
100
AcDbEntity
  8
0
100
AcDbLine
 10
72.736135
 20
1336.8995
 30
0.0
 11
73.137435
 21
1337.2695
 31
0.0
  0
LINE
  5
59F
330
1E
100
AcDbEntity
  8
0
100
AcDbLine
 10
72.981735
 20
1337.6995
 30
0.0
 11
73.137435
 21
1337.2695
 31
0.0
  0
LINE
  5
5A1
330
1E
100
AcDbEntity
  8
0
100
AcDbLine
 10
75.906735
 20
1339.1095
 30
0.0
 11
75.93063499999999
 21
1338.6795
 31
0.0
  0
LINE
  5
5A2
330
1E
100
AcDbEntity
  8
0
100
AcDbLine
 10
75.906735
 20
1339.1095
 30
0.0
 11
76.41433499999999
 21
1339.4395
 31
0.0
  0
LINE
  5
5A5
330
1E
100
AcDbEntity
  8
0
100
AcDbLine
 10
72.33443499999999
 20
1337.929499999999
 30
0.0
 11
72.981735
 21
1337.6995
 31
0.0
  0
LINE
  5
5A7
330
1E
100
AcDbEntity
  8
0
100
AcDbLine
 10
71.589035
 20
1337.8395
 30
0.0
 11
72.33443499999999
 21
1337.929499999999
 31
0.0
  0
LINE
  5
5AA
330
1E
100
AcDbEntity
  8
0
100
AcDbLine
 10
71.28923499999999
 20
1342.7695
 30
0.0
 11
71.379435
 21
1342.3395
 31
0.0
  0
LINE
  5
5AF
330
1E
100
AcDbEntity
  8
0
100
AcDbLine
 10
70.679435
 20
1343.0295
 30
0.0
 11
71.28923499999999
 21
1342.7695
 31
0.0
  0
LINE
  5
5B1
330
1E
100
AcDbEntity
  8
0
100
AcDbLine
 10
69.92323499999999
 20
1342.979499999999
 30
0.0
 11
70.679435
 21
1343.0295
 31
0.0
  0
LINE
  5
5B3
330
1E
100
AcDbEntity
  8
0
100
AcDbLine
 10
69.46703499999999
 20
1342.6295
 30
0.0
 11
69.55723499999999
 21
1342.199499999999
 31
0.0
  0
LINE
  5
5B4
330
1E
100
AcDbEntity
  8
0
100
AcDbLine
 10
69.46703499999999
 20
1342.6295
 30
0.0
 11
69.92323499999999
 21
1342.979499999999
 31
0.0
  0
LINE
  5
5B6
330
1E
100
AcDbEntity
  8
0
100
AcDbLine
 10
69.017735
 20
1335.43373146552
 30
0.0
 11
69.017735
 21
1335.3795
 31
0.0
  0
LINE
  5
5B7
330
1E
100
AcDbEntity
  8
0
100
AcDbLine
 10
68.73493499999999
 20
1335.7895
 30
0.0
 11
69.017735
 21
1335.3795
 31
0.0
  0
LINE
  5
5B9
330
1E
100
AcDbEntity
  8
0
100
AcDbLine
 10
68.685435
 20
1327.5795
 30
0.0
 11
69.24063499999999
 21
1327.2795
 31
0.0
  0
LINE
  5
5BA
330
1E
100
AcDbEntity
  8
0
100
AcDbLine
 10
67.92503499999999
 20
1327.5495
 30
0.0
 11
68.685435
 21
1327.5795
 31
0.0
  0
LINE
  5
5BB
330
1E
100
AcDbEntity
  8
0
100
AcDbLine
 10
67.446235
 20
1326.7995
 30
0.0
 11
68.001335
 21
1326.499499999999
 31
0.0
  0
LINE
  5
5C0
330
1E
100
AcDbEntity
  8
0
100
AcDbLine
 10
75.687235
 20
1344.369499999999
 30
0.0
 11
76.242435
 21
1344.6695
 31
0.0
  0
LINE
  5
5C2
330
1E
100
AcDbEntity
  8
0
100
AcDbLine
 10
75.644735
 20
1343.929499999999
 30
0.0
 11
75.687235
 21
1344.369499999999
 31
0.0
  0
LINE
  5
5C3
330
1E
100
AcDbEntity
  8
0
100
AcDbLine
 10
75.644735
 20
1343.929499999999
 30
0.0
 11
76.166035
 21
1343.619499999999
 31
0.0
  0
LINE
  5
5C5
330
1E
100
AcDbEntity
  8
0
100
AcDbLine
 10
67.023235
 20
1367.749499999999
 30
0.0
 11
78.12323499999999
 21
1370.3295
 31
0.0
  0
LINE
  5
5C6
330
1E
100
AcDbEntity
  8
0
100
AcDbLine
 10
75.92323499999999
 20
1160.5695
 30
0.0
 11
75.92323499999999
 21
1161.229499999999
 31
0.0
  0
LINE
  5
5C7
330
1E
100
AcDbEntity
  8
0
100
AcDbLine
 10
75.92323499999999
 20
1160.5695
 30
0.0
 11
75.92323499999999
 21
1158.8295
 31
0.0
  0
LINE
  5
5C8
330
1E
100
AcDbEntity
  8
0
100
AcDbLine
 10
75.92323499999999
 20
1158.8295
 30
0.0
 11
75.92323499999999
 21
1160.5695
 31
0.0
  0
LINE
  5
5C9
330
1E
100
AcDbEntity
  8
0
100
AcDbLine
 10
75.92323499999999
 20
1158.8295
 30
0.0
 11
75.92323499999999
 21
1160.5595
 31
0.0
  0
LINE
  5
5CA
330
1E
100
AcDbEntity
  8
0
100
AcDbLine
 10
75.92323499999999
 20
1158.8295
 30
0.0
 11
75.92323499999999
 21
1155.9595
 31
0.0
  0
LINE
  5
5CB
330
1E
100
AcDbEntity
  8
0
100
AcDbLine
 10
75.92323499999999
 20
1155.9595
 30
0.0
 11
75.92323499999999
 21
1158.8295
 31
0.0
  0
LINE
  5
5CC
330
1E
100
AcDbEntity
  8
0
100
AcDbLine
 10
75.92323499999999
 20
1155.9595
 30
0.0
 11
75.92323499999999
 21
1152.3095
 31
0.0
  0
LINE
  5
5CD
330
1E
100
AcDbEntity
  8
0
100
AcDbLine
 10
75.92323499999999
 20
1130.5695
 30
0.0
 11
75.92323499999999
 21
1134.2395
 31
0.0
  0
LINE
  5
5CE
330
1E
100
AcDbEntity
  8
0
100
AcDbLine
 10
75.92323499999999
 20
1130.5695
 30
0.0
 11
75.92323499999999
 21
1127.6995
 31
0.0
  0
LINE
  5
5CF
330
1E
100
AcDbEntity
  8
0
100
AcDbLine
 10
75.92323499999999
 20
1127.6995
 30
0.0
 11
75.92323499999999
 21
1130.5695
 31
0.0
  0
LINE
  5
5D0
330
1E
100
AcDbEntity
  8
0
100
AcDbLine
 10
75.92323499999999
 20
1127.6995
 30
0.0
 11
75.92323499999999
 21
1125.8295
 31
0.0
  0
LINE
  5
5D5
330
1E
100
AcDbEntity
  8
0
100
AcDbLine
 10
78.92323499999999
 20
1125.9095
 30
0.0
 11
81.92323499999998
 21
1125.239499999999
 31
0.0
  0
LINE
  5
5D6
330
1E
100
AcDbEntity
  8
0
100
AcDbLine
 10
78.92323499999999
 20
1125.9095
 30
0.0
 11
78.92323499999999
 21
1127.6495
 31
0.0
  0
LINE
  5
5D7
330
1E
100
AcDbEntity
  8
0
100
AcDbLine
 10
78.92323499999999
 20
1125.9095
 30
0.0
 11
78.92323499999999
 21
1155.9595
 31
0.0
  0
LINE
  5
5D8
330
1E
100
AcDbEntity
  8
0
100
AcDbLine
 10
78.92323499999999
 20
1127.6495
 30
0.0
 11
78.92323499999999
 21
1130.5195
 31
0.0
  0
LINE
  5
5D9
330
1E
100
AcDbEntity
  8
0
100
AcDbLine
 10
78.92323499999999
 20
1127.6495
 30
0.0
 11
78.92323499999999
 21
1125.9095
 31
0.0
  0
LINE
  5
5DA
330
1E
100
AcDbEntity
  8
0
100
AcDbLine
 10
78.92323499999999
 20
1127.6495
 30
0.0
 11
78.92323499999999
 21
1158.8295
 31
0.0
  0
LINE
  5
5DB
330
1E
100
AcDbEntity
  8
0
100
AcDbLine
 10
78.92323499999999
 20
1130.5195
 30
0.0
 11
78.92323499999999
 21
1127.6495
 31
0.0
  0
LINE
  5
5DC
330
1E
100
AcDbEntity
  8
0
100
AcDbLine
 10
78.92323499999999
 20
1130.5195
 30
0.0
 11
78.92323499999999
 21
1134.1695
 31
0.0
  0
LINE
  5
5DD
330
1E
100
AcDbEntity
  8
0
100
AcDbLine
 10
78.92323499999999
 20
1134.1695
 30
0.0
 11
78.92323499999999
 21
1130.5195
 31
0.0
  0
LINE
  5
5DE
330
1E
100
AcDbEntity
  8
0
100
AcDbLine
 10
78.92323499999999
 20
1134.1695
 30
0.0
 11
78.92323499999999
 21
1138.5695
 31
0.0
  0
LINE
  5
5DF
330
1E
100
AcDbEntity
  8
0
100
AcDbLine
 10
78.92323499999999
 20
1138.5695
 30
0.0
 11
78.92323499999999
 21
1134.1695
 31
0.0
  0
LINE
  5
5E0
330
1E
100
AcDbEntity
  8
0
100
AcDbLine
 10
78.92323499999999
 20
1138.5695
 30
0.0
 11
78.92323499999999
 21
1143.3195
 31
0.0
  0
LINE
  5
5E1
330
1E
100
AcDbEntity
  8
0
100
AcDbLine
 10
79.354235
 20
1136.0695
 30
0.0
 11
80.41123499999999
 21
1137.649499999999
 31
0.0
  0
LINE
  5
5E2
330
1E
100
AcDbEntity
  8
0
100
AcDbLine
 10
79.297535
 20
1133.2995
 30
0.0
 11
80.364035
 21
1132.2695
 31
0.0
  0
LINE
  5
5E3
330
1E
100
AcDbEntity
  8
0
100
AcDbLine
 10
78.92323499999999
 20
1134.5795
 30
0.0
 11
79.297535
 21
1133.2995
 31
0.0
  0
LINE
  5
5E4
330
1E
100
AcDbEntity
  8
0
100
AcDbLine
 10
78.92323499999999
 20
1134.5795
 30
0.0
 11
78.92323499999999
 21
1160.5595
 31
0.0
  0
LINE
  5
5E5
330
1E
100
AcDbEntity
  8
0
100
AcDbLine
 10
78.92323499999999
 20
1134.5795
 30
0.0
 11
79.354235
 21
1136.0695
 31
0.0
  0
LINE
  5
5E6
330
1E
100
AcDbEntity
  8
0
100
AcDbLine
 10
78.92323499999999
 20
1143.239499999999
 30
0.0
 11
78.92323499999999
 21
1127.6495
 31
0.0
  0
LINE
  5
5E7
330
1E
100
AcDbEntity
  8
0
100
AcDbLine
 10
78.92323499999999
 20
1143.3195
 30
0.0
 11
78.92323499999999
 21
1138.5695
 31
0.0
  0
LINE
  5
5E8
330
1E
100
AcDbEntity
  8
0
100
AcDbLine
 10
78.92323499999999
 20
1143.3195
 30
0.0
 11
78.92323499999999
 21
1147.9295
 31
0.0
  0
LINE
  5
5E9
330
1E
100
AcDbEntity
  8
0
100
AcDbLine
 10
78.92323499999999
 20
1147.9295
 30
0.0
 11
78.92323499999999
 21
1143.3195
 31
0.0
  0
LINE
  5
5EA
330
1E
100
AcDbEntity
  8
0
100
AcDbLine
 10
78.92323499999999
 20
1147.9295
 30
0.0
 11
78.92323499999999
 21
1152.2395
 31
0.0
  0
LINE
  5
5EB
330
1E
100
AcDbEntity
  8
0
100
AcDbLine
 10
78.92323499999999
 20
1152.2395
 30
0.0
 11
78.92323499999999
 21
1155.909499999999
 31
0.0
  0
LINE
  5
5EC
330
1E
100
AcDbEntity
  8
0
100
AcDbLine
 10
78.92323499999999
 20
1152.2395
 30
0.0
 11
78.92323499999999
 21
1147.9295
 31
0.0
  0
LINE
  5
5F0
330
1E
100
AcDbEntity
  8
0
100
AcDbLine
 10
78.92323499999999
 20
1155.9595
 30
0.0
 11
78.92323499999999
 21
1158.8295
 31
0.0
  0
LINE
  5
5F1
330
1E
100
AcDbEntity
  8
0
100
AcDbLine
 10
78.92323499999999
 20
1155.9595
 30
0.0
 11
78.92323499999999
 21
1125.9095
 31
0.0
  0
LINE
  5
5F2
330
1E
100
AcDbEntity
  8
0
100
AcDbLine
 10
78.92323499999999
 20
1158.7795
 30
0.0
 11
78.92323499999999
 21
1155.909499999999
 31
0.0
  0
LINE
  5
5F3
330
1E
100
AcDbEntity
  8
0
100
AcDbLine
 10
78.92323499999999
 20
1158.7795
 30
0.0
 11
78.92323499999999
 21
1160.6495
 31
0.0
  0
LINE
  5
5F4
330
1E
100
AcDbEntity
  8
0
100
AcDbLine
 10
78.92323499999999
 20
1155.909499999999
 30
0.0
 11
78.92323499999999
 21
1152.2395
 31
0.0
  0
LINE
  5
5F5
330
1E
100
AcDbEntity
  8
0
100
AcDbLine
 10
78.92323499999999
 20
1155.909499999999
 30
0.0
 11
78.92323499999999
 21
1158.7795
 31
0.0
  0
LINE
  5
5FA
330
1E
100
AcDbEntity
  8
0
100
AcDbLine
 10
78.92323499999999
 20
1158.8295
 30
0.0
 11
78.92323499999999
 21
1160.5695
 31
0.0
  0
LINE
  5
5FB
330
1E
100
AcDbEntity
  8
0
100
AcDbLine
 10
78.92323499999999
 20
1158.8295
 30
0.0
 11
78.92323499999999
 21
1143.239499999999
 31
0.0
  0
LINE
  5
5FC
330
1E
100
AcDbEntity
  8
0
100
AcDbLine
 10
78.92323499999999
 20
1158.8295
 30
0.0
 11
78.92323499999999
 21
1155.9595
 31
0.0
  0
LINE
  5
5FD
330
1E
100
AcDbEntity
  8
0
100
AcDbLine
 10
78.92323499999999
 20
1160.5695
 30
0.0
 11
78.92323499999999
 21
1161.229499999999
 31
0.0
  0
LINE
  5
5FE
330
1E
100
AcDbEntity
  8
0
100
AcDbLine
 10
78.92323499999999
 20
1160.5695
 30
0.0
 11
78.92323499999999
 21
1158.8295
 31
0.0
  0
LINE
  5
5FF
330
1E
100
AcDbEntity
  8
0
100
AcDbLine
 10
78.92323499999999
 20
1161.229499999999
 30
0.0
 11
78.92323499999999
 21
1160.6495
 31
0.0
  0
LINE
  5
600
330
1E
100
AcDbEntity
  8
0
100
AcDbLine
 10
78.92323499999999
 20
1161.229499999999
 30
0.0
 11
78.92323499999999
 21
1160.5695
 31
0.0
  0
LINE
  5
601
330
1E
100
AcDbEntity
  8
0
100
AcDbLine
 10
78.92323499999999
 20
1160.6495
 30
0.0
 11
78.92323499999999
 21
1158.7795
 31
0.0
  0
LINE
  5
602
330
1E
100
AcDbEntity
  8
0
100
AcDbLine
 10
78.92323499999999
 20
1160.6495
 30
0.0
 11
78.92323499999999
 21
1161.229499999999
 31
0.0
  0
LINE
  5
606
330
1E
100
AcDbEntity
  8
0
100
AcDbLine
 10
78.92323499999999
 20
1160.5595
 30
0.0
 11
78.92323499999999
 21
1194.498642857142
 31
0.0
  0
LINE
  5
608
330
1E
100
AcDbEntity
  8
0
100
AcDbLine
 10
78.92323499999999
 20
1160.5595
 30
0.0
 11
78.92323499999999
 21
1134.5795
 31
0.0
  0
LINE
  5
611
330
1E
100
AcDbEntity
  8
0
100
AcDbLine
 10
80.41123499999999
 20
1137.649499999999
 30
0.0
 11
81.82508641455781
 21
1138.940615722429
 31
0.0
  0
LINE
  5
612
330
1E
100
AcDbEntity
  8
0
100
AcDbLine
 10
80.364035
 20
1132.2695
 30
0.0
 11
81.92323499999998
 21
1131.5295
 31
0.0
  0
LINE
  5
613
330
1E
100
AcDbEntity
  8
0
100
AcDbLine
 10
81.92323499999998
 20
1125.8295
 30
0.0
 11
81.92323499999998
 21
1127.6995
 31
0.0
  0
LINE
  5
614
330
1E
100
AcDbEntity
  8
0
100
AcDbLine
 10
81.92323499999998
 20
1125.8295
 30
0.0
 11
81.92323499999998
 21
1125.239499999999
 31
0.0
  0
LINE
  5
615
330
1E
100
AcDbEntity
  8
0
100
AcDbLine
 10
81.92323499999998
 20
1127.6995
 30
0.0
 11
81.92323499999998
 21
1130.5495
 31
0.0
  0
LINE
  5
616
330
1E
100
AcDbEntity
  8
0
100
AcDbLine
 10
81.92323499999998
 20
1127.6995
 30
0.0
 11
81.92323499999998
 21
1125.8295
 31
0.0
  0
LINE
  5
617
330
1E
100
AcDbEntity
  8
0
100
AcDbLine
 10
81.92323499999998
 20
1130.5495
 30
0.0
 11
81.92323499999998
 21
1134.2395
 31
0.0
  0
LINE
  5
618
330
1E
100
AcDbEntity
  8
0
100
AcDbLine
 10
81.92323499999998
 20
1130.5495
 30
0.0
 11
81.92323499999998
 21
1127.6995
 31
0.0
  0
LINE
  5
619
330
1E
100
AcDbEntity
  8
0
100
AcDbLine
 10
81.92323499999998
 20
1147.8995
 30
0.0
 11
81.92323499999998
 21
1152.3095
 31
0.0
  0
LINE
  5
61A
330
1E
100
AcDbEntity
  8
0
100
AcDbLine
 10
81.92323499999998
 20
1147.8995
 30
0.0
 11
81.92323499999998
 21
1143.1595
 31
0.0
  0
LINE
  5
61B
330
1E
100
AcDbEntity
  8
0
100
AcDbLine
 10
81.92323499999998
 20
1143.1595
 30
0.0
 11
81.92323499999998
 21
1147.8995
 31
0.0
  0
LINE
  5
61C
330
1E
100
AcDbEntity
  8
0
100
AcDbLine
 10
81.92323499999998
 20
1143.1595
 30
0.0
 11
81.92323499999998
 21
1138.5295
 31
0.0
  0
LINE
  5
61D
330
1E
100
AcDbEntity
  8
0
100
AcDbLine
 10
81.92323499999998
 20
1138.5295
 30
0.0
 11
81.92323499999998
 21
1143.1595
 31
0.0
  0
LINE
  5
61E
330
1E
100
AcDbEntity
  8
0
100
AcDbLine
 10
81.92323499999998
 20
1138.5295
 30
0.0
 11
81.92323499999998
 21
1134.2395
 31
0.0
  0
LINE
  5
61F
330
1E
100
AcDbEntity
  8
0
100
AcDbLine
 10
81.92323499999998
 20
1134.2395
 30
0.0
 11
81.92323499999998
 21
1138.5295
 31
0.0
  0
LINE
  5
620
330
1E
100
AcDbEntity
  8
0
100
AcDbLine
 10
81.92323499999998
 20
1134.2395
 30
0.0
 11
81.92323499999998
 21
1130.5495
 31
0.0
  0
LINE
  5
621
330
1E
100
AcDbEntity
  8
0
100
AcDbLine
 10
81.92323499999998
 20
1131.5295
 30
0.0
 11
81.92323499999998
 21
1156.8195
 31
0.0
  0
LINE
  5
622
330
1E
100
AcDbEntity
  8
0
100
AcDbLine
 10
81.92323499999998
 20
1131.5295
 30
0.0
 11
81.93063499999999
 21
1129.719499999999
 31
0.0
  0
LINE
  5
623
330
1E
100
AcDbEntity
  8
0
100
AcDbLine
 10
81.92323499999998
 20
1125.239499999999
 30
0.0
 11
81.912935
 21
1102.669499999999
 31
0.0
  0
LINE
  5
624
330
1E
100
AcDbEntity
  8
0
100
AcDbLine
 10
81.92323499999998
 20
1152.3095
 30
0.0
 11
81.92323499999998
 21
1125.239499999999
 31
0.0
  0
LINE
  5
625
330
1E
100
AcDbEntity
  8
0
100
AcDbLine
 10
81.92323499999998
 20
1152.3095
 30
0.0
 11
81.92323499999998
 21
1147.8995
 31
0.0
  0
LINE
  5
626
330
1E
100
AcDbEntity
  8
0
100
AcDbLine
 10
81.92323499999998
 20
1156.8195
 30
0.0
 11
81.92323499999998
 21
1154.9495
 31
0.0
  0
LINE
  5
627
330
1E
100
AcDbEntity
  8
0
100
AcDbLine
 10
81.92323499999998
 20
1156.8195
 30
0.0
 11
81.92323499999998
 21
1192.441499999999
 31
0.0
  0
LINE
  5
628
330
1E
100
AcDbEntity
  8
0
100
AcDbLine
 10
81.92323499999998
 20
1156.8195
 30
0.0
 11
81.92323499999998
 21
1131.5295
 31
0.0
  0
LINE
  5
62B
330
1E
100
AcDbEntity
  8
0
100
AcDbLine
 10
81.92323499999998
 20
1154.9495
 30
0.0
 11
81.92323499999998
 21
1193.0495
 31
0.0
  0
LINE
  5
62C
330
1E
100
AcDbEntity
  8
0
100
AcDbLine
 10
81.92323499999998
 20
1154.9495
 30
0.0
 11
81.92323499999998
 21
1156.8195
 31
0.0
  0
LINE
  5
639
330
1E
100
AcDbEntity
  8
0
100
AcDbLine
 10
89.92323499999999
 20
1168.0595
 30
0.0
 11
92.52323500000001
 21
1168.2595
 31
0.0
  0
LINE
  5
63A
330
1E
100
AcDbEntity
  8
0
100
AcDbLine
 10
97.80575022038471
 20
1145.017648230599
 30
0.0
 11
99.37423500000001
 21
1144.8195
 31
0.0
  0
LINE
  5
63C
330
1E
100
AcDbEntity
  8
0
100
AcDbLine
 10
98.074835
 20
1137.6695
 30
0.0
 11
99.437235
 21
1139.4895
 31
0.0
  0
LINE
  5
63D
330
1E
100
AcDbEntity
  8
0
100
AcDbLine
 10
99.437235
 20
1139.4895
 30
0.0
 11
100.406035
 21
1141.3395
 31
0.0
  0
LINE
  5
63E
330
1E
100
AcDbEntity
  8
0
100
AcDbLine
 10
100.406035
 20
1141.3395
 30
0.0
 11
100.8752349999999
 21
1143.0095
 31
0.0
  0
LINE
  5
63F
330
1E
100
AcDbEntity
  8
0
100
AcDbLine
 10
99.75513499999999
 20
1137.439499999999
 30
0.0
 11
102.056235
 21
1140.2795
 31
0.0
  0
LINE
  5
640
330
1E
100
AcDbEntity
  8
0
100
AcDbLine
 10
102.056235
 20
1140.2795
 30
0.0
 11
103.3582349999999
 21
1142.7895
 31
0.0
  0
LINE
  5
641
330
1E
100
AcDbEntity
  8
0
100
AcDbLine
 10
99.37423500000001
 20
1144.8195
 30
0.0
 11
100.4973349999999
 21
1144.1395
 31
0.0
  0
LINE
  5
642
330
1E
100
AcDbEntity
  8
0
100
AcDbLine
 10
100.4973349999999
 20
1144.1395
 30
0.0
 11
100.8752349999999
 21
1143.0095
 31
0.0
  0
LINE
  5
643
330
1E
100
AcDbEntity
  8
0
100
AcDbLine
 10
100.8752349999999
 20
1143.0095
 30
0.0
 11
100.923235
 21
1160.5595
 31
0.0
  0
LINE
  5
644
330
1E
100
AcDbEntity
  8
0
100
AcDbLine
 10
103.3582349999999
 20
1142.7895
 30
0.0
 11
103.923235
 21
1144.969499999999
 31
0.0
  0
LINE
  5
645
330
1E
100
AcDbEntity
  8
0
100
AcDbLine
 10
97.96893500000001
 20
1135.7595
 30
0.0
 11
98.074835
 21
1137.6695
 31
0.0
  0
LINE
  5
646
330
1E
100
AcDbEntity
  8
0
100
AcDbLine
 10
97.96893500000001
 20
1135.7595
 30
0.0
 11
99.75513499999999
 21
1137.439499999999
 31
0.0
  0
LINE
  5
64A
330
1E
100
AcDbEntity
  8
0
100
AcDbLine
 10
103.923235
 20
1144.969499999999
 30
0.0
 11
103.923235
 21
1198.6695
 31
0.0
  0
LINE
  5
64B
330
1E
100
AcDbEntity
  8
0
100
AcDbLine
 10
97.96893500000001
 20
1135.7595
 30
0.0
 11
97.912835
 21
1102.6795
 31
0.0
  0
LINE
  5
64C
330
1E
100
AcDbEntity
  8
0
100
AcDbLine
 10
97.923235
 20
1156.8195
 30
0.0
 11
97.923235
 21
1154.9495
 31
0.0
  0
LINE
  5
64D
330
1E
100
AcDbEntity
  8
0
100
AcDbLine
 10
97.923235
 20
1156.8195
 30
0.0
 11
97.923235
 21
1192.441499999999
 31
0.0
  0
LINE
  5
659
330
1E
100
AcDbEntity
  8
0
100
AcDbLine
 10
100.923235
 20
1160.5595
 30
0.0
 11
100.923235
 21
1194.498642857142
 31
0.0
  0
LINE
  5
664
330
1E
100
AcDbEntity
  8
0
100
AcDbLine
 10
97.923235
 20
1154.9495
 30
0.0
 11
97.923235
 21
1193.0495
 31
0.0
  0
LINE
  5
666
330
1E
100
AcDbEntity
  8
0
100
AcDbLine
 10
97.923235
 20
1154.9495
 30
0.0
 11
97.923235
 21
1156.8195
 31
0.0
  0
LINE
  5
667
330
1E
100
AcDbEntity
  8
0
100
AcDbLine
 10
97.923235
 20
1154.9495
 30
0.0
 11
97.96893500000001
 21
1135.7595
 31
0.0
  0
LINE
  5
66A
330
1E
100
AcDbEntity
  8
0
100
AcDbLine
 10
92.52323500000001
 20
1168.2595
 30
0.0
 11
94.92323499999999
 21
1168.7095
 31
0.0
  0
LINE
  5
66B
330
1E
100
AcDbEntity
  8
0
100
AcDbLine
 10
94.92323499999999
 20
1168.7095
 30
0.0
 11
97.023235
 21
1169.509499999999
 31
0.0
  0
LINE
  5
66C
330
1E
100
AcDbEntity
  8
0
100
AcDbLine
 10
87.32323499999999
 20
1168.2595
 30
0.0
 11
89.92323499999999
 21
1168.0595
 31
0.0
  0
LINE
  5
66F
330
1E
100
AcDbEntity
  8
0
100
AcDbLine
 10
84.92323499999999
 20
1168.7095
 30
0.0
 11
87.32323499999999
 21
1168.2595
 31
0.0
  0
LINE
  5
670
330
1E
100
AcDbEntity
  8
0
100
AcDbLine
 10
82.823235
 20
1169.509499999999
 30
0.0
 11
84.92323499999999
 21
1168.7095
 31
0.0
  0
LINE
  5
675
330
1E
100
AcDbEntity
  8
0
100
AcDbLine
 10
75.93063499999999
 20
1306.9695
 30
0.0
 11
76.49833499999999
 21
1307.2595
 31
0.0
  0
LINE
  5
677
330
1E
100
AcDbEntity
  8
0
100
AcDbLine
 10
76.166035
 20
1302.5995
 30
0.0
 11
76.92643499999999
 21
1302.6295
 31
0.0
  0
LINE
  5
679
330
1E
100
AcDbEntity
  8
0
100
AcDbLine
 10
76.242435
 20
1301.5495
 30
0.0
 11
77.00283500000001
 21
1301.5695
 31
0.0
  0
LINE
  5
67C
330
1E
100
AcDbEntity
  8
0
100
AcDbLine
 10
75.93063499999999
 20
1338.6795
 30
0.0
 11
76.49833499999999
 21
1338.3895
 31
0.0
  0
LINE
  5
67E
330
1E
100
AcDbEntity
  8
0
100
AcDbLine
 10
76.166035
 20
1343.619499999999
 30
0.0
 11
76.92643499999999
 21
1343.5895
 31
0.0
  0
LINE
  5
680
330
1E
100
AcDbEntity
  8
0
100
AcDbLine
 10
76.28203499999999
 20
1318.949499999999
 30
0.0
 11
77.043235
 21
1318.9595
 31
0.0
  0
LINE
  5
682
330
1E
100
AcDbEntity
  8
0
100
AcDbLine
 10
76.42723499999999
 20
1200.4295
 30
0.0
 11
77.771235
 21
1202.0795
 31
0.0
  0
LINE
  5
683
330
1E
100
AcDbEntity
  8
0
100
AcDbLine
 10
76.42723499999999
 20
1196.899499999999
 30
0.0
 11
77.771235
 21
1195.249499999999
 31
0.0
  0
LINE
  5
685
330
1E
100
AcDbEntity
  8
0
100
AcDbLine
 10
76.92643499999999
 20
1302.6295
 30
0.0
 11
77.481635
 21
1302.3295
 31
0.0
  0
LINE
  5
687
330
1E
100
AcDbEntity
  8
0
100
AcDbLine
 10
76.49833499999999
 20
1307.2595
 30
0.0
 11
77.259535
 21
1307.2495
 31
0.0
  0
LINE
  5
688
330
1E
100
AcDbEntity
  8
0
100
AcDbLine
 10
76.41433499999999
 20
1306.2095
 30
0.0
 11
77.175535
 21
1306.1895
 31
0.0
  0
LINE
  5
689
330
1E
100
AcDbEntity
  8
0
100
AcDbLine
 10
76.36603499999999
 20
1317.8895
 30
0.0
 11
77.127235
 21
1317.9095
 31
0.0
  0
LINE
  5
68A
330
1E
100
AcDbEntity
  8
0
100
AcDbLine
 10
76.28203499999999
 20
1325.719499999999
 30
0.0
 11
77.043235
 21
1325.6995
 31
0.0
  0
LINE
  5
68B
330
1E
100
AcDbEntity
  8
0
100
AcDbLine
 10
76.49833499999999
 20
1338.3895
 30
0.0
 11
77.259535
 21
1338.3995
 31
0.0
  0
LINE
  5
68D
330
1E
100
AcDbEntity
  8
0
100
AcDbLine
 10
76.41433499999999
 20
1339.4395
 30
0.0
 11
77.175535
 21
1339.449499999999
 31
0.0
  0
LINE
  5
690
330
1E
100
AcDbEntity
  8
0
100
AcDbLine
 10
76.36603499999999
 20
1326.7695
 30
0.0
 11
77.127235
 21
1326.7595
 31
0.0
  0
LINE
  5
692
330
1E
100
AcDbEntity
  8
0
100
AcDbLine
 10
77.00283500000001
 20
1301.5695
 30
0.0
 11
77.524135
 21
1301.8895
 31
0.0
  0
LINE
  5
694
330
1E
100
AcDbEntity
  8
0
100
AcDbLine
 10
77.043235
 20
1318.9595
 30
0.0
 11
77.610935
 21
1318.6695
 31
0.0
  0
LINE
  5
696
330
1E
100
AcDbEntity
  8
0
100
AcDbLine
 10
77.043235
 20
1325.6995
 30
0.0
 11
77.610935
 21
1325.999499999999
 31
0.0
  0
LINE
  5
697
330
1E
100
AcDbEntity
  8
0
100
AcDbLine
 10
76.92643499999999
 20
1343.5895
 30
0.0
 11
77.481635
 21
1343.8895
 31
0.0
  0
LINE
  5
699
330
1E
100
AcDbEntity
  8
0
100
AcDbLine
 10
77.00283500000001
 20
1344.6495
 30
0.0
 11
77.524135
 21
1344.3295
 31
0.0
  0
LINE
  5
69B
330
1E
100
AcDbEntity
  8
0
100
AcDbLine
 10
76.242435
 20
1344.6695
 30
0.0
 11
77.00283500000001
 21
1344.6495
 31
0.0
  0
LINE
  5
69D
330
1E
100
AcDbEntity
  8
0
100
AcDbLine
 10
77.123235
 20
1359.8695
 30
0.0
 11
89.92323499999999
 21
1360.8995
 31
0.0
  0
LINE
  5
69E
330
1E
100
AcDbEntity
  8
0
100
AcDbLine
 10
77.771235
 20
1195.249499999999
 30
0.0
 11
80.011235
 21
1193.7895
 31
0.0
  0
LINE
  5
69F
330
1E
100
AcDbEntity
  8
0
100
AcDbLine
 10
78.35523499999999
 20
1197.5895
 30
0.0
 11
78.64323500000001
 21
1197.099499999999
 31
0.0
  0
LINE
  5
6A0
330
1E
100
AcDbEntity
  8
0
100
AcDbLine
 10
77.771235
 20
1202.0795
 30
0.0
 11
77.92323499999999
 21
1202.17857142857
 31
0.0
  0
LINE
  5
6A2
330
1E
100
AcDbEntity
  8
0
100
AcDbLine
 10
77.481635
 20
1302.3295
 30
0.0
 11
77.524135
 21
1301.8895
 31
0.0
  0
LINE
  5
6A4
330
1E
100
AcDbEntity
  8
0
100
AcDbLine
 10
77.259535
 20
1307.2495
 30
0.0
 11
77.767235
 21
1306.9195
 31
0.0
  0
LINE
  5
6A5
330
1E
100
AcDbEntity
  8
0
100
AcDbLine
 10
77.175535
 20
1306.1895
 30
0.0
 11
77.743235
 21
1306.4795
 31
0.0
  0
LINE
  5
6A6
330
1E
100
AcDbEntity
  8
0
100
AcDbLine
 10
77.127235
 20
1317.9095
 30
0.0
 11
77.634935
 21
1318.2295
 31
0.0
  0
LINE
  5
6A7
330
1E
100
AcDbEntity
  8
0
100
AcDbLine
 10
77.259535
 20
1338.3995
 30
0.0
 11
77.767235
 21
1338.7195
 31
0.0
  0
LINE
  5
6A9
330
1E
100
AcDbEntity
  8
0
100
AcDbLine
 10
77.175535
 20
1339.449499999999
 30
0.0
 11
77.743235
 21
1339.1595
 31
0.0
  0
LINE
  5
6AC
330
1E
100
AcDbEntity
  8
0
100
AcDbLine
 10
77.127235
 20
1326.7595
 30
0.0
 11
77.634935
 21
1326.4295
 31
0.0
  0
LINE
  5
6B0
330
1E
100
AcDbEntity
  8
0
100
AcDbLine
 10
77.48463499999999
 20
1310.9795
 30
0.0
 11
77.57483499999999
 21
1311.4095
 31
0.0
  0
LINE
  5
6B1
330
1E
100
AcDbEntity
  8
0
100
AcDbLine
 10
77.48463499999999
 20
1310.9795
 30
0.0
 11
77.94083499999999
 21
1310.6295
 31
0.0
  0
LINE
  5
6B2
330
1E
100
AcDbEntity
  8
0
100
AcDbLine
 10
77.48463499999999
 20
1334.0895
 30
0.0
 11
77.57483499999999
 21
1333.649499999999
 31
0.0
  0
LINE
  5
6B3
330
1E
100
AcDbEntity
  8
0
100
AcDbLine
 10
77.48463499999999
 20
1334.0895
 30
0.0
 11
77.94083499999999
 21
1334.4395
 31
0.0
  0
LINE
  5
6B4
330
1E
100
AcDbEntity
  8
0
100
AcDbLine
 10
77.57483499999999
 20
1311.4095
 30
0.0
 11
78.184635
 21
1311.6795
 31
0.0
  0
LINE
  5
6B8
330
1E
100
AcDbEntity
  8
0
100
AcDbLine
 10
77.743235
 20
1306.4795
 30
0.0
 11
77.767235
 21
1306.9195
 31
0.0
  0
LINE
  5
6BB
330
1E
100
AcDbEntity
  8
0
100
AcDbLine
 10
77.610935
 20
1318.6695
 30
0.0
 11
77.634935
 21
1318.2295
 31
0.0
  0
LINE
  5
6BD
330
1E
100
AcDbEntity
  8
0
100
AcDbLine
 10
77.57483499999999
 20
1333.649499999999
 30
0.0
 11
78.184635
 21
1333.3895
 31
0.0
  0
LINE
  5
6C2
330
1E
100
AcDbEntity
  8
0
100
AcDbLine
 10
77.743235
 20
1339.1595
 30
0.0
 11
77.767235
 21
1338.7195
 31
0.0
  0
LINE
  5
6C5
330
1E
100
AcDbEntity
  8
0
100
AcDbLine
 10
77.610935
 20
1325.999499999999
 30
0.0
 11
77.634935
 21
1326.4295
 31
0.0
  0
LINE
  5
6C8
330
1E
100
AcDbEntity
  8
0
100
AcDbLine
 10
77.481635
 20
1343.8895
 30
0.0
 11
77.524135
 21
1344.3295
 31
0.0
  0
LINE
  5
6C9
330
1E
100
AcDbEntity
  8
0
100
AcDbLine
 10
77.62323499999999
 20
1299.5295
 30
0.0
 11
88.42323499999999
 21
1298.669012195119
 31
0.0
  0
LINE
  5
6CA
330
1E
100
AcDbEntity
  8
0
100
AcDbLine
 10
77.92323499999999
 20
1299.50559756098
 30
0.0
 11
77.92323499999999
 21
1297.5595
 31
0.0
  0
LINE
  5
6CB
330
1E
100
AcDbEntity
  8
0
100
AcDbLine
 10
77.92323499999999
 20
1297.5595
 30
0.0
 11
77.92323499999999
 21
1288.469499999999
 31
0.0
  0
LINE
  5
6CC
330
1E
100
AcDbEntity
  8
0
100
AcDbLine
 10
77.92323499999999
 20
1297.5595
 30
0.0
 11
77.92323499999999
 21
1299.50559756098
 31
0.0
  0
LINE
  5
6CD
330
1E
100
AcDbEntity
  8
0
100
AcDbLine
 10
77.92323499999999
 20
1288.469499999999
 30
0.0
 11
77.92323499999999
 21
1276.0795
 31
0.0
  0
LINE
  5
6CE
330
1E
100
AcDbEntity
  8
0
100
AcDbLine
 10
77.92323499999999
 20
1288.469499999999
 30
0.0
 11
77.92323499999999
 21
1297.5595
 31
0.0
  0
LINE
  5
6CF
330
1E
100
AcDbEntity
  8
0
100
AcDbLine
 10
77.92323499999999
 20
1276.0795
 30
0.0
 11
77.92323499999999
 21
1262.7995
 31
0.0
  0
LINE
  5
6D0
330
1E
100
AcDbEntity
  8
0
100
AcDbLine
 10
77.92323499999999
 20
1276.0795
 30
0.0
 11
77.92323499999999
 21
1288.469499999999
 31
0.0
  0
LINE
  5
6D1
330
1E
100
AcDbEntity
  8
0
100
AcDbLine
 10
77.92323499999999
 20
1262.7995
 30
0.0
 11
77.92323499999999
 21
1248.0195
 31
0.0
  0
LINE
  5
6D2
330
1E
100
AcDbEntity
  8
0
100
AcDbLine
 10
77.92323499999999
 20
1262.7995
 30
0.0
 11
77.92323499999999
 21
1276.0795
 31
0.0
  0
LINE
  5
6D3
330
1E
100
AcDbEntity
  8
0
100
AcDbLine
 10
77.92323499999999
 20
1248.0195
 30
0.0
 11
77.92323499999999
 21
1230.9395
 31
0.0
  0
LINE
  5
6D4
330
1E
100
AcDbEntity
  8
0
100
AcDbLine
 10
77.92323499999999
 20
1248.0195
 30
0.0
 11
77.92323499999999
 21
1262.7995
 31
0.0
  0
LINE
  5
6D5
330
1E
100
AcDbEntity
  8
0
100
AcDbLine
 10
77.92323499999999
 20
1230.9395
 30
0.0
 11
77.92323499999999
 21
1217.199499999999
 31
0.0
  0
LINE
  5
6D6
330
1E
100
AcDbEntity
  8
0
100
AcDbLine
 10
77.92323499999999
 20
1230.9395
 30
0.0
 11
77.92323499999999
 21
1248.0195
 31
0.0
  0
LINE
  5
6D7
330
1E
100
AcDbEntity
  8
0
100
AcDbLine
 10
77.92323499999999
 20
1217.199499999999
 30
0.0
 11
77.92323499999999
 21
1202.9395
 31
0.0
  0
LINE
  5
6D8
330
1E
100
AcDbEntity
  8
0
100
AcDbLine
 10
77.92323499999999
 20
1217.199499999999
 30
0.0
 11
77.92323499999999
 21
1230.9395
 31
0.0
  0
LINE
  5
6D9
330
1E
100
AcDbEntity
  8
0
100
AcDbLine
 10
78.184635
 20
1311.6795
 30
0.0
 11
78.94083499999999
 21
1311.6195
 31
0.0
  0
LINE
  5
6DA
330
1E
100
AcDbEntity
  8
0
100
AcDbLine
 10
77.94083499999999
 20
1310.6295
 30
0.0
 11
78.69703499999999
 21
1310.5795
 31
0.0
  0
LINE
  5
6DB
330
1E
100
AcDbEntity
  8
0
100
AcDbLine
 10
78.184635
 20
1333.3895
 30
0.0
 11
78.94083499999999
 21
1333.4395
 31
0.0
  0
LINE
  5
6DD
330
1E
100
AcDbEntity
  8
0
100
AcDbLine
 10
77.94083499999999
 20
1334.4395
 30
0.0
 11
78.69703499999999
 21
1334.4895
 31
0.0
  0
LINE
  5
6DF
330
1E
100
AcDbEntity
  8
0
100
AcDbLine
 10
77.92323499999999
 20
1202.9395
 30
0.0
 11
77.92323499999999
 21
1199.1295
 31
0.0
  0
LINE
  5
6E0
330
1E
100
AcDbEntity
  8
0
100
AcDbLine
 10
77.92323499999999
 20
1202.9395
 30
0.0
 11
77.92323499999999
 21
1217.199499999999
 31
0.0
  0
LINE
  5
6E1
330
1E
100
AcDbEntity
  8
0
100
AcDbLine
 10
77.92323499999999
 20
1199.1295
 30
0.0
 11
78.35523499999999
 21
1197.5895
 31
0.0
  0
LINE
  5
6E2
330
1E
100
AcDbEntity
  8
0
100
AcDbLine
 10
77.92323499999999
 20
1199.1295
 30
0.0
 11
77.92323499999999
 21
1202.9395
 31
0.0
  0
LINE
  5
6E3
330
1E
100
AcDbEntity
  8
0
100
AcDbLine
 10
77.123235
 20
1360.6895
 30
0.0
 11
89.92323499999999
 21
1361.719499999999
 31
0.0
  0
LINE
  5
6E4
330
1E
100
AcDbEntity
  8
0
100
AcDbLine
 10
78.12323499999999
 20
1370.3295
 30
0.0
 11
89.92323499999999
 21
1371.3095
 31
0.0
  0
LINE
  5
6E5
330
1E
100
AcDbEntity
  8
0
100
AcDbLine
 10
78.92323499999999
 20
1194.498642857142
 30
0.0
 11
78.92323499999999
 21
1160.5595
 31
0.0
  0
LINE
  5
6EB
330
1E
100
AcDbEntity
  8
0
100
AcDbLine
 10
80.011235
 20
1193.7895
 30
0.0
 11
81.92323499999998
 21
1193.0495
 31
0.0
  0
LINE
  5
6EE
330
1E
100
AcDbEntity
  8
0
100
AcDbLine
 10
81.92323499999998
 20
1193.0495
 30
0.0
 11
81.92323499999998
 21
1194.382245098039
 31
0.0
  0
LINE
  5
6EF
330
1E
100
AcDbEntity
  8
0
100
AcDbLine
 10
81.92323499999998
 20
1193.0495
 30
0.0
 11
81.92323499999998
 21
1154.9495
 31
0.0
  0
LINE
  5
6F0
330
1E
100
AcDbEntity
  8
0
100
AcDbLine
 10
81.92323499999998
 20
1192.441499999999
 30
0.0
 11
81.92323499999998
 21
1156.8195
 31
0.0
  0
LINE
  5
705
330
1E
100
AcDbEntity
  8
0
100
AcDbLine
 10
89.92323499999999
 20
1192.749499999999
 30
0.0
 11
92.94723499999999
 21
1192.9695
 31
0.0
  0
LINE
  5
70D
330
1E
100
AcDbEntity
  8
0
100
AcDbLine
 10
100.923235
 20
1194.498642857142
 30
0.0
 11
100.923235
 21
1160.5595
 31
0.0
  0
LINE
  5
70F
330
1E
100
AcDbEntity
  8
0
100
AcDbLine
 10
97.923235
 20
1193.0495
 30
0.0
 11
97.923235
 21
1194.382245098039
 31
0.0
  0
LINE
  5
710
330
1E
100
AcDbEntity
  8
0
100
AcDbLine
 10
97.923235
 20
1193.0495
 30
0.0
 11
97.923235
 21
1154.9495
 31
0.0
  0
LINE
  5
711
330
1E
100
AcDbEntity
  8
0
100
AcDbLine
 10
97.923235
 20
1193.0495
 30
0.0
 11
99.835235
 21
1193.7895
 31
0.0
  0
LINE
  5
712
330
1E
100
AcDbEntity
  8
0
100
AcDbLine
 10
97.923235
 20
1192.441499999999
 30
0.0
 11
97.923235
 21
1156.8195
 31
0.0
  0
LINE
  5
715
330
1E
100
AcDbEntity
  8
0
100
AcDbLine
 10
92.94723499999999
 20
1192.9695
 30
0.0
 11
95.73123499999999
 21
1193.5495
 31
0.0
  0
LINE
  5
716
330
1E
100
AcDbEntity
  8
0
100
AcDbLine
 10
95.73123499999999
 20
1193.5495
 30
0.0
 11
98.17923499999999
 21
1194.479499999999
 31
0.0
  0
LINE
  5
717
330
1E
100
AcDbEntity
  8
0
100
AcDbLine
 10
86.899235
 20
1192.9695
 30
0.0
 11
89.92323499999999
 21
1192.749499999999
 31
0.0
  0
LINE
  5
718
330
1E
100
AcDbEntity
  8
0
100
AcDbLine
 10
97.923235
 20
1194.382245098039
 30
0.0
 11
97.923235
 21
1193.0495
 31
0.0
  0
LINE
  5
719
330
1E
100
AcDbEntity
  8
0
100
AcDbLine
 10
99.835235
 20
1193.7895
 30
0.0
 11
102.0752349999999
 21
1195.249499999999
 31
0.0
  0
LINE
  5
71A
330
1E
100
AcDbEntity
  8
0
100
AcDbLine
 10
81.92323499999998
 20
1194.382245098039
 30
0.0
 11
81.92323499999998
 21
1193.0495
 31
0.0
  0
LINE
  5
71B
330
1E
100
AcDbEntity
  8
0
100
AcDbLine
 10
98.17923499999999
 20
1194.479499999999
 30
0.0
 11
100.0512349999999
 21
1195.709499999999
 31
0.0
  0
LINE
  5
71C
330
1E
100
AcDbEntity
  8
0
100
AcDbLine
 10
102.0752349999999
 20
1195.249499999999
 30
0.0
 11
103.419235
 21
1196.899499999999
 31
0.0
  0
LINE
  5
71D
330
1E
100
AcDbEntity
  8
0
100
AcDbLine
 10
100.0512349999999
 20
1195.709499999999
 30
0.0
 11
101.2032349999999
 21
1197.099499999999
 31
0.0
  0
LINE
  5
71E
330
1E
100
AcDbEntity
  8
0
100
AcDbLine
 10
84.11523499999999
 20
1193.5495
 30
0.0
 11
86.899235
 21
1192.9695
 31
0.0
  0
LINE
  5
71F
330
1E
100
AcDbEntity
  8
0
100
AcDbLine
 10
81.66723499999999
 20
1194.479499999999
 30
0.0
 11
84.11523499999999
 21
1193.5495
 31
0.0
  0
LINE
  5
720
330
1E
100
AcDbEntity
  8
0
100
AcDbLine
 10
103.419235
 20
1196.899499999999
 30
0.0
 11
103.923235
 21
1198.6695
 31
0.0
  0
LINE
  5
721
330
1E
100
AcDbEntity
  8
0
100
AcDbLine
 10
101.2032349999999
 20
1197.099499999999
 30
0.0
 11
101.491235
 21
1197.5895
 31
0.0
  0
LINE
  5
722
330
1E
100
AcDbEntity
  8
0
100
AcDbLine
 10
101.2032349999999
 20
1197.099499999999
 30
0.0
 11
101.261131907217
 21
1197.301871134019
 31
0.0
  0
LINE
  5
723
330
1E
100
AcDbEntity
  8
0
100
AcDbLine
 10
79.79523499999999
 20
1195.709499999999
 30
0.0
 11
81.66723499999999
 21
1194.479499999999
 31
0.0
  0
LINE
  5
724
330
1E
100
AcDbEntity
  8
0
100
AcDbLine
 10
78.64323500000001
 20
1197.099499999999
 30
0.0
 11
79.79523499999999
 21
1195.709499999999
 31
0.0
  0
LINE
  5
725
330
1E
100
AcDbEntity
  8
0
100
AcDbLine
 10
101.923235
 20
1202.17857142857
 30
0.0
 11
102.0752349999999
 21
1202.0795
 31
0.0
  0
LINE
  5
726
330
1E
100
AcDbEntity
  8
0
100
AcDbLine
 10
101.923235
 20
1199.1295
 30
0.0
 11
101.923235
 21
1202.9395
 31
0.0
  0
LINE
  5
727
330
1E
100
AcDbEntity
  8
0
100
AcDbLine
 10
101.491235
 20
1197.5895
 30
0.0
 11
101.923235
 21
1199.1295
 31
0.0
  0
LINE
  5
728
330
1E
100
AcDbEntity
  8
0
100
AcDbLine
 10
101.923235
 20
1202.9395
 30
0.0
 11
101.923235
 21
1199.1295
 31
0.0
  0
LINE
  5
729
330
1E
100
AcDbEntity
  8
0
100
AcDbLine
 10
101.923235
 20
1202.9395
 30
0.0
 11
101.923235
 21
1217.199499999999
 31
0.0
  0
LINE
  5
72A
330
1E
100
AcDbEntity
  8
0
100
AcDbLine
 10
101.923235
 20
1217.199499999999
 30
0.0
 11
101.923235
 21
1230.9395
 31
0.0
  0
LINE
  5
72B
330
1E
100
AcDbEntity
  8
0
100
AcDbLine
 10
101.923235
 20
1217.199499999999
 30
0.0
 11
101.923235
 21
1202.9395
 31
0.0
  0
LINE
  5
72C
330
1E
100
AcDbEntity
  8
0
100
AcDbLine
 10
101.923235
 20
1262.7995
 30
0.0
 11
101.923235
 21
1276.0795
 31
0.0
  0
LINE
  5
72D
330
1E
100
AcDbEntity
  8
0
100
AcDbLine
 10
101.923235
 20
1262.7995
 30
0.0
 11
101.923235
 21
1248.0195
 31
0.0
  0
LINE
  5
72E
330
1E
100
AcDbEntity
  8
0
100
AcDbLine
 10
101.923235
 20
1248.0195
 30
0.0
 11
101.923235
 21
1262.7995
 31
0.0
  0
LINE
  5
72F
330
1E
100
AcDbEntity
  8
0
100
AcDbLine
 10
101.923235
 20
1248.0195
 30
0.0
 11
101.923235
 21
1230.9395
 31
0.0
  0
LINE
  5
730
330
1E
100
AcDbEntity
  8
0
100
AcDbLine
 10
101.923235
 20
1230.9395
 30
0.0
 11
101.923235
 21
1248.0195
 31
0.0
  0
LINE
  5
731
330
1E
100
AcDbEntity
  8
0
100
AcDbLine
 10
101.923235
 20
1230.9395
 30
0.0
 11
101.923235
 21
1217.199499999999
 31
0.0
  0
LINE
  5
732
330
1E
100
AcDbEntity
  8
0
100
AcDbLine
 10
101.923235
 20
1276.0795
 30
0.0
 11
101.923235
 21
1288.469499999999
 31
0.0
  0
LINE
  5
733
330
1E
100
AcDbEntity
  8
0
100
AcDbLine
 10
101.923235
 20
1276.0795
 30
0.0
 11
101.923235
 21
1262.7995
 31
0.0
  0
LINE
  5
735
330
1E
100
AcDbEntity
  8
0
100
AcDbLine
 10
78.94083499999999
 20
1311.6195
 30
0.0
 11
79.397035
 21
1311.2695
 31
0.0
  0
LINE
  5
737
330
1E
100
AcDbEntity
  8
0
100
AcDbLine
 10
78.69703499999999
 20
1310.5795
 30
0.0
 11
79.30683499999999
 21
1310.8395
 31
0.0
  0
LINE
  5
739
330
1E
100
AcDbEntity
  8
0
100
AcDbLine
 10
79.15663499999999
 20
1315.8995
 30
0.0
 11
79.43953499999999
 21
1316.2995
 31
0.0
  0
LINE
  5
73A
330
1E
100
AcDbEntity
  8
0
100
AcDbLine
 10
79.15663499999999
 20
1315.8995
 30
0.0
 11
79.43953499999999
 21
1315.489499999999
 31
0.0
  0
LINE
  5
73D
330
1E
100
AcDbEntity
  8
0
100
AcDbLine
 10
78.94083499999999
 20
1333.4395
 30
0.0
 11
79.397035
 21
1333.7895
 31
0.0
  0
LINE
  5
73E
330
1E
100
AcDbEntity
  8
0
100
AcDbLine
 10
78.69703499999999
 20
1334.4895
 30
0.0
 11
79.30683499999999
 21
1334.2295
 31
0.0
  0
LINE
  5
743
330
1E
100
AcDbEntity
  8
0
100
AcDbLine
 10
79.30683499999999
 20
1310.8395
 30
0.0
 11
79.397035
 21
1311.2695
 31
0.0
  0
LINE
  5
745
330
1E
100
AcDbEntity
  8
0
100
AcDbLine
 10
79.43953499999999
 20
1316.2995
 30
0.0
 11
80.14663500000001
 21
1316.4595
 31
0.0
  0
LINE
  5
748
330
1E
100
AcDbEntity
  8
0
100
AcDbLine
 10
80.14663500000001
 20
1316.4595
 30
0.0
 11
80.85373500000001
 21
1316.2995
 31
0.0
  0
LINE
  5
74A
330
1E
100
AcDbEntity
  8
0
100
AcDbLine
 10
80.14663500000001
 20
1315.3295
 30
0.0
 11
80.85373500000001
 21
1315.489499999999
 31
0.0
  0
LINE
  5
74B
330
1E
100
AcDbEntity
  8
0
100
AcDbLine
 10
79.43953499999999
 20
1315.489499999999
 30
0.0
 11
80.14663500000001
 21
1315.3295
 31
0.0
  0
LINE
  5
74C
330
1E
100
AcDbEntity
  8
0
100
AcDbLine
 10
79.43953499999999
 20
1328.3595
 30
0.0
 11
80.14663500000001
 21
1328.1995
 31
0.0
  0
LINE
  5
74D
330
1E
100
AcDbEntity
  8
0
100
AcDbLine
 10
80.85373500000001
 20
1316.2995
 30
0.0
 11
81.13653499999999
 21
1315.8995
 31
0.0
  0
LINE
  5
74E
330
1E
100
AcDbEntity
  8
0
100
AcDbLine
 10
80.85373500000001
 20
1315.489499999999
 30
0.0
 11
81.13653499999999
 21
1315.8995
 31
0.0
  0
LINE
  5
74F
330
1E
100
AcDbEntity
  8
0
100
AcDbLine
 10
80.14663500000001
 20
1328.1995
 30
0.0
 11
80.85373500000001
 21
1328.3595
 31
0.0
  0
LINE
  5
750
330
1E
100
AcDbEntity
  8
0
100
AcDbLine
 10
80.85373500000001
 20
1328.3595
 30
0.0
 11
81.13653499999999
 21
1328.7695
 31
0.0
  0
LINE
  5
753
330
1E
100
AcDbEntity
  8
0
100
AcDbLine
 10
82.58313499999999
 20
1301.5495
 30
0.0
 11
83.32463500000001
 21
1301.6495
 31
0.0
  0
LINE
  5
755
330
1E
100
AcDbEntity
  8
0
100
AcDbLine
 10
82.340035
 20
1300.759499999999
 30
0.0
 11
82.97733499999999
 21
1300.5195
 31
0.0
  0
LINE
  5
756
330
1E
100
AcDbEntity
  8
0
100
AcDbLine
 10
82.16613499999999
 20
1301.179499999999
 30
0.0
 11
82.340035
 21
1300.759499999999
 31
0.0
  0
LINE
  5
757
330
1E
100
AcDbEntity
  8
0
100
AcDbLine
 10
82.16613499999999
 20
1301.179499999999
 30
0.0
 11
82.58313499999999
 21
1301.5495
 31
0.0
  0
LINE
  5
759
330
1E
100
AcDbEntity
  8
0
100
AcDbLine
 10
82.40393500000001
 20
1305.1795
 30
0.0
 11
82.874935
 21
1305.5195
 31
0.0
  0
LINE
  5
75A
330
1E
100
AcDbEntity
  8
0
100
AcDbLine
 10
81.65013499999998
 20
1305.1095
 30
0.0
 11
82.40393500000001
 21
1305.1795
 31
0.0
  0
LINE
  5
75B
330
1E
100
AcDbEntity
  8
0
100
AcDbLine
 10
81.41393499999999
 20
1306.1595
 30
0.0
 11
82.167735
 21
1306.2195
 31
0.0
  0
LINE
  5
761
330
1E
100
AcDbEntity
  8
0
100
AcDbLine
 10
82.589935
 20
1321.8695
 30
0.0
 11
82.856535
 21
1322.9395
 31
0.0
  0
LINE
  5
762
330
1E
100
AcDbEntity
  8
0
100
AcDbLine
 10
82.589935
 20
1321.8695
 30
0.0
 11
82.856535
 21
1320.7995
 31
0.0
  0
LINE
  5
763
330
1E
100
AcDbEntity
  8
0
100
AcDbLine
 10
82.52323500000001
 20
1320.7295
 30
0.0
 11
83.25653499999999
 21
1319.689499999999
 31
0.0
  0
LINE
  5
765
330
1E
100
AcDbEntity
  8
0
100
AcDbLine
 10
82.6696658411215
 20
1322.1895
 30
0.0
 11
88.42323499999999
 21
1322.1895
 31
0.0
  0
LINE
  5
766
330
1E
100
AcDbEntity
  8
0
100
AcDbLine
 10
82.7170060280374
 20
1322.3795
 30
0.0
 11
88.42323499999999
 21
1322.3795
 31
0.0
  0
LINE
  5
767
330
1E
100
AcDbEntity
  8
0
100
AcDbLine
 10
82.52323500000001
 20
1323.0195
 30
0.0
 11
83.25653499999999
 21
1324.0495
 31
0.0
  0
LINE
  5
768
330
1E
100
AcDbEntity
  8
0
100
AcDbLine
 10
82.25653499999999
 20
1321.8695
 30
0.0
 11
82.52323500000001
 21
1323.0195
 31
0.0
  0
LINE
  5
769
330
1E
100
AcDbEntity
  8
0
100
AcDbLine
 10
82.25653499999999
 20
1321.8695
 30
0.0
 11
82.52323500000001
 21
1320.7295
 31
0.0
  0
LINE
  5
76B
330
1E
100
AcDbEntity
  8
0
100
AcDbLine
 10
82.167735
 20
1306.2195
 30
0.0
 11
82.76623499999999
 21
1305.9495
 31
0.0
  0
LINE
  5
76D
330
1E
100
AcDbEntity
  8
0
100
AcDbLine
 10
82.76623499999999
 20
1305.9495
 30
0.0
 11
82.874935
 21
1305.5195
 31
0.0
  0
LINE
  5
76E
330
1E
100
AcDbEntity
  8
0
100
AcDbLine
 10
81.05163500000001
 20
1305.3795
 30
0.0
 11
81.65013499999998
 21
1305.1095
 31
0.0
  0
LINE
  5
76F
330
1E
100
AcDbEntity
  8
0
100
AcDbLine
 10
80.943035
 20
1305.8095
 30
0.0
 11
81.05163500000001
 21
1305.3795
 31
0.0
  0
LINE
  5
770
330
1E
100
AcDbEntity
  8
0
100
AcDbLine
 10
80.943035
 20
1305.8095
 30
0.0
 11
81.41393499999999
 21
1306.1595
 31
0.0
  0
LINE
  5
772
330
1E
100
AcDbEntity
  8
0
100
AcDbLine
 10
80.85373500000001
 20
1329.1695
 30
0.0
 11
81.13653499999999
 21
1328.7695
 31
0.0
  0
LINE
  5
778
330
1E
100
AcDbEntity
  8
0
100
AcDbLine
 10
79.30683499999999
 20
1334.2295
 30
0.0
 11
79.397035
 21
1333.7895
 31
0.0
  0
LINE
  5
77D
330
1E
100
AcDbEntity
  8
0
100
AcDbLine
 10
80.14663500000001
 20
1329.3395
 30
0.0
 11
80.85373500000001
 21
1329.1695
 31
0.0
  0
LINE
  5
77F
330
1E
100
AcDbEntity
  8
0
100
AcDbLine
 10
79.43953499999999
 20
1329.1695
 30
0.0
 11
80.14663500000001
 21
1329.3395
 31
0.0
  0
LINE
  5
781
330
1E
100
AcDbEntity
  8
0
100
AcDbLine
 10
79.15663499999999
 20
1328.7695
 30
0.0
 11
79.43953499999999
 21
1328.3595
 31
0.0
  0
LINE
  5
782
330
1E
100
AcDbEntity
  8
0
100
AcDbLine
 10
79.15663499999999
 20
1328.7695
 30
0.0
 11
79.43953499999999
 21
1329.1695
 31
0.0
  0
LINE
  5
784
330
1E
100
AcDbEntity
  8
0
100
AcDbLine
 10
81.41393499999999
 20
1339.489499999999
 30
0.0
 11
82.167735
 21
1339.419499999999
 31
0.0
  0
LINE
  5
785
330
1E
100
AcDbEntity
  8
0
100
AcDbLine
 10
82.167735
 20
1339.419499999999
 30
0.0
 11
82.76623499999999
 21
1339.6895
 31
0.0
  0
LINE
  5
788
330
1E
100
AcDbEntity
  8
0
100
AcDbLine
 10
83.32463500000001
 20
1301.6495
 30
0.0
 11
83.96183499999999
 21
1301.4095
 31
0.0
  0
LINE
  5
78C
330
1E
100
AcDbEntity
  8
0
100
AcDbLine
 10
83.96183499999999
 20
1301.4095
 30
0.0
 11
84.135735
 21
1300.979499999999
 31
0.0
  0
LINE
  5
78E
330
1E
100
AcDbEntity
  8
0
100
AcDbLine
 10
83.71873499999999
 20
1300.6195
 30
0.0
 11
84.135735
 21
1300.979499999999
 31
0.0
  0
LINE
  5
78F
330
1E
100
AcDbEntity
  8
0
100
AcDbLine
 10
82.97733499999999
 20
1300.5195
 30
0.0
 11
83.71873499999999
 21
1300.6195
 31
0.0
  0
LINE
  5
790
330
1E
100
AcDbEntity
  8
0
100
AcDbLine
 10
83.25653499999999
 20
1319.689499999999
 30
0.0
 11
84.523235
 21
1318.7795
 31
0.0
  0
LINE
  5
791
330
1E
100
AcDbEntity
  8
0
100
AcDbLine
 10
82.856535
 20
1320.7995
 30
0.0
 11
83.589935
 21
1319.7695
 31
0.0
  0
LINE
  5
792
330
1E
100
AcDbEntity
  8
0
100
AcDbLine
 10
82.856535
 20
1322.9395
 30
0.0
 11
83.589935
 21
1323.9795
 31
0.0
  0
LINE
  5
795
330
1E
100
AcDbEntity
  8
0
100
AcDbLine
 10
83.589935
 20
1319.7695
 30
0.0
 11
84.72323499999999
 21
1318.8895
 31
0.0
  0
LINE
  5
796
330
1E
100
AcDbEntity
  8
0
100
AcDbLine
 10
83.589935
 20
1320.075517474309
 30
0.0
 11
88.70753499999999
 21
1321.7695
 31
0.0
  0
LINE
  5
797
330
1E
100
AcDbEntity
  8
0
100
AcDbLine
 10
83.589935
 20
1323.9795
 30
0.0
 11
84.72323499999999
 21
1324.8595
 31
0.0
  0
LINE
  5
798
330
1E
100
AcDbEntity
  8
0
100
AcDbLine
 10
83.589935
 20
1320.3006654895
 30
0.0
 11
88.54083499999999
 21
1321.9395
 31
0.0
  0
LINE
  5
799
330
1E
100
AcDbEntity
  8
0
100
AcDbLine
 10
84.25653500000001
 20
1322.3795
 30
0.0
 11
84.25653500000001
 21
1322.2795
 31
0.0
  0
LINE
  5
79A
330
1E
100
AcDbEntity
  8
0
100
AcDbLine
 10
84.456535
 20
1321.4395
 30
0.0
 11
84.989935
 21
1320.6795
 31
0.0
  0
LINE
  5
79B
330
1E
100
AcDbEntity
  8
0
100
AcDbLine
 10
84.78993499999999
 20
1321.479499999999
 30
0.0
 11
85.323235
 21
1320.7495
 31
0.0
  0
LINE
  5
79C
330
1E
100
AcDbEntity
  8
0
100
AcDbLine
 10
84.72323499999999
 20
1318.8895
 30
0.0
 11
86.256535
 21
1318.2395
 31
0.0
  0
LINE
  5
79D
330
1E
100
AcDbEntity
  8
0
100
AcDbLine
 10
84.78993499999999
 20
1323.0895
 30
0.0
 11
85.323235
 21
1323.8095
 31
0.0
  0
LINE
  5
79E
330
1E
100
AcDbEntity
  8
0
100
AcDbLine
 10
84.589935
 20
1322.2795
 30
0.0
 11
84.78993499999999
 21
1323.0895
 31
0.0
  0
LINE
  5
79F
330
1E
100
AcDbEntity
  8
0
100
AcDbLine
 10
84.589935
 20
1322.2795
 30
0.0
 11
84.78993499999999
 21
1321.479499999999
 31
0.0
  0
LINE
  5
7A0
330
1E
100
AcDbEntity
  8
0
100
AcDbLine
 10
84.456535
 20
1323.1295
 30
0.0
 11
84.989935
 21
1323.889499999999
 31
0.0
  0
LINE
  5
7A1
330
1E
100
AcDbEntity
  8
0
100
AcDbLine
 10
84.25653500000001
 20
1322.2795
 30
0.0
 11
84.456535
 21
1323.1295
 31
0.0
  0
LINE
  5
7A2
330
1E
100
AcDbEntity
  8
0
100
AcDbLine
 10
84.25653500000001
 20
1322.2795
 30
0.0
 11
84.456535
 21
1321.4395
 31
0.0
  0
LINE
  5
7A3
330
1E
100
AcDbEntity
  8
0
100
AcDbLine
 10
84.25653500000001
 20
1322.2795
 30
0.0
 11
84.25653500000001
 21
1322.3795
 31
0.0
  0
LINE
  5
7A4
330
1E
100
AcDbEntity
  8
0
100
AcDbLine
 10
84.05402566742798
 20
1324.33986335245
 30
0.0
 11
88.70753499999999
 21
1322.7995
 31
0.0
  0
LINE
  5
7A5
330
1E
100
AcDbEntity
  8
0
100
AcDbLine
 10
83.85073108357699
 20
1324.1820064445
 30
0.0
 11
88.54083499999999
 21
1322.6295
 31
0.0
  0
LINE
  5
7A6
330
1E
100
AcDbEntity
  8
0
100
AcDbLine
 10
84.523235
 20
1318.7795
 30
0.0
 11
86.123235
 21
1318.0495
 31
0.0
  0
LINE
  5
7A7
330
1E
100
AcDbEntity
  8
0
100
AcDbLine
 10
83.25653499999999
 20
1324.0495
 30
0.0
 11
84.523235
 21
1324.969499999999
 31
0.0
  0
LINE
  5
7A8
330
1E
100
AcDbEntity
  8
0
100
AcDbLine
 10
84.72323499999999
 20
1324.8595
 30
0.0
 11
86.256535
 21
1325.509499999999
 31
0.0
  0
LINE
  5
7A9
330
1E
100
AcDbEntity
  8
0
100
AcDbLine
 10
84.523235
 20
1324.969499999999
 30
0.0
 11
86.123235
 21
1325.6995
 31
0.0
  0
LINE
  5
7AD
330
1E
100
AcDbEntity
  8
0
100
AcDbLine
 10
84.95063499999998
 20
1309.6595
 30
0.0
 11
85.12453499999999
 21
1309.2395
 31
0.0
  0
LINE
  5
7AE
330
1E
100
AcDbEntity
  8
0
100
AcDbLine
 10
84.95063499999998
 20
1309.6595
 30
0.0
 11
85.36763499999999
 21
1310.0295
 31
0.0
  0
LINE
  5
7B0
330
1E
100
AcDbEntity
  8
0
100
AcDbLine
 10
82.76623499999999
 20
1339.6895
 30
0.0
 11
82.874935
 21
1340.1295
 31
0.0
  0
LINE
  5
7B1
330
1E
100
AcDbEntity
  8
0
100
AcDbLine
 10
82.40393500000001
 20
1340.4695
 30
0.0
 11
82.874935
 21
1340.1295
 31
0.0
  0
LINE
  5
7B3
330
1E
100
AcDbEntity
  8
0
100
AcDbLine
 10
81.65013499999998
 20
1340.5295
 30
0.0
 11
82.40393500000001
 21
1340.4695
 31
0.0
  0
LINE
  5
7B5
330
1E
100
AcDbEntity
  8
0
100
AcDbLine
 10
81.05163500000001
 20
1340.2595
 30
0.0
 11
81.65013499999998
 21
1340.5295
 31
0.0
  0
LINE
  5
7B7
330
1E
100
AcDbEntity
  8
0
100
AcDbLine
 10
80.943035
 20
1339.8295
 30
0.0
 11
81.05163500000001
 21
1340.2595
 31
0.0
  0
LINE
  5
7B8
330
1E
100
AcDbEntity
  8
0
100
AcDbLine
 10
80.943035
 20
1339.8295
 30
0.0
 11
81.41393499999999
 21
1339.489499999999
 31
0.0
  0
LINE
  5
7B9
330
1E
100
AcDbEntity
  8
0
100
AcDbLine
 10
85.36763499999999
 20
1310.0295
 30
0.0
 11
86.109135
 21
1310.1295
 31
0.0
  0
LINE
  5
7BA
330
1E
100
AcDbEntity
  8
0
100
AcDbLine
 10
85.76183499999999
 20
1308.9995
 30
0.0
 11
86.503235
 21
1309.0995
 31
0.0
  0
LINE
  5
7BB
330
1E
100
AcDbEntity
  8
0
100
AcDbLine
 10
85.12453499999999
 20
1309.2395
 30
0.0
 11
85.76183499999999
 21
1308.9995
 31
0.0
  0
LINE
  5
7BC
330
1E
100
AcDbEntity
  8
0
100
AcDbLine
 10
84.989935
 20
1320.6795
 30
0.0
 11
85.92323499999999
 21
1319.9895
 31
0.0
  0
LINE
  5
7BD
330
1E
100
AcDbEntity
  8
0
100
AcDbLine
 10
85.323235
 20
1320.7495
 30
0.0
 11
86.189935
 21
1320.1395
 31
0.0
  0
LINE
  5
7BE
330
1E
100
AcDbEntity
  8
0
100
AcDbLine
 10
85.323235
 20
1323.8095
 30
0.0
 11
86.189935
 21
1324.429499999999
 31
0.0
  0
LINE
  5
7BF
330
1E
100
AcDbEntity
  8
0
100
AcDbLine
 10
84.989935
 20
1323.889499999999
 30
0.0
 11
85.92323499999999
 21
1324.5795
 31
0.0
  0
LINE
  5
7C1
330
1E
100
AcDbEntity
  8
0
100
AcDbLine
 10
85.82883499999999
 20
1313.5795
 30
0.0
 11
85.85273499999999
 21
1314.0195
 31
0.0
  0
LINE
  5
7C2
330
1E
100
AcDbEntity
  8
0
100
AcDbLine
 10
85.82883499999999
 20
1313.5795
 30
0.0
 11
86.33643499999999
 21
1313.2595
 31
0.0
  0
LINE
  5
7C6
330
1E
100
AcDbEntity
  8
0
100
AcDbLine
 10
85.92323499999999
 20
1319.9895
 30
0.0
 11
87.123235
 21
1319.4495
 31
0.0
  0
LINE
  5
7C7
330
1E
100
AcDbEntity
  8
0
100
AcDbLine
 10
85.92323499999999
 20
1324.5795
 30
0.0
 11
87.123235
 21
1325.1095
 31
0.0
  0
LINE
  5
7C8
330
1E
100
AcDbEntity
  8
0
100
AcDbLine
 10
86.028935
 20
1318.609499999999
 30
0.0
 11
89.02893500000001
 21
1321.5895
 31
0.0
  0
LINE
  5
7C9
330
1E
100
AcDbEntity
  8
0
100
AcDbLine
 10
86.109135
 20
1310.1295
 30
0.0
 11
86.746335
 21
1309.8895
 31
0.0
  0
LINE
  5
7CA
330
1E
100
AcDbEntity
  8
0
100
AcDbLine
 10
85.85273499999999
 20
1314.0195
 30
0.0
 11
86.42053500000001
 21
1314.3095
 31
0.0
  0
LINE
  5
7CC
330
1E
100
AcDbEntity
  8
0
100
AcDbLine
 10
85.85273499999999
 20
1330.6495
 30
0.0
 11
86.42053500000001
 21
1330.3495
 31
0.0
  0
LINE
  5
7CD
330
1E
100
AcDbEntity
  8
0
100
AcDbLine
 10
85.82883499999999
 20
1331.0795
 30
0.0
 11
85.85273499999999
 21
1330.6495
 31
0.0
  0
LINE
  5
7CE
330
1E
100
AcDbEntity
  8
0
100
AcDbLine
 10
85.82883499999999
 20
1331.0795
 30
0.0
 11
86.33643499999999
 21
1331.4095
 31
0.0
  0
LINE
  5
7D0
330
1E
100
AcDbEntity
  8
0
100
AcDbLine
 10
85.36763499999999
 20
1335.0395
 30
0.0
 11
86.109135
 21
1334.939499999999
 31
0.0
  0
LINE
  5
7D1
330
1E
100
AcDbEntity
  8
0
100
AcDbLine
 10
86.189935
 20
1320.1395
 30
0.0
 11
87.25653499999999
 21
1319.6495
 31
0.0
  0
LINE
  5
7D2
330
1E
100
AcDbEntity
  8
0
100
AcDbLine
 10
86.189935
 20
1324.429499999999
 30
0.0
 11
87.25653499999999
 21
1324.9195
 31
0.0
  0
LINE
  5
7D3
330
1E
100
AcDbEntity
  8
0
100
AcDbLine
 10
86.123235
 20
1318.0495
 30
0.0
 11
87.923235
 21
1317.6295
 31
0.0
  0
LINE
  5
7D4
330
1E
100
AcDbEntity
  8
0
100
AcDbLine
 10
86.123235
 20
1325.6995
 30
0.0
 11
87.923235
 21
1326.1195
 31
0.0
  0
LINE
  5
7D6
330
1E
100
AcDbEntity
  8
0
100
AcDbLine
 10
86.228235
 20
1305.1795
 30
0.0
 11
86.46613499999999
 21
1304.7595
 31
0.0
  0
LINE
  5
7D8
330
1E
100
AcDbEntity
  8
0
100
AcDbLine
 10
86.228235
 20
1305.1795
 30
0.0
 11
86.58813499999999
 21
1305.5595
 31
0.0
  0
LINE
  5
7DA
330
1E
100
AcDbEntity
  8
0
100
AcDbLine
 10
86.109135
 20
1334.939499999999
 30
0.0
 11
86.746335
 21
1335.179499999999
 31
0.0
  0
LINE
  5
7DD
330
1E
100
AcDbEntity
  8
0
100
AcDbLine
 10
85.76183499999999
 20
1336.0695
 30
0.0
 11
86.503235
 21
1335.9695
 31
0.0
  0
LINE
  5
7DF
330
1E
100
AcDbEntity
  8
0
100
AcDbLine
 10
85.12453499999999
 20
1335.8295
 30
0.0
 11
85.76183499999999
 21
1336.0695
 31
0.0
  0
LINE
  5
7E1
330
1E
100
AcDbEntity
  8
0
100
AcDbLine
 10
84.95063499999998
 20
1335.4095
 30
0.0
 11
85.12453499999999
 21
1335.8295
 31
0.0
  0
LINE
  5
7E2
330
1E
100
AcDbEntity
  8
0
100
AcDbLine
 10
84.95063499999998
 20
1335.4095
 30
0.0
 11
85.36763499999999
 21
1335.0395
 31
0.0
  0
LINE
  5
7E7
330
1E
100
AcDbEntity
  8
0
100
AcDbLine
 10
82.58313499999999
 20
1344.6795
 30
0.0
 11
83.32463500000001
 21
1344.5695
 31
0.0
  0
LINE
  5
7E8
330
1E
100
AcDbEntity
  8
0
100
AcDbLine
 10
83.32463500000001
 20
1344.5695
 30
0.0
 11
83.96183499999999
 21
1344.8095
 31
0.0
  0
LINE
  5
7EA
330
1E
100
AcDbEntity
  8
0
100
AcDbLine
 10
83.96183499999999
 20
1344.8095
 30
0.0
 11
84.135735
 21
1345.239499999999
 31
0.0
  0
LINE
  5
7ED
330
1E
100
AcDbEntity
  8
0
100
AcDbLine
 10
83.71873499999999
 20
1345.5995
 30
0.0
 11
84.135735
 21
1345.239499999999
 31
0.0
  0
LINE
  5
7EF
330
1E
100
AcDbEntity
  8
0
100
AcDbLine
 10
82.97733499999999
 20
1345.6995
 30
0.0
 11
83.71873499999999
 21
1345.5995
 31
0.0
  0
LINE
  5
7F1
330
1E
100
AcDbEntity
  8
0
100
AcDbLine
 10
82.340035
 20
1345.4695
 30
0.0
 11
82.97733499999999
 21
1345.6995
 31
0.0
  0
LINE
  5
7F3
330
1E
100
AcDbEntity
  8
0
100
AcDbLine
 10
82.16613499999999
 20
1345.0395
 30
0.0
 11
82.340035
 21
1345.4695
 31
0.0
  0
LINE
  5
7F4
330
1E
100
AcDbEntity
  8
0
100
AcDbLine
 10
82.16613499999999
 20
1345.0395
 30
0.0
 11
82.58313499999999
 21
1344.6795
 31
0.0
  0
LINE
  5
7F7
330
1E
100
AcDbEntity
  8
0
100
AcDbLine
 10
86.256535
 20
1318.2395
 30
0.0
 11
88.056535
 21
1317.8195
 31
0.0
  0
LINE
  5
7F8
330
1E
100
AcDbEntity
  8
0
100
AcDbLine
 10
86.256535
 20
1325.509499999999
 30
0.0
 11
88.056535
 21
1325.929499999999
 31
0.0
  0
LINE
  5
7F9
330
1E
100
AcDbEntity
  8
0
100
AcDbLine
 10
86.256535
 20
1322.3795
 30
0.0
 11
86.256535
 21
1322.2795
 31
0.0
  0
LINE
  5
7FA
330
1E
100
AcDbEntity
  8
0
100
AcDbLine
 10
86.256535
 20
1322.2795
 30
0.0
 11
86.38993499999999
 21
1322.8195
 31
0.0
  0
LINE
  5
7FB
330
1E
100
AcDbEntity
  8
0
100
AcDbLine
 10
86.256535
 20
1322.2795
 30
0.0
 11
86.38993499999999
 21
1321.7495
 31
0.0
  0
LINE
  5
7FC
330
1E
100
AcDbEntity
  8
0
100
AcDbLine
 10
86.256535
 20
1322.2795
 30
0.0
 11
86.256535
 21
1322.3795
 31
0.0
  0
LINE
  5
7FD
330
1E
100
AcDbEntity
  8
0
100
AcDbLine
 10
86.317535
 20
1318.5095
 30
0.0
 11
89.31753499999999
 21
1321.489499999999
 31
0.0
  0
LINE
  5
7FE
330
1E
100
AcDbEntity
  8
0
100
AcDbLine
 10
86.33643499999999
 20
1313.2595
 30
0.0
 11
87.09763499999999
 21
1313.239499999999
 31
0.0
  0
LINE
  5
7FF
330
1E
100
AcDbEntity
  8
0
100
AcDbLine
 10
86.38993499999999
 20
1321.7495
 30
0.0
 11
86.723235
 21
1321.249499999999
 31
0.0
  0
LINE
  5
800
330
1E
100
AcDbEntity
  8
0
100
AcDbLine
 10
86.38993499999999
 20
1322.8195
 30
0.0
 11
86.723235
 21
1323.3195
 31
0.0
  0
LINE
  5
802
330
1E
100
AcDbEntity
  8
0
100
AcDbLine
 10
86.46613499999999
 20
1304.7595
 30
0.0
 11
87.137335
 21
1304.5595
 31
0.0
  0
LINE
  5
804
330
1E
100
AcDbEntity
  8
0
100
AcDbLine
 10
86.43907630434799
 20
1325.55209297101
 30
0.0
 11
89.02893500000001
 21
1322.979499999999
 31
0.0
  0
LINE
  5
805
330
1E
100
AcDbEntity
  8
0
100
AcDbLine
 10
86.503235
 20
1309.0995
 30
0.0
 11
86.92023499999999
 21
1309.459499999999
 31
0.0
  0
LINE
  5
806
330
1E
100
AcDbEntity
  8
0
100
AcDbLine
 10
86.42053500000001
 20
1314.3095
 30
0.0
 11
87.181735
 21
1314.2995
 31
0.0
  0
LINE
  5
808
330
1E
100
AcDbEntity
  8
0
100
AcDbLine
 10
86.42053500000001
 20
1330.3495
 30
0.0
 11
87.181735
 21
1330.3695
 31
0.0
  0
LINE
  5
809
330
1E
100
AcDbEntity
  8
0
100
AcDbLine
 10
86.33643499999999
 20
1331.4095
 30
0.0
 11
87.09763499999999
 21
1331.419499999999
 31
0.0
  0
LINE
  5
80D
330
1E
100
AcDbEntity
  8
0
100
AcDbLine
 10
86.58813499999999
 20
1305.5595
 30
0.0
 11
87.31163499999999
 21
1305.6995
 31
0.0
  0
LINE
  5
80F
330
1E
100
AcDbEntity
  8
0
100
AcDbLine
 10
86.723235
 20
1321.7895
 30
0.0
 11
87.056535
 21
1321.3295
 31
0.0
  0
LINE
  5
810
330
1E
100
AcDbEntity
  8
0
100
AcDbLine
 10
86.723235
 20
1321.249499999999
 30
0.0
 11
87.32323499999999
 21
1320.7895
 31
0.0
  0
LINE
  5
811
330
1E
100
AcDbEntity
  8
0
100
AcDbLine
 10
86.723235
 20
1322.7795
 30
0.0
 11
87.056535
 21
1323.239499999999
 31
0.0
  0
LINE
  5
812
330
1E
100
AcDbEntity
  8
0
100
AcDbLine
 10
86.58993499999999
 20
1322.2795
 30
0.0
 11
86.723235
 21
1322.7795
 31
0.0
  0
LINE
  5
813
330
1E
100
AcDbEntity
  8
0
100
AcDbLine
 10
86.58993499999999
 20
1322.2795
 30
0.0
 11
86.723235
 21
1321.7895
 31
0.0
  0
LINE
  5
814
330
1E
100
AcDbEntity
  8
0
100
AcDbLine
 10
86.723235
 20
1323.3195
 30
0.0
 11
87.32323499999999
 21
1323.7795
 31
0.0
  0
LINE
  5
815
330
1E
100
AcDbEntity
  8
0
100
AcDbLine
 10
87.056535
 20
1321.3295
 30
0.0
 11
87.589935
 21
1320.9395
 31
0.0
  0
LINE
  5
816
330
1E
100
AcDbEntity
  8
0
100
AcDbLine
 10
87.056535
 20
1323.239499999999
 30
0.0
 11
87.589935
 21
1323.6195
 31
0.0
  0
LINE
  5
817
330
1E
100
AcDbEntity
  8
0
100
AcDbLine
 10
86.75430130434792
 20
1325.62564547101
 30
0.0
 11
89.31753499999999
 21
1323.0795
 31
0.0
  0
LINE
  5
818
330
1E
100
AcDbEntity
  8
0
100
AcDbLine
 10
86.746335
 20
1309.8895
 30
0.0
 11
86.92023499999999
 21
1309.459499999999
 31
0.0
  0
LINE
  5
819
330
1E
100
AcDbEntity
  8
0
100
AcDbLine
 10
87.09763499999999
 20
1313.239499999999
 30
0.0
 11
87.66533499999999
 21
1313.5295
 31
0.0
  0
LINE
  5
81B
330
1E
100
AcDbEntity
  8
0
100
AcDbLine
 10
87.123235
 20
1319.4495
 30
0.0
 11
88.456535
 21
1319.149499999999
 31
0.0
  0
LINE
  5
81C
330
1E
100
AcDbEntity
  8
0
100
AcDbLine
 10
87.123235
 20
1325.1095
 30
0.0
 11
88.456535
 21
1325.419499999999
 31
0.0
  0
LINE
  5
81D
330
1E
100
AcDbEntity
  8
0
100
AcDbLine
 10
87.137335
 20
1304.5595
 30
0.0
 11
87.860835
 21
1304.6895
 31
0.0
  0
LINE
  5
823
330
1E
100
AcDbEntity
  8
0
100
AcDbLine
 10
87.181735
 20
1314.2995
 30
0.0
 11
87.68933500000001
 21
1313.9695
 31
0.0
  0
LINE
  5
824
330
1E
100
AcDbEntity
  8
0
100
AcDbLine
 10
87.181735
 20
1330.3695
 30
0.0
 11
87.68933500000001
 21
1330.6895
 31
0.0
  0
LINE
  5
825
330
1E
100
AcDbEntity
  8
0
100
AcDbLine
 10
87.09763499999999
 20
1331.419499999999
 30
0.0
 11
87.66533499999999
 21
1331.1295
 31
0.0
  0
LINE
  5
827
330
1E
100
AcDbEntity
  8
0
100
AcDbLine
 10
86.746335
 20
1335.179499999999
 30
0.0
 11
86.92023499999999
 21
1335.5995
 31
0.0
  0
LINE
  5
828
330
1E
100
AcDbEntity
  8
0
100
AcDbLine
 10
86.503235
 20
1335.9695
 30
0.0
 11
86.92023499999999
 21
1335.5995
 31
0.0
  0
LINE
  5
82A
330
1E
100
AcDbEntity
  8
0
100
AcDbLine
 10
86.58813499999999
 20
1340.0795
 30
0.0
 11
87.31163499999999
 21
1339.9395
 31
0.0
  0
LINE
  5
82C
330
1E
100
AcDbEntity
  8
0
100
AcDbLine
 10
87.25653499999999
 20
1319.6495
 30
0.0
 11
88.523235
 21
1319.3395
 31
0.0
  0
LINE
  5
82D
330
1E
100
AcDbEntity
  8
0
100
AcDbLine
 10
87.25653499999999
 20
1324.9195
 30
0.0
 11
88.523235
 21
1325.2295
 31
0.0
  0
LINE
  5
82F
330
1E
100
AcDbEntity
  8
0
100
AcDbLine
 10
87.31163499999999
 20
1305.6995
 30
0.0
 11
87.982835
 21
1305.4895
 31
0.0
  0
LINE
  5
831
330
1E
100
AcDbEntity
  8
0
100
AcDbLine
 10
87.32323499999999
 20
1320.7895
 30
0.0
 11
88.12323499999999
 21
1320.4495
 31
0.0
  0
LINE
  5
832
330
1E
100
AcDbEntity
  8
0
100
AcDbLine
 10
87.589935
 20
1320.9395
 30
0.0
 11
88.25653499999999
 21
1320.6395
 31
0.0
  0
LINE
  5
833
330
1E
100
AcDbEntity
  8
0
100
AcDbLine
 10
87.589935
 20
1323.6195
 30
0.0
 11
88.25653499999999
 21
1323.9295
 31
0.0
  0
LINE
  5
834
330
1E
100
AcDbEntity
  8
0
100
AcDbLine
 10
87.32323499999999
 20
1323.7795
 30
0.0
 11
88.12323499999999
 21
1324.1195
 31
0.0
  0
LINE
  5
837
330
1E
100
AcDbEntity
  8
0
100
AcDbLine
 10
87.66533499999999
 20
1313.5295
 30
0.0
 11
87.68933500000001
 21
1313.9695
 31
0.0
  0
LINE
  5
838
330
1E
100
AcDbEntity
  8
0
100
AcDbLine
 10
88.42323499999999
 20
1293.459499999999
 30
0.0
 11
88.42323499999999
 21
1295.0995
 31
0.0
  0
LINE
  5
839
330
1E
100
AcDbEntity
  8
0
100
AcDbLine
 10
88.42323499999999
 20
1293.459499999999
 30
0.0
 11
88.42323499999999
 21
1292.6695
 31
0.0
  0
LINE
  5
83A
330
1E
100
AcDbEntity
  8
0
100
AcDbLine
 10
88.42323499999999
 20
1292.6695
 30
0.0
 11
88.42323499999999
 21
1293.459499999999
 31
0.0
  0
LINE
  5
83B
330
1E
100
AcDbEntity
  8
0
100
AcDbLine
 10
88.42323499999999
 20
1292.6295
 30
0.0
 11
88.42323499999999
 21
1293.5595
 31
0.0
  0
LINE
  5
83C
330
1E
100
AcDbEntity
  8
0
100
AcDbLine
 10
88.42323499999999
 20
1292.6295
 30
0.0
 11
91.42323499999999
 21
1292.6295
 31
0.0
  0
LINE
  5
83D
330
1E
100
AcDbEntity
  8
0
100
AcDbLine
 10
88.42323499999999
 20
1293.5595
 30
0.0
 11
88.42323499999999
 21
1292.6295
 31
0.0
  0
LINE
  5
83E
330
1E
100
AcDbEntity
  8
0
100
AcDbLine
 10
88.42323499999999
 20
1293.5595
 30
0.0
 11
88.42323499999999
 21
1294.8795
 31
0.0
  0
LINE
  5
83F
330
1E
100
AcDbEntity
  8
0
100
AcDbLine
 10
88.42323499999999
 20
1295.0995
 30
0.0
 11
88.42323499999999
 21
1296.259499999999
 31
0.0
  0
LINE
  5
840
330
1E
100
AcDbEntity
  8
0
100
AcDbLine
 10
88.42323499999999
 20
1295.0995
 30
0.0
 11
88.42323499999999
 21
1293.459499999999
 31
0.0
  0
LINE
  5
841
330
1E
100
AcDbEntity
  8
0
100
AcDbLine
 10
88.42323499999999
 20
1296.259499999999
 30
0.0
 11
88.42323499999999
 21
1297.5795
 31
0.0
  0
LINE
  5
842
330
1E
100
AcDbEntity
  8
0
100
AcDbLine
 10
88.42323499999999
 20
1296.259499999999
 30
0.0
 11
88.42323499999999
 21
1295.0995
 31
0.0
  0
LINE
  5
843
330
1E
100
AcDbEntity
  8
0
100
AcDbLine
 10
88.42323499999999
 20
1297.5795
 30
0.0
 11
88.42323499999999
 21
1298.669012195119
 31
0.0
  0
LINE
  5
844
330
1E
100
AcDbEntity
  8
0
100
AcDbLine
 10
88.42323499999999
 20
1297.5795
 30
0.0
 11
88.42323499999999
 21
1296.259499999999
 31
0.0
  0
LINE
  5
845
330
1E
100
AcDbEntity
  8
0
100
AcDbLine
 10
88.42323499999999
 20
1294.8795
 30
0.0
 11
88.42323499999999
 21
1293.5595
 31
0.0
  0
LINE
  5
846
330
1E
100
AcDbEntity
  8
0
100
AcDbLine
 10
88.42323499999999
 20
1294.8795
 30
0.0
 11
88.42323499999999
 21
1296.1895
 31
0.0
  0
LINE
  5
847
330
1E
100
AcDbEntity
  8
0
100
AcDbLine
 10
88.42323499999999
 20
1296.1895
 30
0.0
 11
88.42323499999999
 21
1294.8795
 31
0.0
  0
LINE
  5
848
330
1E
100
AcDbEntity
  8
0
100
AcDbLine
 10
88.42323499999999
 20
1296.1895
 30
0.0
 11
88.42323499999999
 21
1298.0695
 31
0.0
  0
LINE
  5
849
330
1E
100
AcDbEntity
  8
0
100
AcDbLine
 10
88.42323499999999
 20
1298.669012195119
 30
0.0
 11
88.42323499999999
 21
1297.5795
 31
0.0
  0
LINE
  5
84A
330
1E
100
AcDbEntity
  8
0
100
AcDbLine
 10
88.42323499999999
 20
1298.0695
 30
0.0
 11
88.42323499999999
 21
1296.1895
 31
0.0
  0
LINE
  5
84B
330
1E
100
AcDbEntity
  8
0
100
AcDbLine
 10
88.42323499999999
 20
1298.0695
 30
0.0
 11
88.42323499999999
 21
1300.35006074766
 31
0.0
  0
LINE
  5
84C
330
1E
100
AcDbEntity
  8
0
100
AcDbLine
 10
88.42323499999999
 20
1300.35006074766
 30
0.0
 11
88.42323499999999
 21
1298.0695
 31
0.0
  0
LINE
  5
84D
330
1E
100
AcDbEntity
  8
0
100
AcDbLine
 10
87.923235
 20
1317.6295
 30
0.0
 11
89.92323499999999
 21
1317.4795
 31
0.0
  0
LINE
  5
84E
330
1E
100
AcDbEntity
  8
0
100
AcDbLine
 10
87.923235
 20
1326.1195
 30
0.0
 11
89.92323499999999
 21
1326.2695
 31
0.0
  0
LINE
  5
84F
330
1E
100
AcDbEntity
  8
0
100
AcDbLine
 10
88.25653499999999
 20
1320.6395
 30
0.0
 11
89.05653499999999
 21
1320.4495
 31
0.0
  0
LINE
  5
850
330
1E
100
AcDbEntity
  8
0
100
AcDbLine
 10
88.12323499999999
 20
1320.4495
 30
0.0
 11
88.98993500000001
 21
1320.259499999999
 31
0.0
  0
LINE
  5
851
330
1E
100
AcDbEntity
  8
0
100
AcDbLine
 10
88.056535
 20
1317.8195
 30
0.0
 11
89.92323499999999
 21
1317.6695
 31
0.0
  0
LINE
  5
852
330
1E
100
AcDbEntity
  8
0
100
AcDbLine
 10
88.32323499999999
 20
1322.0495
 30
0.0
 11
88.456535
 21
1321.8195
 31
0.0
  0
LINE
  5
853
330
1E
100
AcDbEntity
  8
0
100
AcDbLine
 10
88.25653499999999
 20
1322.2795
 30
0.0
 11
88.32323499999999
 21
1322.5095
 31
0.0
  0
LINE
  5
854
330
1E
100
AcDbEntity
  8
0
100
AcDbLine
 10
88.25653499999999
 20
1322.2795
 30
0.0
 11
88.32323499999999
 21
1322.0495
 31
0.0
  0
LINE
  5
855
330
1E
100
AcDbEntity
  8
0
100
AcDbLine
 10
88.25653499999999
 20
1322.2795
 30
0.0
 11
88.25653499999999
 21
1322.3795
 31
0.0
  0
LINE
  5
856
330
1E
100
AcDbEntity
  8
0
100
AcDbLine
 10
88.25653499999999
 20
1322.3795
 30
0.0
 11
88.25653499999999
 21
1322.2795
 31
0.0
  0
LINE
  5
857
330
1E
100
AcDbEntity
  8
0
100
AcDbLine
 10
88.42323499999999
 20
1322.2795
 30
0.0
 11
88.42323499999999
 21
1322.1895
 31
0.0
  0
LINE
  5
858
330
1E
100
AcDbEntity
  8
0
100
AcDbLine
 10
88.456535
 20
1321.8195
 30
0.0
 11
88.723235
 21
1321.5895
 31
0.0
  0
LINE
  5
859
330
1E
100
AcDbEntity
  8
0
100
AcDbLine
 10
88.523235
 20
1319.3395
 30
0.0
 11
89.92323499999999
 21
1319.219499999999
 31
0.0
  0
LINE
  5
85A
330
1E
100
AcDbEntity
  8
0
100
AcDbLine
 10
88.456535
 20
1319.149499999999
 30
0.0
 11
89.92323499999999
 21
1319.0295
 31
0.0
  0
LINE
  5
85B
330
1E
100
AcDbEntity
  8
0
100
AcDbLine
 10
88.70753499999999
 20
1321.879727954409
 30
0.0
 11
88.70753499999999
 21
1321.7695
 31
0.0
  0
LINE
  5
85C
330
1E
100
AcDbEntity
  8
0
100
AcDbLine
 10
88.78993499999999
 20
1321.8995
 30
0.0
 11
88.98993500000001
 21
1321.7495
 31
0.0
  0
LINE
  5
85D
330
1E
100
AcDbEntity
  8
0
100
AcDbLine
 10
88.723235
 20
1321.5895
 30
0.0
 11
89.12323499999999
 21
1321.4395
 31
0.0
  0
LINE
  5
85E
330
1E
100
AcDbEntity
  8
0
100
AcDbLine
 10
88.70753499999999
 20
1321.7695
 30
0.0
 11
88.70753499999999
 21
1321.879727954409
 31
0.0
  0
LINE
  5
85F
330
1E
100
AcDbEntity
  8
0
100
AcDbLine
 10
88.65653499999998
 20
1322.0895
 30
0.0
 11
88.78993499999999
 21
1321.8995
 31
0.0
  0
LINE
  5
860
330
1E
100
AcDbEntity
  8
0
100
AcDbLine
 10
88.589935
 20
1322.2795
 30
0.0
 11
88.65653499999998
 21
1322.469499999999
 31
0.0
  0
LINE
  5
861
330
1E
100
AcDbEntity
  8
0
100
AcDbLine
 10
88.589935
 20
1322.2795
 30
0.0
 11
88.589935
 21
1322.437865
 31
0.0
  0
LINE
  5
862
330
1E
100
AcDbEntity
  8
0
100
AcDbLine
 10
88.589935
 20
1322.2795
 30
0.0
 11
88.65653499999998
 21
1322.0895
 31
0.0
  0
LINE
  5
863
330
1E
100
AcDbEntity
  8
0
100
AcDbLine
 10
88.54083499999999
 20
1322.07561461146
 30
0.0
 11
88.54083499999999
 21
1321.9395
 31
0.0
  0
LINE
  5
864
330
1E
100
AcDbEntity
  8
0
100
AcDbLine
 10
88.54083499999999
 20
1321.9395
 30
0.0
 11
88.54083499999999
 21
1322.07561461146
 31
0.0
  0
LINE
  5
865
330
1E
100
AcDbEntity
  8
0
100
AcDbLine
 10
88.54083499999999
 20
1321.9395
 30
0.0
 11
88.70753499999999
 21
1321.7695
 31
0.0
  0
LINE
  5
866
330
1E
100
AcDbEntity
  8
0
100
AcDbLine
 10
88.42323499999999
 20
1322.1895
 30
0.0
 11
88.42323499999999
 21
1322.2795
 31
0.0
  0
LINE
  5
867
330
1E
100
AcDbEntity
  8
0
100
AcDbLine
 10
88.42323499999999
 20
1322.1895
 30
0.0
 11
88.42323499999999
 21
1322.3795
 31
0.0
  0
LINE
  5
868
330
1E
100
AcDbEntity
  8
0
100
AcDbLine
 10
88.25653499999999
 20
1323.9295
 30
0.0
 11
89.05653499999999
 21
1324.1195
 31
0.0
  0
LINE
  5
869
330
1E
100
AcDbEntity
  8
0
100
AcDbLine
 10
88.12323499999999
 20
1324.1195
 30
0.0
 11
88.98993500000001
 21
1324.3095
 31
0.0
  0
LINE
  5
86A
330
1E
100
AcDbEntity
  8
0
100
AcDbLine
 10
88.056535
 20
1325.929499999999
 30
0.0
 11
89.92323499999999
 21
1326.0795
 31
0.0
  0
LINE
  5
86B
330
1E
100
AcDbEntity
  8
0
100
AcDbLine
 10
88.32323499999999
 20
1322.5095
 30
0.0
 11
88.456535
 21
1322.739499999999
 31
0.0
  0
LINE
  5
86C
330
1E
100
AcDbEntity
  8
0
100
AcDbLine
 10
88.589935
 20
1322.437865
 30
0.0
 11
88.589935
 21
1322.2795
 31
0.0
  0
LINE
  5
86D
330
1E
100
AcDbEntity
  8
0
100
AcDbLine
 10
88.65653499999998
 20
1322.469499999999
 30
0.0
 11
88.78993499999999
 21
1322.669499999999
 31
0.0
  0
LINE
  5
86E
330
1E
100
AcDbEntity
  8
0
100
AcDbLine
 10
88.456535
 20
1322.739499999999
 30
0.0
 11
88.723235
 21
1322.9695
 31
0.0
  0
LINE
  5
86F
330
1E
100
AcDbEntity
  8
0
100
AcDbLine
 10
88.523235
 20
1325.2295
 30
0.0
 11
89.92323499999999
 21
1325.3395
 31
0.0
  0
LINE
  5
870
330
1E
100
AcDbEntity
  8
0
100
AcDbLine
 10
88.456535
 20
1325.419499999999
 30
0.0
 11
89.92323499999999
 21
1325.5295
 31
0.0
  0
LINE
  5
871
330
1E
100
AcDbEntity
  8
0
100
AcDbLine
 10
88.70753499999999
 20
1322.95596044244
 30
0.0
 11
88.70753499999999
 21
1322.7995
 31
0.0
  0
LINE
  5
872
330
1E
100
AcDbEntity
  8
0
100
AcDbLine
 10
88.723235
 20
1322.9695
 30
0.0
 11
89.12323499999999
 21
1323.1295
 31
0.0
  0
LINE
  5
873
330
1E
100
AcDbEntity
  8
0
100
AcDbLine
 10
88.78993499999999
 20
1322.669499999999
 30
0.0
 11
88.98993500000001
 21
1322.8195
 31
0.0
  0
LINE
  5
874
330
1E
100
AcDbEntity
  8
0
100
AcDbLine
 10
88.70753499999999
 20
1322.7995
 30
0.0
 11
88.70753499999999
 21
1322.95596044244
 31
0.0
  0
LINE
  5
875
330
1E
100
AcDbEntity
  8
0
100
AcDbLine
 10
88.54083499999999
 20
1322.6295
 30
0.0
 11
88.70753499999999
 21
1322.7995
 31
0.0
  0
LINE
  5
876
330
1E
100
AcDbEntity
  8
0
100
AcDbLine
 10
88.42323499999999
 20
1322.49749879988
 30
0.0
 11
88.42323499999999
 21
1322.3795
 31
0.0
  0
LINE
  5
877
330
1E
100
AcDbEntity
  8
0
100
AcDbLine
 10
88.42323499999999
 20
1322.3795
 30
0.0
 11
88.42323499999999
 21
1322.49749879988
 31
0.0
  0
LINE
  5
878
330
1E
100
AcDbEntity
  8
0
100
AcDbLine
 10
88.42323499999999
 20
1322.3795
 30
0.0
 11
88.42323499999999
 21
1322.1895
 31
0.0
  0
LINE
  5
879
330
1E
100
AcDbEntity
  8
0
100
AcDbLine
 10
87.982835
 20
1305.4895
 30
0.0
 11
88.220635
 21
1305.0795
 31
0.0
  0
LINE
  5
87A
330
1E
100
AcDbEntity
  8
0
100
AcDbLine
 10
87.860835
 20
1304.6895
 30
0.0
 11
88.220635
 21
1305.0795
 31
0.0
  0
LINE
  5
87C
330
1E
100
AcDbEntity
  8
0
100
AcDbLine
 10
88.92323499999999
 20
1300.739499999999
 30
0.0
 11
89.223235
 21
1300.3395
 31
0.0
  0
LINE
  5
87E
330
1E
100
AcDbEntity
  8
0
100
AcDbLine
 10
88.92323499999999
 20
1300.739499999999
 30
0.0
 11
89.223235
 21
1301.1395
 31
0.0
  0
LINE
  5
883
330
1E
100
AcDbEntity
  8
0
100
AcDbLine
 10
87.66533499999999
 20
1331.1295
 30
0.0
 11
87.68933500000001
 21
1330.6895
 31
0.0
  0
LINE
  5
885
330
1E
100
AcDbEntity
  8
0
100
AcDbLine
 10
87.31163499999999
 20
1339.9395
 30
0.0
 11
87.982835
 21
1340.1495
 31
0.0
  0
LINE
  5
886
330
1E
100
AcDbEntity
  8
0
100
AcDbLine
 10
87.982835
 20
1340.1495
 30
0.0
 11
88.220635
 21
1340.5595
 31
0.0
  0
LINE
  5
88E
330
1E
100
AcDbEntity
  8
0
100
AcDbLine
 10
87.860835
 20
1340.9495
 30
0.0
 11
88.220635
 21
1340.5595
 31
0.0
  0
LINE
  5
891
330
1E
100
AcDbEntity
  8
0
100
AcDbLine
 10
87.137335
 20
1341.0895
 30
0.0
 11
87.860835
 21
1340.9495
 31
0.0
  0
LINE
  5
894
330
1E
100
AcDbEntity
  8
0
100
AcDbLine
 10
86.46613499999999
 20
1340.8795
 30
0.0
 11
87.137335
 21
1341.0895
 31
0.0
  0
LINE
  5
897
330
1E
100
AcDbEntity
  8
0
100
AcDbLine
 10
86.228235
 20
1340.4595
 30
0.0
 11
86.46613499999999
 21
1340.8795
 31
0.0
  0
LINE
  5
898
330
1E
100
AcDbEntity
  8
0
100
AcDbLine
 10
86.228235
 20
1340.4595
 30
0.0
 11
86.58813499999999
 21
1340.0795
 31
0.0
  0
LINE
  5
89D
330
1E
100
AcDbEntity
  8
0
100
AcDbLine
 10
88.98993500000001
 20
1320.259499999999
 30
0.0
 11
89.92323499999999
 21
1320.1795
 31
0.0
  0
LINE
  5
89E
330
1E
100
AcDbEntity
  8
0
100
AcDbLine
 10
88.98993500000001
 20
1321.7495
 30
0.0
 11
89.25653500000001
 21
1321.6295
 31
0.0
  0
LINE
  5
89F
330
1E
100
AcDbEntity
  8
0
100
AcDbLine
 10
88.98993500000001
 20
1322.8195
 30
0.0
 11
89.25653500000001
 21
1322.9295
 31
0.0
  0
LINE
  5
8A0
330
1E
100
AcDbEntity
  8
0
100
AcDbLine
 10
89.02893500000001
 20
1321.7319456114
 30
0.0
 11
89.02893500000001
 21
1321.5895
 31
0.0
  0
LINE
  5
8A1
330
1E
100
AcDbEntity
  8
0
100
AcDbLine
 10
89.12323499999999
 20
1321.4395
 30
0.0
 11
89.523235
 21
1321.3695
 31
0.0
  0
LINE
  5
8A2
330
1E
100
AcDbEntity
  8
0
100
AcDbLine
 10
89.05653499999999
 20
1320.4495
 30
0.0
 11
89.92323499999999
 21
1320.369499999999
 31
0.0
  0
LINE
  5
8A3
330
1E
100
AcDbEntity
  8
0
100
AcDbLine
 10
89.02893500000001
 20
1321.5895
 30
0.0
 11
89.02893500000001
 21
1321.7319456114
 31
0.0
  0
LINE
  5
8A4
330
1E
100
AcDbEntity
  8
0
100
AcDbLine
 10
89.02893500000001
 20
1321.5895
 30
0.0
 11
89.31753499999999
 21
1321.489499999999
 31
0.0
  0
LINE
  5
8A5
330
1E
100
AcDbEntity
  8
0
100
AcDbLine
 10
89.12323499999999
 20
1323.1295
 30
0.0
 11
89.523235
 21
1323.1995
 31
0.0
  0
LINE
  5
8A6
330
1E
100
AcDbEntity
  8
0
100
AcDbLine
 10
89.05653499999999
 20
1324.1195
 30
0.0
 11
89.92323499999999
 21
1324.199499999999
 31
0.0
  0
LINE
  5
8A7
330
1E
100
AcDbEntity
  8
0
100
AcDbLine
 10
88.98993500000001
 20
1324.3095
 30
0.0
 11
89.92323499999999
 21
1324.3895
 31
0.0
  0
LINE
  5
8A8
330
1E
100
AcDbEntity
  8
0
100
AcDbLine
 10
89.02893500000001
 20
1322.979499999999
 30
0.0
 11
89.31753499999999
 21
1323.0795
 31
0.0
  0
LINE
  5
8AB
330
1E
100
AcDbEntity
  8
0
100
AcDbLine
 10
89.223235
 20
1301.1395
 30
0.0
 11
89.92323499999999
 21
1301.3095
 31
0.0
  0
LINE
  5
8AD
330
1E
100
AcDbEntity
  8
0
100
AcDbLine
 10
89.25653500000001
 20
1321.6295
 30
0.0
 11
89.589935
 21
1321.5595
 31
0.0
  0
LINE
  5
8AE
330
1E
100
AcDbEntity
  8
0
100
AcDbLine
 10
89.25653500000001
 20
1322.9295
 30
0.0
 11
89.589935
 21
1323.009499999999
 31
0.0
  0
LINE
  5
8AF
330
1E
100
AcDbEntity
  8
0
100
AcDbLine
 10
89.31753499999999
 20
1321.61669256149
 30
0.0
 11
89.31753499999999
 21
1321.489499999999
 31
0.0
  0
LINE
  5
8B0
330
1E
100
AcDbEntity
  8
0
100
AcDbLine
 10
89.92323499999999
 20
1317.6695
 30
0.0
 11
91.789935
 21
1317.8195
 31
0.0
  0
LINE
  5
8B1
330
1E
100
AcDbEntity
  8
0
100
AcDbLine
 10
89.589935
 20
1321.5595
 30
0.0
 11
89.92323499999999
 21
1321.5195
 31
0.0
  0
LINE
  5
8B2
330
1E
100
AcDbEntity
  8
0
100
AcDbLine
 10
89.523235
 20
1321.3695
 30
0.0
 11
89.92323499999999
 21
1321.3295
 31
0.0
  0
LINE
  5
8B3
330
1E
100
AcDbEntity
  8
0
100
AcDbLine
 10
89.589935
 20
1323.009499999999
 30
0.0
 11
89.92323499999999
 21
1323.0495
 31
0.0
  0
LINE
  5
8B4
330
1E
100
AcDbEntity
  8
0
100
AcDbLine
 10
89.92323499999999
 20
1321.5195
 30
0.0
 11
90.256535
 21
1321.5595
 31
0.0
  0
LINE
  5
8B5
330
1E
100
AcDbEntity
  8
0
100
AcDbLine
 10
89.92323499999999
 20
1321.3295
 30
0.0
 11
90.323235
 21
1321.3695
 31
0.0
  0
LINE
  5
8B6
330
1E
100
AcDbEntity
  8
0
100
AcDbLine
 10
89.92323499999999
 20
1320.369499999999
 30
0.0
 11
90.78993500000001
 21
1320.4495
 31
0.0
  0
LINE
  5
8B7
330
1E
100
AcDbEntity
  8
0
100
AcDbLine
 10
89.92323499999999
 20
1320.1795
 30
0.0
 11
90.85653499999999
 21
1320.259499999999
 31
0.0
  0
LINE
  5
8B8
330
1E
100
AcDbEntity
  8
0
100
AcDbLine
 10
89.92323499999999
 20
1319.219499999999
 30
0.0
 11
91.323235
 21
1319.3395
 31
0.0
  0
LINE
  5
8B9
330
1E
100
AcDbEntity
  8
0
100
AcDbLine
 10
89.92323499999999
 20
1319.0295
 30
0.0
 11
91.38993499999999
 21
1319.149499999999
 31
0.0
  0
LINE
  5
8BA
330
1E
100
AcDbEntity
  8
0
100
AcDbLine
 10
89.92323499999999
 20
1323.0495
 30
0.0
 11
90.256535
 21
1323.009499999999
 31
0.0
  0
LINE
  5
8BB
330
1E
100
AcDbEntity
  8
0
100
AcDbLine
 10
89.75653499999999
 20
1321.4195
 30
0.0
 11
90.089935
 21
1321.4195
 31
0.0
  0
LINE
  5
8BC
330
1E
100
AcDbEntity
  8
0
100
AcDbLine
 10
89.75653499999999
 20
1321.4195
 30
0.0
 11
89.75653499999999
 21
1317.979499999999
 31
0.0
  0
LINE
  5
8BD
330
1E
100
AcDbEntity
  8
0
100
AcDbLine
 10
89.75653499999999
 20
1317.979499999999
 30
0.0
 11
89.75653499999999
 21
1321.4195
 31
0.0
  0
LINE
  5
8BE
330
1E
100
AcDbEntity
  8
0
100
AcDbLine
 10
89.31753499999999
 20
1321.489499999999
 30
0.0
 11
89.31753499999999
 21
1321.61669256149
 31
0.0
  0
LINE
  5
8BF
330
1E
100
AcDbEntity
  8
0
100
AcDbLine
 10
89.523235
 20
1323.1995
 30
0.0
 11
89.92323499999999
 21
1323.239499999999
 31
0.0
  0
LINE
  5
8C0
330
1E
100
AcDbEntity
  8
0
100
AcDbLine
 10
89.92323499999999
 20
1323.239499999999
 30
0.0
 11
90.323235
 21
1323.1995
 31
0.0
  0
LINE
  5
8C1
330
1E
100
AcDbEntity
  8
0
100
AcDbLine
 10
89.92323499999999
 20
1324.199499999999
 30
0.0
 11
90.78993500000001
 21
1324.1195
 31
0.0
  0
LINE
  5
8C2
330
1E
100
AcDbEntity
  8
0
100
AcDbLine
 10
89.92323499999999
 20
1324.3895
 30
0.0
 11
90.85653499999999
 21
1324.3095
 31
0.0
  0
LINE
  5
8C3
330
1E
100
AcDbEntity
  8
0
100
AcDbLine
 10
89.92323499999999
 20
1325.3395
 30
0.0
 11
91.323235
 21
1325.2295
 31
0.0
  0
LINE
  5
8C4
330
1E
100
AcDbEntity
  8
0
100
AcDbLine
 10
89.92323499999999
 20
1325.5295
 30
0.0
 11
91.38993499999999
 21
1325.419499999999
 31
0.0
  0
LINE
  5
8C5
330
1E
100
AcDbEntity
  8
0
100
AcDbLine
 10
89.92323499999999
 20
1326.0795
 30
0.0
 11
91.789935
 21
1325.929499999999
 31
0.0
  0
LINE
  5
8C6
330
1E
100
AcDbEntity
  8
0
100
AcDbLine
 10
89.75653499999999
 20
1326.06610470349
 30
0.0
 11
89.75653499999999
 21
1323.1395
 31
0.0
  0
LINE
  5
8C7
330
1E
100
AcDbEntity
  8
0
100
AcDbLine
 10
89.75653499999999
 20
1323.1395
 30
0.0
 11
90.089935
 21
1323.1395
 31
0.0
  0
LINE
  5
8C8
330
1E
100
AcDbEntity
  8
0
100
AcDbLine
 10
89.75653499999999
 20
1323.1395
 30
0.0
 11
89.75653499999999
 21
1326.06610470349
 31
0.0
  0
LINE
  5
8C9
330
1E
100
AcDbEntity
  8
0
100
AcDbLine
 10
89.31753499999999
 20
1323.1635025
 30
0.0
 11
89.31753499999999
 21
1323.0795
 31
0.0
  0
LINE
  5
8CA
330
1E
100
AcDbEntity
  8
0
100
AcDbLine
 10
89.31753499999999
 20
1323.0795
 30
0.0
 11
89.31753499999999
 21
1323.1635025
 31
0.0
  0
LINE
  5
8CB
330
1E
100
AcDbEntity
  8
0
100
AcDbLine
 10
89.92323499999999
 20
1317.4795
 30
0.0
 11
91.92323499999998
 21
1317.6295
 31
0.0
  0
LINE
  5
8CC
330
1E
100
AcDbEntity
  8
0
100
AcDbLine
 10
89.92323499999999
 20
1326.2695
 30
0.0
 11
91.92323499999998
 21
1326.1195
 31
0.0
  0
LINE
  5
8CF
330
1E
100
AcDbEntity
  8
0
100
AcDbLine
 10
89.92323499999999
 20
1301.3095
 30
0.0
 11
90.62323499999999
 21
1301.1395
 31
0.0
  0
LINE
  5
8D1
330
1E
100
AcDbEntity
  8
0
100
AcDbLine
 10
89.223235
 20
1300.3395
 30
0.0
 11
89.92323499999999
 21
1300.169499999999
 31
0.0
  0
LINE
  5
8D3
330
1E
100
AcDbEntity
  8
0
100
AcDbLine
 10
89.92323499999999
 20
1300.169499999999
 30
0.0
 11
90.62323499999999
 21
1300.3395
 31
0.0
  0
LINE
  5
8DA
330
1E
100
AcDbEntity
  8
0
100
AcDbLine
 10
89.223235
 20
1345.0795
 30
0.0
 11
89.92323499999999
 21
1344.909499999999
 31
0.0
  0
LINE
  5
8DC
330
1E
100
AcDbEntity
  8
0
100
AcDbLine
 10
89.92323499999999
 20
1344.909499999999
 30
0.0
 11
90.62323499999999
 21
1345.0795
 31
0.0
  0
LINE
  5
8DE
330
1E
100
AcDbEntity
  8
0
100
AcDbLine
 10
90.089935
 20
1317.979499999999
 30
0.0
 11
90.089935
 21
1321.4195
 31
0.0
  0
LINE
  5
8DF
330
1E
100
AcDbEntity
  8
0
100
AcDbLine
 10
90.089935
 20
1321.4195
 30
0.0
 11
90.089935
 21
1317.979499999999
 31
0.0
  0
LINE
  5
8E0
330
1E
100
AcDbEntity
  8
0
100
AcDbLine
 10
90.089935
 20
1326.06610470349
 30
0.0
 11
90.089935
 21
1323.1395
 31
0.0
  0
LINE
  5
8E1
330
1E
100
AcDbEntity
  8
0
100
AcDbLine
 10
90.256535
 20
1321.5595
 30
0.0
 11
90.58993499999999
 21
1321.6295
 31
0.0
  0
LINE
  5
8E2
330
1E
100
AcDbEntity
  8
0
100
AcDbLine
 10
90.323235
 20
1321.3695
 30
0.0
 11
90.72323500000001
 21
1321.4395
 31
0.0
  0
LINE
  5
8E3
330
1E
100
AcDbEntity
  8
0
100
AcDbLine
 10
90.256535
 20
1323.009499999999
 30
0.0
 11
90.58993499999999
 21
1322.9295
 31
0.0
  0
LINE
  5
8E4
330
1E
100
AcDbEntity
  8
0
100
AcDbLine
 10
90.52893500000001
 20
1321.61669256149
 30
0.0
 11
90.52893500000001
 21
1321.489499999999
 31
0.0
  0
LINE
  5
8E5
330
1E
100
AcDbEntity
  8
0
100
AcDbLine
 10
90.58993499999999
 20
1321.6295
 30
0.0
 11
90.85653499999999
 21
1321.7495
 31
0.0
  0
LINE
  5
8E6
330
1E
100
AcDbEntity
  8
0
100
AcDbLine
 10
90.58993499999999
 20
1322.9295
 30
0.0
 11
90.85653499999999
 21
1322.8195
 31
0.0
  0
LINE
  5
8E7
330
1E
100
AcDbEntity
  8
0
100
AcDbLine
 10
90.52893500000001
 20
1321.489499999999
 30
0.0
 11
90.81753499999999
 21
1321.5895
 31
0.0
  0
LINE
  5
8E8
330
1E
100
AcDbEntity
  8
0
100
AcDbLine
 10
90.52893500000001
 20
1321.489499999999
 30
0.0
 11
90.52893500000001
 21
1321.61669256149
 31
0.0
  0
LINE
  5
8E9
330
1E
100
AcDbEntity
  8
0
100
AcDbLine
 10
90.52893500000001
 20
1321.489499999999
 30
0.0
 11
93.528935
 21
1318.5095
 31
0.0
  0
LINE
  5
8EA
330
1E
100
AcDbEntity
  8
0
100
AcDbLine
 10
90.323235
 20
1323.1995
 30
0.0
 11
90.72323500000001
 21
1323.1295
 31
0.0
  0
LINE
  5
8EB
330
1E
100
AcDbEntity
  8
0
100
AcDbLine
 10
90.52893500000001
 20
1323.1635025
 30
0.0
 11
90.52893500000001
 21
1323.0795
 31
0.0
  0
LINE
  5
8EC
330
1E
100
AcDbEntity
  8
0
100
AcDbLine
 10
90.52893500000001
 20
1323.0795
 30
0.0
 11
90.52893500000001
 21
1323.1635025
 31
0.0
  0
LINE
  5
8ED
330
1E
100
AcDbEntity
  8
0
100
AcDbLine
 10
90.52893500000001
 20
1323.0795
 30
0.0
 11
90.81753499999999
 21
1322.979499999999
 31
0.0
  0
LINE
  5
8EE
330
1E
100
AcDbEntity
  8
0
100
AcDbLine
 10
90.52893500000001
 20
1323.0795
 30
0.0
 11
93.0921686956522
 21
1325.62564547101
 31
0.0
  0
LINE
  5
8EF
330
1E
100
AcDbEntity
  8
0
100
AcDbLine
 10
90.089935
 20
1323.1395
 30
0.0
 11
90.089935
 21
1326.06610470349
 31
0.0
  0
LINE
  5
8F1
330
1E
100
AcDbEntity
  8
0
100
AcDbLine
 10
90.62323499999999
 20
1301.1395
 30
0.0
 11
90.92323499999999
 21
1300.739499999999
 31
0.0
  0
LINE
  5
8F3
330
1E
100
AcDbEntity
  8
0
100
AcDbLine
 10
90.62323499999999
 20
1300.3395
 30
0.0
 11
90.92323499999999
 21
1300.739499999999
 31
0.0
  0
LINE
  5
8F4
330
1E
100
AcDbEntity
  8
0
100
AcDbLine
 10
91.42323499999999
 20
1292.6295
 30
0.0
 11
91.42323499999999
 21
1293.5595
 31
0.0
  0
LINE
  5
8F5
330
1E
100
AcDbEntity
  8
0
100
AcDbLine
 10
91.42323499999999
 20
1293.5595
 30
0.0
 11
91.42323499999999
 21
1294.8795
 31
0.0
  0
LINE
  5
8F6
330
1E
100
AcDbEntity
  8
0
100
AcDbLine
 10
91.42323499999999
 20
1293.5595
 30
0.0
 11
91.42323499999999
 21
1292.6295
 31
0.0
  0
LINE
  5
8F7
330
1E
100
AcDbEntity
  8
0
100
AcDbLine
 10
91.42323499999999
 20
1294.8795
 30
0.0
 11
91.42323499999999
 21
1296.1895
 31
0.0
  0
LINE
  5
8F8
330
1E
100
AcDbEntity
  8
0
100
AcDbLine
 10
91.42323499999999
 20
1294.8795
 30
0.0
 11
91.42323499999999
 21
1293.5595
 31
0.0
  0
LINE
  5
8F9
330
1E
100
AcDbEntity
  8
0
100
AcDbLine
 10
91.42323499999999
 20
1296.1895
 30
0.0
 11
91.42323499999999
 21
1298.0695
 31
0.0
  0
LINE
  5
8FA
330
1E
100
AcDbEntity
  8
0
100
AcDbLine
 10
91.42323499999999
 20
1296.1895
 30
0.0
 11
91.42323499999999
 21
1294.8795
 31
0.0
  0
LINE
  5
8FB
330
1E
100
AcDbEntity
  8
0
100
AcDbLine
 10
91.42323499999999
 20
1300.35006074766
 30
0.0
 11
91.42323499999999
 21
1298.0695
 31
0.0
  0
LINE
  5
8FC
330
1E
100
AcDbEntity
  8
0
100
AcDbLine
 10
91.42323499999999
 20
1298.0695
 30
0.0
 11
91.42323499999999
 21
1300.35006074766
 31
0.0
  0
LINE
  5
8FD
330
1E
100
AcDbEntity
  8
0
100
AcDbLine
 10
91.42323499999999
 20
1298.0695
 30
0.0
 11
91.42323499999999
 21
1296.1895
 31
0.0
  0
LINE
  5
8FE
330
1E
100
AcDbEntity
  8
0
100
AcDbLine
 10
91.42323499999999
 20
1298.669012195119
 30
0.0
 11
102.223235
 21
1299.5295
 31
0.0
  0
LINE
  5
8FF
330
1E
100
AcDbEntity
  8
0
100
AcDbLine
 10
90.72323500000001
 20
1321.4395
 30
0.0
 11
91.123235
 21
1321.5895
 31
0.0
  0
LINE
  5
900
330
1E
100
AcDbEntity
  8
0
100
AcDbLine
 10
90.78993500000001
 20
1320.4495
 30
0.0
 11
91.58993499999999
 21
1320.6395
 31
0.0
  0
LINE
  5
901
330
1E
100
AcDbEntity
  8
0
100
AcDbLine
 10
90.81753499999999
 20
1321.7319456114
 30
0.0
 11
90.81753499999999
 21
1321.5895
 31
0.0
  0
LINE
  5
902
330
1E
100
AcDbEntity
  8
0
100
AcDbLine
 10
90.85653499999999
 20
1321.7495
 30
0.0
 11
91.056535
 21
1321.8995
 31
0.0
  0
LINE
  5
903
330
1E
100
AcDbEntity
  8
0
100
AcDbLine
 10
90.85653499999999
 20
1320.259499999999
 30
0.0
 11
91.723235
 21
1320.4495
 31
0.0
  0
LINE
  5
904
330
1E
100
AcDbEntity
  8
0
100
AcDbLine
 10
90.85653499999999
 20
1322.8195
 30
0.0
 11
91.056535
 21
1322.669499999999
 31
0.0
  0
LINE
  5
905
330
1E
100
AcDbEntity
  8
0
100
AcDbLine
 10
90.81753499999999
 20
1321.5895
 30
0.0
 11
90.81753499999999
 21
1321.7319456114
 31
0.0
  0
LINE
  5
906
330
1E
100
AcDbEntity
  8
0
100
AcDbLine
 10
90.81753499999999
 20
1321.5895
 30
0.0
 11
93.817535
 21
1318.609499999999
 31
0.0
  0
LINE
  5
907
330
1E
100
AcDbEntity
  8
0
100
AcDbLine
 10
90.72323500000001
 20
1323.1295
 30
0.0
 11
91.123235
 21
1322.9695
 31
0.0
  0
LINE
  5
908
330
1E
100
AcDbEntity
  8
0
100
AcDbLine
 10
90.78993500000001
 20
1324.1195
 30
0.0
 11
91.58993499999999
 21
1323.9295
 31
0.0
  0
LINE
  5
909
330
1E
100
AcDbEntity
  8
0
100
AcDbLine
 10
90.85653499999999
 20
1324.3095
 30
0.0
 11
91.723235
 21
1324.1195
 31
0.0
  0
LINE
  5
90A
330
1E
100
AcDbEntity
  8
0
100
AcDbLine
 10
90.81753499999999
 20
1322.979499999999
 30
0.0
 11
93.40739369565209
 21
1325.55209297101
 31
0.0
  0
LINE
  5
90B
330
1E
100
AcDbEntity
  8
0
100
AcDbLine
 10
91.123235
 20
1321.5895
 30
0.0
 11
91.38993499999999
 21
1321.8195
 31
0.0
  0
LINE
  5
90C
330
1E
100
AcDbEntity
  8
0
100
AcDbLine
 10
91.056535
 20
1321.8995
 30
0.0
 11
91.189935
 21
1322.0895
 31
0.0
  0
LINE
  5
90D
330
1E
100
AcDbEntity
  8
0
100
AcDbLine
 10
91.189935
 20
1322.0895
 30
0.0
 11
91.256535
 21
1322.2795
 31
0.0
  0
LINE
  5
90E
330
1E
100
AcDbEntity
  8
0
100
AcDbLine
 10
91.13893500000001
 20
1321.879727954409
 30
0.0
 11
91.13893500000001
 21
1321.7695
 31
0.0
  0
LINE
  5
90F
330
1E
100
AcDbEntity
  8
0
100
AcDbLine
 10
91.30563499999999
 20
1322.07561461146
 30
0.0
 11
91.30563499999999
 21
1321.9395
 31
0.0
  0
LINE
  5
910
330
1E
100
AcDbEntity
  8
0
100
AcDbLine
 10
91.13893500000001
 20
1321.7695
 30
0.0
 11
91.13893500000001
 21
1321.879727954409
 31
0.0
  0
LINE
  5
911
330
1E
100
AcDbEntity
  8
0
100
AcDbLine
 10
91.13893500000001
 20
1321.7695
 30
0.0
 11
91.30563499999999
 21
1321.9395
 31
0.0
  0
LINE
  5
912
330
1E
100
AcDbEntity
  8
0
100
AcDbLine
 10
91.13893500000001
 20
1321.7695
 30
0.0
 11
96.256535
 21
1320.075517474309
 31
0.0
  0
LINE
  5
913
330
1E
100
AcDbEntity
  8
0
100
AcDbLine
 10
91.38993499999999
 20
1321.8195
 30
0.0
 11
91.52323499999999
 21
1322.0495
 31
0.0
  0
LINE
  5
914
330
1E
100
AcDbEntity
  8
0
100
AcDbLine
 10
91.323235
 20
1319.3395
 30
0.0
 11
92.589935
 21
1319.6495
 31
0.0
  0
LINE
  5
915
330
1E
100
AcDbEntity
  8
0
100
AcDbLine
 10
91.38993499999999
 20
1319.149499999999
 30
0.0
 11
92.723235
 21
1319.4495
 31
0.0
  0
LINE
  5
916
330
1E
100
AcDbEntity
  8
0
100
AcDbLine
 10
91.30563499999999
 20
1321.9395
 30
0.0
 11
91.30563499999999
 21
1322.07561461146
 31
0.0
  0
LINE
  5
917
330
1E
100
AcDbEntity
  8
0
100
AcDbLine
 10
91.30563499999999
 20
1321.9395
 30
0.0
 11
96.256535
 21
1320.3006654895
 31
0.0
  0
LINE
  5
918
330
1E
100
AcDbEntity
  8
0
100
AcDbLine
 10
91.256535
 20
1322.2795
 30
0.0
 11
91.256535
 21
1322.437865
 31
0.0
  0
LINE
  5
919
330
1E
100
AcDbEntity
  8
0
100
AcDbLine
 10
91.256535
 20
1322.437865
 30
0.0
 11
91.256535
 21
1322.2795
 31
0.0
  0
LINE
  5
91A
330
1E
100
AcDbEntity
  8
0
100
AcDbLine
 10
91.189935
 20
1322.469499999999
 30
0.0
 11
91.256535
 21
1322.2795
 31
0.0
  0
LINE
  5
91B
330
1E
100
AcDbEntity
  8
0
100
AcDbLine
 10
91.42323499999999
 20
1322.2795
 30
0.0
 11
91.42323499999999
 21
1322.1895
 31
0.0
  0
LINE
  5
91C
330
1E
100
AcDbEntity
  8
0
100
AcDbLine
 10
91.42323499999999
 20
1322.49749879988
 30
0.0
 11
91.42323499999999
 21
1322.3795
 31
0.0
  0
LINE
  5
91D
330
1E
100
AcDbEntity
  8
0
100
AcDbLine
 10
91.42323499999999
 20
1322.1895
 30
0.0
 11
91.42323499999999
 21
1322.2795
 31
0.0
  0
LINE
  5
91E
330
1E
100
AcDbEntity
  8
0
100
AcDbLine
 10
91.42323499999999
 20
1322.1895
 30
0.0
 11
97.1768041588785
 21
1322.1895
 31
0.0
  0
LINE
  5
91F
330
1E
100
AcDbEntity
  8
0
100
AcDbLine
 10
91.42323499999999
 20
1322.1895
 30
0.0
 11
91.42323499999999
 21
1322.3795
 31
0.0
  0
LINE
  5
920
330
1E
100
AcDbEntity
  8
0
100
AcDbLine
 10
91.52323499999999
 20
1322.0495
 30
0.0
 11
91.58993499999999
 21
1322.2795
 31
0.0
  0
LINE
  5
921
330
1E
100
AcDbEntity
  8
0
100
AcDbLine
 10
91.58993499999999
 20
1320.6395
 30
0.0
 11
92.25653499999999
 21
1320.9395
 31
0.0
  0
LINE
  5
922
330
1E
100
AcDbEntity
  8
0
100
AcDbLine
 10
91.723235
 20
1320.4495
 30
0.0
 11
92.52323500000001
 21
1320.7895
 31
0.0
  0
LINE
  5
923
330
1E
100
AcDbEntity
  8
0
100
AcDbLine
 10
91.789935
 20
1317.8195
 30
0.0
 11
93.589935
 21
1318.2395
 31
0.0
  0
LINE
  5
924
330
1E
100
AcDbEntity
  8
0
100
AcDbLine
 10
91.58993499999999
 20
1322.3795
 30
0.0
 11
91.58993499999999
 21
1322.2795
 31
0.0
  0
LINE
  5
925
330
1E
100
AcDbEntity
  8
0
100
AcDbLine
 10
91.52323499999999
 20
1322.5095
 30
0.0
 11
91.58993499999999
 21
1322.2795
 31
0.0
  0
LINE
  5
926
330
1E
100
AcDbEntity
  8
0
100
AcDbLine
 10
91.58993499999999
 20
1322.2795
 30
0.0
 11
91.58993499999999
 21
1322.3795
 31
0.0
  0
LINE
  5
927
330
1E
100
AcDbEntity
  8
0
100
AcDbLine
 10
91.42323499999999
 20
1322.3795
 30
0.0
 11
91.42323499999999
 21
1322.49749879988
 31
0.0
  0
LINE
  5
928
330
1E
100
AcDbEntity
  8
0
100
AcDbLine
 10
91.42323499999999
 20
1322.3795
 30
0.0
 11
97.12946397196269
 21
1322.3795
 31
0.0
  0
LINE
  5
929
330
1E
100
AcDbEntity
  8
0
100
AcDbLine
 10
91.42323499999999
 20
1322.3795
 30
0.0
 11
91.42323499999999
 21
1322.1895
 31
0.0
  0
LINE
  5
92A
330
1E
100
AcDbEntity
  8
0
100
AcDbLine
 10
91.056535
 20
1322.669499999999
 30
0.0
 11
91.189935
 21
1322.469499999999
 31
0.0
  0
LINE
  5
92B
330
1E
100
AcDbEntity
  8
0
100
AcDbLine
 10
91.123235
 20
1322.9695
 30
0.0
 11
91.38993499999999
 21
1322.739499999999
 31
0.0
  0
LINE
  5
92C
330
1E
100
AcDbEntity
  8
0
100
AcDbLine
 10
91.13893500000001
 20
1322.95596044244
 30
0.0
 11
91.13893500000001
 21
1322.7995
 31
0.0
  0
LINE
  5
92D
330
1E
100
AcDbEntity
  8
0
100
AcDbLine
 10
91.38993499999999
 20
1322.739499999999
 30
0.0
 11
91.52323499999999
 21
1322.5095
 31
0.0
  0
LINE
  5
92E
330
1E
100
AcDbEntity
  8
0
100
AcDbLine
 10
91.323235
 20
1325.2295
 30
0.0
 11
92.589935
 21
1324.9195
 31
0.0
  0
LINE
  5
92F
330
1E
100
AcDbEntity
  8
0
100
AcDbLine
 10
91.58993499999999
 20
1323.9295
 30
0.0
 11
92.25653499999999
 21
1323.6195
 31
0.0
  0
LINE
  5
930
330
1E
100
AcDbEntity
  8
0
100
AcDbLine
 10
91.723235
 20
1324.1195
 30
0.0
 11
92.52323500000001
 21
1323.7795
 31
0.0
  0
LINE
  5
931
330
1E
100
AcDbEntity
  8
0
100
AcDbLine
 10
91.38993499999999
 20
1325.419499999999
 30
0.0
 11
92.723235
 21
1325.1095
 31
0.0
  0
LINE
  5
932
330
1E
100
AcDbEntity
  8
0
100
AcDbLine
 10
91.789935
 20
1325.929499999999
 30
0.0
 11
93.589935
 21
1325.509499999999
 31
0.0
  0
LINE
  5
933
330
1E
100
AcDbEntity
  8
0
100
AcDbLine
 10
91.13893500000001
 20
1322.7995
 30
0.0
 11
91.30563499999999
 21
1322.6295
 31
0.0
  0
LINE
  5
934
330
1E
100
AcDbEntity
  8
0
100
AcDbLine
 10
91.13893500000001
 20
1322.7995
 30
0.0
 11
91.13893500000001
 21
1322.95596044244
 31
0.0
  0
LINE
  5
935
330
1E
100
AcDbEntity
  8
0
100
AcDbLine
 10
91.13893500000001
 20
1322.7995
 30
0.0
 11
95.79244433257199
 21
1324.33986335245
 31
0.0
  0
LINE
  5
936
330
1E
100
AcDbEntity
  8
0
100
AcDbLine
 10
91.30563499999999
 20
1322.6295
 30
0.0
 11
95.99573891642309
 21
1324.1820064445
 31
0.0
  0
LINE
  5
938
330
1E
100
AcDbEntity
  8
0
100
AcDbLine
 10
91.863635
 20
1305.4895
 30
0.0
 11
92.53483499999999
 21
1305.6995
 31
0.0
  0
LINE
  5
939
330
1E
100
AcDbEntity
  8
0
100
AcDbLine
 10
91.625835
 20
1305.0795
 30
0.0
 11
91.985635
 21
1304.6895
 31
0.0
  0
LINE
  5
93B
330
1E
100
AcDbEntity
  8
0
100
AcDbLine
 10
91.625835
 20
1305.0795
 30
0.0
 11
91.863635
 21
1305.4895
 31
0.0
  0
LINE
  5
93E
330
1E
100
AcDbEntity
  8
0
100
AcDbLine
 10
91.92323499999998
 20
1317.6295
 30
0.0
 11
93.723235
 21
1318.0495
 31
0.0
  0
LINE
  5
93F
330
1E
100
AcDbEntity
  8
0
100
AcDbLine
 10
91.92323499999998
 20
1326.1195
 30
0.0
 11
93.723235
 21
1325.6995
 31
0.0
  0
LINE
  5
940
330
1E
100
AcDbEntity
  8
0
100
AcDbLine
 10
91.985635
 20
1304.6895
 30
0.0
 11
92.709135
 21
1304.5595
 31
0.0
  0
LINE
  5
942
330
1E
100
AcDbEntity
  8
0
100
AcDbLine
 10
91.863635
 20
1340.1495
 30
0.0
 11
92.53483499999999
 21
1339.9395
 31
0.0
  0
LINE
  5
946
330
1E
100
AcDbEntity
  8
0
100
AcDbLine
 10
91.625835
 20
1340.5595
 30
0.0
 11
91.985635
 21
1340.9495
 31
0.0
  0
LINE
  5
947
330
1E
100
AcDbEntity
  8
0
100
AcDbLine
 10
91.625835
 20
1340.5595
 30
0.0
 11
91.863635
 21
1340.1495
 31
0.0
  0
LINE
  5
94A
330
1E
100
AcDbEntity
  8
0
100
AcDbLine
 10
92.53483499999999
 20
1305.6995
 30
0.0
 11
93.25833499999999
 21
1305.5595
 31
0.0
  0
LINE
  5
94C
330
1E
100
AcDbEntity
  8
0
100
AcDbLine
 10
92.709135
 20
1304.5595
 30
0.0
 11
93.38033499999999
 21
1304.7595
 31
0.0
  0
LINE
  5
951
330
1E
100
AcDbEntity
  8
0
100
AcDbLine
 10
92.25653499999999
 20
1320.9395
 30
0.0
 11
92.789935
 21
1321.3295
 31
0.0
  0
LINE
  5
952
330
1E
100
AcDbEntity
  8
0
100
AcDbLine
 10
92.52323500000001
 20
1320.7895
 30
0.0
 11
93.12323499999999
 21
1321.249499999999
 31
0.0
  0
LINE
  5
953
330
1E
100
AcDbEntity
  8
0
100
AcDbLine
 10
92.25653499999999
 20
1323.6195
 30
0.0
 11
92.789935
 21
1323.239499999999
 31
0.0
  0
LINE
  5
954
330
1E
100
AcDbEntity
  8
0
100
AcDbLine
 10
92.589935
 20
1319.6495
 30
0.0
 11
93.65653499999998
 21
1320.1395
 31
0.0
  0
LINE
  5
955
330
1E
100
AcDbEntity
  8
0
100
AcDbLine
 10
92.723235
 20
1319.4495
 30
0.0
 11
93.92323499999999
 21
1319.9895
 31
0.0
  0
LINE
  5
956
330
1E
100
AcDbEntity
  8
0
100
AcDbLine
 10
92.52323500000001
 20
1323.7795
 30
0.0
 11
93.12323499999999
 21
1323.3195
 31
0.0
  0
LINE
  5
957
330
1E
100
AcDbEntity
  8
0
100
AcDbLine
 10
92.589935
 20
1324.9195
 30
0.0
 11
93.65653499999998
 21
1324.429499999999
 31
0.0
  0
LINE
  5
958
330
1E
100
AcDbEntity
  8
0
100
AcDbLine
 10
92.723235
 20
1325.1095
 30
0.0
 11
93.92323499999999
 21
1324.5795
 31
0.0
  0
LINE
  5
959
330
1E
100
AcDbEntity
  8
0
100
AcDbLine
 10
92.78553499999999
 20
1314.0795
 30
0.0
 11
92.809535
 21
1313.6395
 31
0.0
  0
LINE
  5
95A
330
1E
100
AcDbEntity
  8
0
100
AcDbLine
 10
92.78553499999999
 20
1314.0795
 30
0.0
 11
93.29323499999999
 21
1314.4095
 31
0.0
  0
LINE
  5
95B
330
1E
100
AcDbEntity
  8
0
100
AcDbLine
 10
92.92623499999999
 20
1309.459499999999
 30
0.0
 11
93.34323499999999
 21
1309.0995
 31
0.0
  0
LINE
  5
95C
330
1E
100
AcDbEntity
  8
0
100
AcDbLine
 10
92.92623499999999
 20
1309.459499999999
 30
0.0
 11
93.100135
 21
1309.8895
 31
0.0
  0
LINE
  5
95D
330
1E
100
AcDbEntity
  8
0
100
AcDbLine
 10
92.789935
 20
1321.3295
 30
0.0
 11
93.12323499999999
 21
1321.7895
 31
0.0
  0
LINE
  5
95E
330
1E
100
AcDbEntity
  8
0
100
AcDbLine
 10
92.789935
 20
1323.239499999999
 30
0.0
 11
93.12323499999999
 21
1322.7795
 31
0.0
  0
LINE
  5
95F
330
1E
100
AcDbEntity
  8
0
100
AcDbLine
 10
92.809535
 20
1313.6395
 30
0.0
 11
93.377235
 21
1313.3495
 31
0.0
  0
LINE
  5
960
330
1E
100
AcDbEntity
  8
0
100
AcDbLine
 10
92.78553499999999
 20
1330.5795
 30
0.0
 11
92.809535
 21
1331.0195
 31
0.0
  0
LINE
  5
961
330
1E
100
AcDbEntity
  8
0
100
AcDbLine
 10
92.78553499999999
 20
1330.5795
 30
0.0
 11
93.29323499999999
 21
1330.259499999999
 31
0.0
  0
LINE
  5
963
330
1E
100
AcDbEntity
  8
0
100
AcDbLine
 10
92.809535
 20
1331.0195
 30
0.0
 11
93.377235
 21
1331.3095
 31
0.0
  0
LINE
  5
965
330
1E
100
AcDbEntity
  8
0
100
AcDbLine
 10
93.12323499999999
 20
1321.7895
 30
0.0
 11
93.25653499999999
 21
1322.2795
 31
0.0
  0
LINE
  5
966
330
1E
100
AcDbEntity
  8
0
100
AcDbLine
 10
93.12323499999999
 20
1321.249499999999
 30
0.0
 11
93.456535
 21
1321.7495
 31
0.0
  0
LINE
  5
967
330
1E
100
AcDbEntity
  8
0
100
AcDbLine
 10
93.12323499999999
 20
1322.7795
 30
0.0
 11
93.25653499999999
 21
1322.2795
 31
0.0
  0
LINE
  5
968
330
1E
100
AcDbEntity
  8
0
100
AcDbLine
 10
93.12323499999999
 20
1323.3195
 30
0.0
 11
93.456535
 21
1322.8195
 31
0.0
  0
LINE
  5
96A
330
1E
100
AcDbEntity
  8
0
100
AcDbLine
 10
93.25833499999999
 20
1305.5595
 30
0.0
 11
93.61823499999999
 21
1305.1795
 31
0.0
  0
LINE
  5
96C
330
1E
100
AcDbEntity
  8
0
100
AcDbLine
 10
93.100135
 20
1309.8895
 30
0.0
 11
93.737335
 21
1310.1295
 31
0.0
  0
LINE
  5
96D
330
1E
100
AcDbEntity
  8
0
100
AcDbLine
 10
93.100135
 20
1335.179499999999
 30
0.0
 11
93.737335
 21
1334.939499999999
 31
0.0
  0
LINE
  5
96E
330
1E
100
AcDbEntity
  8
0
100
AcDbLine
 10
92.92623499999999
 20
1335.5995
 30
0.0
 11
93.34323499999999
 21
1335.9695
 31
0.0
  0
LINE
  5
96F
330
1E
100
AcDbEntity
  8
0
100
AcDbLine
 10
92.92623499999999
 20
1335.5995
 30
0.0
 11
93.100135
 21
1335.179499999999
 31
0.0
  0
LINE
  5
970
330
1E
100
AcDbEntity
  8
0
100
AcDbLine
 10
92.53483499999999
 20
1339.9395
 30
0.0
 11
93.25833499999999
 21
1340.0795
 31
0.0
  0
LINE
  5
973
330
1E
100
AcDbEntity
  8
0
100
AcDbLine
 10
93.29323499999999
 20
1314.4095
 30
0.0
 11
94.054435
 21
1314.4195
 31
0.0
  0
LINE
  5
977
330
1E
100
AcDbEntity
  8
0
100
AcDbLine
 10
93.38033499999999
 20
1304.7595
 30
0.0
 11
93.61823499999999
 21
1305.1795
 31
0.0
  0
LINE
  5
978
330
1E
100
AcDbEntity
  8
0
100
AcDbLine
 10
93.737335
 20
1310.1295
 30
0.0
 11
94.47883500000001
 21
1310.0295
 31
0.0
  0
LINE
  5
979
330
1E
100
AcDbEntity
  8
0
100
AcDbLine
 10
93.34323499999999
 20
1309.0995
 30
0.0
 11
94.08463499999999
 21
1308.9995
 31
0.0
  0
LINE
  5
97A
330
1E
100
AcDbEntity
  8
0
100
AcDbLine
 10
93.456535
 20
1321.7495
 30
0.0
 11
93.589935
 21
1322.2795
 31
0.0
  0
LINE
  5
97B
330
1E
100
AcDbEntity
  8
0
100
AcDbLine
 10
93.589935
 20
1318.2395
 30
0.0
 11
95.12323499999999
 21
1318.8895
 31
0.0
  0
LINE
  5
97C
330
1E
100
AcDbEntity
  8
0
100
AcDbLine
 10
93.589935
 20
1322.3795
 30
0.0
 11
93.589935
 21
1322.2795
 31
0.0
  0
LINE
  5
97D
330
1E
100
AcDbEntity
  8
0
100
AcDbLine
 10
93.456535
 20
1322.8195
 30
0.0
 11
93.589935
 21
1322.2795
 31
0.0
  0
LINE
  5
97E
330
1E
100
AcDbEntity
  8
0
100
AcDbLine
 10
93.589935
 20
1322.2795
 30
0.0
 11
93.589935
 21
1322.3795
 31
0.0
  0
LINE
  5
97F
330
1E
100
AcDbEntity
  8
0
100
AcDbLine
 10
93.65653499999998
 20
1320.1395
 30
0.0
 11
94.523235
 21
1320.7495
 31
0.0
  0
LINE
  5
980
330
1E
100
AcDbEntity
  8
0
100
AcDbLine
 10
93.65653499999998
 20
1324.429499999999
 30
0.0
 11
94.523235
 21
1323.8095
 31
0.0
  0
LINE
  5
981
330
1E
100
AcDbEntity
  8
0
100
AcDbLine
 10
93.589935
 20
1325.509499999999
 30
0.0
 11
95.12323499999999
 21
1324.8595
 31
0.0
  0
LINE
  5
982
330
1E
100
AcDbEntity
  8
0
100
AcDbLine
 10
93.723235
 20
1318.0495
 30
0.0
 11
95.323235
 21
1318.7795
 31
0.0
  0
LINE
  5
983
330
1E
100
AcDbEntity
  8
0
100
AcDbLine
 10
93.723235
 20
1325.6995
 30
0.0
 11
95.323235
 21
1324.969499999999
 31
0.0
  0
LINE
  5
984
330
1E
100
AcDbEntity
  8
0
100
AcDbLine
 10
93.377235
 20
1313.3495
 30
0.0
 11
94.138435
 21
1313.3695
 31
0.0
  0
LINE
  5
985
330
1E
100
AcDbEntity
  8
0
100
AcDbLine
 10
93.29323499999999
 20
1330.259499999999
 30
0.0
 11
94.054435
 21
1330.249499999999
 31
0.0
  0
LINE
  5
986
330
1E
100
AcDbEntity
  8
0
100
AcDbLine
 10
93.377235
 20
1331.3095
 30
0.0
 11
94.138435
 21
1331.2995
 31
0.0
  0
LINE
  5
987
330
1E
100
AcDbEntity
  8
0
100
AcDbLine
 10
93.92323499999999
 20
1319.9895
 30
0.0
 11
94.85653499999999
 21
1320.6795
 31
0.0
  0
LINE
  5
988
330
1E
100
AcDbEntity
  8
0
100
AcDbLine
 10
93.92323499999999
 20
1324.5795
 30
0.0
 11
94.85653499999999
 21
1323.889499999999
 31
0.0
  0
LINE
  5
98A
330
1E
100
AcDbEntity
  8
0
100
AcDbLine
 10
94.054435
 20
1314.4195
 30
0.0
 11
94.622135
 21
1314.129499999999
 31
0.0
  0
LINE
  5
98B
330
1E
100
AcDbEntity
  8
0
100
AcDbLine
 10
94.08463499999999
 20
1308.9995
 30
0.0
 11
94.72193500000001
 21
1309.2395
 31
0.0
  0
LINE
  5
98C
330
1E
100
AcDbEntity
  8
0
100
AcDbLine
 10
94.47883500000001
 20
1310.0295
 30
0.0
 11
94.895835
 21
1309.6595
 31
0.0
  0
LINE
  5
98D
330
1E
100
AcDbEntity
  8
0
100
AcDbLine
 10
94.138435
 20
1313.3695
 30
0.0
 11
94.646035
 21
1313.689499999999
 31
0.0
  0
LINE
  5
98E
330
1E
100
AcDbEntity
  8
0
100
AcDbLine
 10
94.523235
 20
1320.7495
 30
0.0
 11
95.05653499999999
 21
1321.479499999999
 31
0.0
  0
LINE
  5
98F
330
1E
100
AcDbEntity
  8
0
100
AcDbLine
 10
94.523235
 20
1323.8095
 30
0.0
 11
95.05653499999999
 21
1323.0895
 31
0.0
  0
LINE
  5
990
330
1E
100
AcDbEntity
  8
0
100
AcDbLine
 10
94.622135
 20
1314.129499999999
 30
0.0
 11
94.646035
 21
1313.689499999999
 31
0.0
  0
LINE
  5
991
330
1E
100
AcDbEntity
  8
0
100
AcDbLine
 10
94.054435
 20
1330.249499999999
 30
0.0
 11
94.622135
 21
1330.5395
 31
0.0
  0
LINE
  5
993
330
1E
100
AcDbEntity
  8
0
100
AcDbLine
 10
94.138435
 20
1331.2995
 30
0.0
 11
94.646035
 21
1330.9695
 31
0.0
  0
LINE
  5
998
330
1E
100
AcDbEntity
  8
0
100
AcDbLine
 10
96.52183499999999
 20
1301.6495
 30
0.0
 11
97.263335
 21
1301.5495
 31
0.0
  0
LINE
  5
99A
330
1E
100
AcDbEntity
  8
0
100
AcDbLine
 10
95.88463500000001
 20
1301.4095
 30
0.0
 11
96.52183499999999
 21
1301.6495
 31
0.0
  0
LINE
  5
99C
330
1E
100
AcDbEntity
  8
0
100
AcDbLine
 10
95.710735
 20
1300.979499999999
 30
0.0
 11
96.12773500000001
 21
1300.6195
 31
0.0
  0
LINE
  5
99D
330
1E
100
AcDbEntity
  8
0
100
AcDbLine
 10
95.710735
 20
1300.979499999999
 30
0.0
 11
95.88463500000001
 21
1301.4095
 31
0.0
  0
LINE
  5
99F
330
1E
100
AcDbEntity
  8
0
100
AcDbLine
 10
96.12773500000001
 20
1300.6195
 30
0.0
 11
96.86913500000001
 21
1300.5195
 31
0.0
  0
LINE
  5
9A0
330
1E
100
AcDbEntity
  8
0
100
AcDbLine
 10
96.86913500000001
 20
1300.5195
 30
0.0
 11
97.506435
 21
1300.759499999999
 31
0.0
  0
LINE
  5
9A1
330
1E
100
AcDbEntity
  8
0
100
AcDbLine
 10
94.85653499999999
 20
1320.6795
 30
0.0
 11
95.389935
 21
1321.4395
 31
0.0
  0
LINE
  5
9A2
330
1E
100
AcDbEntity
  8
0
100
AcDbLine
 10
94.85653499999999
 20
1323.889499999999
 30
0.0
 11
95.389935
 21
1323.1295
 31
0.0
  0
LINE
  5
9A4
330
1E
100
AcDbEntity
  8
0
100
AcDbLine
 10
95.05653499999999
 20
1321.479499999999
 30
0.0
 11
95.256535
 21
1322.2795
 31
0.0
  0
LINE
  5
9A5
330
1E
100
AcDbEntity
  8
0
100
AcDbLine
 10
95.58993499999999
 20
1322.3795
 30
0.0
 11
95.58993499999999
 21
1322.2795
 31
0.0
  0
LINE
  5
9A6
330
1E
100
AcDbEntity
  8
0
100
AcDbLine
 10
95.389935
 20
1321.4395
 30
0.0
 11
95.58993499999999
 21
1322.2795
 31
0.0
  0
LINE
  5
9A7
330
1E
100
AcDbEntity
  8
0
100
AcDbLine
 10
95.12323499999999
 20
1318.8895
 30
0.0
 11
96.256535
 21
1319.7695
 31
0.0
  0
LINE
  5
9A8
330
1E
100
AcDbEntity
  8
0
100
AcDbLine
 10
95.05653499999999
 20
1323.0895
 30
0.0
 11
95.256535
 21
1322.2795
 31
0.0
  0
LINE
  5
9A9
330
1E
100
AcDbEntity
  8
0
100
AcDbLine
 10
95.389935
 20
1323.1295
 30
0.0
 11
95.58993499999999
 21
1322.2795
 31
0.0
  0
LINE
  5
9AA
330
1E
100
AcDbEntity
  8
0
100
AcDbLine
 10
96.256535
 20
1319.7695
 30
0.0
 11
96.989935
 21
1320.7995
 31
0.0
  0
LINE
  5
9AB
330
1E
100
AcDbEntity
  8
0
100
AcDbLine
 10
95.58993499999999
 20
1322.2795
 30
0.0
 11
95.58993499999999
 21
1322.3795
 31
0.0
  0
LINE
  5
9AC
330
1E
100
AcDbEntity
  8
0
100
AcDbLine
 10
95.12323499999999
 20
1324.8595
 30
0.0
 11
96.256535
 21
1323.9795
 31
0.0
  0
LINE
  5
9AD
330
1E
100
AcDbEntity
  8
0
100
AcDbLine
 10
96.256535
 20
1323.9795
 30
0.0
 11
96.989935
 21
1322.9395
 31
0.0
  0
LINE
  5
9AE
330
1E
100
AcDbEntity
  8
0
100
AcDbLine
 10
95.323235
 20
1318.7795
 30
0.0
 11
96.58993500000001
 21
1319.689499999999
 31
0.0
  0
LINE
  5
9AF
330
1E
100
AcDbEntity
  8
0
100
AcDbLine
 10
96.58993500000001
 20
1319.689499999999
 30
0.0
 11
97.32323499999999
 21
1320.7295
 31
0.0
  0
LINE
  5
9B1
330
1E
100
AcDbEntity
  8
0
100
AcDbLine
 10
95.323235
 20
1324.969499999999
 30
0.0
 11
96.58993500000001
 21
1324.0495
 31
0.0
  0
LINE
  5
9B3
330
1E
100
AcDbEntity
  8
0
100
AcDbLine
 10
96.989935
 20
1320.7995
 30
0.0
 11
97.25653499999999
 21
1321.8695
 31
0.0
  0
LINE
  5
9B4
330
1E
100
AcDbEntity
  8
0
100
AcDbLine
 10
96.989935
 20
1322.9395
 30
0.0
 11
97.25653499999999
 21
1321.8695
 31
0.0
  0
LINE
  5
9B6
330
1E
100
AcDbEntity
  8
0
100
AcDbLine
 10
96.58993500000001
 20
1324.0495
 30
0.0
 11
97.32323499999999
 21
1323.0195
 31
0.0
  0
LINE
  5
9B9
330
1E
100
AcDbEntity
  8
0
100
AcDbLine
 10
94.72193500000001
 20
1309.2395
 30
0.0
 11
94.895835
 21
1309.6595
 31
0.0
  0
LINE
  5
9BA
330
1E
100
AcDbEntity
  8
0
100
AcDbLine
 10
97.08023500000001
 20
1305.9495
 30
0.0
 11
97.678735
 21
1306.2195
 31
0.0
  0
LINE
  5
9BB
330
1E
100
AcDbEntity
  8
0
100
AcDbLine
 10
96.971535
 20
1305.5195
 30
0.0
 11
97.44253499999999
 21
1305.1795
 31
0.0
  0
LINE
  5
9BC
330
1E
100
AcDbEntity
  8
0
100
AcDbLine
 10
96.971535
 20
1305.5195
 30
0.0
 11
97.08023500000001
 21
1305.9495
 31
0.0
  0
LINE
  5
9BD
330
1E
100
AcDbEntity
  8
0
100
AcDbLine
 10
94.622135
 20
1330.5395
 30
0.0
 11
94.646035
 21
1330.9695
 31
0.0
  0
LINE
  5
9BE
330
1E
100
AcDbEntity
  8
0
100
AcDbLine
 10
94.47883500000001
 20
1335.0395
 30
0.0
 11
94.895835
 21
1335.4095
 31
0.0
  0
LINE
  5
9BF
330
1E
100
AcDbEntity
  8
0
100
AcDbLine
 10
93.737335
 20
1334.939499999999
 30
0.0
 11
94.47883500000001
 21
1335.0395
 31
0.0
  0
LINE
  5
9C2
330
1E
100
AcDbEntity
  8
0
100
AcDbLine
 10
93.34323499999999
 20
1335.9695
 30
0.0
 11
94.08463499999999
 21
1336.0695
 31
0.0
  0
LINE
  5
9C5
330
1E
100
AcDbEntity
  8
0
100
AcDbLine
 10
94.08463499999999
 20
1336.0695
 30
0.0
 11
94.72193500000001
 21
1335.8295
 31
0.0
  0
LINE
  5
9C7
330
1E
100
AcDbEntity
  8
0
100
AcDbLine
 10
94.72193500000001
 20
1335.8295
 30
0.0
 11
94.895835
 21
1335.4095
 31
0.0
  0
LINE
  5
9CA
330
1E
100
AcDbEntity
  8
0
100
AcDbLine
 10
97.263335
 20
1301.5495
 30
0.0
 11
97.68033500000001
 21
1301.179499999999
 31
0.0
  0
LINE
  5
9CE
330
1E
100
AcDbEntity
  8
0
100
AcDbLine
 10
97.506435
 20
1300.759499999999
 30
0.0
 11
97.68033500000001
 21
1301.179499999999
 31
0.0
  0
LINE
  5
9CF
330
1E
100
AcDbEntity
  8
0
100
AcDbLine
 10
97.32323499999999
 20
1320.7295
 30
0.0
 11
97.589935
 21
1321.8695
 31
0.0
  0
LINE
  5
9D0
330
1E
100
AcDbEntity
  8
0
100
AcDbLine
 10
97.32323499999999
 20
1323.0195
 30
0.0
 11
97.589935
 21
1321.8695
 31
0.0
  0
LINE
  5
9D6
330
1E
100
AcDbEntity
  8
0
100
AcDbLine
 10
98.30153500000001
 20
1315.9795
 30
0.0
 11
99.00863499999999
 21
1316.1395
 31
0.0
  0
LINE
  5
9D8
330
1E
100
AcDbEntity
  8
0
100
AcDbLine
 10
98.01863500000001
 20
1315.5695
 30
0.0
 11
98.30153500000001
 21
1315.1695
 31
0.0
  0
LINE
  5
9D9
330
1E
100
AcDbEntity
  8
0
100
AcDbLine
 10
98.01863500000001
 20
1315.5695
 30
0.0
 11
98.30153500000001
 21
1315.9795
 31
0.0
  0
LINE
  5
9DB
330
1E
100
AcDbEntity
  8
0
100
AcDbLine
 10
98.30153500000001
 20
1315.1695
 30
0.0
 11
99.00863499999999
 21
1314.999499999999
 31
0.0
  0
LINE
  5
9DD
330
1E
100
AcDbEntity
  8
0
100
AcDbLine
 10
97.678735
 20
1306.2195
 30
0.0
 11
98.43253500000001
 21
1306.1595
 31
0.0
  0
LINE
  5
9DF
330
1E
100
AcDbEntity
  8
0
100
AcDbLine
 10
97.44253499999999
 20
1305.1795
 30
0.0
 11
98.196335
 21
1305.1095
 31
0.0
  0
LINE
  5
9E0
330
1E
100
AcDbEntity
  8
0
100
AcDbLine
 10
98.196335
 20
1305.1095
 30
0.0
 11
98.79483499999999
 21
1305.3795
 31
0.0
  0
LINE
  5
9E1
330
1E
100
AcDbEntity
  8
0
100
AcDbLine
 10
98.30153500000001
 20
1328.6895
 30
0.0
 11
99.00863499999999
 21
1328.5295
 31
0.0
  0
LINE
  5
9E3
330
1E
100
AcDbEntity
  8
0
100
AcDbLine
 10
98.01863500000001
 20
1329.0895
 30
0.0
 11
98.30153500000001
 21
1329.4995
 31
0.0
  0
LINE
  5
9E4
330
1E
100
AcDbEntity
  8
0
100
AcDbLine
 10
98.01863500000001
 20
1329.0895
 30
0.0
 11
98.30153500000001
 21
1328.6895
 31
0.0
  0
LINE
  5
9E6
330
1E
100
AcDbEntity
  8
0
100
AcDbLine
 10
98.43253500000001
 20
1306.1595
 30
0.0
 11
98.903435
 21
1305.8095
 31
0.0
  0
LINE
  5
9E7
330
1E
100
AcDbEntity
  8
0
100
AcDbLine
 10
98.79483499999999
 20
1305.3795
 30
0.0
 11
98.903435
 21
1305.8095
 31
0.0
  0
LINE
  5
9E8
330
1E
100
AcDbEntity
  8
0
100
AcDbLine
 10
98.30153500000001
 20
1329.4995
 30
0.0
 11
99.00863499999999
 21
1329.659499999999
 31
0.0
  0
LINE
  5
9E9
330
1E
100
AcDbEntity
  8
0
100
AcDbLine
 10
98.43253500000001
 20
1339.489499999999
 30
0.0
 11
98.903435
 21
1339.8295
 31
0.0
  0
LINE
  5
9EA
330
1E
100
AcDbEntity
  8
0
100
AcDbLine
 10
97.678735
 20
1339.419499999999
 30
0.0
 11
98.43253500000001
 21
1339.489499999999
 31
0.0
  0
LINE
  5
9EB
330
1E
100
AcDbEntity
  8
0
100
AcDbLine
 10
97.08023500000001
 20
1339.6895
 30
0.0
 11
97.678735
 21
1339.419499999999
 31
0.0
  0
LINE
  5
9EC
330
1E
100
AcDbEntity
  8
0
100
AcDbLine
 10
96.971535
 20
1340.1295
 30
0.0
 11
97.44253499999999
 21
1340.4695
 31
0.0
  0
LINE
  5
9ED
330
1E
100
AcDbEntity
  8
0
100
AcDbLine
 10
96.971535
 20
1340.1295
 30
0.0
 11
97.08023500000001
 21
1339.6895
 31
0.0
  0
LINE
  5
9EF
330
1E
100
AcDbEntity
  8
0
100
AcDbLine
 10
99.00863499999999
 20
1316.1395
 30
0.0
 11
99.71573499999999
 21
1315.9795
 31
0.0
  0
LINE
  5
9F1
330
1E
100
AcDbEntity
  8
0
100
AcDbLine
 10
99.00863499999999
 20
1314.999499999999
 30
0.0
 11
99.71573499999999
 21
1315.1695
 31
0.0
  0
LINE
  5
9F2
330
1E
100
AcDbEntity
  8
0
100
AcDbLine
 10
99.71573499999999
 20
1315.1695
 30
0.0
 11
99.998535
 21
1315.5695
 31
0.0
  0
LINE
  5
9F4
330
1E
100
AcDbEntity
  8
0
100
AcDbLine
 10
99.71573499999999
 20
1315.9795
 30
0.0
 11
99.998535
 21
1315.5695
 31
0.0
  0
LINE
  5
9F6
330
1E
100
AcDbEntity
  8
0
100
AcDbLine
 10
99.00863499999999
 20
1328.5295
 30
0.0
 11
99.71573499999999
 21
1328.6895
 31
0.0
  0
LINE
  5
9F8
330
1E
100
AcDbEntity
  8
0
100
AcDbLine
 10
99.00863499999999
 20
1329.659499999999
 30
0.0
 11
99.71573499999999
 21
1329.4995
 31
0.0
  0
LINE
  5
9F9
330
1E
100
AcDbEntity
  8
0
100
AcDbLine
 10
99.71573499999999
 20
1329.4995
 30
0.0
 11
99.998535
 21
1329.0895
 31
0.0
  0
LINE
  5
9FE
330
1E
100
AcDbEntity
  8
0
100
AcDbLine
 10
100.4494349999999
 20
1311.2695
 30
0.0
 11
100.539635
 21
1310.8395
 31
0.0
  0
LINE
  5
9FF
330
1E
100
AcDbEntity
  8
0
100
AcDbLine
 10
100.4494349999999
 20
1311.2695
 30
0.0
 11
100.905635
 21
1311.6195
 31
0.0
  0
LINE
  5
A01
330
1E
100
AcDbEntity
  8
0
100
AcDbLine
 10
100.539635
 20
1310.8395
 30
0.0
 11
101.149235
 21
1310.5795
 31
0.0
  0
LINE
  5
A04
330
1E
100
AcDbEntity
  8
0
100
AcDbLine
 10
99.71573499999999
 20
1328.6895
 30
0.0
 11
99.998535
 21
1329.0895
 31
0.0
  0
LINE
  5
A07
330
1E
100
AcDbEntity
  8
0
100
AcDbLine
 10
100.4494349999999
 20
1333.7895
 30
0.0
 11
100.539635
 21
1334.2295
 31
0.0
  0
LINE
  5
A08
330
1E
100
AcDbEntity
  8
0
100
AcDbLine
 10
100.4494349999999
 20
1333.7895
 30
0.0
 11
100.905635
 21
1333.4395
 31
0.0
  0
LINE
  5
A0B
330
1E
100
AcDbEntity
  8
0
100
AcDbLine
 10
101.662235
 20
1311.6795
 30
0.0
 11
102.271235
 21
1311.4095
 31
0.0
  0
LINE
  5
A0C
330
1E
100
AcDbEntity
  8
0
100
AcDbLine
 10
100.905635
 20
1311.6195
 30
0.0
 11
101.662235
 21
1311.6795
 31
0.0
  0
LINE
  5
A0E
330
1E
100
AcDbEntity
  8
0
100
AcDbLine
 10
101.149235
 20
1310.5795
 30
0.0
 11
101.905235
 21
1310.6295
 31
0.0
  0
LINE
  5
A0F
330
1E
100
AcDbEntity
  8
0
100
AcDbLine
 10
101.905235
 20
1310.6295
 30
0.0
 11
102.3622349999999
 21
1310.9795
 31
0.0
  0
LINE
  5
A10
330
1E
100
AcDbEntity
  8
0
100
AcDbLine
 10
101.9212349999999
 20
1326.2495
 30
0.0
 11
102.489235
 21
1325.959499999999
 31
0.0
  0
LINE
  5
A12
330
1E
100
AcDbEntity
  8
0
100
AcDbLine
 10
101.8972349999999
 20
1326.6795
 30
0.0
 11
102.405235
 21
1327.009499999999
 31
0.0
  0
LINE
  5
A13
330
1E
100
AcDbEntity
  8
0
100
AcDbLine
 10
101.8972349999999
 20
1326.6795
 30
0.0
 11
101.9212349999999
 21
1326.2495
 31
0.0
  0
LINE
  5
A15
330
1E
100
AcDbEntity
  8
0
100
AcDbLine
 10
101.662235
 20
1333.3895
 30
0.0
 11
102.271235
 21
1333.649499999999
 31
0.0
  0
LINE
  5
A16
330
1E
100
AcDbEntity
  8
0
100
AcDbLine
 10
100.905635
 20
1333.4395
 30
0.0
 11
101.662235
 21
1333.3895
 31
0.0
  0
LINE
  5
A17
330
1E
100
AcDbEntity
  8
0
100
AcDbLine
 10
100.539635
 20
1334.2295
 30
0.0
 11
101.149235
 21
1334.4895
 31
0.0
  0
LINE
  5
A1B
330
1E
100
AcDbEntity
  8
0
100
AcDbLine
 10
101.149235
 20
1334.4895
 30
0.0
 11
101.905235
 21
1334.4395
 31
0.0
  0
LINE
  5
A1D
330
1E
100
AcDbEntity
  8
0
100
AcDbLine
 10
101.905235
 20
1334.4395
 30
0.0
 11
102.3622349999999
 21
1334.0895
 31
0.0
  0
LINE
  5
A1F
330
1E
100
AcDbEntity
  8
0
100
AcDbLine
 10
98.79483499999999
 20
1340.2595
 30
0.0
 11
98.903435
 21
1339.8295
 31
0.0
  0
LINE
  5
A21
330
1E
100
AcDbEntity
  8
0
100
AcDbLine
 10
97.44253499999999
 20
1340.4695
 30
0.0
 11
98.196335
 21
1340.5295
 31
0.0
  0
LINE
  5
A24
330
1E
100
AcDbEntity
  8
0
100
AcDbLine
 10
93.25833499999999
 20
1340.0795
 30
0.0
 11
93.61823499999999
 21
1340.4595
 31
0.0
  0
LINE
  5
A26
330
1E
100
AcDbEntity
  8
0
100
AcDbLine
 10
98.196335
 20
1340.5295
 30
0.0
 11
98.79483499999999
 21
1340.2595
 31
0.0
  0
LINE
  5
A2A
330
1E
100
AcDbEntity
  8
0
100
AcDbLine
 10
97.263335
 20
1344.6795
 30
0.0
 11
97.68033500000001
 21
1345.0395
 31
0.0
  0
LINE
  5
A2B
330
1E
100
AcDbEntity
  8
0
100
AcDbLine
 10
96.52183499999999
 20
1344.5695
 30
0.0
 11
97.263335
 21
1344.6795
 31
0.0
  0
LINE
  5
A2C
330
1E
100
AcDbEntity
  8
0
100
AcDbLine
 10
95.88463500000001
 20
1344.8095
 30
0.0
 11
96.52183499999999
 21
1344.5695
 31
0.0
  0
LINE
  5
A2D
330
1E
100
AcDbEntity
  8
0
100
AcDbLine
 10
95.710735
 20
1345.239499999999
 30
0.0
 11
96.12773500000001
 21
1345.5995
 31
0.0
  0
LINE
  5
A2E
330
1E
100
AcDbEntity
  8
0
100
AcDbLine
 10
95.710735
 20
1345.239499999999
 30
0.0
 11
95.88463500000001
 21
1344.8095
 31
0.0
  0
LINE
  5
A31
330
1E
100
AcDbEntity
  8
0
100
AcDbLine
 10
97.506435
 20
1345.4695
 30
0.0
 11
97.68033500000001
 21
1345.0395
 31
0.0
  0
LINE
  5
A36
330
1E
100
AcDbEntity
  8
0
100
AcDbLine
 10
93.38033499999999
 20
1340.8795
 30
0.0
 11
93.61823499999999
 21
1340.4595
 31
0.0
  0
LINE
  5
A38
330
1E
100
AcDbEntity
  8
0
100
AcDbLine
 10
92.709135
 20
1341.0895
 30
0.0
 11
93.38033499999999
 21
1340.8795
 31
0.0
  0
LINE
  5
A3F
330
1E
100
AcDbEntity
  8
0
100
AcDbLine
 10
91.985635
 20
1340.9495
 30
0.0
 11
92.709135
 21
1341.0895
 31
0.0
  0
LINE
  5
A41
330
1E
100
AcDbEntity
  8
0
100
AcDbLine
 10
96.12773500000001
 20
1345.5995
 30
0.0
 11
96.86913500000001
 21
1345.6995
 31
0.0
  0
LINE
  5
A43
330
1E
100
AcDbEntity
  8
0
100
AcDbLine
 10
96.86913500000001
 20
1345.6995
 30
0.0
 11
97.506435
 21
1345.4695
 31
0.0
  0
LINE
  5
A46
330
1E
100
AcDbEntity
  8
0
100
AcDbLine
 10
90.62323499999999
 20
1345.0795
 30
0.0
 11
90.92323499999999
 21
1345.479499999999
 31
0.0
  0
LINE
  5
A47
330
1E
100
AcDbEntity
  8
0
100
AcDbLine
 10
90.62323499999999
 20
1345.8795
 30
0.0
 11
90.92323499999999
 21
1345.479499999999
 31
0.0
  0
LINE
  5
A4E
330
1E
100
AcDbEntity
  8
0
100
AcDbLine
 10
89.92323499999999
 20
1360.8995
 30
0.0
 11
102.723235
 21
1359.8695
 31
0.0
  0
LINE
  5
A59
330
1E
100
AcDbEntity
  8
0
100
AcDbLine
 10
89.92323499999999
 20
1346.0495
 30
0.0
 11
90.62323499999999
 21
1345.8795
 31
0.0
  0
LINE
  5
A5C
330
1E
100
AcDbEntity
  8
0
100
AcDbLine
 10
89.223235
 20
1345.8795
 30
0.0
 11
89.92323499999999
 21
1346.0495
 31
0.0
  0
LINE
  5
A5F
330
1E
100
AcDbEntity
  8
0
100
AcDbLine
 10
88.92323499999999
 20
1345.479499999999
 30
0.0
 11
89.223235
 21
1345.8795
 31
0.0
  0
LINE
  5
A60
330
1E
100
AcDbEntity
  8
0
100
AcDbLine
 10
88.92323499999999
 20
1345.479499999999
 30
0.0
 11
89.223235
 21
1345.0795
 31
0.0
  0
LINE
  5
A62
330
1E
100
AcDbEntity
  8
0
100
AcDbLine
 10
101.723235
 20
1370.3295
 30
0.0
 11
112.823235
 21
1367.749499999999
 31
0.0
  0
LINE
  5
A63
330
1E
100
AcDbEntity
  8
0
100
AcDbLine
 10
89.92323499999999
 20
1371.3095
 30
0.0
 11
101.723235
 21
1370.3295
 31
0.0
  0
LINE
  5
A64
330
1E
100
AcDbEntity
  8
0
100
AcDbLine
 10
89.92323499999999
 20
1361.719499999999
 30
0.0
 11
102.723235
 21
1360.6895
 31
0.0
  0
LINE
  5
A65
330
1E
100
AcDbEntity
  8
0
100
AcDbLine
 10
101.923235
 20
1297.5595
 30
0.0
 11
101.923235
 21
1299.50559756098
 31
0.0
  0
LINE
  5
A66
330
1E
100
AcDbEntity
  8
0
100
AcDbLine
 10
101.923235
 20
1297.5595
 30
0.0
 11
101.923235
 21
1288.469499999999
 31
0.0
  0
LINE
  5
A67
330
1E
100
AcDbEntity
  8
0
100
AcDbLine
 10
101.923235
 20
1288.469499999999
 30
0.0
 11
101.923235
 21
1297.5595
 31
0.0
  0
LINE
  5
A68
330
1E
100
AcDbEntity
  8
0
100
AcDbLine
 10
101.923235
 20
1288.469499999999
 30
0.0
 11
101.923235
 21
1276.0795
 31
0.0
  0
LINE
  5
A69
330
1E
100
AcDbEntity
  8
0
100
AcDbLine
 10
102.0752349999999
 20
1202.0795
 30
0.0
 11
103.419235
 21
1200.4295
 31
0.0
  0
LINE
  5
A6A
330
1E
100
AcDbEntity
  8
0
100
AcDbLine
 10
102.223235
 20
1299.5295
 30
0.0
 11
113.823235
 21
1302.2195
 31
0.0
  0
LINE
  5
A6C
330
1E
100
AcDbEntity
  8
0
100
AcDbLine
 10
102.079235
 20
1306.9195
 30
0.0
 11
102.103235
 21
1306.4795
 31
0.0
  0
LINE
  5
A6D
330
1E
100
AcDbEntity
  8
0
100
AcDbLine
 10
102.079235
 20
1306.9195
 30
0.0
 11
102.5872349999999
 21
1307.2495
 31
0.0
  0
LINE
  5
A6F
330
1E
100
AcDbEntity
  8
0
100
AcDbLine
 10
102.103235
 20
1306.4795
 30
0.0
 11
102.6712349999999
 21
1306.1895
 31
0.0
  0
LINE
  5
A72
330
1E
100
AcDbEntity
  8
0
100
AcDbLine
 10
102.365235
 20
1302.3295
 30
0.0
 11
102.9202349999999
 21
1302.6295
 31
0.0
  0
LINE
  5
A74
330
1E
100
AcDbEntity
  8
0
100
AcDbLine
 10
102.3222349999999
 20
1301.8895
 30
0.0
 11
102.8432349999999
 21
1301.5695
 31
0.0
  0
LINE
  5
A75
330
1E
100
AcDbEntity
  8
0
100
AcDbLine
 10
102.3222349999999
 20
1301.8895
 30
0.0
 11
102.365235
 21
1302.3295
 31
0.0
  0
LINE
  5
A77
330
1E
100
AcDbEntity
  8
0
100
AcDbLine
 10
103.419235
 20
1200.4295
 30
0.0
 11
103.923235
 21
1198.6695
 31
0.0
  0
LINE
  5
A79
330
1E
100
AcDbEntity
  8
0
100
AcDbLine
 10
102.9202349999999
 20
1302.6295
 30
0.0
 11
103.6802349999999
 21
1302.5995
 31
0.0
  0
LINE
  5
A7B
330
1E
100
AcDbEntity
  8
0
100
AcDbLine
 10
102.8432349999999
 20
1301.5695
 30
0.0
 11
103.604235
 21
1301.5495
 31
0.0
  0
LINE
  5
A7C
330
1E
100
AcDbEntity
  8
0
100
AcDbLine
 10
102.6712349999999
 20
1306.1895
 30
0.0
 11
103.4322349999999
 21
1306.2095
 31
0.0
  0
LINE
  5
A7D
330
1E
100
AcDbEntity
  8
0
100
AcDbLine
 10
103.348235
 20
1307.2595
 30
0.0
 11
103.916235
 21
1306.9695
 31
0.0
  0
LINE
  5
A7E
330
1E
100
AcDbEntity
  8
0
100
AcDbLine
 10
102.5872349999999
 20
1307.2495
 30
0.0
 11
103.348235
 21
1307.2595
 31
0.0
  0
LINE
  5
A7F
330
1E
100
AcDbEntity
  8
0
100
AcDbLine
 10
103.4322349999999
 20
1306.2095
 30
0.0
 11
103.940235
 21
1306.5295
 31
0.0
  0
LINE
  5
A80
330
1E
100
AcDbEntity
  8
0
100
AcDbLine
 10
102.271235
 20
1311.4095
 30
0.0
 11
102.3622349999999
 21
1310.9795
 31
0.0
  0
LINE
  5
A83
330
1E
100
AcDbEntity
  8
0
100
AcDbLine
 10
102.168235
 20
1318.6995
 30
0.0
 11
102.7362349999999
 21
1318.9895
 31
0.0
  0
LINE
  5
A85
330
1E
100
AcDbEntity
  8
0
100
AcDbLine
 10
102.144235
 20
1318.259499999999
 30
0.0
 11
102.652235
 21
1317.9395
 31
0.0
  0
LINE
  5
A86
330
1E
100
AcDbEntity
  8
0
100
AcDbLine
 10
102.144235
 20
1318.259499999999
 30
0.0
 11
102.168235
 21
1318.6995
 31
0.0
  0
LINE
  5
A8A
330
1E
100
AcDbEntity
  8
0
100
AcDbLine
 10
102.7362349999999
 20
1318.9895
 30
0.0
 11
103.497235
 21
1318.9795
 31
0.0
  0
LINE
  5
A8C
330
1E
100
AcDbEntity
  8
0
100
AcDbLine
 10
102.652235
 20
1317.9395
 30
0.0
 11
103.4132349999999
 21
1317.9195
 31
0.0
  0
LINE
  5
A8D
330
1E
100
AcDbEntity
  8
0
100
AcDbLine
 10
103.4132349999999
 20
1317.9195
 30
0.0
 11
103.981235
 21
1318.2095
 31
0.0
  0
LINE
  5
A8F
330
1E
100
AcDbEntity
  8
0
100
AcDbLine
 10
103.6802349999999
 20
1302.5995
 30
0.0
 11
104.202235
 21
1302.2895
 31
0.0
  0
LINE
  5
A91
330
1E
100
AcDbEntity
  8
0
100
AcDbLine
 10
103.604235
 20
1301.5495
 30
0.0
 11
104.1592349999999
 21
1301.8495
 31
0.0
  0
LINE
  5
A92
330
1E
100
AcDbEntity
  8
0
100
AcDbLine
 10
103.923235
 20
1198.6695
 30
0.0
 11
103.923235
 21
1144.969499999999
 31
0.0
  0
LINE
  5
A95
330
1E
100
AcDbEntity
  8
0
100
AcDbLine
 10
104.1592349999999
 20
1301.8495
 30
0.0
 11
104.202235
 21
1302.2895
 31
0.0
  0
LINE
  5
A98
330
1E
100
AcDbEntity
  8
0
100
AcDbLine
 10
103.916235
 20
1306.9695
 30
0.0
 11
103.940235
 21
1306.5295
 31
0.0
  0
LINE
  5
A9B
330
1E
100
AcDbEntity
  8
0
100
AcDbLine
 10
103.981235
 20
1318.2095
 30
0.0
 11
104.005235
 21
1318.6495
 31
0.0
  0
LINE
  5
A9C
330
1E
100
AcDbEntity
  8
0
100
AcDbLine
 10
103.497235
 20
1318.9795
 30
0.0
 11
104.005235
 21
1318.6495
 31
0.0
  0
LINE
  5
A9E
330
1E
100
AcDbEntity
  8
0
100
AcDbLine
 10
104.1762349999999
 20
1321.7995
 30
0.0
 11
104.900235
 21
1321.659499999999
 31
0.0
  0
LINE
  5
A9F
330
1E
100
AcDbEntity
  8
0
100
AcDbLine
 10
109.167235
 20
1303.1895
 30
0.0
 11
109.923235
 21
1303.2395
 31
0.0
  0
LINE
  5
AA1
330
1E
100
AcDbEntity
  8
0
100
AcDbLine
 10
108.4672349999999
 20
1303.8895
 30
0.0
 11
108.557235
 21
1303.4495
 31
0.0
  0
LINE
  5
AA2
330
1E
100
AcDbEntity
  8
0
100
AcDbLine
 10
108.4672349999999
 20
1303.8895
 30
0.0
 11
108.923235
 21
1304.229499999999
 31
0.0
  0
LINE
  5
AA7
330
1E
100
AcDbEntity
  8
0
100
AcDbLine
 10
109.679235
 20
1304.2895
 30
0.0
 11
110.289235
 21
1304.0295
 31
0.0
  0
LINE
  5
AA9
330
1E
100
AcDbEntity
  8
0
100
AcDbLine
 10
108.923235
 20
1304.229499999999
 30
0.0
 11
109.679235
 21
1304.2895
 31
0.0
  0
LINE
  5
AAB
330
1E
100
AcDbEntity
  8
0
100
AcDbLine
 10
108.557235
 20
1303.4495
 30
0.0
 11
109.167235
 21
1303.1895
 31
0.0
  0
LINE
  5
AAC
330
1E
100
AcDbEntity
  8
0
100
AcDbLine
 10
109.923235
 20
1303.2395
 30
0.0
 11
110.379235
 21
1303.5895
 31
0.0
  0
LINE
  5
AAD
330
1E
100
AcDbEntity
  8
0
100
AcDbLine
 10
113.823235
 20
1302.2195
 30
0.0
 11
123.823235
 21
1306.6395
 31
0.0
  0
LINE
  5
AB0
330
1E
100
AcDbEntity
  8
0
100
AcDbLine
 10
110.289235
 20
1304.0295
 30
0.0
 11
110.379235
 21
1303.5895
 31
0.0
  0
LINE
  5
AB3
330
1E
100
AcDbEntity
  8
0
100
AcDbLine
 10
106.709235
 20
1308.3695
 30
0.0
 11
106.864235
 21
1307.9395
 31
0.0
  0
LINE
  5
AB4
330
1E
100
AcDbEntity
  8
0
100
AcDbLine
 10
106.709235
 20
1308.3695
 30
0.0
 11
107.110235
 21
1308.739499999999
 31
0.0
  0
LINE
  5
AB8
330
1E
100
AcDbEntity
  8
0
100
AcDbLine
 10
107.856235
 20
1308.8295
 30
0.0
 11
108.503235
 21
1308.5995
 31
0.0
  0
LINE
  5
ABA
330
1E
100
AcDbEntity
  8
0
100
AcDbLine
 10
107.110235
 20
1308.739499999999
 30
0.0
 11
107.856235
 21
1308.8295
 31
0.0
  0
LINE
  5
ABC
330
1E
100
AcDbEntity
  8
0
100
AcDbLine
 10
106.864235
 20
1307.9395
 30
0.0
 11
107.512235
 21
1307.7095
 31
0.0
  0
LINE
  5
ABD
330
1E
100
AcDbEntity
  8
0
100
AcDbLine
 10
107.512235
 20
1307.7095
 30
0.0
 11
108.257235
 21
1307.7995
 31
0.0
  0
LINE
  5
ABE
330
1E
100
AcDbEntity
  8
0
100
AcDbLine
 10
108.257235
 20
1307.7995
 30
0.0
 11
108.659235
 21
1308.1795
 31
0.0
  0
LINE
  5
ABF
330
1E
100
AcDbEntity
  8
0
100
AcDbLine
 10
106.749235
 20
1314.439499999999
 30
0.0
 11
107.429235
 21
1314.6295
 31
0.0
  0
LINE
  5
AC0
330
1E
100
AcDbEntity
  8
0
100
AcDbLine
 10
106.529235
 20
1314.0195
 30
0.0
 11
106.872235
 21
1313.6295
 31
0.0
  0
LINE
  5
AC1
330
1E
100
AcDbEntity
  8
0
100
AcDbLine
 10
106.529235
 20
1314.0195
 30
0.0
 11
106.749235
 21
1314.439499999999
 31
0.0
  0
LINE
  5
AC2
330
1E
100
AcDbEntity
  8
0
100
AcDbLine
 10
106.872235
 20
1313.6295
 30
0.0
 11
107.601235
 21
1313.4995
 31
0.0
  0
LINE
  5
AC3
330
1E
100
AcDbEntity
  8
0
100
AcDbLine
 10
107.601235
 20
1313.4995
 30
0.0
 11
108.281235
 21
1313.6995
 31
0.0
  0
LINE
  5
AC6
330
1E
100
AcDbEntity
  8
0
100
AcDbLine
 10
111.111235
 20
1310.6695
 30
0.0
 11
111.818235
 21
1310.8295
 31
0.0
  0
LINE
  5
AC8
330
1E
100
AcDbEntity
  8
0
100
AcDbLine
 10
110.829235
 20
1310.259499999999
 30
0.0
 11
111.111235
 21
1309.8595
 31
0.0
  0
LINE
  5
AC9
330
1E
100
AcDbEntity
  8
0
100
AcDbLine
 10
110.829235
 20
1310.259499999999
 30
0.0
 11
111.111235
 21
1310.6695
 31
0.0
  0
LINE
  5
ACB
330
1E
100
AcDbEntity
  8
0
100
AcDbLine
 10
111.111235
 20
1309.8595
 30
0.0
 11
111.818235
 21
1309.6995
 31
0.0
  0
LINE
  5
ACC
330
1E
100
AcDbEntity
  8
0
100
AcDbLine
 10
111.818235
 20
1309.6995
 30
0.0
 11
112.526235
 21
1309.8595
 31
0.0
  0
LINE
  5
ACF
330
1E
100
AcDbEntity
  8
0
100
AcDbLine
 10
112.526235
 20
1309.8595
 30
0.0
 11
112.808235
 21
1310.259499999999
 31
0.0
  0
LINE
  5
AD3
330
1E
100
AcDbEntity
  8
0
100
AcDbLine
 10
111.818235
 20
1310.8295
 30
0.0
 11
112.526235
 21
1310.6695
 31
0.0
  0
LINE
  5
AD5
330
1E
100
AcDbEntity
  8
0
100
AcDbLine
 10
112.526235
 20
1310.6695
 30
0.0
 11
112.808235
 21
1310.259499999999
 31
0.0
  0
LINE
  5
AD7
330
1E
100
AcDbEntity
  8
0
100
AcDbLine
 10
108.503235
 20
1308.5995
 30
0.0
 11
108.659235
 21
1308.1795
 31
0.0
  0
LINE
  5
AD9
330
1E
100
AcDbEntity
  8
0
100
AcDbLine
 10
108.281235
 20
1313.6995
 30
0.0
 11
108.501235
 21
1314.1195
 31
0.0
  0
LINE
  5
ADA
330
1E
100
AcDbEntity
  8
0
100
AcDbLine
 10
111.161235
 20
1317.489499999999
 30
0.0
 11
111.921235
 21
1317.509499999999
 31
0.0
  0
LINE
  5
ADB
330
1E
100
AcDbEntity
  8
0
100
AcDbLine
 10
110.563235
 20
1318.2195
 30
0.0
 11
110.606235
 21
1317.7895
 31
0.0
  0
LINE
  5
ADC
330
1E
100
AcDbEntity
  8
0
100
AcDbLine
 10
110.563235
 20
1318.2195
 30
0.0
 11
111.084235
 21
1318.5395
 31
0.0
  0
LINE
  5
ADE
330
1E
100
AcDbEntity
  8
0
100
AcDbLine
 10
111.084235
 20
1318.5395
 30
0.0
 11
111.845235
 21
1318.5695
 31
0.0
  0
LINE
  5
AE0
330
1E
100
AcDbEntity
  8
0
100
AcDbLine
 10
110.606235
 20
1317.7895
 30
0.0
 11
111.161235
 21
1317.489499999999
 31
0.0
  0
LINE
  5
AE1
330
1E
100
AcDbEntity
  8
0
100
AcDbLine
 10
111.921235
 20
1317.509499999999
 30
0.0
 11
112.443235
 21
1317.8295
 31
0.0
  0
LINE
  5
AE2
330
1E
100
AcDbEntity
  8
0
100
AcDbLine
 10
112.400235
 20
1318.2695
 30
0.0
 11
112.443235
 21
1317.8295
 31
0.0
  0
LINE
  5
AE8
330
1E
100
AcDbEntity
  8
0
100
AcDbLine
 10
111.845235
 20
1318.5695
 30
0.0
 11
112.400235
 21
1318.2695
 31
0.0
  0
LINE
  5
AEA
330
1E
100
AcDbEntity
  8
0
100
AcDbLine
 10
107.429235
 20
1314.6295
 30
0.0
 11
108.158235
 21
1314.509499999999
 31
0.0
  0
LINE
  5
AEB
330
1E
100
AcDbEntity
  8
0
100
AcDbLine
 10
108.158235
 20
1314.509499999999
 30
0.0
 11
108.501235
 21
1314.1195
 31
0.0
  0
LINE
  5
AED
330
1E
100
AcDbEntity
  8
0
100
AcDbLine
 10
114.005235
 20
1306.0195
 30
0.0
 11
114.2262349999999
 21
1305.6095
 31
0.0
  0
LINE
  5
AEE
330
1E
100
AcDbEntity
  8
0
100
AcDbLine
 10
114.005235
 20
1306.0195
 30
0.0
 11
114.349235
 21
1306.4095
 31
0.0
  0
LINE
  5
AF1
330
1E
100
AcDbEntity
  8
0
100
AcDbLine
 10
114.313235
 20
1312.5395
 30
0.0
 11
114.714235
 21
1312.1695
 31
0.0
  0
LINE
  5
AF2
330
1E
100
AcDbEntity
  8
0
100
AcDbLine
 10
114.313235
 20
1312.5395
 30
0.0
 11
114.469235
 21
1312.9595
 31
0.0
  0
LINE
  5
AF4
330
1E
100
AcDbEntity
  8
0
100
AcDbLine
 10
114.469235
 20
1312.9595
 30
0.0
 11
115.116235
 21
1313.1895
 31
0.0
  0
LINE
  5
AF5
330
1E
100
AcDbEntity
  8
0
100
AcDbLine
 10
114.714235
 20
1312.1695
 30
0.0
 11
115.460235
 21
1312.0795
 31
0.0
  0
LINE
  5
AF7
330
1E
100
AcDbEntity
  8
0
100
AcDbLine
 10
114.349235
 20
1306.4095
 30
0.0
 11
115.078235
 21
1306.5395
 31
0.0
  0
LINE
  5
AF9
330
1E
100
AcDbEntity
  8
0
100
AcDbLine
 10
114.2262349999999
 20
1305.6095
 30
0.0
 11
114.905235
 21
1305.4095
 31
0.0
  0
LINE
  5
AFA
330
1E
100
AcDbEntity
  8
0
100
AcDbLine
 10
105.571235
 20
1321.8695
 30
0.0
 11
105.809235
 21
1322.2795
 31
0.0
  0
LINE
  5
AFB
330
1E
100
AcDbEntity
  8
0
100
AcDbLine
 10
104.900235
 20
1321.659499999999
 30
0.0
 11
105.571235
 21
1321.8695
 31
0.0
  0
LINE
  5
AFD
330
1E
100
AcDbEntity
  8
0
100
AcDbLine
 10
103.8162349999999
 20
1322.1795
 30
0.0
 11
104.0542349999999
 21
1322.5995
 31
0.0
  0
LINE
  5
AFE
330
1E
100
AcDbEntity
  8
0
100
AcDbLine
 10
103.8162349999999
 20
1322.1795
 30
0.0
 11
104.1762349999999
 21
1321.7995
 31
0.0
  0
LINE
  5
B00
330
1E
100
AcDbEntity
  8
0
100
AcDbLine
 10
112.188235
 20
1322.129499999999
 30
0.0
 11
112.888235
 21
1321.9595
 31
0.0
  0
LINE
  5
B01
330
1E
100
AcDbEntity
  8
0
100
AcDbLine
 10
104.0542349999999
 20
1322.5995
 30
0.0
 11
104.7252349999999
 21
1322.7995
 31
0.0
  0
LINE
  5
B05
330
1E
100
AcDbEntity
  8
0
100
AcDbLine
 10
104.7252349999999
 20
1322.7995
 30
0.0
 11
105.449235
 21
1322.669499999999
 31
0.0
  0
LINE
  5
B07
330
1E
100
AcDbEntity
  8
0
100
AcDbLine
 10
105.449235
 20
1322.669499999999
 30
0.0
 11
105.809235
 21
1322.2795
 31
0.0
  0
LINE
  5
B09
330
1E
100
AcDbEntity
  8
0
100
AcDbLine
 10
111.888235
 20
1322.5295
 30
0.0
 11
112.188235
 21
1322.9295
 31
0.0
  0
LINE
  5
B0A
330
1E
100
AcDbEntity
  8
0
100
AcDbLine
 10
111.888235
 20
1322.5295
 30
0.0
 11
112.188235
 21
1322.129499999999
 31
0.0
  0
LINE
  5
B0C
330
1E
100
AcDbEntity
  8
0
100
AcDbLine
 10
112.188235
 20
1322.9295
 30
0.0
 11
112.888235
 21
1323.1095
 31
0.0
  0
LINE
  5
B11
330
1E
100
AcDbEntity
  8
0
100
AcDbLine
 10
102.489235
 20
1325.959499999999
 30
0.0
 11
103.250235
 21
1325.9695
 31
0.0
  0
LINE
  5
B13
330
1E
100
AcDbEntity
  8
0
100
AcDbLine
 10
103.250235
 20
1325.9695
 30
0.0
 11
103.758235
 21
1326.2995
 31
0.0
  0
LINE
  5
B15
330
1E
100
AcDbEntity
  8
0
100
AcDbLine
 10
103.734235
 20
1326.729499999999
 30
0.0
 11
103.758235
 21
1326.2995
 31
0.0
  0
LINE
  5
B18
330
1E
100
AcDbEntity
  8
0
100
AcDbLine
 10
102.405235
 20
1327.009499999999
 30
0.0
 11
103.1662349999999
 21
1327.0195
 31
0.0
  0
LINE
  5
B1C
330
1E
100
AcDbEntity
  8
0
100
AcDbLine
 10
103.1662349999999
 20
1327.0195
 30
0.0
 11
103.734235
 21
1326.729499999999
 31
0.0
  0
LINE
  5
B1E
330
1E
100
AcDbEntity
  8
0
100
AcDbLine
 10
110.563235
 20
1326.8395
 30
0.0
 11
110.606235
 21
1327.2795
 31
0.0
  0
LINE
  5
B1F
330
1E
100
AcDbEntity
  8
0
100
AcDbLine
 10
110.563235
 20
1326.8395
 30
0.0
 11
111.084235
 21
1326.5195
 31
0.0
  0
LINE
  5
B20
330
1E
100
AcDbEntity
  8
0
100
AcDbLine
 10
111.084235
 20
1326.5195
 30
0.0
 11
111.845235
 21
1326.499499999999
 31
0.0
  0
LINE
  5
B21
330
1E
100
AcDbEntity
  8
0
100
AcDbLine
 10
110.606235
 20
1327.2795
 30
0.0
 11
111.161235
 21
1327.5795
 31
0.0
  0
LINE
  5
B23
330
1E
100
AcDbEntity
  8
0
100
AcDbLine
 10
106.749235
 20
1330.6295
 30
0.0
 11
107.429235
 21
1330.4295
 31
0.0
  0
LINE
  5
B24
330
1E
100
AcDbEntity
  8
0
100
AcDbLine
 10
106.529235
 20
1331.0495
 30
0.0
 11
106.872235
 21
1331.4395
 31
0.0
  0
LINE
  5
B25
330
1E
100
AcDbEntity
  8
0
100
AcDbLine
 10
106.529235
 20
1331.0495
 30
0.0
 11
106.749235
 21
1330.6295
 31
0.0
  0
LINE
  5
B26
330
1E
100
AcDbEntity
  8
0
100
AcDbLine
 10
107.429235
 20
1330.4295
 30
0.0
 11
108.158235
 21
1330.5595
 31
0.0
  0
LINE
  5
B27
330
1E
100
AcDbEntity
  8
0
100
AcDbLine
 10
106.872235
 20
1331.4395
 30
0.0
 11
107.601235
 21
1331.5695
 31
0.0
  0
LINE
  5
B28
330
1E
100
AcDbEntity
  8
0
100
AcDbLine
 10
102.271235
 20
1333.649499999999
 30
0.0
 11
102.3622349999999
 21
1334.0895
 31
0.0
  0
LINE
  5
B29
330
1E
100
AcDbEntity
  8
0
100
AcDbLine
 10
107.110235
 20
1336.8995
 30
0.0
 11
107.856235
 21
1336.8095
 31
0.0
  0
LINE
  5
B2A
330
1E
100
AcDbEntity
  8
0
100
AcDbLine
 10
106.709235
 20
1337.2695
 30
0.0
 11
106.864235
 21
1337.6995
 31
0.0
  0
LINE
  5
B2B
330
1E
100
AcDbEntity
  8
0
100
AcDbLine
 10
106.709235
 20
1337.2695
 30
0.0
 11
107.110235
 21
1336.8995
 31
0.0
  0
LINE
  5
B2C
330
1E
100
AcDbEntity
  8
0
100
AcDbLine
 10
103.348235
 20
1338.3895
 30
0.0
 11
103.916235
 21
1338.6795
 31
0.0
  0
LINE
  5
B2D
330
1E
100
AcDbEntity
  8
0
100
AcDbLine
 10
102.5872349999999
 20
1338.3995
 30
0.0
 11
103.348235
 21
1338.3895
 31
0.0
  0
LINE
  5
B2E
330
1E
100
AcDbEntity
  8
0
100
AcDbLine
 10
102.079235
 20
1338.7195
 30
0.0
 11
102.103235
 21
1339.1595
 31
0.0
  0
LINE
  5
B2F
330
1E
100
AcDbEntity
  8
0
100
AcDbLine
 10
102.079235
 20
1338.7195
 30
0.0
 11
102.5872349999999
 21
1338.3995
 31
0.0
  0
LINE
  5
B31
330
1E
100
AcDbEntity
  8
0
100
AcDbLine
 10
102.103235
 20
1339.1595
 30
0.0
 11
102.6712349999999
 21
1339.449499999999
 31
0.0
  0
LINE
  5
B35
330
1E
100
AcDbEntity
  8
0
100
AcDbLine
 10
102.365235
 20
1343.8895
 30
0.0
 11
102.9202349999999
 21
1343.5895
 31
0.0
  0
LINE
  5
B36
330
1E
100
AcDbEntity
  8
0
100
AcDbLine
 10
102.723235
 20
1359.8695
 30
0.0
 11
114.823235
 21
1357.0595
 31
0.0
  0
LINE
  5
B39
330
1E
100
AcDbEntity
  8
0
100
AcDbLine
 10
102.3222349999999
 20
1344.3295
 30
0.0
 11
102.8432349999999
 21
1344.6495
 31
0.0
  0
LINE
  5
B3A
330
1E
100
AcDbEntity
  8
0
100
AcDbLine
 10
102.3222349999999
 20
1344.3295
 30
0.0
 11
102.365235
 21
1343.8895
 31
0.0
  0
LINE
  5
B3C
330
1E
100
AcDbEntity
  8
0
100
AcDbLine
 10
102.9202349999999
 20
1343.5895
 30
0.0
 11
103.6802349999999
 21
1343.619499999999
 31
0.0
  0
LINE
  5
B3D
330
1E
100
AcDbEntity
  8
0
100
AcDbLine
 10
102.8432349999999
 20
1344.6495
 30
0.0
 11
103.604235
 21
1344.6695
 31
0.0
  0
LINE
  5
B41
330
1E
100
AcDbEntity
  8
0
100
AcDbLine
 10
102.6712349999999
 20
1339.449499999999
 30
0.0
 11
103.4322349999999
 21
1339.4395
 31
0.0
  0
LINE
  5
B44
330
1E
100
AcDbEntity
  8
0
100
AcDbLine
 10
103.6802349999999
 20
1343.619499999999
 30
0.0
 11
104.202235
 21
1343.929499999999
 31
0.0
  0
LINE
  5
B47
330
1E
100
AcDbEntity
  8
0
100
AcDbLine
 10
103.604235
 20
1344.6695
 30
0.0
 11
104.1592349999999
 21
1344.369499999999
 31
0.0
  0
LINE
  5
B4B
330
1E
100
AcDbEntity
  8
0
100
AcDbLine
 10
104.1592349999999
 20
1344.369499999999
 30
0.0
 11
104.202235
 21
1343.929499999999
 31
0.0
  0
LINE
  5
B4E
330
1E
100
AcDbEntity
  8
0
100
AcDbLine
 10
103.4322349999999
 20
1339.4395
 30
0.0
 11
103.940235
 21
1339.1095
 31
0.0
  0
LINE
  5
B50
330
1E
100
AcDbEntity
  8
0
100
AcDbLine
 10
103.916235
 20
1338.6795
 30
0.0
 11
103.940235
 21
1339.1095
 31
0.0
  0
LINE
  5
B52
330
1E
100
AcDbEntity
  8
0
100
AcDbLine
 10
106.864235
 20
1337.6995
 30
0.0
 11
107.512235
 21
1337.929499999999
 31
0.0
  0
LINE
  5
B53
330
1E
100
AcDbEntity
  8
0
100
AcDbLine
 10
107.856235
 20
1336.8095
 30
0.0
 11
108.503235
 21
1337.0395
 31
0.0
  0
LINE
  5
B54
330
1E
100
AcDbEntity
  8
0
100
AcDbLine
 10
107.512235
 20
1337.929499999999
 30
0.0
 11
108.257235
 21
1337.8395
 31
0.0
  0
LINE
  5
B56
330
1E
100
AcDbEntity
  8
0
100
AcDbLine
 10
107.601235
 20
1331.5695
 30
0.0
 11
108.281235
 21
1331.3695
 31
0.0
  0
LINE
  5
B58
330
1E
100
AcDbEntity
  8
0
100
AcDbLine
 10
108.257235
 20
1337.8395
 30
0.0
 11
108.659235
 21
1337.4695
 31
0.0
  0
LINE
  5
B5A
330
1E
100
AcDbEntity
  8
0
100
AcDbLine
 10
111.111235
 20
1334.969499999999
 30
0.0
 11
111.818235
 21
1334.8095
 31
0.0
  0
LINE
  5
B5C
330
1E
100
AcDbEntity
  8
0
100
AcDbLine
 10
110.829235
 20
1335.3795
 30
0.0
 11
111.111235
 21
1335.7895
 31
0.0
  0
LINE
  5
B5D
330
1E
100
AcDbEntity
  8
0
100
AcDbLine
 10
110.829235
 20
1335.3795
 30
0.0
 11
111.111235
 21
1334.969499999999
 31
0.0
  0
LINE
  5
B5F
330
1E
100
AcDbEntity
  8
0
100
AcDbLine
 10
111.818235
 20
1334.8095
 30
0.0
 11
112.526235
 21
1334.969499999999
 31
0.0
  0
LINE
  5
B60
330
1E
100
AcDbEntity
  8
0
100
AcDbLine
 10
111.111235
 20
1335.7895
 30
0.0
 11
111.818235
 21
1335.949499999999
 31
0.0
  0
LINE
  5
B63
330
1E
100
AcDbEntity
  8
0
100
AcDbLine
 10
108.4672349999999
 20
1342.3395
 30
0.0
 11
108.557235
 21
1342.7695
 31
0.0
  0
LINE
  5
B64
330
1E
100
AcDbEntity
  8
0
100
AcDbLine
 10
108.4672349999999
 20
1342.3395
 30
0.0
 11
108.923235
 21
1341.989499999999
 31
0.0
  0
LINE
  5
B66
330
1E
100
AcDbEntity
  8
0
100
AcDbLine
 10
108.557235
 20
1342.7695
 30
0.0
 11
109.167235
 21
1343.0295
 31
0.0
  0
LINE
  5
B69
330
1E
100
AcDbEntity
  8
0
100
AcDbLine
 10
109.679235
 20
1341.929499999999
 30
0.0
 11
110.289235
 21
1342.199499999999
 31
0.0
  0
LINE
  5
B6A
330
1E
100
AcDbEntity
  8
0
100
AcDbLine
 10
108.923235
 20
1341.989499999999
 30
0.0
 11
109.679235
 21
1341.929499999999
 31
0.0
  0
LINE
  5
B6D
330
1E
100
AcDbEntity
  8
0
100
AcDbLine
 10
109.167235
 20
1343.0295
 30
0.0
 11
109.923235
 21
1342.979499999999
 31
0.0
  0
LINE
  5
B71
330
1E
100
AcDbEntity
  8
0
100
AcDbLine
 10
109.923235
 20
1342.979499999999
 30
0.0
 11
110.379235
 21
1342.6295
 31
0.0
  0
LINE
  5
B73
330
1E
100
AcDbEntity
  8
0
100
AcDbLine
 10
110.289235
 20
1342.199499999999
 30
0.0
 11
110.379235
 21
1342.6295
 31
0.0
  0
LINE
  5
B75
330
1E
100
AcDbEntity
  8
0
100
AcDbLine
 10
108.503235
 20
1337.0395
 30
0.0
 11
108.659235
 21
1337.4695
 31
0.0
  0
LINE
  5
B77
330
1E
100
AcDbEntity
  8
0
100
AcDbLine
 10
111.818235
 20
1335.949499999999
 30
0.0
 11
112.526235
 21
1335.7895
 31
0.0
  0
LINE
  5
B7A
330
1E
100
AcDbEntity
  8
0
100
AcDbLine
 10
108.281235
 20
1331.3695
 30
0.0
 11
108.501235
 21
1330.9495
 31
0.0
  0
LINE
  5
B7C
330
1E
100
AcDbEntity
  8
0
100
AcDbLine
 10
108.158235
 20
1330.5595
 30
0.0
 11
108.501235
 21
1330.9495
 31
0.0
  0
LINE
  5
B7D
330
1E
100
AcDbEntity
  8
0
100
AcDbLine
 10
111.161235
 20
1327.5795
 30
0.0
 11
111.921235
 21
1327.5495
 31
0.0
  0
LINE
  5
B7E
330
1E
100
AcDbEntity
  8
0
100
AcDbLine
 10
111.921235
 20
1327.5495
 30
0.0
 11
112.443235
 21
1327.2295
 31
0.0
  0
LINE
  5
B7F
330
1E
100
AcDbEntity
  8
0
100
AcDbLine
 10
111.845235
 20
1326.499499999999
 30
0.0
 11
112.400235
 21
1326.7995
 31
0.0
  0
LINE
  5
B81
330
1E
100
AcDbEntity
  8
0
100
AcDbLine
 10
112.526235
 20
1335.7895
 30
0.0
 11
112.808235
 21
1335.3795
 31
0.0
  0
LINE
  5
B85
330
1E
100
AcDbEntity
  8
0
100
AcDbLine
 10
112.526235
 20
1334.969499999999
 30
0.0
 11
112.808235
 21
1335.3795
 31
0.0
  0
LINE
  5
B86
330
1E
100
AcDbEntity
  8
0
100
AcDbLine
 10
112.400235
 20
1326.7995
 30
0.0
 11
112.443235
 21
1327.2295
 31
0.0
  0
LINE
  5
B8A
330
1E
100
AcDbEntity
  8
0
100
AcDbLine
 10
112.888235
 20
1323.1095
 30
0.0
 11
113.588235
 21
1322.9295
 31
0.0
  0
LINE
  5
B8C
330
1E
100
AcDbEntity
  8
0
100
AcDbLine
 10
113.588235
 20
1322.9295
 30
0.0
 11
113.888235
 21
1322.5295
 31
0.0
  0
LINE
  5
B91
330
1E
100
AcDbEntity
  8
0
100
AcDbLine
 10
114.005235
 20
1340.199499999999
 30
0.0
 11
114.2262349999999
 21
1340.6195
 31
0.0
  0
LINE
  5
B92
330
1E
100
AcDbEntity
  8
0
100
AcDbLine
 10
114.005235
 20
1340.199499999999
 30
0.0
 11
114.349235
 21
1339.8095
 31
0.0
  0
LINE
  5
B94
330
1E
100
AcDbEntity
  8
0
100
AcDbLine
 10
114.469235
 20
1332.6795
 30
0.0
 11
115.116235
 21
1332.4495
 31
0.0
  0
LINE
  5
B97
330
1E
100
AcDbEntity
  8
0
100
AcDbLine
 10
114.313235
 20
1333.1095
 30
0.0
 11
114.714235
 21
1333.4795
 31
0.0
  0
LINE
  5
B98
330
1E
100
AcDbEntity
  8
0
100
AcDbLine
 10
114.313235
 20
1333.1095
 30
0.0
 11
114.469235
 21
1332.6795
 31
0.0
  0
LINE
  5
B9A
330
1E
100
AcDbEntity
  8
0
100
AcDbLine
 10
114.714235
 20
1333.4795
 30
0.0
 11
115.460235
 21
1333.5695
 31
0.0
  0
LINE
  5
B9C
330
1E
100
AcDbEntity
  8
0
100
AcDbLine
 10
114.823235
 20
1357.0595
 30
0.0
 11
125.223235
 21
1352.469499999999
 31
0.0
  0
LINE
  5
B9D
330
1E
100
AcDbEntity
  8
0
100
AcDbLine
 10
114.349235
 20
1339.8095
 30
0.0
 11
115.078235
 21
1339.679499999999
 31
0.0
  0
LINE
  5
B9E
330
1E
100
AcDbEntity
  8
0
100
AcDbLine
 10
114.2262349999999
 20
1340.6195
 30
0.0
 11
114.905235
 21
1340.8095
 31
0.0
  0
LINE
  5
BA1
330
1E
100
AcDbEntity
  8
0
100
AcDbLine
 10
113.588235
 20
1322.129499999999
 30
0.0
 11
113.888235
 21
1322.5295
 31
0.0
  0
LINE
  5
BA2
330
1E
100
AcDbEntity
  8
0
100
AcDbLine
 10
112.888235
 20
1321.9595
 30
0.0
 11
113.588235
 21
1322.129499999999
 31
0.0
  0
LINE
  5
BA3
330
1E
100
AcDbEntity
  8
0
100
AcDbLine
 10
114.905235
 20
1305.4095
 30
0.0
 11
115.635235
 21
1305.5395
 31
0.0
  0
LINE
  5
BA5
330
1E
100
AcDbEntity
  8
0
100
AcDbLine
 10
115.116235
 20
1313.1895
 30
0.0
 11
115.861235
 21
1313.0995
 31
0.0
  0
LINE
  5
BA6
330
1E
100
AcDbEntity
  8
0
100
AcDbLine
 10
115.460235
 20
1312.0795
 30
0.0
 11
116.1072349999999
 21
1312.3095
 31
0.0
  0
LINE
  5
BA8
330
1E
100
AcDbEntity
  8
0
100
AcDbLine
 10
115.078235
 20
1306.5395
 30
0.0
 11
115.758235
 21
1306.339499999999
 31
0.0
  0
LINE
  5
BAA
330
1E
100
AcDbEntity
  8
0
100
AcDbLine
 10
115.635235
 20
1305.5395
 30
0.0
 11
115.978235
 21
1305.9295
 31
0.0
  0
LINE
  5
BAF
330
1E
100
AcDbEntity
  8
0
100
AcDbLine
 10
119.712235
 20
1309.2995
 30
0.0
 11
120.442235
 21
1309.1695
 31
0.0
  0
LINE
  5
BB1
330
1E
100
AcDbEntity
  8
0
100
AcDbLine
 10
119.033235
 20
1309.0995
 30
0.0
 11
119.712235
 21
1309.2995
 31
0.0
  0
LINE
  5
BB3
330
1E
100
AcDbEntity
  8
0
100
AcDbLine
 10
118.813235
 20
1308.6795
 30
0.0
 11
119.156235
 21
1308.2895
 31
0.0
  0
LINE
  5
BB4
330
1E
100
AcDbEntity
  8
0
100
AcDbLine
 10
118.813235
 20
1308.6795
 30
0.0
 11
119.033235
 21
1309.0995
 31
0.0
  0
LINE
  5
BB6
330
1E
100
AcDbEntity
  8
0
100
AcDbLine
 10
119.156235
 20
1308.2895
 30
0.0
 11
119.885235
 21
1308.169499999999
 31
0.0
  0
LINE
  5
BB7
330
1E
100
AcDbEntity
  8
0
100
AcDbLine
 10
119.885235
 20
1308.169499999999
 30
0.0
 11
120.565235
 21
1308.3595
 31
0.0
  0
LINE
  5
BB9
330
1E
100
AcDbEntity
  8
0
100
AcDbLine
 10
117.080235
 20
1315.5595
 30
0.0
 11
117.648235
 21
1315.8495
 31
0.0
  0
LINE
  5
BBB
330
1E
100
AcDbEntity
  8
0
100
AcDbLine
 10
117.056235
 20
1315.1195
 30
0.0
 11
117.564235
 21
1314.7995
 31
0.0
  0
LINE
  5
BBC
330
1E
100
AcDbEntity
  8
0
100
AcDbLine
 10
117.056235
 20
1315.1195
 30
0.0
 11
117.080235
 21
1315.5595
 31
0.0
  0
LINE
  5
BBE
330
1E
100
AcDbEntity
  8
0
100
AcDbLine
 10
117.564235
 20
1314.7995
 30
0.0
 11
118.325235
 21
1314.7795
 31
0.0
  0
LINE
  5
BBF
330
1E
100
AcDbEntity
  8
0
100
AcDbLine
 10
118.325235
 20
1314.7795
 30
0.0
 11
118.8932349999999
 21
1315.0695
 31
0.0
  0
LINE
  5
BC1
330
1E
100
AcDbEntity
  8
0
100
AcDbLine
 10
118.8932349999999
 20
1315.0695
 30
0.0
 11
118.9172349999999
 21
1315.5095
 31
0.0
  0
LINE
  5
BC8
330
1E
100
AcDbEntity
  8
0
100
AcDbLine
 10
119.338235
 20
1318.7195
 30
0.0
 11
120.092235
 21
1318.7795
 31
0.0
  0
LINE
  5
BCA
330
1E
100
AcDbEntity
  8
0
100
AcDbLine
 10
118.867235
 20
1318.3695
 30
0.0
 11
118.975235
 21
1317.9395
 31
0.0
  0
LINE
  5
BCB
330
1E
100
AcDbEntity
  8
0
100
AcDbLine
 10
118.867235
 20
1318.3695
 30
0.0
 11
119.338235
 21
1318.7195
 31
0.0
  0
LINE
  5
BCD
330
1E
100
AcDbEntity
  8
0
100
AcDbLine
 10
118.975235
 20
1317.9395
 30
0.0
 11
119.574235
 21
1317.6695
 31
0.0
  0
LINE
  5
BCE
330
1E
100
AcDbEntity
  8
0
100
AcDbLine
 10
119.574235
 20
1317.6695
 30
0.0
 11
120.328235
 21
1317.729499999999
 31
0.0
  0
LINE
  5
BD0
330
1E
100
AcDbEntity
  8
0
100
AcDbLine
 10
117.648235
 20
1315.8495
 30
0.0
 11
118.409235
 21
1315.8395
 31
0.0
  0
LINE
  5
BD2
330
1E
100
AcDbEntity
  8
0
100
AcDbLine
 10
118.409235
 20
1315.8395
 30
0.0
 11
118.9172349999999
 21
1315.5095
 31
0.0
  0
LINE
  5
BD5
330
1E
100
AcDbEntity
  8
0
100
AcDbLine
 10
116.1072349999999
 20
1312.3095
 30
0.0
 11
116.263235
 21
1312.7295
 31
0.0
  0
LINE
  5
BD6
330
1E
100
AcDbEntity
  8
0
100
AcDbLine
 10
115.861235
 20
1313.0995
 30
0.0
 11
116.263235
 21
1312.7295
 31
0.0
  0
LINE
  5
BD8
330
1E
100
AcDbEntity
  8
0
100
AcDbLine
 10
115.758235
 20
1306.339499999999
 30
0.0
 11
115.978235
 21
1305.9295
 31
0.0
  0
LINE
  5
BDA
330
1E
100
AcDbEntity
  8
0
100
AcDbLine
 10
119.774235
 20
1321.3195
 30
0.0
 11
120.012235
 21
1320.909499999999
 31
0.0
  0
LINE
  5
BDB
330
1E
100
AcDbEntity
  8
0
100
AcDbLine
 10
119.774235
 20
1321.3195
 30
0.0
 11
120.134235
 21
1321.7095
 31
0.0
  0
LINE
  5
BDC
330
1E
100
AcDbEntity
  8
0
100
AcDbLine
 10
120.012235
 20
1320.909499999999
 30
0.0
 11
120.683235
 21
1320.699499999999
 31
0.0
  0
LINE
  5
BDD
330
1E
100
AcDbEntity
  8
0
100
AcDbLine
 10
119.774235
 20
1324.3195
 30
0.0
 11
120.012235
 21
1324.7295
 31
0.0
  0
LINE
  5
BDE
330
1E
100
AcDbEntity
  8
0
100
AcDbLine
 10
119.774235
 20
1324.3195
 30
0.0
 11
120.134235
 21
1323.9295
 31
0.0
  0
LINE
  5
BE3
330
1E
100
AcDbEntity
  8
0
100
AcDbLine
 10
120.565235
 20
1308.3595
 30
0.0
 11
120.785235
 21
1308.7795
 31
0.0
  0
LINE
  5
BE4
330
1E
100
AcDbEntity
  8
0
100
AcDbLine
 10
120.442235
 20
1309.1695
 30
0.0
 11
120.785235
 21
1308.7795
 31
0.0
  0
LINE
  5
BE7
330
1E
100
AcDbEntity
  8
0
100
AcDbLine
 10
120.328235
 20
1317.729499999999
 30
0.0
 11
120.799235
 21
1318.0795
 31
0.0
  0
LINE
  5
BEA
330
1E
100
AcDbEntity
  8
0
100
AcDbLine
 10
120.690235
 20
1318.5095
 30
0.0
 11
120.799235
 21
1318.0795
 31
0.0
  0
LINE
  5
BEC
330
1E
100
AcDbEntity
  8
0
100
AcDbLine
 10
120.092235
 20
1318.7795
 30
0.0
 11
120.690235
 21
1318.5095
 31
0.0
  0
LINE
  5
BEE
330
1E
100
AcDbEntity
  8
0
100
AcDbLine
 10
120.134235
 20
1321.7095
 30
0.0
 11
120.857235
 21
1321.8495
 31
0.0
  0
LINE
  5
BEF
330
1E
100
AcDbEntity
  8
0
100
AcDbLine
 10
120.683235
 20
1320.699499999999
 30
0.0
 11
121.406235
 21
1320.8395
 31
0.0
  0
LINE
  5
BF0
330
1E
100
AcDbEntity
  8
0
100
AcDbLine
 10
120.857235
 20
1321.8495
 30
0.0
 11
121.528235
 21
1321.6395
 31
0.0
  0
LINE
  5
BF1
330
1E
100
AcDbEntity
  8
0
100
AcDbLine
 10
120.134235
 20
1323.9295
 30
0.0
 11
120.857235
 21
1323.7995
 31
0.0
  0
LINE
  5
BF2
330
1E
100
AcDbEntity
  8
0
100
AcDbLine
 10
120.012235
 20
1324.7295
 30
0.0
 11
120.683235
 21
1324.9395
 31
0.0
  0
LINE
  5
BF6
330
1E
100
AcDbEntity
  8
0
100
AcDbLine
 10
120.683235
 20
1324.9395
 30
0.0
 11
121.406235
 21
1324.7995
 31
0.0
  0
LINE
  5
BF8
330
1E
100
AcDbEntity
  8
0
100
AcDbLine
 10
123.823235
 20
1306.6395
 30
0.0
 11
131.523235
 21
1312.369499999999
 31
0.0
  0
LINE
  5
BFB
330
1E
100
AcDbEntity
  8
0
100
AcDbLine
 10
122.832235
 20
1312.2095
 30
0.0
 11
123.442235
 21
1312.469499999999
 31
0.0
  0
LINE
  5
BFD
330
1E
100
AcDbEntity
  8
0
100
AcDbLine
 10
122.742235
 20
1311.7795
 30
0.0
 11
123.198235
 21
1311.4295
 31
0.0
  0
LINE
  5
BFE
330
1E
100
AcDbEntity
  8
0
100
AcDbLine
 10
122.742235
 20
1311.7795
 30
0.0
 11
122.832235
 21
1312.2095
 31
0.0
  0
LINE
  5
C02
330
1E
100
AcDbEntity
  8
0
100
AcDbLine
 10
123.442235
 20
1312.469499999999
 30
0.0
 11
124.198235
 21
1312.4195
 31
0.0
  0
LINE
  5
C04
330
1E
100
AcDbEntity
  8
0
100
AcDbLine
 10
123.198235
 20
1311.4295
 30
0.0
 11
123.954235
 21
1311.3795
 31
0.0
  0
LINE
  5
C05
330
1E
100
AcDbEntity
  8
0
100
AcDbLine
 10
123.954235
 20
1311.3795
 30
0.0
 11
124.564235
 21
1311.6395
 31
0.0
  0
LINE
  5
C08
330
1E
100
AcDbEntity
  8
0
100
AcDbLine
 10
124.564235
 20
1311.6395
 30
0.0
 11
124.654235
 21
1312.0695
 31
0.0
  0
LINE
  5
C09
330
1E
100
AcDbEntity
  8
0
100
AcDbLine
 10
124.198235
 20
1312.4195
 30
0.0
 11
124.654235
 21
1312.0695
 31
0.0
  0
LINE
  5
C0C
330
1E
100
AcDbEntity
  8
0
100
AcDbLine
 10
125.6312349999999
 20
1315.659499999999
 30
0.0
 11
125.674235
 21
1315.219499999999
 31
0.0
  0
LINE
  5
C0D
330
1E
100
AcDbEntity
  8
0
100
AcDbLine
 10
125.6312349999999
 20
1315.659499999999
 30
0.0
 11
126.153235
 21
1315.9695
 31
0.0
  0
LINE
  5
C11
330
1E
100
AcDbEntity
  8
0
100
AcDbLine
 10
126.153235
 20
1315.9695
 30
0.0
 11
126.913235
 21
1315.999499999999
 31
0.0
  0
LINE
  5
C13
330
1E
100
AcDbEntity
  8
0
100
AcDbLine
 10
125.674235
 20
1315.219499999999
 30
0.0
 11
126.229235
 21
1314.9195
 31
0.0
  0
LINE
  5
C14
330
1E
100
AcDbEntity
  8
0
100
AcDbLine
 10
126.229235
 20
1314.9195
 30
0.0
 11
126.989235
 21
1314.9395
 31
0.0
  0
LINE
  5
C16
330
1E
100
AcDbEntity
  8
0
100
AcDbLine
 10
126.989235
 20
1314.9395
 30
0.0
 11
127.511235
 21
1315.2595
 31
0.0
  0
LINE
  5
C19
330
1E
100
AcDbEntity
  8
0
100
AcDbLine
 10
127.468235
 20
1315.6995
 30
0.0
 11
127.511235
 21
1315.2595
 31
0.0
  0
LINE
  5
C1B
330
1E
100
AcDbEntity
  8
0
100
AcDbLine
 10
126.913235
 20
1315.999499999999
 30
0.0
 11
127.468235
 21
1315.6995
 31
0.0
  0
LINE
  5
C1F
330
1E
100
AcDbEntity
  8
0
100
AcDbLine
 10
121.406235
 20
1320.8395
 30
0.0
 11
121.766235
 21
1321.219499999999
 31
0.0
  0
LINE
  5
C20
330
1E
100
AcDbEntity
  8
0
100
AcDbLine
 10
121.528235
 20
1321.6395
 30
0.0
 11
121.766235
 21
1321.219499999999
 31
0.0
  0
LINE
  5
C23
330
1E
100
AcDbEntity
  8
0
100
AcDbLine
 10
127.346235
 20
1319.3295
 30
0.0
 11
127.520235
 21
1318.8995
 31
0.0
  0
LINE
  5
C24
330
1E
100
AcDbEntity
  8
0
100
AcDbLine
 10
127.346235
 20
1319.3295
 30
0.0
 11
127.763235
 21
1319.689499999999
 31
0.0
  0
LINE
  5
C27
330
1E
100
AcDbEntity
  8
0
100
AcDbLine
 10
127.763235
 20
1319.689499999999
 30
0.0
 11
128.504235
 21
1319.7895
 31
0.0
  0
LINE
  5
C29
330
1E
100
AcDbEntity
  8
0
100
AcDbLine
 10
127.520235
 20
1318.8995
 30
0.0
 11
128.157235
 21
1318.6595
 31
0.0
  0
LINE
  5
C2A
330
1E
100
AcDbEntity
  8
0
100
AcDbLine
 10
128.157235
 20
1318.6595
 30
0.0
 11
128.8982349999999
 21
1318.7595
 31
0.0
  0
LINE
  5
C2B
330
1E
100
AcDbEntity
  8
0
100
AcDbLine
 10
128.223235
 20
1322.7095
 30
0.0
 11
128.923235
 21
1322.5395
 31
0.0
  0
LINE
  5
C2D
330
1E
100
AcDbEntity
  8
0
100
AcDbLine
 10
127.923235
 20
1323.1095
 30
0.0
 11
128.223235
 21
1323.5095
 31
0.0
  0
LINE
  5
C2E
330
1E
100
AcDbEntity
  8
0
100
AcDbLine
 10
127.923235
 20
1323.1095
 30
0.0
 11
128.223235
 21
1322.7095
 31
0.0
  0
LINE
  5
C30
330
1E
100
AcDbEntity
  8
0
100
AcDbLine
 10
128.8982349999999
 20
1318.7595
 30
0.0
 11
129.3152349999999
 21
1319.1295
 31
0.0
  0
LINE
  5
C32
330
1E
100
AcDbEntity
  8
0
100
AcDbLine
 10
128.504235
 20
1319.7895
 30
0.0
 11
129.141235
 21
1319.5495
 31
0.0
  0
LINE
  5
C34
330
1E
100
AcDbEntity
  8
0
100
AcDbLine
 10
128.223235
 20
1323.5095
 30
0.0
 11
128.923235
 21
1323.6795
 31
0.0
  0
LINE
  5
C37
330
1E
100
AcDbEntity
  8
0
100
AcDbLine
 10
128.923235
 20
1323.6795
 30
0.0
 11
129.623235
 21
1323.5095
 31
0.0
  0
LINE
  5
C3A
330
1E
100
AcDbEntity
  8
0
100
AcDbLine
 10
132.823235
 20
1314.0195
 30
0.0
 11
137.623235
 21
1320.8395
 31
0.0
  0
LINE
  5
C3B
330
1E
100
AcDbEntity
  8
0
100
AcDbLine
 10
131.523235
 20
1312.369499999999
 30
0.0
 11
132.823235
 21
1314.0195
 31
0.0
  0
LINE
  5
C3D
330
1E
100
AcDbEntity
  8
0
100
AcDbLine
 10
137.623235
 20
1320.8395
 30
0.0
 11
138.123235
 21
1322.8395
 31
0.0
  0
LINE
  5
C3F
330
1E
100
AcDbEntity
  8
0
100
AcDbLine
 10
129.141235
 20
1319.5495
 30
0.0
 11
129.3152349999999
 21
1319.1295
 31
0.0
  0
LINE
  5
C41
330
1E
100
AcDbEntity
  8
0
100
AcDbLine
 10
138.123235
 20
1322.8395
 30
0.0
 11
139.023234999998
 21
1326.50949999999
 31
0.0
  0
LINE
  5
C44
330
1E
100
AcDbEntity
  8
0
100
AcDbLine
 10
129.623235
 20
1323.5095
 30
0.0
 11
129.923235
 21
1323.1095
 31
0.0
  0
LINE
  5
C46
330
1E
100
AcDbEntity
  8
0
100
AcDbLine
 10
129.623235
 20
1322.7095
 30
0.0
 11
129.923235
 21
1323.1095
 31
0.0
  0
LINE
  5
C47
330
1E
100
AcDbEntity
  8
0
100
AcDbLine
 10
128.923235
 20
1322.5395
 30
0.0
 11
129.623235
 21
1322.7095
 31
0.0
  0
LINE
  5
C4E
330
1E
100
AcDbEntity
  8
0
100
AcDbLine
 10
121.406235
 20
1324.7995
 30
0.0
 11
121.766235
 21
1324.4195
 31
0.0
  0
LINE
  5
C50
330
1E
100
AcDbEntity
  8
0
100
AcDbLine
 10
121.528235
 20
1324.009499999999
 30
0.0
 11
121.766235
 21
1324.4195
 31
0.0
  0
LINE
  5
C51
330
1E
100
AcDbEntity
  8
0
100
AcDbLine
 10
120.857235
 20
1323.7995
 30
0.0
 11
121.528235
 21
1324.009499999999
 31
0.0
  0
LINE
  5
C52
330
1E
100
AcDbEntity
  8
0
100
AcDbLine
 10
120.092235
 20
1326.8695
 30
0.0
 11
120.690235
 21
1327.1395
 31
0.0
  0
LINE
  5
C53
330
1E
100
AcDbEntity
  8
0
100
AcDbLine
 10
119.338235
 20
1326.9295
 30
0.0
 11
120.092235
 21
1326.8695
 31
0.0
  0
LINE
  5
C54
330
1E
100
AcDbEntity
  8
0
100
AcDbLine
 10
118.867235
 20
1327.2695
 30
0.0
 11
118.975235
 21
1327.6995
 31
0.0
  0
LINE
  5
C55
330
1E
100
AcDbEntity
  8
0
100
AcDbLine
 10
118.867235
 20
1327.2695
 30
0.0
 11
119.338235
 21
1326.9295
 31
0.0
  0
LINE
  5
C57
330
1E
100
AcDbEntity
  8
0
100
AcDbLine
 10
120.690235
 20
1327.1395
 30
0.0
 11
120.799235
 21
1327.5695
 31
0.0
  0
LINE
  5
C58
330
1E
100
AcDbEntity
  8
0
100
AcDbLine
 10
127.346235
 20
1326.8995
 30
0.0
 11
127.520235
 21
1327.3195
 31
0.0
  0
LINE
  5
C59
330
1E
100
AcDbEntity
  8
0
100
AcDbLine
 10
127.346235
 20
1326.8995
 30
0.0
 11
127.763235
 21
1326.5295
 31
0.0
  0
LINE
  5
C5B
330
1E
100
AcDbEntity
  8
0
100
AcDbLine
 10
127.763235
 20
1326.5295
 30
0.0
 11
128.504235
 21
1326.4295
 31
0.0
  0
LINE
  5
C5C
330
1E
100
AcDbEntity
  8
0
100
AcDbLine
 10
127.520235
 20
1327.3195
 30
0.0
 11
128.157235
 21
1327.5595
 31
0.0
  0
LINE
  5
C60
330
1E
100
AcDbEntity
  8
0
100
AcDbLine
 10
118.975235
 20
1327.6995
 30
0.0
 11
119.574235
 21
1327.9695
 31
0.0
  0
LINE
  5
C64
330
1E
100
AcDbEntity
  8
0
100
AcDbLine
 10
119.574235
 20
1327.9695
 30
0.0
 11
120.328235
 21
1327.9095
 31
0.0
  0
LINE
  5
C68
330
1E
100
AcDbEntity
  8
0
100
AcDbLine
 10
120.328235
 20
1327.9095
 30
0.0
 11
120.799235
 21
1327.5695
 31
0.0
  0
LINE
  5
C6C
330
1E
100
AcDbEntity
  8
0
100
AcDbLine
 10
117.648235
 20
1329.7995
 30
0.0
 11
118.409235
 21
1329.8095
 31
0.0
  0
LINE
  5
C6D
330
1E
100
AcDbEntity
  8
0
100
AcDbLine
 10
117.080235
 20
1330.0895
 30
0.0
 11
117.648235
 21
1329.7995
 31
0.0
  0
LINE
  5
C6E
330
1E
100
AcDbEntity
  8
0
100
AcDbLine
 10
117.056235
 20
1330.5195
 30
0.0
 11
117.564235
 21
1330.8495
 31
0.0
  0
LINE
  5
C6F
330
1E
100
AcDbEntity
  8
0
100
AcDbLine
 10
117.056235
 20
1330.5195
 30
0.0
 11
117.080235
 21
1330.0895
 31
0.0
  0
LINE
  5
C72
330
1E
100
AcDbEntity
  8
0
100
AcDbLine
 10
118.409235
 20
1329.8095
 30
0.0
 11
118.9172349999999
 21
1330.129499999999
 31
0.0
  0
LINE
  5
C73
330
1E
100
AcDbEntity
  8
0
100
AcDbLine
 10
117.564235
 20
1330.8495
 30
0.0
 11
118.325235
 21
1330.8595
 31
0.0
  0
LINE
  5
C74
330
1E
100
AcDbEntity
  8
0
100
AcDbLine
 10
118.325235
 20
1330.8595
 30
0.0
 11
118.8932349999999
 21
1330.5695
 31
0.0
  0
LINE
  5
C76
330
1E
100
AcDbEntity
  8
0
100
AcDbLine
 10
118.8932349999999
 20
1330.5695
 30
0.0
 11
118.9172349999999
 21
1330.129499999999
 31
0.0
  0
LINE
  5
C78
330
1E
100
AcDbEntity
  8
0
100
AcDbLine
 10
125.6312349999999
 20
1330.5595
 30
0.0
 11
125.674235
 21
1330.999499999999
 31
0.0
  0
LINE
  5
C79
330
1E
100
AcDbEntity
  8
0
100
AcDbLine
 10
125.6312349999999
 20
1330.5595
 30
0.0
 11
126.153235
 21
1330.249499999999
 31
0.0
  0
LINE
  5
C7B
330
1E
100
AcDbEntity
  8
0
100
AcDbLine
 10
126.153235
 20
1330.249499999999
 30
0.0
 11
126.913235
 21
1330.2195
 31
0.0
  0
LINE
  5
C7C
330
1E
100
AcDbEntity
  8
0
100
AcDbLine
 10
125.674235
 20
1330.999499999999
 30
0.0
 11
126.229235
 21
1331.2995
 31
0.0
  0
LINE
  5
C80
330
1E
100
AcDbEntity
  8
0
100
AcDbLine
 10
115.116235
 20
1332.4495
 30
0.0
 11
115.861235
 21
1332.5395
 31
0.0
  0
LINE
  5
C81
330
1E
100
AcDbEntity
  8
0
100
AcDbLine
 10
115.861235
 20
1332.5395
 30
0.0
 11
116.263235
 21
1332.9095
 31
0.0
  0
LINE
  5
C85
330
1E
100
AcDbEntity
  8
0
100
AcDbLine
 10
115.460235
 20
1333.5695
 30
0.0
 11
116.1072349999999
 21
1333.3395
 31
0.0
  0
LINE
  5
C87
330
1E
100
AcDbEntity
  8
0
100
AcDbLine
 10
116.1072349999999
 20
1333.3395
 30
0.0
 11
116.263235
 21
1332.9095
 31
0.0
  0
LINE
  5
C89
330
1E
100
AcDbEntity
  8
0
100
AcDbLine
 10
122.832235
 20
1334.0095
 30
0.0
 11
123.442235
 21
1333.749499999999
 31
0.0
  0
LINE
  5
C8C
330
1E
100
AcDbEntity
  8
0
100
AcDbLine
 10
122.742235
 20
1334.4395
 30
0.0
 11
123.198235
 21
1334.7895
 31
0.0
  0
LINE
  5
C8D
330
1E
100
AcDbEntity
  8
0
100
AcDbLine
 10
122.742235
 20
1334.4395
 30
0.0
 11
122.832235
 21
1334.0095
 31
0.0
  0
LINE
  5
C8F
330
1E
100
AcDbEntity
  8
0
100
AcDbLine
 10
123.442235
 20
1333.749499999999
 30
0.0
 11
124.198235
 21
1333.7995
 31
0.0
  0
LINE
  5
C90
330
1E
100
AcDbEntity
  8
0
100
AcDbLine
 10
123.198235
 20
1334.7895
 30
0.0
 11
123.954235
 21
1334.8395
 31
0.0
  0
LINE
  5
C93
330
1E
100
AcDbEntity
  8
0
100
AcDbLine
 10
115.078235
 20
1339.679499999999
 30
0.0
 11
115.758235
 21
1339.8795
 31
0.0
  0
LINE
  5
C94
330
1E
100
AcDbEntity
  8
0
100
AcDbLine
 10
119.033235
 20
1337.1195
 30
0.0
 11
119.712235
 21
1336.9195
 31
0.0
  0
LINE
  5
C95
330
1E
100
AcDbEntity
  8
0
100
AcDbLine
 10
118.813235
 20
1337.5395
 30
0.0
 11
119.156235
 21
1337.929499999999
 31
0.0
  0
LINE
  5
C96
330
1E
100
AcDbEntity
  8
0
100
AcDbLine
 10
118.813235
 20
1337.5395
 30
0.0
 11
119.033235
 21
1337.1195
 31
0.0
  0
LINE
  5
C98
330
1E
100
AcDbEntity
  8
0
100
AcDbLine
 10
119.712235
 20
1336.9195
 30
0.0
 11
120.442235
 21
1337.0495
 31
0.0
  0
LINE
  5
C99
330
1E
100
AcDbEntity
  8
0
100
AcDbLine
 10
119.156235
 20
1337.929499999999
 30
0.0
 11
119.885235
 21
1338.0495
 31
0.0
  0
LINE
  5
C9E
330
1E
100
AcDbEntity
  8
0
100
AcDbLine
 10
119.885235
 20
1338.0495
 30
0.0
 11
120.565235
 21
1337.8595
 31
0.0
  0
LINE
  5
CA3
330
1E
100
AcDbEntity
  8
0
100
AcDbLine
 10
120.565235
 20
1337.8595
 30
0.0
 11
120.785235
 21
1337.4395
 31
0.0
  0
LINE
  5
CA5
330
1E
100
AcDbEntity
  8
0
100
AcDbLine
 10
120.442235
 20
1337.0495
 30
0.0
 11
120.785235
 21
1337.4395
 31
0.0
  0
LINE
  5
CA7
330
1E
100
AcDbEntity
  8
0
100
AcDbLine
 10
115.758235
 20
1339.8795
 30
0.0
 11
115.978235
 21
1340.2995
 31
0.0
  0
LINE
  5
CAA
330
1E
100
AcDbEntity
  8
0
100
AcDbLine
 10
123.954235
 20
1334.8395
 30
0.0
 11
124.564235
 21
1334.5795
 31
0.0
  0
LINE
  5
CAF
330
1E
100
AcDbEntity
  8
0
100
AcDbLine
 10
124.564235
 20
1334.5795
 30
0.0
 11
124.654235
 21
1334.1495
 31
0.0
  0
LINE
  5
CB1
330
1E
100
AcDbEntity
  8
0
100
AcDbLine
 10
124.198235
 20
1333.7995
 30
0.0
 11
124.654235
 21
1334.1495
 31
0.0
  0
LINE
  5
CB4
330
1E
100
AcDbEntity
  8
0
100
AcDbLine
 10
126.229235
 20
1331.2995
 30
0.0
 11
126.989235
 21
1331.2795
 31
0.0
  0
LINE
  5
CB9
330
1E
100
AcDbEntity
  8
0
100
AcDbLine
 10
126.989235
 20
1331.2795
 30
0.0
 11
127.511235
 21
1330.9595
 31
0.0
  0
LINE
  5
CBB
330
1E
100
AcDbEntity
  8
0
100
AcDbLine
 10
127.468235
 20
1330.5195
 30
0.0
 11
127.511235
 21
1330.9595
 31
0.0
  0
LINE
  5
CBC
330
1E
100
AcDbEntity
  8
0
100
AcDbLine
 10
126.913235
 20
1330.2195
 30
0.0
 11
127.468235
 21
1330.5195
 31
0.0
  0
LINE
  5
CBF
330
1E
100
AcDbEntity
  8
0
100
AcDbLine
 10
128.157235
 20
1327.5595
 30
0.0
 11
128.8982349999999
 21
1327.4595
 31
0.0
  0
LINE
  5
CC1
330
1E
100
AcDbEntity
  8
0
100
AcDbLine
 10
128.8982349999999
 20
1327.4595
 30
0.0
 11
129.3152349999999
 21
1327.0895
 31
0.0
  0
LINE
  5
CC4
330
1E
100
AcDbEntity
  8
0
100
AcDbLine
 10
138.123235
 20
1339.5695
 30
0.0
 11
139.923235
 21
1332.219499999999
 31
0.0
  0
LINE
  5
CC6
330
1E
100
AcDbEntity
  8
0
100
AcDbLine
 10
129.141235
 20
1326.6695
 30
0.0
 11
129.3152349999999
 21
1327.0895
 31
0.0
  0
LINE
  5
CC7
330
1E
100
AcDbEntity
  8
0
100
AcDbLine
 10
128.504235
 20
1326.4295
 30
0.0
 11
129.141235
 21
1326.6695
 31
0.0
  0
LINE
  5
CC8
330
1E
100
AcDbEntity
  8
0
100
AcDbLine
 10
139.923235
 20
1332.219499999999
 30
0.0
 11
139.923235
 21
1330.1795
 31
0.0
  0
LINE
  5
CC9
330
1E
100
AcDbEntity
  8
0
100
AcDbLine
 10
139.923235
 20
1330.1795
 30
0.0
 11
139.923235
 21
1332.219499999999
 31
0.0
  0
LINE
  5
CCA
330
1E
100
AcDbEntity
  8
0
100
AcDbLine
 10
139.822758485364
 20
1332.62977910143
 30
0.0
 11
139.923235
 21
1333.0395
 31
0.0
  0
LINE
  5
CCC
330
1E
100
AcDbEntity
  8
0
100
AcDbLine
 10
133.223235
 20
1346.5095
 30
0.0
 11
138.123235
 21
1339.5695
 31
0.0
  0
LINE
  5
CCF
330
1E
100
AcDbEntity
  8
0
100
AcDbLine
 10
114.905235
 20
1340.8095
 30
0.0
 11
115.635235
 21
1340.6895
 31
0.0
  0
LINE
  5
CD1
330
1E
100
AcDbEntity
  8
0
100
AcDbLine
 10
115.635235
 20
1340.6895
 30
0.0
 11
115.978235
 21
1340.2995
 31
0.0
  0
LINE
  5
CD3
330
1E
100
AcDbEntity
  8
0
100
AcDbLine
 10
139.923235
 20
1341.649499999999
 30
0.0
 11
139.923235
 21
1333.0395
 31
0.0
  0
LINE
  5
CD4
330
1E
100
AcDbEntity
  8
0
100
AcDbLine
 10
133.223235
 20
1347.3295
 30
0.0
 11
138.123235
 21
1340.3895
 31
0.0
  0
LINE
  5
CD5
330
1E
100
AcDbEntity
  8
0
100
AcDbLine
 10
138.123235
 20
1340.3895
 30
0.0
 11
139.923235
 21
1333.0395
 31
0.0
  0
LINE
  5
CD6
330
1E
100
AcDbEntity
  8
0
100
AcDbLine
 10
139.923235
 20
1333.0395
 30
0.0
 11
139.923235
 21
1341.649499999999
 31
0.0
  0
LINE
  5
CD7
330
1E
100
AcDbEntity
  8
0
100
AcDbLine
 10
125.223235
 20
1352.469499999999
 30
0.0
 11
133.223235
 21
1346.5095
 31
0.0
  0
LINE
  5
CD8
330
1E
100
AcDbEntity
  8
0
100
AcDbLine
 10
125.223235
 20
1353.2895
 30
0.0
 11
133.223235
 21
1347.3295
 31
0.0
  0
LINE
  5
CD9
330
1E
100
AcDbEntity
  8
0
100
AcDbLine
 10
132.823235
 20
1356.5695
 30
0.0
 11
137.623235
 21
1349.749499999999
 31
0.0
  0
LINE
  5
CDA
330
1E
100
AcDbEntity
  8
0
100
AcDbLine
 10
137.623235
 20
1349.749499999999
 30
0.0
 11
138.123235
 21
1348.9895
 31
0.0
  0
LINE
  5
CDB
330
1E
100
AcDbEntity
  8
0
100
AcDbLine
 10
138.123235
 20
1348.9895
 30
0.0
 11
139.923235
 21
1341.649499999999
 31
0.0
  0
LINE
  5
CDC
330
1E
100
AcDbEntity
  8
0
100
AcDbLine
 10
114.823235
 20
1357.8795
 30
0.0
 11
125.223235
 21
1353.2895
 31
0.0
  0
LINE
  5
CDD
330
1E
100
AcDbEntity
  8
0
100
AcDbLine
 10
112.823235
 20
1367.749499999999
 30
0.0
 11
114.523235
 21
1367.0695
 31
0.0
  0
LINE
  5
CDE
330
1E
100
AcDbEntity
  8
0
100
AcDbLine
 10
114.523235
 20
1367.0695
 30
0.0
 11
124.9232349999999
 21
1362.5395
 31
0.0
  0
LINE
  5
CDF
330
1E
100
AcDbEntity
  8
0
100
AcDbLine
 10
124.9232349999999
 20
1362.5395
 30
0.0
 11
132.823235
 21
1356.5695
 31
0.0
  0
LINE
  5
CE0
330
1E
100
AcDbEntity
  8
0
100
AcDbLine
 10
102.723235
 20
1360.6895
 30
0.0
 11
114.823235
 21
1357.8795
 31
0.0
  0
LINE
  5
CE1
330
1E
100
AcDbEntity
  8
0
100
AcDbLine
 10
101.923235
 20
1299.50559756098
 30
0.0
 11
101.923235
 21
1297.5595
 31
0.0
  0
LINE
  5
CE5
330
1E
100
AcDbEntity
  8
0
100
AcDbLine
 10
75.92323499999999
 20
1125.8295
 30
0.0
 11
75.92323499999999
 21
1127.6995
 31
0.0
  0
LINE
  5
CE6
330
1E
100
AcDbEntity
  8
0
100
AcDbLine
 10
75.92323499999999
 20
1125.8295
 30
0.0
 11
75.92323499999999
 21
1125.2495
 31
0.0
  0
LINE
  5
CE7
330
1E
100
AcDbEntity
  8
0
100
AcDbLine
 10
75.92323499999999
 20
1125.2495
 30
0.0
 11
75.92323499999999
 21
1125.8295
 31
0.0
  0
LINE
  5
CE8
330
1E
100
AcDbEntity
  8
0
100
AcDbLine
 10
75.92323499999999
 20
1125.2495
 30
0.0
 11
81.92323499999998
 21
1125.239499999999
 31
0.0
  0
LINE
  5
CE9
330
1E
100
AcDbEntity
  8
0
100
AcDbLine
 10
66.92323499999999
 20
1125.2495
 30
0.0
 11
75.92323499999999
 21
1125.2495
 31
0.0
  0
LINE
  5
CEA
330
1E
100
AcDbEntity
  8
0
100
AcDbLine
 10
66.92323499999999
 20
1415.2495
 30
0.0
 11
66.92323499999999
 21
948.2395
 31
0.0
  0
LINE
  5
CEB
330
1E
100
AcDbEntity
  8
0
100
AcDbLine
 10
66.42323499999999
 20
1493.2395
 30
0.0
 11
66.92323499999999
 21
1492.739499999999
 31
0.0
  0
LINE
  5
CEC
330
1E
100
AcDbEntity
  8
0
100
AcDbLine
 10
66.523235
 20
1492.739499999999
 30
0.0
 11
66.92323499999999
 21
1492.739499999999
 31
0.0
  0
LINE
  5
CED
330
1E
100
AcDbEntity
  8
0
100
AcDbLine
 10
66.523235
 20
1441.739499999999
 30
0.0
 11
66.92323499999999
 21
1441.739499999999
 31
0.0
  0
LINE
  5
CEE
330
1E
100
AcDbEntity
  8
0
100
AcDbLine
 10
66.023235
 20
1441.2395
 30
0.0
 11
66.42323499999999
 21
1441.2395
 31
0.0
  0
LINE
  5
CEF
330
1E
100
AcDbEntity
  8
0
100
AcDbLine
 10
45.823235
 20
877.2395000000001
 30
0.0
 11
46.82323499999999
 21
877.2395000000001
 31
0.0
  0
LINE
  5
CF0
330
1E
100
AcDbEntity
  8
0
100
AcDbLine
 10
45.423235
 20
877.2395000000001
 30
0.0
 11
45.823235
 21
877.2395000000001
 31
0.0
  0
LINE
  5
CF5
330
1E
100
AcDbEntity
  8
0
100
AcDbLine
 10
66.92323499999999
 20
1492.739499999999
 30
0.0
 11
66.92323499999999
 21
1441.739499999999
 31
0.0
  0
LINE
  5
CF6
330
1E
100
AcDbEntity
  8
0
100
AcDbLine
 10
40.8232350000026
 20
1326.50949999999
 30
0.0
 11
39.92323499999999
 21
1330.1795
 31
0.0
  0
LINE
  5
CF7
330
1E
100
AcDbEntity
  8
0
100
AcDbLine
 10
139.023234999998
 20
1326.50949999999
 30
0.0
 11
139.923235
 21
1330.1795
 31
0.0
  0
LINE
  5
CFB
330
1E
100
AcDbEntity
  8
0
100
AcDbLine
 10
81.11303499999999
 20
786.5294999999999
 30
0.0
 11
81.11303500000001
 21
925.2394999999999
 31
0.0
  0
LINE
  5
CFC
330
1E
100
AcDbEntity
  8
0
100
AcDbLine
 10
97.03523500000001
 20
794.3395
 30
0.0
 11
97.03523500000002
 21
925.2394999999999
 31
0.0
  0
ENDSEC
  0
SECTION
  2
OBJECTS
  0
DICTIONARY
  5
C
330
0
100
AcDbDictionary
281
     1
  3
ACAD_GROUP
350
D
  3
ACAD_LAYOUT
350
19
  3
ACAD_MLINESTYLE
350
16
  3
ACAD_PLOTSETTINGS
350
18
  3
ACAD_PLOTSTYLENAME
350
E
  3
AcDbVariableDictionary
350
CF8
  0
DICTIONARY
  5
D
102
{ACAD_REACTORS
330
C
102
}
330
C
100
AcDbDictionary
281
     1
  0
DICTIONARY
  5
19
102
{ACAD_REACTORS
330
C
102
}
330
C
100
AcDbDictionary
281
     1
  3
Layout1
350
1D
  3
Model
350
21
  0
DICTIONARY
  5
16
102
{ACAD_REACTORS
330
C
102
}
330
C
100
AcDbDictionary
281
     1
  3
Standard
350
17
  0
DICTIONARY
  5
18
102
{ACAD_REACTORS
330
C
102
}
330
C
100
AcDbDictionary
281
     1
  0
ACDBDICTIONARYWDFLT
  5
E
102
{ACAD_REACTORS
330
C
102
}
330
C
100
AcDbDictionary
281
     1
  3
Normal
350
F
100
AcDbDictionaryWithDefault
340
F
  0
DICTIONARY
  5
CF8
102
{ACAD_REACTORS
330
C
102
}
330
C
100
AcDbDictionary
281
     1
  3
DIMASSOC
350
CF9
  0
LAYOUT
  5
1D
102
{ACAD_REACTORS
330
19
102
}
330
19
100
AcDbPlotSettings
  1

  2
hp deskjet 980c series
  4

  6

 40
0.0
 41
0.0
 42
0.0
 43
0.0
 44
0.0
 45
0.0
 46
0.0
 47
0.0
 48
0.0
 49
0.0
140
0.0
141
0.0
142
1.0
143
1.0
 70
   688
 72
     0
 73
     0
 74
     5
  7

 75
    16
147
1.0
148
0.0
149
0.0
100
AcDbLayout
  1
Layout1
 70
     1
 71
     1
 10
0.0
 20
0.0
 11
12.0
 21
9.0
 12
0.0
 22
0.0
 32
0.0
 14
1.000000000000000E+20
 24
1.000000000000000E+20
 34
1.000000000000000E+20
 15
-1.000000000000000E+20
 25
-1.000000000000000E+20
 35
-1.000000000000000E+20
146
0.0
 13
0.0
 23
0.0
 33
0.0
 16
1.0
 26
0.0
 36
0.0
 17
0.0
 27
1.0
 37
0.0
 76
     0
330
1A
  0
LAYOUT
  5
21
102
{ACAD_REACTORS
330
19
102
}
330
19
100
AcDbPlotSettings
  1

  2
hp deskjet 980c series
  4

  6

 40
0.0
 41
0.0
 42
0.0
 43
0.0
 44
0.0
 45
0.0
 46
0.0
 47
0.0
 48
0.0
 49
0.0
140
0.0
141
0.0
142
1.0
143
1.0
 70
  1712
 72
     0
 73
     0
 74
     0
  7

 75
     0
147
1.0
148
0.0
149
0.0
100
AcDbLayout
  1
Model
 70
     1
 71
     0
 10
0.0
 20
0.0
 11
12.0
 21
9.0
 12
0.0
 22
0.0
 32
0.0
 14
0.0
 24
0.0
 34
0.0
 15
0.0
 25
0.0
 35
0.0
146
0.0
 13
0.0
 23
0.0
 33
0.0
 16
1.0
 26
0.0
 36
0.0
 17
0.0
 27
1.0
 37
0.0
 76
     0
330
1E
  0
MLINESTYLE
  5
17
102
{ACAD_REACTORS
330
16
102
}
330
16
100
AcDbMlineStyle
  2
STANDARD
 70
     0
  3

 62
   256
 51
90.0
 52
90.0
 71
     2
 49
0.5
 62
   256
  6
BYLAYER
 49
-0.5
 62
   256
  6
BYLAYER
  0
ACDBPLACEHOLDER
  5
F
102
{ACAD_REACTORS
330
E
102
}
330
E
  0
DICTIONARYVAR
  5
CF9
102
{ACAD_REACTORS
330
CF8
102
}
330
CF8
100
DictionaryVariables
280
     0
  1
1
  0
ENDSEC
  0
EOF
