  0
SECTION
  2
HEADER
  9
$ACADVER
  1
AC1015
  9
$ACADMAINTVER
 70
    13
  9
$DWGCODEPAGE
  3
ANSI_1252
  9
$INSBASE
 10
0.0
 20
0.0
 30
0.0
  9
$EXTMIN
 10
0.111860000000007
 20
-0.239499999999905
 30
0.0
  9
$EXTMAX
 10
260.8881399999999
 20
1493.2395
 30
0.0
  9
$LIMMIN
 10
0.0
 20
0.0
  9
$LIMMAX
 10
12.0
 20
9.0
  9
$ORTHOMODE
 70
     0
  9
$REGENMODE
 70
     1
  9
$FILLMODE
 70
     1
  9
$QTEXTMODE
 70
     0
  9
$MIRRTEXT
 70
     1
  9
$LTSCALE
 40
1.0
  9
$ATTMODE
 70
     1
  9
$TEXTSIZE
 40
0.2
  9
$TRACEWID
 40
0.05
  9
$TEXTSTYLE
  7
Standard
  9
$CLAYER
  8
0
  9
$CELTYPE
  6
Continuous
  9
$CECOLOR
 62
   256
  9
$CELTSCALE
 40
1.0
  9
$DISPSILH
 70
     0
  9
$DIMSCALE
 40
1.0
  9
$DIMASZ
 40
0.18
  9
$DIMEXO
 40
0.0625
  9
$DIMDLI
 40
0.38
  9
$DIMRND
 40
0.0
  9
$DIMDLE
 40
0.0
  9
$DIMEXE
 40
0.18
  9
$DIMTP
 40
0.0
  9
$DIMTM
 40
0.0
  9
$DIMTXT
 40
0.18
  9
$DIMCEN
 40
0.09
  9
$DIMTSZ
 40
0.0
  9
$DIMTOL
 70
     0
  9
$DIMLIM
 70
     0
  9
$DIMTIH
 70
     1
  9
$DIMTOH
 70
     1
  9
$DIMSE1
 70
     0
  9
$DIMSE2
 70
     0
  9
$DIMTAD
 70
     0
  9
$DIMZIN
 70
     0
  9
$DIMBLK
  1

  9
$DIMASO
 70
     1
  9
$DIMSHO
 70
     1
  9
$DIMPOST
  1

  9
$DIMAPOST
  1

  9
$DIMALT
 70
     0
  9
$DIMALTD
 70
     2
  9
$DIMALTF
 40
25.4
  9
$DIMLFAC
 40
1.0
  9
$DIMTOFL
 70
     0
  9
$DIMTVP
 40
0.0
  9
$DIMTIX
 70
     0
  9
$DIMSOXD
 70
     0
  9
$DIMSAH
 70
     0
  9
$DIMBLK1
  1

  9
$DIMBLK2
  1

  9
$DIMSTYLE
  2
Standard
  9
$DIMCLRD
 70
     0
  9
$DIMCLRE
 70
     0
  9
$DIMCLRT
 70
     0
  9
$DIMTFAC
 40
1.0
  9
$DIMGAP
 40
0.09
  9
$DIMJUST
 70
     0
  9
$DIMSD1
 70
     0
  9
$DIMSD2
 70
     0
  9
$DIMTOLJ
 70
     1
  9
$DIMTZIN
 70
     0
  9
$DIMALTZ
 70
     0
  9
$DIMALTTZ
 70
     0
  9
$DIMUPT
 70
     0
  9
$DIMDEC
 70
     4
  9
$DIMTDEC
 70
     4
  9
$DIMALTU
 70
     2
  9
$DIMALTTD
 70
     2
  9
$DIMTXSTY
  7
Standard
  9
$DIMAUNIT
 70
     0
  9
$DIMADEC
 70
     0
  9
$DIMALTRND
 40
0.0
  9
$DIMAZIN
 70
     0
  9
$DIMDSEP
 70
    46
  9
$DIMATFIT
 70
     3
  9
$DIMFRAC
 70
     0
  9
$DIMLDRBLK
  1

  9
$DIMLUNIT
 70
     2
  9
$DIMLWD
 70
    -2
  9
$DIMLWE
 70
    -2
  9
$DIMTMOVE
 70
     0
  9
$LUNITS
 70
     2
  9
$LUPREC
 70
     4
  9
$SKETCHINC
 40
0.1
  9
$FILLETRAD
 40
0.0
  9
$AUNITS
 70
     0
  9
$AUPREC
 70
     0
  9
$MENU
  1
.
  9
$ELEVATION
 40
0.0
  9
$PELEVATION
 40
0.0
  9
$THICKNESS
 40
0.0
  9
$LIMCHECK
 70
     0
  9
$CHAMFERA
 40
0.0
  9
$CHAMFERB
 40
0.0
  9
$CHAMFERC
 40
0.0
  9
$CHAMFERD
 40
0.0
  9
$SKPOLY
 70
     0
  9
$TDCREATE
 40
2454739.468152847
  9
$TDUCREATE
 40
2454739.384819514
  9
$TDUPDATE
 40
2454739.470212303
  9
$TDUUPDATE
 40
2454739.386878970
  9
$TDINDWG
 40
0.0020596412
  9
$TDUSRTIMER
 40
0.0020596412
  9
$USRTIMER
 70
     1
  9
$ANGBASE
 50
0.0
  9
$ANGDIR
 70
     0
  9
$PDMODE
 70
     0
  9
$PDSIZE
 40
0.0
  9
$PLINEWID
 40
0.0
  9
$SPLFRAME
 70
     0
  9
$SPLINETYPE
 70
     6
  9
$SPLINESEGS
 70
     8
  9
$HANDSEED
  5
6FF
  9
$SURFTAB1
 70
     6
  9
$SURFTAB2
 70
     6
  9
$SURFTYPE
 70
     6
  9
$SURFU
 70
     6
  9
$SURFV
 70
     6
  9
$UCSBASE
  2

  9
$UCSNAME
  2

  9
$UCSORG
 10
0.0
 20
0.0
 30
0.0
  9
$UCSXDIR
 10
1.0
 20
0.0
 30
0.0
  9
$UCSYDIR
 10
0.0
 20
1.0
 30
0.0
  9
$UCSORTHOREF
  2

  9
$UCSORTHOVIEW
 70
     1
  9
$UCSORGTOP
 10
0.0
 20
0.0
 30
0.0
  9
$UCSORGBOTTOM
 10
0.0
 20
0.0
 30
0.0
  9
$UCSORGLEFT
 10
0.0
 20
0.0
 30
0.0
  9
$UCSORGRIGHT
 10
0.0
 20
0.0
 30
0.0
  9
$UCSORGFRONT
 10
0.0
 20
0.0
 30
0.0
  9
$UCSORGBACK
 10
0.0
 20
0.0
 30
0.0
  9
$PUCSBASE
  2

  9
$PUCSNAME
  2

  9
$PUCSORG
 10
0.0
 20
0.0
 30
0.0
  9
$PUCSXDIR
 10
1.0
 20
0.0
 30
0.0
  9
$PUCSYDIR
 10
0.0
 20
1.0
 30
0.0
  9
$PUCSORTHOREF
  2

  9
$PUCSORTHOVIEW
 70
     0
  9
$PUCSORGTOP
 10
0.0
 20
0.0
 30
0.0
  9
$PUCSORGBOTTOM
 10
0.0
 20
0.0
 30
0.0
  9
$PUCSORGLEFT
 10
0.0
 20
0.0
 30
0.0
  9
$PUCSORGRIGHT
 10
0.0
 20
0.0
 30
0.0
  9
$PUCSORGFRONT
 10
0.0
 20
0.0
 30
0.0
  9
$PUCSORGBACK
 10
0.0
 20
0.0
 30
0.0
  9
$USERI1
 70
     0
  9
$USERI2
 70
     0
  9
$USERI3
 70
     0
  9
$USERI4
 70
     0
  9
$USERI5
 70
     0
  9
$USERR1
 40
0.0
  9
$USERR2
 40
0.0
  9
$USERR3
 40
0.0
  9
$USERR4
 40
0.0
  9
$USERR5
 40
0.0
  9
$WORLDVIEW
 70
     1
  9
$SHADEDGE
 70
     3
  9
$SHADEDIF
 70
    70
  9
$TILEMODE
 70
     1
  9
$MAXACTVP
 70
    64
  9
$PINSBASE
 10
0.0
 20
0.0
 30
0.0
  9
$PLIMCHECK
 70
     0
  9
$PEXTMIN
 10
1.000000000000000E+20
 20
1.000000000000000E+20
 30
1.000000000000000E+20
  9
$PEXTMAX
 10
-1.000000000000000E+20
 20
-1.000000000000000E+20
 30
-1.000000000000000E+20
  9
$PLIMMIN
 10
0.0
 20
0.0
  9
$PLIMMAX
 10
12.0
 20
9.0
  9
$UNITMODE
 70
     0
  9
$VISRETAIN
 70
     1
  9
$PLINEGEN
 70
     0
  9
$PSLTSCALE
 70
     1
  9
$TREEDEPTH
 70
  3020
  9
$CMLSTYLE
  2
Standard
  9
$CMLJUST
 70
     0
  9
$CMLSCALE
 40
1.0
  9
$PROXYGRAPHICS
 70
     1
  9
$MEASUREMENT
 70
     0
  9
$CELWEIGHT
370
    -1
  9
$ENDCAPS
280
     0
  9
$JOINSTYLE
280
     0
  9
$LWDISPLAY
290
     0
  9
$INSUNITS
 70
     0
  9
$HYPERLINKBASE
  1

  9
$STYLESHEET
  1

  9
$XEDIT
290
     1
  9
$CEPSNTYPE
380
     0
  9
$PSTYLEMODE
290
     1
  9
$FINGERPRINTGUID
  2
{A5E417C5-D289-4BCF-A6F8-06A7733BCC1D}
  9
$VERSIONGUID
  2
{199F2AC8-D881-4988-BCC1-B453C616B75A}
  9
$EXTNAMES
290
     1
  9
$PSVPSCALE
 40
0.0
  9
$OLESTARTUP
290
     0
  0
ENDSEC
  0
SECTION
  2
CLASSES
  0
CLASS
  1
ACDBDICTIONARYWDFLT
  2
AcDbDictionaryWithDefault
  3
AutoCAD 2000
 90
        0
280
     0
281
     0
  0
CLASS
  1
ACDBPLACEHOLDER
  2
AcDbPlaceHolder
  3
AutoCAD 2000
 90
        0
280
     0
281
     0
  0
CLASS
  1
LAYOUT
  2
AcDbLayout
  3
AutoCAD 2000
 90
        0
280
     0
281
     0
  0
CLASS
  1
DICTIONARYVAR
  2
AcDbDictionaryVar
  3
AutoCAD 2000
 90
        0
280
     0
281
     0
  0
ENDSEC
  0
SECTION
  2
TABLES
  0
TABLE
  2
VPORT
  5
8
330
0
100
AcDbSymbolTable
 70
     2
  0
VPORT
  5
6FE
330
8
100
AcDbSymbolTableRecord
100
AcDbViewportTableRecord
  2
*Active
 70
     0
 10
0.0
 20
0.0
 11
1.0
 21
1.0
 12
130.4999999999999
 22
746.4999999999999
 13
0.0
 23
0.0
 14
1.0
 24
1.0
 15
0.0
 25
0.0
 16
0.0
 26
0.0
 36
1.0
 17
0.0
 27
0.0
 37
0.0
 40
1504.937918158567
 41
2.078104993597951
 42
50.0
 43
0.0
 44
0.0
 50
0.0
 51
0.0
 71
     0
 72
   100
 73
     1
 74
     3
 75
     0
 76
     0
 77
     0
 78
     0
281
     0
 65
     1
110
0.0
120
0.0
130
0.0
111
1.0
121
0.0
131
0.0
112
0.0
122
1.0
132
0.0
 79
     1
146
0.0
  0
ENDTAB
  0
TABLE
  2
LTYPE
  5
5
330
0
100
AcDbSymbolTable
 70
     1
  0
LTYPE
  5
13
330
5
100
AcDbSymbolTableRecord
100
AcDbLinetypeTableRecord
  2
ByBlock
 70
     0
  3

 72
    65
 73
     0
 40
0.0
  0
LTYPE
  5
14
330
5
100
AcDbSymbolTableRecord
100
AcDbLinetypeTableRecord
  2
ByLayer
 70
     0
  3

 72
    65
 73
     0
 40
0.0
  0
LTYPE
  5
15
330
5
100
AcDbSymbolTableRecord
100
AcDbLinetypeTableRecord
  2
Continuous
 70
     0
  3
Solid line
 72
    65
 73
     0
 40
0.0
  0
ENDTAB
  0
TABLE
  2
LAYER
  5
2
330
0
100
AcDbSymbolTable
 70
     1
  0
LAYER
  5
10
330
2
100
AcDbSymbolTableRecord
100
AcDbLayerTableRecord
  2
0
 70
     0
 62
     7
  6
Continuous
370
    -3
390
F
  0
ENDTAB
  0
TABLE
  2
STYLE
  5
3
330
0
100
AcDbSymbolTable
 70
     1
  0
STYLE
  5
11
330
3
100
AcDbSymbolTableRecord
100
AcDbTextStyleTableRecord
  2
Standard
 70
     0
 40
0.0
 41
1.0
 50
0.0
 71
     0
 42
0.2
  3
txt
  4

  0
ENDTAB
  0
TABLE
  2
VIEW
  5
6
330
0
100
AcDbSymbolTable
 70
     0
  0
ENDTAB
  0
TABLE
  2
UCS
  5
7
330
0
100
AcDbSymbolTable
 70
     0
  0
ENDTAB
  0
TABLE
  2
APPID
  5
9
330
0
100
AcDbSymbolTable
 70
     1
  0
APPID
  5
12
330
9
100
AcDbSymbolTableRecord
100
AcDbRegAppTableRecord
  2
ACAD
 70
     0
  0
ENDTAB
  0
TABLE
  2
DIMSTYLE
  5
A
330
0
100
AcDbSymbolTable
 70
     1
100
AcDbDimStyleTable
 71
     0
  0
DIMSTYLE
105
6F4
330
A
100
AcDbSymbolTableRecord
100
AcDbDimStyleTableRecord
  2
Standard
 70
     0
340
11
  0
ENDTAB
  0
TABLE
  2
BLOCK_RECORD
  5
1
330
0
100
AcDbSymbolTable
 70
     0
  0
BLOCK_RECORD
  5
1E
330
1
100
AcDbSymbolTableRecord
100
AcDbBlockTableRecord
  2
*Model_Space
340
21
  0
BLOCK_RECORD
  5
1A
330
1
100
AcDbSymbolTableRecord
100
AcDbBlockTableRecord
  2
*Paper_Space
340
1D
  0
ENDTAB
  0
ENDSEC
  0
SECTION
  2
BLOCKS
  0
BLOCK
  5
1F
330
1E
100
AcDbEntity
  8
0
100
AcDbBlockBegin
  2
*Model_Space
 70
     0
 10
0.0
 20
0.0
 30
0.0
  3
*Model_Space
  1

  0
ENDBLK
  5
20
330
1E
100
AcDbEntity
  8
0
100
AcDbBlockEnd
  0
BLOCK
  5
1B
330
1A
100
AcDbEntity
 67
     1
  8
0
100
AcDbBlockBegin
  2
*Paper_Space
 70
     0
 10
0.0
 20
0.0
 30
0.0
  3
*Paper_Space
  1

  0
ENDBLK
  5
1C
330
1A
100
AcDbEntity
 67
     1
  8
0
100
AcDbBlockEnd
  0
ENDSEC
  0
SECTION
  2
ENTITIES
  0
LINE
  5
22
330
1E
100
AcDbEntity
  8
0
100
AcDbLine
 10
154.8881399999999
 20
103.9395
 30
0.0
 11
154.8881399999999
 21
104.4394999999999
 31
0.0
  0
LINE
  5
23
330
1E
100
AcDbEntity
  8
0
100
AcDbLine
 10
154.8881399999999
 20
103.9395
 30
0.0
 11
154.8881399999999
 21
103.7395
 31
0.0
  0
LINE
  5
24
330
1E
100
AcDbEntity
  8
0
100
AcDbLine
 10
154.8881399999999
 20
103.7395
 30
0.0
 11
156.8881399999999
 21
103.7395
 31
0.0
  0
LINE
  5
25
330
1E
100
AcDbEntity
  8
0
100
AcDbLine
 10
154.8881399999999
 20
103.7395
 30
0.0
 11
154.8881399999999
 21
103.9395
 31
0.0
  0
LINE
  5
26
330
1E
100
AcDbEntity
  8
0
100
AcDbLine
 10
154.8881399999999
 20
104.4394999999999
 30
0.0
 11
154.8881399999999
 21
105.2395
 31
0.0
  0
LINE
  5
27
330
1E
100
AcDbEntity
  8
0
100
AcDbLine
 10
154.8881399999999
 20
104.4394999999999
 30
0.0
 11
154.8881399999999
 21
103.9395
 31
0.0
  0
LINE
  5
28
330
1E
100
AcDbEntity
  8
0
100
AcDbLine
 10
154.8881399999999
 20
105.2395
 30
0.0
 11
154.8881399999999
 21
106.2394999999999
 31
0.0
  0
LINE
  5
29
330
1E
100
AcDbEntity
  8
0
100
AcDbLine
 10
154.8881399999999
 20
105.2395
 30
0.0
 11
154.8881399999999
 21
104.4394999999999
 31
0.0
  0
LINE
  5
2A
330
1E
100
AcDbEntity
  8
0
100
AcDbLine
 10
156.8881399999999
 20
103.9395
 30
0.0
 11
156.8881399999999
 21
104.4394999999999
 31
0.0
  0
LINE
  5
2B
330
1E
100
AcDbEntity
  8
0
100
AcDbLine
 10
156.8881399999999
 20
103.9395
 30
0.0
 11
156.8881399999999
 21
103.7395
 31
0.0
  0
LINE
  5
2C
330
1E
100
AcDbEntity
  8
0
100
AcDbLine
 10
156.8881399999999
 20
104.4394999999999
 30
0.0
 11
156.8881399999999
 21
105.2395
 31
0.0
  0
LINE
  5
2D
330
1E
100
AcDbEntity
  8
0
100
AcDbLine
 10
156.8881399999999
 20
104.4394999999999
 30
0.0
 11
156.8881399999999
 21
103.9395
 31
0.0
  0
LINE
  5
2E
330
1E
100
AcDbEntity
  8
0
100
AcDbLine
 10
153.8881399999999
 20
106.7395
 30
0.0
 11
154.8881399999999
 21
103.7395
 31
0.0
  0
LINE
  5
2F
330
1E
100
AcDbEntity
  8
0
100
AcDbLine
 10
154.8881399999999
 20
106.2394999999999
 30
0.0
 11
154.8881399999999
 21
107.4394999999999
 31
0.0
  0
LINE
  5
30
330
1E
100
AcDbEntity
  8
0
100
AcDbLine
 10
154.8881399999999
 20
106.2394999999999
 30
0.0
 11
154.8881399999999
 21
105.2395
 31
0.0
  0
LINE
  5
31
330
1E
100
AcDbEntity
  8
0
100
AcDbLine
 10
154.8881399999999
 20
107.4394999999999
 30
0.0
 11
154.8881399999999
 21
108.7395
 31
0.0
  0
LINE
  5
32
330
1E
100
AcDbEntity
  8
0
100
AcDbLine
 10
154.8881399999999
 20
107.4394999999999
 30
0.0
 11
154.8881399999999
 21
106.2394999999999
 31
0.0
  0
LINE
  5
33
330
1E
100
AcDbEntity
  8
0
100
AcDbLine
 10
156.8881399999999
 20
105.2395
 30
0.0
 11
156.8881399999999
 21
106.2394999999999
 31
0.0
  0
LINE
  5
34
330
1E
100
AcDbEntity
  8
0
100
AcDbLine
 10
156.8881399999999
 20
105.2395
 30
0.0
 11
156.8881399999999
 21
104.4394999999999
 31
0.0
  0
LINE
  5
35
330
1E
100
AcDbEntity
  8
0
100
AcDbLine
 10
156.8881399999999
 20
106.2394999999999
 30
0.0
 11
156.8881399999999
 21
107.4394999999999
 31
0.0
  0
LINE
  5
36
330
1E
100
AcDbEntity
  8
0
100
AcDbLine
 10
156.8881399999999
 20
106.2394999999999
 30
0.0
 11
156.8881399999999
 21
105.2395
 31
0.0
  0
LINE
  5
37
330
1E
100
AcDbEntity
  8
0
100
AcDbLine
 10
153.5881399999999
 20
108.7395
 30
0.0
 11
153.8881399999999
 21
106.7395
 31
0.0
  0
LINE
  5
38
330
1E
100
AcDbEntity
  8
0
100
AcDbLine
 10
153.5881399999999
 20
108.7395
 30
0.0
 11
153.8881399999999
 21
110.7395
 31
0.0
  0
LINE
  5
39
330
1E
100
AcDbEntity
  8
0
100
AcDbLine
 10
154.8881399999999
 20
108.7395
 30
0.0
 11
154.8881399999999
 21
107.4394999999999
 31
0.0
  0
LINE
  5
3A
330
1E
100
AcDbEntity
  8
0
100
AcDbLine
 10
154.8881399999999
 20
108.7395
 30
0.0
 11
154.8881399999999
 21
110.0395
 31
0.0
  0
LINE
  5
3B
330
1E
100
AcDbEntity
  8
0
100
AcDbLine
 10
153.8881399999999
 20
110.7395
 30
0.0
 11
154.8881399999999
 21
113.7395
 31
0.0
  0
LINE
  5
3C
330
1E
100
AcDbEntity
  8
0
100
AcDbLine
 10
154.8881399999999
 20
111.2395
 30
0.0
 11
154.8881399999999
 21
112.2395
 31
0.0
  0
LINE
  5
3D
330
1E
100
AcDbEntity
  8
0
100
AcDbLine
 10
154.8881399999999
 20
111.2395
 30
0.0
 11
154.8881399999999
 21
110.0395
 31
0.0
  0
LINE
  5
3E
330
1E
100
AcDbEntity
  8
0
100
AcDbLine
 10
154.8881399999999
 20
110.0395
 30
0.0
 11
154.8881399999999
 21
111.2395
 31
0.0
  0
LINE
  5
3F
330
1E
100
AcDbEntity
  8
0
100
AcDbLine
 10
154.8881399999999
 20
110.0395
 30
0.0
 11
154.8881399999999
 21
108.7395
 31
0.0
  0
LINE
  5
40
330
1E
100
AcDbEntity
  8
0
100
AcDbLine
 10
154.8881399999999
 20
113.0395
 30
0.0
 11
154.8881399999999
 21
113.5395
 31
0.0
  0
LINE
  5
41
330
1E
100
AcDbEntity
  8
0
100
AcDbLine
 10
154.8881399999999
 20
113.0395
 30
0.0
 11
154.8881399999999
 21
112.2395
 31
0.0
  0
LINE
  5
42
330
1E
100
AcDbEntity
  8
0
100
AcDbLine
 10
154.8881399999999
 20
112.2395
 30
0.0
 11
154.8881399999999
 21
113.0395
 31
0.0
  0
LINE
  5
43
330
1E
100
AcDbEntity
  8
0
100
AcDbLine
 10
154.8881399999999
 20
112.2395
 30
0.0
 11
154.8881399999999
 21
111.2395
 31
0.0
  0
LINE
  5
44
330
1E
100
AcDbEntity
  8
0
100
AcDbLine
 10
154.8881399999999
 20
113.7395
 30
0.0
 11
156.8881399999999
 21
113.7395
 31
0.0
  0
LINE
  5
45
330
1E
100
AcDbEntity
  8
0
100
AcDbLine
 10
154.8881399999999
 20
113.7395
 30
0.0
 11
154.8881399999999
 21
113.5395
 31
0.0
  0
LINE
  5
46
330
1E
100
AcDbEntity
  8
0
100
AcDbLine
 10
154.8881399999999
 20
113.5395
 30
0.0
 11
154.8881399999999
 21
113.7395
 31
0.0
  0
LINE
  5
47
330
1E
100
AcDbEntity
  8
0
100
AcDbLine
 10
154.8881399999999
 20
113.5395
 30
0.0
 11
154.8881399999999
 21
113.0395
 31
0.0
  0
LINE
  5
48
330
1E
100
AcDbEntity
  8
0
100
AcDbLine
 10
156.8881399999999
 20
113.5395
 30
0.0
 11
156.8881399999999
 21
113.7395
 31
0.0
  0
LINE
  5
49
330
1E
100
AcDbEntity
  8
0
100
AcDbLine
 10
156.8881399999999
 20
113.5395
 30
0.0
 11
156.8881399999999
 21
113.0395
 31
0.0
  0
LINE
  5
4A
330
1E
100
AcDbEntity
  8
0
100
AcDbLine
 10
156.8881399999999
 20
113.0395
 30
0.0
 11
156.8881399999999
 21
113.5395
 31
0.0
  0
LINE
  5
4B
330
1E
100
AcDbEntity
  8
0
100
AcDbLine
 10
156.8881399999999
 20
113.0395
 30
0.0
 11
156.8881399999999
 21
112.2395
 31
0.0
  0
LINE
  5
4C
330
1E
100
AcDbEntity
  8
0
100
AcDbLine
 10
156.8881399999999
 20
112.2395
 30
0.0
 11
156.8881399999999
 21
113.0395
 31
0.0
  0
LINE
  5
4D
330
1E
100
AcDbEntity
  8
0
100
AcDbLine
 10
156.8881399999999
 20
112.2395
 30
0.0
 11
156.8881399999999
 21
111.2395
 31
0.0
  0
LINE
  5
4E
330
1E
100
AcDbEntity
  8
0
100
AcDbLine
 10
156.8881399999999
 20
111.2395
 30
0.0
 11
156.8881399999999
 21
112.2395
 31
0.0
  0
LINE
  5
4F
330
1E
100
AcDbEntity
  8
0
100
AcDbLine
 10
156.8881399999999
 20
111.2395
 30
0.0
 11
156.8881399999999
 21
110.0395
 31
0.0
  0
LINE
  5
50
330
1E
100
AcDbEntity
  8
0
100
AcDbLine
 10
156.8881399999999
 20
110.0395
 30
0.0
 11
156.8881399999999
 21
111.2395
 31
0.0
  0
LINE
  5
51
330
1E
100
AcDbEntity
  8
0
100
AcDbLine
 10
156.8881399999999
 20
110.0395
 30
0.0
 11
156.8881399999999
 21
108.7395
 31
0.0
  0
LINE
  5
52
330
1E
100
AcDbEntity
  8
0
100
AcDbLine
 10
156.8881399999999
 20
108.7395
 30
0.0
 11
156.8881399999999
 21
110.0395
 31
0.0
  0
LINE
  5
53
330
1E
100
AcDbEntity
  8
0
100
AcDbLine
 10
156.8881399999999
 20
108.7395
 30
0.0
 11
156.8881399999999
 21
107.4394999999999
 31
0.0
  0
LINE
  5
54
330
1E
100
AcDbEntity
  8
0
100
AcDbLine
 10
156.8881399999999
 20
113.7395
 30
0.0
 11
159.628880740741
 21
113.7395
 31
0.0
  0
LINE
  5
55
330
1E
100
AcDbEntity
  8
0
100
AcDbLine
 10
156.8881399999999
 20
113.7395
 30
0.0
 11
156.8881399999999
 21
113.5395
 31
0.0
  0
LINE
  5
56
330
1E
100
AcDbEntity
  8
0
100
AcDbLine
 10
156.8881399999999
 20
107.4394999999999
 30
0.0
 11
156.8881399999999
 21
108.7395
 31
0.0
  0
LINE
  5
57
330
1E
100
AcDbEntity
  8
0
100
AcDbLine
 10
156.8881399999999
 20
107.4394999999999
 30
0.0
 11
156.8881399999999
 21
106.2394999999999
 31
0.0
  0
LINE
  5
58
330
1E
100
AcDbEntity
  8
0
100
AcDbLine
 10
158.8881399999999
 20
108.7395
 30
0.0
 11
159.68814
 21
103.3395
 31
0.0
  0
LINE
  5
59
330
1E
100
AcDbEntity
  8
0
100
AcDbLine
 10
158.8881399999999
 20
108.7395
 30
0.0
 11
159.68814
 21
114.1394999999999
 31
0.0
  0
LINE
  5
5A
330
1E
100
AcDbEntity
  8
0
100
AcDbLine
 10
160.5881399999999
 20
113.9394999999999
 30
0.0
 11
162.5881399999999
 21
118.7395
 31
0.0
  0
LINE
  5
5B
330
1E
100
AcDbEntity
  8
0
100
AcDbLine
 10
159.8881399999999
 20
108.7395
 30
0.0
 11
160.5881399999999
 21
103.5395
 31
0.0
  0
LINE
  5
5C
330
1E
100
AcDbEntity
  8
0
100
AcDbLine
 10
159.8881399999999
 20
108.7395
 30
0.0
 11
160.5881399999999
 21
113.9394999999999
 31
0.0
  0
LINE
  5
5D
330
1E
100
AcDbEntity
  8
0
100
AcDbLine
 10
160.5881399999999
 20
103.5395
 30
0.0
 11
162.5881399999999
 21
98.73950000000009
 31
0.0
  0
LINE
  5
5E
330
1E
100
AcDbEntity
  8
0
100
AcDbLine
 10
156.8881399999999
 20
103.7395
 30
0.0
 11
159.628880740741
 21
103.7395
 31
0.0
  0
LINE
  5
5F
330
1E
100
AcDbEntity
  8
0
100
AcDbLine
 10
156.8881399999999
 20
103.7395
 30
0.0
 11
156.8881399999999
 21
103.9395
 31
0.0
  0
LINE
  5
60
330
1E
100
AcDbEntity
  8
0
100
AcDbLine
 10
159.68814
 20
114.1394999999999
 30
0.0
 11
161.68814
 21
119.2395
 31
0.0
  0
LINE
  5
61
330
1E
100
AcDbEntity
  8
0
100
AcDbLine
 10
161.68814
 20
119.2395
 30
0.0
 11
165.0881399999999
 21
123.5395
 31
0.0
  0
LINE
  5
62
330
1E
100
AcDbEntity
  8
0
100
AcDbLine
 10
159.68814
 20
103.3395
 30
0.0
 11
161.68814
 21
98.2395000000001
 31
0.0
  0
LINE
  5
63
330
1E
100
AcDbEntity
  8
0
100
AcDbLine
 10
168.93114
 20
87.7605000000001
 30
0.0
 11
170.9311399999999
 21
59.76050000000011
 31
0.0
  0
LINE
  5
64
330
1E
100
AcDbEntity
  8
0
100
AcDbLine
 10
168.93114
 20
87.7605000000001
 30
0.0
 11
169.93114
 21
89.76050000000009
 31
0.0
  0
LINE
  5
65
330
1E
100
AcDbEntity
  8
0
100
AcDbLine
 10
169.8881399999999
 20
89.6745000000002
 30
0.0
 11
169.8881399999999
 21
90.34342156862749
 31
0.0
  0
LINE
  5
66
330
1E
100
AcDbEntity
  8
0
100
AcDbLine
 10
169.3881399999999
 20
90.53950000000009
 30
0.0
 11
174.4881399999999
 21
88.53950000000009
 31
0.0
  0
LINE
  5
67
330
1E
100
AcDbEntity
  8
0
100
AcDbLine
 10
169.8881399999999
 20
91.43950000000021
 30
0.0
 11
174.68814
 21
89.4395000000002
 31
0.0
  0
LINE
  5
68
330
1E
100
AcDbEntity
  8
0
100
AcDbLine
 10
172.4311399999999
 20
59.76050000000011
 30
0.0
 11
172.4311399999999
 21
4.022500000000269
 31
0.0
  0
LINE
  5
69
330
1E
100
AcDbEntity
  8
0
100
AcDbLine
 10
172.4311399999999
 20
59.76050000000011
 30
0.0
 11
172.7311399999999
 21
59.76050000000011
 31
0.0
  0
LINE
  5
6A
330
1E
100
AcDbEntity
  8
0
100
AcDbLine
 10
172.7311399999999
 20
59.76050000000011
 30
0.0
 11
173.4311399999999
 21
59.76050000000011
 31
0.0
  0
LINE
  5
6B
330
1E
100
AcDbEntity
  8
0
100
AcDbLine
 10
172.7311399999999
 20
5.372500000000179
 30
0.0
 11
173.4311399999999
 21
6.571500000000018
 31
0.0
  0
LINE
  5
6C
330
1E
100
AcDbEntity
  8
0
100
AcDbLine
 10
172.4311399999999
 20
4.022500000000269
 30
0.0
 11
172.7311399999999
 21
2.03650000000016
 31
0.0
  0
LINE
  5
6D
330
1E
100
AcDbEntity
  8
0
100
AcDbLine
 10
172.4311399999999
 20
4.022500000000269
 30
0.0
 11
172.4311399999999
 21
59.76050000000011
 31
0.0
  0
LINE
  5
6E
330
1E
100
AcDbEntity
  8
0
100
AcDbLine
 10
172.4311399999999
 20
4.022500000000269
 30
0.0
 11
172.7311399999999
 21
5.372500000000179
 31
0.0
  0
LINE
  5
6F
330
1E
100
AcDbEntity
  8
0
100
AcDbLine
 10
173.4311399999999
 20
6.571500000000018
 30
0.0
 11
174.6311399999999
 21
7.770500000000089
 31
0.0
  0
LINE
  5
70
330
1E
100
AcDbEntity
  8
0
100
AcDbLine
 10
173.4311399999999
 20
59.76050000000011
 30
0.0
 11
174.6311399999999
 21
59.76050000000011
 31
0.0
  0
LINE
  5
71
330
1E
100
AcDbEntity
  8
0
100
AcDbLine
 10
174.6311399999999
 20
59.76050000000011
 30
0.0
 11
176.2311399999999
 21
59.76050000000011
 31
0.0
  0
LINE
  5
72
330
1E
100
AcDbEntity
  8
0
100
AcDbLine
 10
174.6311399999999
 20
7.770500000000089
 30
0.0
 11
176.2311399999999
 21
8.82050000000015
 31
0.0
  0
LINE
  5
73
330
1E
100
AcDbEntity
  8
0
100
AcDbLine
 10
172.7311399999999
 20
2.03650000000016
 30
0.0
 11
173.4311399999999
 21
0.911500000000162
 31
0.0
  0
LINE
  5
74
330
1E
100
AcDbEntity
  8
0
100
AcDbLine
 10
173.4311399999999
 20
0.911500000000162
 30
0.0
 11
174.6311399999999
 21
0.236500000000094
 31
0.0
  0
LINE
  5
75
330
1E
100
AcDbEntity
  8
0
100
AcDbLine
 10
174.6311399999999
 20
0.236500000000094
 30
0.0
 11
176.2311399999999
 21
-0.137499999999816
 31
0.0
  0
LINE
  5
76
330
1E
100
AcDbEntity
  8
0
100
AcDbLine
 10
173.53114
 20
59.76050000000011
 30
0.0
 11
175.4311399999999
 21
59.76050000000011
 31
0.0
  0
LINE
  5
77
330
1E
100
AcDbEntity
  8
0
100
AcDbLine
 10
172.1311399999999
 20
59.76050000000011
 30
0.0
 11
172.4311399999999
 21
59.76050000000011
 31
0.0
  0
LINE
  5
78
330
1E
100
AcDbEntity
  8
0
100
AcDbLine
 10
172.1311399999999
 20
59.76050000000011
 30
0.0
 11
173.53114
 21
59.76050000000011
 31
0.0
  0
LINE
  5
79
330
1E
100
AcDbEntity
  8
0
100
AcDbLine
 10
171.2311399999999
 20
59.76050000000011
 30
0.0
 11
172.1311399999999
 21
59.76050000000011
 31
0.0
  0
LINE
  5
7A
330
1E
100
AcDbEntity
  8
0
100
AcDbLine
 10
170.9311399999999
 20
59.76050000000011
 30
0.0
 11
171.2311399999999
 21
59.76050000000011
 31
0.0
  0
LINE
  5
7B
330
1E
100
AcDbEntity
  8
0
100
AcDbLine
 10
171.2311399999999
 20
89.76050000000009
 30
0.0
 11
171.3745899999999
 21
89.76050000000009
 31
0.0
  0
LINE
  5
7C
330
1E
100
AcDbEntity
  8
0
100
AcDbLine
 10
174.4881399999999
 20
88.53950000000009
 30
0.0
 11
179.8881399999999
 21
87.73950000000009
 31
0.0
  0
LINE
  5
7D
330
1E
100
AcDbEntity
  8
0
100
AcDbLine
 10
176.2311399999999
 20
59.76050000000011
 30
0.0
 11
178.0311399999999
 21
59.76050000000011
 31
0.0
  0
LINE
  5
7E
330
1E
100
AcDbEntity
  8
0
100
AcDbLine
 10
176.2311399999999
 20
8.82050000000015
 30
0.0
 11
178.0311399999999
 21
9.532500000000259
 31
0.0
  0
LINE
  5
7F
330
1E
100
AcDbEntity
  8
0
100
AcDbLine
 10
178.0311399999999
 20
59.76050000000011
 30
0.0
 11
179.93114
 21
59.76050000000011
 31
0.0
  0
LINE
  5
80
330
1E
100
AcDbEntity
  8
0
100
AcDbLine
 10
178.0311399999999
 20
9.532500000000259
 30
0.0
 11
179.93114
 21
9.760500000000089
 31
0.0
  0
LINE
  5
81
330
1E
100
AcDbEntity
  8
0
100
AcDbLine
 10
176.2311399999999
 20
-0.137499999999816
 30
0.0
 11
178.0311399999999
 21
-0.212499999999861
 31
0.0
  0
LINE
  5
82
330
1E
100
AcDbEntity
  8
0
100
AcDbLine
 10
178.0311399999999
 20
-0.212499999999861
 30
0.0
 11
179.93114
 21
-0.239499999999905
 31
0.0
  0
LINE
  5
83
330
1E
100
AcDbEntity
  8
0
100
AcDbLine
 10
175.4311399999999
 20
59.76050000000011
 30
0.0
 11
177.6311399999999
 21
59.76050000000011
 31
0.0
  0
LINE
  5
84
330
1E
100
AcDbEntity
  8
0
100
AcDbLine
 10
177.6311399999999
 20
59.76050000000011
 30
0.0
 11
179.93114
 21
59.76050000000011
 31
0.0
  0
LINE
  5
85
330
1E
100
AcDbEntity
  8
0
100
AcDbLine
 10
181.8311399999999
 20
-0.212499999999862
 30
0.0
 11
183.6311399999999
 21
-0.137499999999816
 31
0.0
  0
LINE
  5
86
330
1E
100
AcDbEntity
  8
0
100
AcDbLine
 10
179.93114
 20
-0.239499999999905
 30
0.0
 11
181.8311399999999
 21
-0.212499999999862
 31
0.0
  0
LINE
  5
87
330
1E
100
AcDbEntity
  8
0
100
AcDbLine
 10
181.8311399999999
 20
9.532500000000259
 30
0.0
 11
183.6311399999999
 21
8.82050000000015
 31
0.0
  0
LINE
  5
88
330
1E
100
AcDbEntity
  8
0
100
AcDbLine
 10
181.8311399999999
 20
59.76050000000011
 30
0.0
 11
183.6311399999999
 21
59.76050000000011
 31
0.0
  0
LINE
  5
89
330
1E
100
AcDbEntity
  8
0
100
AcDbLine
 10
179.93114
 20
9.760500000000089
 30
0.0
 11
181.8311399999999
 21
9.532500000000259
 31
0.0
  0
LINE
  5
8A
330
1E
100
AcDbEntity
  8
0
100
AcDbLine
 10
185.2311399999999
 20
0.236500000000094
 30
0.0
 11
186.43114
 21
0.911500000000162
 31
0.0
  0
LINE
  5
8B
330
1E
100
AcDbEntity
  8
0
100
AcDbLine
 10
183.6311399999999
 20
-0.137499999999816
 30
0.0
 11
185.2311399999999
 21
0.236500000000094
 31
0.0
  0
LINE
  5
8C
330
1E
100
AcDbEntity
  8
0
100
AcDbLine
 10
185.2311399999999
 20
7.770500000000089
 30
0.0
 11
186.43114
 21
6.571500000000018
 31
0.0
  0
LINE
  5
8D
330
1E
100
AcDbEntity
  8
0
100
AcDbLine
 10
185.2311399999999
 20
59.76050000000011
 30
0.0
 11
186.43114
 21
59.76050000000011
 31
0.0
  0
LINE
  5
8E
330
1E
100
AcDbEntity
  8
0
100
AcDbLine
 10
183.6311399999999
 20
59.76050000000011
 30
0.0
 11
185.2311399999999
 21
59.76050000000011
 31
0.0
  0
LINE
  5
8F
330
1E
100
AcDbEntity
  8
0
100
AcDbLine
 10
183.6311399999999
 20
8.82050000000015
 30
0.0
 11
185.2311399999999
 21
7.770500000000089
 31
0.0
  0
LINE
  5
90
330
1E
100
AcDbEntity
  8
0
100
AcDbLine
 10
187.1311399999999
 20
2.03650000000016
 30
0.0
 11
187.43114
 21
4.02250000000026
 31
0.0
  0
LINE
  5
91
330
1E
100
AcDbEntity
  8
0
100
AcDbLine
 10
186.43114
 20
0.911500000000162
 30
0.0
 11
187.1311399999999
 21
2.03650000000016
 31
0.0
  0
LINE
  5
92
330
1E
100
AcDbEntity
  8
0
100
AcDbLine
 10
187.1311399999999
 20
5.37250000000017
 30
0.0
 11
187.43114
 21
4.02250000000026
 31
0.0
  0
LINE
  5
93
330
1E
100
AcDbEntity
  8
0
100
AcDbLine
 10
187.43114
 20
4.02250000000026
 30
0.0
 11
187.43114
 21
59.76050000000011
 31
0.0
  0
LINE
  5
94
330
1E
100
AcDbEntity
  8
0
100
AcDbLine
 10
187.1311399999999
 20
59.76050000000011
 30
0.0
 11
187.43114
 21
59.76050000000011
 31
0.0
  0
LINE
  5
95
330
1E
100
AcDbEntity
  8
0
100
AcDbLine
 10
186.43114
 20
59.76050000000011
 30
0.0
 11
187.1311399999999
 21
59.76050000000011
 31
0.0
  0
LINE
  5
96
330
1E
100
AcDbEntity
  8
0
100
AcDbLine
 10
186.43114
 20
6.571500000000018
 30
0.0
 11
187.1311399999999
 21
5.37250000000017
 31
0.0
  0
LINE
  5
97
330
1E
100
AcDbEntity
  8
0
100
AcDbLine
 10
186.33114
 20
59.76050000000011
 30
0.0
 11
187.7311399999999
 21
59.76050000000011
 31
0.0
  0
LINE
  5
98
330
1E
100
AcDbEntity
  8
0
100
AcDbLine
 10
184.43114
 20
59.76050000000011
 30
0.0
 11
186.33114
 21
59.76050000000011
 31
0.0
  0
LINE
  5
99
330
1E
100
AcDbEntity
  8
0
100
AcDbLine
 10
182.2311399999999
 20
59.76050000000011
 30
0.0
 11
184.43114
 21
59.76050000000011
 31
0.0
  0
LINE
  5
9A
330
1E
100
AcDbEntity
  8
0
100
AcDbLine
 10
179.93114
 20
59.76050000000011
 30
0.0
 11
182.2311399999999
 21
59.76050000000011
 31
0.0
  0
LINE
  5
9B
330
1E
100
AcDbEntity
  8
0
100
AcDbLine
 10
179.93114
 20
59.76050000000011
 30
0.0
 11
181.8311399999999
 21
59.76050000000011
 31
0.0
  0
LINE
  5
9C
330
1E
100
AcDbEntity
  8
0
100
AcDbLine
 10
187.43114
 20
59.76050000000011
 30
0.0
 11
187.7311399999999
 21
59.76050000000011
 31
0.0
  0
LINE
  5
9D
330
1E
100
AcDbEntity
  8
0
100
AcDbLine
 10
187.43114
 20
59.76050000000011
 30
0.0
 11
187.43114
 21
4.022500000000269
 31
0.0
  0
LINE
  5
9E
330
1E
100
AcDbEntity
  8
0
100
AcDbLine
 10
187.7311399999999
 20
59.76050000000011
 30
0.0
 11
188.6311399999999
 21
59.76050000000011
 31
0.0
  0
LINE
  5
9F
330
1E
100
AcDbEntity
  8
0
100
AcDbLine
 10
188.93114
 20
59.76050000000011
 30
0.0
 11
190.9311399999999
 21
87.7605000000001
 31
0.0
  0
LINE
  5
A0
330
1E
100
AcDbEntity
  8
0
100
AcDbLine
 10
188.6311399999999
 20
59.76050000000011
 30
0.0
 11
188.93114
 21
59.76050000000011
 31
0.0
  0
LINE
  5
A1
330
1E
100
AcDbEntity
  8
0
100
AcDbLine
 10
185.28814
 20
88.53950000000009
 30
0.0
 11
190.3881399999999
 21
90.53950000000009
 31
0.0
  0
LINE
  5
A2
330
1E
100
AcDbEntity
  8
0
100
AcDbLine
 10
179.8881399999999
 20
87.73950000000009
 30
0.0
 11
185.28814
 21
88.53950000000009
 31
0.0
  0
LINE
  5
A3
330
1E
100
AcDbEntity
  8
0
100
AcDbLine
 10
188.4016899999999
 20
89.76050000000009
 30
0.0
 11
188.6311399999999
 21
89.76050000000009
 31
0.0
  0
LINE
  5
A4
330
1E
100
AcDbEntity
  8
0
100
AcDbLine
 10
188.6311399999999
 20
89.76050000000009
 30
0.0
 11
189.5311399999999
 21
89.76050000000009
 31
0.0
  0
LINE
  5
A5
330
1E
100
AcDbEntity
  8
0
100
AcDbLine
 10
189.5311399999999
 20
89.76050000000009
 30
0.0
 11
189.93114
 21
89.76050000000009
 31
0.0
  0
LINE
  5
A6
330
1E
100
AcDbEntity
  8
0
100
AcDbLine
 10
189.93114
 20
89.76050000000009
 30
0.0
 11
190.9311399999999
 21
87.7605000000001
 31
0.0
  0
LINE
  5
A7
330
1E
100
AcDbEntity
  8
0
100
AcDbLine
 10
185.0881399999999
 20
89.4395000000002
 30
0.0
 11
189.88814
 21
91.43950000000021
 31
0.0
  0
LINE
  5
A8
330
1E
100
AcDbEntity
  8
0
100
AcDbLine
 10
179.8881399999999
 20
88.73950000000009
 30
0.0
 11
185.0881399999999
 21
89.4395000000002
 31
0.0
  0
LINE
  5
A9
330
1E
100
AcDbEntity
  8
0
100
AcDbLine
 10
174.68814
 20
89.4395000000002
 30
0.0
 11
179.8881399999999
 21
88.73950000000009
 31
0.0
  0
LINE
  5
AA
330
1E
100
AcDbEntity
  8
0
100
AcDbLine
 10
189.88814
 20
90.34342156862749
 30
0.0
 11
189.88814
 21
89.76050000000009
 31
0.0
  0
LINE
  5
AB
330
1E
100
AcDbEntity
  8
0
100
AcDbLine
 10
194.68814
 20
93.93950000000021
 30
0.0
 11
198.0881399999999
 21
98.2395000000001
 31
0.0
  0
LINE
  5
AC
330
1E
100
AcDbEntity
  8
0
100
AcDbLine
 10
190.3881399999999
 20
90.53950000000009
 30
0.0
 11
194.68814
 21
93.93950000000021
 31
0.0
  0
LINE
  5
AD
330
1E
100
AcDbEntity
  8
0
100
AcDbLine
 10
189.88814
 20
91.43950000000021
 30
0.0
 11
193.9881399999999
 21
94.63950000000009
 31
0.0
  0
LINE
  5
AE
330
1E
100
AcDbEntity
  8
0
100
AcDbLine
 10
189.88814
 20
89.76050000000009
 30
0.0
 11
189.88814
 21
90.34342156862749
 31
0.0
  0
LINE
  5
AF
330
1E
100
AcDbEntity
  8
0
100
AcDbLine
 10
169.8881399999999
 20
90.34342156862749
 30
0.0
 11
169.8881399999999
 21
89.6745000000002
 31
0.0
  0
LINE
  5
B0
330
1E
100
AcDbEntity
  8
0
100
AcDbLine
 10
162.5881399999999
 20
98.73950000000009
 30
0.0
 11
165.7881399999999
 21
94.63950000000009
 31
0.0
  0
LINE
  5
B1
330
1E
100
AcDbEntity
  8
0
100
AcDbLine
 10
165.7881399999999
 20
94.63950000000009
 30
0.0
 11
169.8881399999999
 21
91.43950000000021
 31
0.0
  0
LINE
  5
B2
330
1E
100
AcDbEntity
  8
0
100
AcDbLine
 10
165.0881399999999
 20
123.5395
 30
0.0
 11
169.3881399999999
 21
126.9395
 31
0.0
  0
LINE
  5
B3
330
1E
100
AcDbEntity
  8
0
100
AcDbLine
 10
162.5881399999999
 20
118.7395
 30
0.0
 11
165.7881399999999
 21
122.8395
 31
0.0
  0
LINE
  5
B4
330
1E
100
AcDbEntity
  8
0
100
AcDbLine
 10
165.7881399999999
 20
122.8395
 30
0.0
 11
169.8881399999999
 21
126.0395
 31
0.0
  0
LINE
  5
B5
330
1E
100
AcDbEntity
  8
0
100
AcDbLine
 10
169.8881399999999
 20
126.0395
 30
0.0
 11
174.68814
 21
128.0395
 31
0.0
  0
LINE
  5
B6
330
1E
100
AcDbEntity
  8
0
100
AcDbLine
 10
172.18814
 20
110.8395
 30
0.0
 11
172.98814
 21
112.7395
 31
0.0
  0
LINE
  5
B7
330
1E
100
AcDbEntity
  8
0
100
AcDbLine
 10
171.8881399999999
 20
108.7395
 30
0.0
 11
172.18814
 21
106.6394999999999
 31
0.0
  0
LINE
  5
B8
330
1E
100
AcDbEntity
  8
0
100
AcDbLine
 10
171.8881399999999
 20
108.7395
 30
0.0
 11
172.18814
 21
110.8395
 31
0.0
  0
LINE
  5
B9
330
1E
100
AcDbEntity
  8
0
100
AcDbLine
 10
172.98814
 20
112.7395
 30
0.0
 11
174.2881399999999
 21
114.3394999999999
 31
0.0
  0
LINE
  5
BA
330
1E
100
AcDbEntity
  8
0
100
AcDbLine
 10
174.2881399999999
 20
114.3394999999999
 30
0.0
 11
175.8881399999999
 21
115.6395
 31
0.0
  0
LINE
  5
BB
330
1E
100
AcDbEntity
  8
0
100
AcDbLine
 10
172.18814
 20
106.6394999999999
 30
0.0
 11
172.98814
 21
104.7395
 31
0.0
  0
LINE
  5
BC
330
1E
100
AcDbEntity
  8
0
100
AcDbLine
 10
172.98814
 20
104.7395
 30
0.0
 11
174.2881399999999
 21
103.1395
 31
0.0
  0
LINE
  5
BD
330
1E
100
AcDbEntity
  8
0
100
AcDbLine
 10
174.2881399999999
 20
103.1395
 30
0.0
 11
175.8881399999999
 21
101.8394999999999
 31
0.0
  0
LINE
  5
BE
330
1E
100
AcDbEntity
  8
0
100
AcDbLine
 10
169.3881399999999
 20
126.9395
 30
0.0
 11
174.4881399999999
 21
128.9395
 31
0.0
  0
LINE
  5
BF
330
1E
100
AcDbEntity
  8
0
100
AcDbLine
 10
193.9881399999999
 20
94.63950000000009
 30
0.0
 11
197.18814
 21
98.73950000000009
 31
0.0
  0
LINE
  5
C0
330
1E
100
AcDbEntity
  8
0
100
AcDbLine
 10
181.9881399999999
 20
101.0395
 30
0.0
 11
183.8881399999999
 21
101.8394999999999
 31
0.0
  0
LINE
  5
C1
330
1E
100
AcDbEntity
  8
0
100
AcDbLine
 10
179.8881399999999
 20
100.7395
 30
0.0
 11
181.9881399999999
 21
101.0395
 31
0.0
  0
LINE
  5
C2
330
1E
100
AcDbEntity
  8
0
100
AcDbLine
 10
174.68814
 20
128.0395
 30
0.0
 11
179.8881399999999
 21
128.7394999999999
 31
0.0
  0
LINE
  5
C3
330
1E
100
AcDbEntity
  8
0
100
AcDbLine
 10
175.8881399999999
 20
115.6395
 30
0.0
 11
177.78814
 21
116.4395
 31
0.0
  0
LINE
  5
C4
330
1E
100
AcDbEntity
  8
0
100
AcDbLine
 10
183.8881399999999
 20
115.6395
 30
0.0
 11
185.48814
 21
114.3394999999999
 31
0.0
  0
LINE
  5
C5
330
1E
100
AcDbEntity
  8
0
100
AcDbLine
 10
181.9881399999999
 20
116.4395
 30
0.0
 11
183.8881399999999
 21
115.6395
 31
0.0
  0
LINE
  5
C6
330
1E
100
AcDbEntity
  8
0
100
AcDbLine
 10
186.7881399999999
 20
112.7395
 30
0.0
 11
187.5881399999999
 21
110.8395
 31
0.0
  0
LINE
  5
C7
330
1E
100
AcDbEntity
  8
0
100
AcDbLine
 10
185.48814
 20
114.3394999999999
 30
0.0
 11
186.7881399999999
 21
112.7395
 31
0.0
  0
LINE
  5
C8
330
1E
100
AcDbEntity
  8
0
100
AcDbLine
 10
187.5881399999999
 20
110.8395
 30
0.0
 11
187.88814
 21
108.7395
 31
0.0
  0
LINE
  5
C9
330
1E
100
AcDbEntity
  8
0
100
AcDbLine
 10
187.5881399999999
 20
106.6394999999999
 30
0.0
 11
187.88814
 21
108.7395
 31
0.0
  0
LINE
  5
CA
330
1E
100
AcDbEntity
  8
0
100
AcDbLine
 10
186.7881399999999
 20
104.7395
 30
0.0
 11
187.5881399999999
 21
106.6394999999999
 31
0.0
  0
LINE
  5
CB
330
1E
100
AcDbEntity
  8
0
100
AcDbLine
 10
185.48814
 20
103.1395
 30
0.0
 11
186.7881399999999
 21
104.7395
 31
0.0
  0
LINE
  5
CC
330
1E
100
AcDbEntity
  8
0
100
AcDbLine
 10
183.8881399999999
 20
101.8394999999999
 30
0.0
 11
185.48814
 21
103.1395
 31
0.0
  0
LINE
  5
CD
330
1E
100
AcDbEntity
  8
0
100
AcDbLine
 10
179.8881399999999
 20
128.7394999999999
 30
0.0
 11
185.0881399999999
 21
128.0395
 31
0.0
  0
LINE
  5
CE
330
1E
100
AcDbEntity
  8
0
100
AcDbLine
 10
190.3881399999999
 20
126.9395
 30
0.0
 11
194.68814
 21
123.5395
 31
0.0
  0
LINE
  5
CF
330
1E
100
AcDbEntity
  8
0
100
AcDbLine
 10
193.9881399999999
 20
122.8395
 30
0.0
 11
197.18814
 21
118.7395
 31
0.0
  0
LINE
  5
D0
330
1E
100
AcDbEntity
  8
0
100
AcDbLine
 10
189.88814
 20
126.0395
 30
0.0
 11
193.9881399999999
 21
122.8395
 31
0.0
  0
LINE
  5
D1
330
1E
100
AcDbEntity
  8
0
100
AcDbLine
 10
185.0881399999999
 20
128.0395
 30
0.0
 11
189.88814
 21
126.0395
 31
0.0
  0
LINE
  5
D2
330
1E
100
AcDbEntity
  8
0
100
AcDbLine
 10
179.8881399999999
 20
116.7395
 30
0.0
 11
181.9881399999999
 21
116.4395
 31
0.0
  0
LINE
  5
D3
330
1E
100
AcDbEntity
  8
0
100
AcDbLine
 10
177.78814
 20
116.4395
 30
0.0
 11
179.8881399999999
 21
116.7395
 31
0.0
  0
LINE
  5
D4
330
1E
100
AcDbEntity
  8
0
100
AcDbLine
 10
175.8881399999999
 20
101.8394999999999
 30
0.0
 11
177.78814
 21
101.0395
 31
0.0
  0
LINE
  5
D5
330
1E
100
AcDbEntity
  8
0
100
AcDbLine
 10
177.78814
 20
101.0395
 30
0.0
 11
179.8881399999999
 21
100.7395
 31
0.0
  0
LINE
  5
D6
330
1E
100
AcDbEntity
  8
0
100
AcDbLine
 10
174.4881399999999
 20
128.9395
 30
0.0
 11
179.8881399999999
 21
129.7394999999999
 31
0.0
  0
LINE
  5
D7
330
1E
100
AcDbEntity
  8
0
100
AcDbLine
 10
179.8881399999999
 20
129.7394999999999
 30
0.0
 11
185.28814
 21
128.9395
 31
0.0
  0
LINE
  5
D8
330
1E
100
AcDbEntity
  8
0
100
AcDbLine
 10
185.28814
 20
128.9395
 30
0.0
 11
190.3881399999999
 21
126.9395
 31
0.0
  0
LINE
  5
D9
330
1E
100
AcDbEntity
  8
0
100
AcDbLine
 10
195.3206981395349
 20
94.73950000000009
 30
0.0
 11
216.88814
 21
94.73950000000009
 31
0.0
  0
LINE
  5
DA
330
1E
100
AcDbEntity
  8
0
100
AcDbLine
 10
197.18814
 20
118.7395
 30
0.0
 11
199.18814
 21
113.9394999999999
 31
0.0
  0
LINE
  5
DB
330
1E
100
AcDbEntity
  8
0
100
AcDbLine
 10
197.18814
 20
98.73950000000009
 30
0.0
 11
199.18814
 21
103.5395
 31
0.0
  0
LINE
  5
DC
330
1E
100
AcDbEntity
  8
0
100
AcDbLine
 10
200.0881399999999
 20
103.3395
 30
0.0
 11
200.8881399999999
 21
108.7395
 31
0.0
  0
LINE
  5
DD
330
1E
100
AcDbEntity
  8
0
100
AcDbLine
 10
199.18814
 20
103.5395
 30
0.0
 11
199.8881399999999
 21
108.7395
 31
0.0
  0
LINE
  5
DE
330
1E
100
AcDbEntity
  8
0
100
AcDbLine
 10
202.8881399999999
 20
103.7395
 30
0.0
 11
202.8881399999999
 21
103.9395
 31
0.0
  0
LINE
  5
DF
330
1E
100
AcDbEntity
  8
0
100
AcDbLine
 10
202.8881399999999
 20
103.9395
 30
0.0
 11
202.8881399999999
 21
103.7395
 31
0.0
  0
LINE
  5
E0
330
1E
100
AcDbEntity
  8
0
100
AcDbLine
 10
202.8881399999999
 20
103.9395
 30
0.0
 11
202.8881399999999
 21
104.4394999999999
 31
0.0
  0
LINE
  5
E1
330
1E
100
AcDbEntity
  8
0
100
AcDbLine
 10
202.8881399999999
 20
104.4394999999999
 30
0.0
 11
202.8881399999999
 21
103.9395
 31
0.0
  0
LINE
  5
E2
330
1E
100
AcDbEntity
  8
0
100
AcDbLine
 10
202.8881399999999
 20
104.4394999999999
 30
0.0
 11
202.8881399999999
 21
105.2395
 31
0.0
  0
LINE
  5
E3
330
1E
100
AcDbEntity
  8
0
100
AcDbLine
 10
202.8881399999999
 20
105.2395
 30
0.0
 11
202.8881399999999
 21
104.4394999999999
 31
0.0
  0
LINE
  5
E4
330
1E
100
AcDbEntity
  8
0
100
AcDbLine
 10
202.8881399999999
 20
105.2395
 30
0.0
 11
202.8881399999999
 21
106.2394999999999
 31
0.0
  0
LINE
  5
E5
330
1E
100
AcDbEntity
  8
0
100
AcDbLine
 10
202.8881399999999
 20
106.2394999999999
 30
0.0
 11
202.8881399999999
 21
105.2395
 31
0.0
  0
LINE
  5
E6
330
1E
100
AcDbEntity
  8
0
100
AcDbLine
 10
202.8881399999999
 20
106.2394999999999
 30
0.0
 11
202.8881399999999
 21
107.4394999999999
 31
0.0
  0
LINE
  5
E7
330
1E
100
AcDbEntity
  8
0
100
AcDbLine
 10
200.147399259259
 20
113.7395
 30
0.0
 11
202.8881399999999
 21
113.7395
 31
0.0
  0
LINE
  5
E8
330
1E
100
AcDbEntity
  8
0
100
AcDbLine
 10
200.0881399999999
 20
114.1394999999999
 30
0.0
 11
200.8881399999999
 21
108.7395
 31
0.0
  0
LINE
  5
E9
330
1E
100
AcDbEntity
  8
0
100
AcDbLine
 10
199.18814
 20
113.9394999999999
 30
0.0
 11
199.8881399999999
 21
108.7395
 31
0.0
  0
LINE
  5
EA
330
1E
100
AcDbEntity
  8
0
100
AcDbLine
 10
202.8881399999999
 20
113.7395
 30
0.0
 11
202.8881399999999
 21
113.5395
 31
0.0
  0
LINE
  5
EB
330
1E
100
AcDbEntity
  8
0
100
AcDbLine
 10
202.8881399999999
 20
113.5395
 30
0.0
 11
202.8881399999999
 21
113.0395
 31
0.0
  0
LINE
  5
EC
330
1E
100
AcDbEntity
  8
0
100
AcDbLine
 10
202.8881399999999
 20
113.5395
 30
0.0
 11
202.8881399999999
 21
113.7395
 31
0.0
  0
LINE
  5
ED
330
1E
100
AcDbEntity
  8
0
100
AcDbLine
 10
202.8881399999999
 20
113.0395
 30
0.0
 11
202.8881399999999
 21
112.2395
 31
0.0
  0
LINE
  5
EE
330
1E
100
AcDbEntity
  8
0
100
AcDbLine
 10
202.8881399999999
 20
113.0395
 30
0.0
 11
202.8881399999999
 21
113.5395
 31
0.0
  0
LINE
  5
EF
330
1E
100
AcDbEntity
  8
0
100
AcDbLine
 10
202.8881399999999
 20
112.2395
 30
0.0
 11
202.8881399999999
 21
111.2395
 31
0.0
  0
LINE
  5
F0
330
1E
100
AcDbEntity
  8
0
100
AcDbLine
 10
202.8881399999999
 20
112.2395
 30
0.0
 11
202.8881399999999
 21
113.0395
 31
0.0
  0
LINE
  5
F1
330
1E
100
AcDbEntity
  8
0
100
AcDbLine
 10
202.8881399999999
 20
111.2395
 30
0.0
 11
202.8881399999999
 21
110.0395
 31
0.0
  0
LINE
  5
F2
330
1E
100
AcDbEntity
  8
0
100
AcDbLine
 10
202.8881399999999
 20
111.2395
 30
0.0
 11
202.8881399999999
 21
112.2395
 31
0.0
  0
LINE
  5
F3
330
1E
100
AcDbEntity
  8
0
100
AcDbLine
 10
202.8881399999999
 20
110.0395
 30
0.0
 11
202.8881399999999
 21
108.7395
 31
0.0
  0
LINE
  5
F4
330
1E
100
AcDbEntity
  8
0
100
AcDbLine
 10
202.8881399999999
 20
110.0395
 30
0.0
 11
202.8881399999999
 21
111.2395
 31
0.0
  0
LINE
  5
F5
330
1E
100
AcDbEntity
  8
0
100
AcDbLine
 10
202.8881399999999
 20
107.4394999999999
 30
0.0
 11
202.8881399999999
 21
106.2394999999999
 31
0.0
  0
LINE
  5
F6
330
1E
100
AcDbEntity
  8
0
100
AcDbLine
 10
202.8881399999999
 20
107.4394999999999
 30
0.0
 11
202.8881399999999
 21
108.7395
 31
0.0
  0
LINE
  5
F7
330
1E
100
AcDbEntity
  8
0
100
AcDbLine
 10
202.8881399999999
 20
108.7395
 30
0.0
 11
202.8881399999999
 21
107.4394999999999
 31
0.0
  0
LINE
  5
F8
330
1E
100
AcDbEntity
  8
0
100
AcDbLine
 10
202.8881399999999
 20
108.7395
 30
0.0
 11
202.8881399999999
 21
110.0395
 31
0.0
  0
LINE
  5
F9
330
1E
100
AcDbEntity
  8
0
100
AcDbLine
 10
200.147399259259
 20
103.7395
 30
0.0
 11
202.8881399999999
 21
103.7395
 31
0.0
  0
LINE
  5
FA
330
1E
100
AcDbEntity
  8
0
100
AcDbLine
 10
198.0881399999999
 20
98.2395000000001
 30
0.0
 11
200.0881399999999
 21
103.3395
 31
0.0
  0
LINE
  5
FB
330
1E
100
AcDbEntity
  8
0
100
AcDbLine
 10
195.3206981395349
 20
122.7395
 30
0.0
 11
216.88814
 21
122.7395
 31
0.0
  0
LINE
  5
FC
330
1E
100
AcDbEntity
  8
0
100
AcDbLine
 10
198.0881399999999
 20
119.2395
 30
0.0
 11
200.0881399999999
 21
114.1394999999999
 31
0.0
  0
LINE
  5
FD
330
1E
100
AcDbEntity
  8
0
100
AcDbLine
 10
194.68814
 20
123.5395
 30
0.0
 11
195.3206981395349
 21
122.7395
 31
0.0
  0
LINE
  5
FE
330
1E
100
AcDbEntity
  8
0
100
AcDbLine
 10
194.68814
 20
123.5395
 30
0.0
 11
198.0881399999999
 21
119.2395
 31
0.0
  0
LINE
  5
FF
330
1E
100
AcDbEntity
  8
0
100
AcDbLine
 10
165.0881399999999
 20
93.93950000000021
 30
0.0
 11
169.3881399999999
 21
90.53950000000009
 31
0.0
  0
LINE
  5
100
330
1E
100
AcDbEntity
  8
0
100
AcDbLine
 10
161.68814
 20
98.2395000000001
 30
0.0
 11
165.0881399999999
 21
93.93950000000021
 31
0.0
  0
LINE
  5
101
330
1E
100
AcDbEntity
  8
0
100
AcDbLine
 10
123.8881399999999
 20
635.2395
 30
0.0
 11
130.6881399999999
 21
635.2395
 31
0.0
  0
LINE
  5
102
330
1E
100
AcDbEntity
  8
0
100
AcDbLine
 10
101.2881399999999
 20
635.2395
 30
0.0
 11
106.0881399999999
 21
635.2395
 31
0.0
  0
LINE
  5
103
330
1E
100
AcDbEntity
  8
0
100
AcDbLine
 10
97.28813999999999
 20
635.2395
 30
0.0
 11
101.2881399999999
 21
635.2395
 31
0.0
  0
LINE
  5
104
330
1E
100
AcDbEntity
  8
0
100
AcDbLine
 10
94.18814000000001
 20
635.2395
 30
0.0
 11
97.28813999999999
 21
635.2395
 31
0.0
  0
LINE
  5
105
330
1E
100
AcDbEntity
  8
0
100
AcDbLine
 10
91.88814
 20
635.2395
 30
0.0
 11
94.18814000000001
 21
635.2395
 31
0.0
  0
LINE
  5
106
330
1E
100
AcDbEntity
  8
0
100
AcDbLine
 10
90.48814
 20
635.2395
 30
0.0
 11
91.88814
 21
635.2395
 31
0.0
  0
LINE
  5
107
330
1E
100
AcDbEntity
  8
0
100
AcDbLine
 10
89.88814000000001
 20
635.2395
 30
0.0
 11
90.48814
 21
635.2395
 31
0.0
  0
LINE
  5
108
330
1E
100
AcDbEntity
  8
0
100
AcDbLine
 10
89.88814000000001
 20
635.2395
 30
0.0
 11
89.88814000000001
 21
658.2394999999999
 31
0.0
  0
LINE
  5
109
330
1E
100
AcDbEntity
  8
0
100
AcDbLine
 10
106.0881399999999
 20
658.2394999999999
 30
0.0
 11
111.4881399999999
 21
658.2394999999999
 31
0.0
  0
LINE
  5
10A
330
1E
100
AcDbEntity
  8
0
100
AcDbLine
 10
111.4881399999999
 20
658.2394999999999
 30
0.0
 11
117.4881399999999
 21
658.2394999999999
 31
0.0
  0
LINE
  5
10B
330
1E
100
AcDbEntity
  8
0
100
AcDbLine
 10
101.2881399999999
 20
658.2394999999999
 30
0.0
 11
106.0881399999999
 21
658.2394999999999
 31
0.0
  0
LINE
  5
10C
330
1E
100
AcDbEntity
  8
0
100
AcDbLine
 10
97.28813999999999
 20
658.2394999999999
 30
0.0
 11
101.2881399999999
 21
658.2394999999999
 31
0.0
  0
LINE
  5
10D
330
1E
100
AcDbEntity
  8
0
100
AcDbLine
 10
94.18814000000001
 20
658.2394999999999
 30
0.0
 11
97.28813999999999
 21
658.2394999999999
 31
0.0
  0
LINE
  5
10E
330
1E
100
AcDbEntity
  8
0
100
AcDbLine
 10
91.88814
 20
658.2394999999999
 30
0.0
 11
94.18814000000001
 21
658.2394999999999
 31
0.0
  0
LINE
  5
10F
330
1E
100
AcDbEntity
  8
0
100
AcDbLine
 10
90.48814
 20
658.2394999999999
 30
0.0
 11
91.88814
 21
658.2394999999999
 31
0.0
  0
LINE
  5
110
330
1E
100
AcDbEntity
  8
0
100
AcDbLine
 10
89.88814000000001
 20
658.2394999999999
 30
0.0
 11
89.88814000000001
 21
635.2395
 31
0.0
  0
LINE
  5
111
330
1E
100
AcDbEntity
  8
0
100
AcDbLine
 10
89.88814000000001
 20
658.2394999999999
 30
0.0
 11
90.48814
 21
658.2394999999999
 31
0.0
  0
LINE
  5
112
330
1E
100
AcDbEntity
  8
0
100
AcDbLine
 10
106.0881399999999
 20
635.2395
 30
0.0
 11
111.4881399999999
 21
635.2395
 31
0.0
  0
LINE
  5
113
330
1E
100
AcDbEntity
  8
0
100
AcDbLine
 10
117.4881399999999
 20
658.2394999999999
 30
0.0
 11
123.8881399999999
 21
658.2394999999999
 31
0.0
  0
LINE
  5
114
330
1E
100
AcDbEntity
  8
0
100
AcDbLine
 10
131.18814
 20
658.2394999999999
 30
0.0
 11
137.68814
 21
658.2394999999999
 31
0.0
  0
LINE
  5
115
330
1E
100
AcDbEntity
  8
0
100
AcDbLine
 10
123.8881399999999
 20
658.2394999999999
 30
0.0
 11
130.6881399999999
 21
658.2394999999999
 31
0.0
  0
LINE
  5
116
330
1E
100
AcDbEntity
  8
0
100
AcDbLine
 10
130.6881399999999
 20
658.2394999999999
 30
0.0
 11
137.68814
 21
658.2394999999999
 31
0.0
  0
LINE
  5
117
330
1E
100
AcDbEntity
  8
0
100
AcDbLine
 10
130.6881399999999
 20
658.2394999999999
 30
0.0
 11
131.18814
 21
658.2394999999999
 31
0.0
  0
LINE
  5
118
330
1E
100
AcDbEntity
  8
0
100
AcDbLine
 10
137.68814
 20
658.2394999999999
 30
0.0
 11
144.8881399999999
 21
658.2394999999999
 31
0.0
  0
LINE
  5
119
330
1E
100
AcDbEntity
  8
0
100
AcDbLine
 10
117.4881399999999
 20
635.2395
 30
0.0
 11
123.8881399999999
 21
635.2395
 31
0.0
  0
LINE
  5
11A
330
1E
100
AcDbEntity
  8
0
100
AcDbLine
 10
111.4881399999999
 20
635.2395
 30
0.0
 11
117.4881399999999
 21
635.2395
 31
0.0
  0
LINE
  5
11B
330
1E
100
AcDbEntity
  8
0
100
AcDbLine
 10
130.6881399999999
 20
635.2395
 30
0.0
 11
137.68814
 21
635.2395
 31
0.0
  0
LINE
  5
11C
330
1E
100
AcDbEntity
  8
0
100
AcDbLine
 10
183.68814
 20
635.2395
 30
0.0
 11
188.4881399999999
 21
635.2395
 31
0.0
  0
LINE
  5
11D
330
1E
100
AcDbEntity
  8
0
100
AcDbLine
 10
188.4881399999999
 20
635.2395
 30
0.0
 11
192.4881399999999
 21
635.2395
 31
0.0
  0
LINE
  5
11E
330
1E
100
AcDbEntity
  8
0
100
AcDbLine
 10
192.4881399999999
 20
635.2395
 30
0.0
 11
195.5881399999999
 21
635.2395
 31
0.0
  0
LINE
  5
11F
330
1E
100
AcDbEntity
  8
0
100
AcDbLine
 10
195.5881399999999
 20
635.2395
 30
0.0
 11
199.0881399999999
 21
635.2395
 31
0.0
  0
LINE
  5
120
330
1E
100
AcDbEntity
  8
0
100
AcDbLine
 10
199.0881399999999
 20
635.2395
 30
0.0
 11
202.8881399999999
 21
635.2395
 31
0.0
  0
LINE
  5
121
330
1E
100
AcDbEntity
  8
0
100
AcDbLine
 10
202.8881399999999
 20
635.2395
 30
0.0
 11
202.8881399999999
 21
658.2394999999999
 31
0.0
  0
LINE
  5
122
330
1E
100
AcDbEntity
  8
0
100
AcDbLine
 10
202.8881399999999
 20
635.2395
 30
0.0
 11
205.8881399999999
 21
635.2395
 31
0.0
  0
LINE
  5
123
330
1E
100
AcDbEntity
  8
0
100
AcDbLine
 10
202.8881399999999
 20
635.2395
 30
0.0
 11
216.88814
 21
635.2395
 31
0.0
  0
LINE
  5
124
330
1E
100
AcDbEntity
  8
0
100
AcDbLine
 10
178.2881399999999
 20
635.2395
 30
0.0
 11
183.68814
 21
635.2395
 31
0.0
  0
LINE
  5
125
330
1E
100
AcDbEntity
  8
0
100
AcDbLine
 10
172.28814
 20
635.2395
 30
0.0
 11
178.2881399999999
 21
635.2395
 31
0.0
  0
LINE
  5
126
330
1E
100
AcDbEntity
  8
0
100
AcDbLine
 10
165.88814
 20
635.2395
 30
0.0
 11
172.28814
 21
635.2395
 31
0.0
  0
LINE
  5
127
330
1E
100
AcDbEntity
  8
0
100
AcDbLine
 10
159.0881399999999
 20
635.2395
 30
0.0
 11
165.88814
 21
635.2395
 31
0.0
  0
LINE
  5
128
330
1E
100
AcDbEntity
  8
0
100
AcDbLine
 10
152.0881399999999
 20
635.2395
 30
0.0
 11
159.0881399999999
 21
635.2395
 31
0.0
  0
LINE
  5
129
330
1E
100
AcDbEntity
  8
0
100
AcDbLine
 10
178.2881399999999
 20
658.2394999999999
 30
0.0
 11
183.68814
 21
658.2394999999999
 31
0.0
  0
LINE
  5
12A
330
1E
100
AcDbEntity
  8
0
100
AcDbLine
 10
172.28814
 20
658.2394999999999
 30
0.0
 11
178.2881399999999
 21
658.2394999999999
 31
0.0
  0
LINE
  5
12B
330
1E
100
AcDbEntity
  8
0
100
AcDbLine
 10
165.88814
 20
658.2394999999999
 30
0.0
 11
172.28814
 21
658.2394999999999
 31
0.0
  0
LINE
  5
12C
330
1E
100
AcDbEntity
  8
0
100
AcDbLine
 10
159.0881399999999
 20
658.2394999999999
 30
0.0
 11
165.88814
 21
658.2394999999999
 31
0.0
  0
LINE
  5
12D
330
1E
100
AcDbEntity
  8
0
100
AcDbLine
 10
152.0881399999999
 20
658.2394999999999
 30
0.0
 11
159.0881399999999
 21
658.2394999999999
 31
0.0
  0
LINE
  5
12E
330
1E
100
AcDbEntity
  8
0
100
AcDbLine
 10
144.8881399999999
 20
658.2394999999999
 30
0.0
 11
152.0881399999999
 21
658.2394999999999
 31
0.0
  0
LINE
  5
12F
330
1E
100
AcDbEntity
  8
0
100
AcDbLine
 10
183.68814
 20
658.2394999999999
 30
0.0
 11
188.4881399999999
 21
658.2394999999999
 31
0.0
  0
LINE
  5
130
330
1E
100
AcDbEntity
  8
0
100
AcDbLine
 10
188.4881399999999
 20
658.2394999999999
 30
0.0
 11
192.4881399999999
 21
658.2394999999999
 31
0.0
  0
LINE
  5
131
330
1E
100
AcDbEntity
  8
0
100
AcDbLine
 10
192.4881399999999
 20
658.2394999999999
 30
0.0
 11
195.5881399999999
 21
658.2394999999999
 31
0.0
  0
LINE
  5
132
330
1E
100
AcDbEntity
  8
0
100
AcDbLine
 10
195.5881399999999
 20
658.2394999999999
 30
0.0
 11
199.0881399999999
 21
658.2394999999999
 31
0.0
  0
LINE
  5
133
330
1E
100
AcDbEntity
  8
0
100
AcDbLine
 10
199.0881399999999
 20
658.2394999999999
 30
0.0
 11
202.8881399999999
 21
658.2394999999999
 31
0.0
  0
LINE
  5
135
330
1E
100
AcDbEntity
  8
0
100
AcDbLine
 10
202.8881399999999
 20
658.2394999999999
 30
0.0
 11
202.8881399999999
 21
635.2395
 31
0.0
  0
LINE
  5
136
330
1E
100
AcDbEntity
  8
0
100
AcDbLine
 10
202.8881399999999
 20
658.2394999999999
 30
0.0
 11
205.8881399999999
 21
658.2394999999999
 31
0.0
  0
LINE
  5
137
330
1E
100
AcDbEntity
  8
0
100
AcDbLine
 10
202.8881399999999
 20
658.2394999999999
 30
0.0
 11
216.88814
 21
658.2394999999999
 31
0.0
  0
LINE
  5
138
330
1E
100
AcDbEntity
  8
0
100
AcDbLine
 10
144.8881399999999
 20
635.2395
 30
0.0
 11
152.0881399999999
 21
635.2395
 31
0.0
  0
LINE
  5
139
330
1E
100
AcDbEntity
  8
0
100
AcDbLine
 10
137.68814
 20
635.2395
 30
0.0
 11
144.8881399999999
 21
635.2395
 31
0.0
  0
LINE
  5
13A
330
1E
100
AcDbEntity
  8
0
100
AcDbLine
 10
201.2991399999999
 20
1134.2395
 30
0.0
 11
204.1651399999999
 21
1130.5695
 31
0.0
  0
LINE
  5
13C
330
1E
100
AcDbEntity
  8
0
100
AcDbLine
 10
204.1651399999999
 20
1130.5695
 30
0.0
 11
205.8881399999999
 21
1129.2169261488
 31
0.0
  0
LINE
  5
13D
330
1E
100
AcDbEntity
  8
0
100
AcDbLine
 10
204.1651399999999
 20
1130.5695
 30
0.0
 11
207.8211399999999
 21
1127.6995
 31
0.0
  0
LINE
  5
13E
330
1E
100
AcDbEntity
  8
0
100
AcDbLine
 10
198.4391399999999
 20
1155.679499999999
 30
0.0
 11
200.9691399999999
 21
1157.1395
 31
0.0
  0
LINE
  5
13F
330
1E
100
AcDbEntity
  8
0
100
AcDbLine
 10
198.4391399999999
 20
1155.679499999999
 30
0.0
 11
200.4101399999999
 21
1156.8195
 31
0.0
  0
LINE
  5
140
330
1E
100
AcDbEntity
  8
0
100
AcDbLine
 10
197.1711399999999
 20
1154.9495
 30
0.0
 11
197.883820310106
 21
1155.35979702396
 31
0.0
  0
LINE
  5
141
330
1E
100
AcDbEntity
  8
0
100
AcDbLine
 10
197.1711399999999
 20
1154.9495
 30
0.0
 11
197.883421297377
 21
1155.36072754742
 31
0.0
  0
LINE
  5
142
330
1E
100
AcDbEntity
  8
0
100
AcDbLine
 10
197.1711399999999
 20
1154.9495
 30
0.0
 11
200.4101399999999
 21
1156.8195
 31
0.0
  0
LINE
  5
143
330
1E
100
AcDbEntity
  8
0
100
AcDbLine
 10
197.1711399999999
 20
1154.9495
 30
0.0
 11
198.4391399999999
 21
1155.679499999999
 31
0.0
  0
LINE
  5
144
330
1E
100
AcDbEntity
  8
0
100
AcDbLine
 10
197.1711399999999
 20
1154.9495
 30
0.0
 11
200.623238866128
 21
1148.97129597828
 31
0.0
  0
LINE
  5
145
330
1E
100
AcDbEntity
  8
0
100
AcDbLine
 10
197.1711399999999
 20
1154.9495
 30
0.0
 11
208.25214
 21
1135.7595
 31
0.0
  0
LINE
  5
155
330
1E
100
AcDbEntity
  8
0
100
AcDbLine
 10
92.75024
 20
1293.459499999999
 30
0.0
 11
94.36083999999999
 21
1295.0995
 31
0.0
  0
LINE
  5
156
330
1E
100
AcDbEntity
  8
0
100
AcDbLine
 10
90.24204000000001
 20
1292.6695
 30
0.0
 11
92.75024
 21
1293.459499999999
 31
0.0
  0
LINE
  5
157
330
1E
100
AcDbEntity
  8
0
100
AcDbLine
 10
87.33173999999999
 20
1292.6295
 30
0.0
 11
90.24204000000001
 21
1292.6695
 31
0.0
  0
LINE
  5
158
330
1E
100
AcDbEntity
  8
0
100
AcDbLine
 10
94.36083999999999
 20
1295.0995
 30
0.0
 11
94.67423999999999
 21
1296.259499999999
 31
0.0
  0
LINE
  5
159
330
1E
100
AcDbEntity
  8
0
100
AcDbLine
 10
84.17844
 20
1293.5595
 30
0.0
 11
87.33173999999999
 21
1292.6295
 31
0.0
  0
LINE
  5
15A
330
1E
100
AcDbEntity
  8
0
100
AcDbLine
 10
81.37244
 20
1294.8795
 30
0.0
 11
84.17844
 21
1293.5595
 31
0.0
  0
LINE
  5
15B
330
1E
100
AcDbEntity
  8
0
100
AcDbLine
 10
93.30274000000001
 20
1297.5795
 30
0.0
 11
94.67423999999999
 21
1296.259499999999
 31
0.0
  0
LINE
  5
15C
330
1E
100
AcDbEntity
  8
0
100
AcDbLine
 10
91.52204000000001
 20
1298.8195
 30
0.0
 11
93.30274000000001
 21
1297.5795
 31
0.0
  0
LINE
  5
15D
330
1E
100
AcDbEntity
  8
0
100
AcDbLine
 10
89.21193999999999
 20
1300.4395
 30
0.0
 11
91.52204000000001
 21
1298.8195
 31
0.0
  0
LINE
  5
15E
330
1E
100
AcDbEntity
  8
0
100
AcDbLine
 10
78.77814
 20
1296.1895
 30
0.0
 11
81.37244
 21
1294.8795
 31
0.0
  0
LINE
  5
15F
330
1E
100
AcDbEntity
  8
0
100
AcDbLine
 10
75.57754
 20
1298.0695
 30
0.0
 11
78.77814
 21
1296.1895
 31
0.0
  0
LINE
  5
18B
330
1E
100
AcDbEntity
  8
0
100
AcDbLine
 10
86.23744
 20
1302.239499999999
 30
0.0
 11
89.21193999999999
 21
1300.4395
 31
0.0
  0
LINE
  5
18E
330
1E
100
AcDbEntity
  8
0
100
AcDbLine
 10
84.38090615981931
 20
1303.44090884439
 30
0.0
 11
86.23744
 21
1302.239499999999
 31
0.0
  0
LINE
  5
18F
330
1E
100
AcDbEntity
  8
0
100
AcDbLine
 10
84.5417707201299
 20
1303.33680941925
 30
0.0
 11
84.69053999999999
 21
1303.5495
 31
0.0
  0
LINE
  5
192
330
1E
100
AcDbEntity
  8
0
100
AcDbLine
 10
94.87484
 20
1296.5495
 30
0.0
 11
103.34314
 21
1288.5395
 31
0.0
  0
LINE
  5
193
330
1E
100
AcDbEntity
  8
0
100
AcDbLine
 10
103.34314
 20
1288.5395
 30
0.0
 11
111.6851399999999
 21
1279.9395
 31
0.0
  0
LINE
  5
194
330
1E
100
AcDbEntity
  8
0
100
AcDbLine
 10
116.6441399999999
 20
1304.0295
 30
0.0
 11
126.2541399999999
 21
1294.8295
 31
0.0
  0
LINE
  5
195
330
1E
100
AcDbEntity
  8
0
100
AcDbLine
 10
111.6851399999999
 20
1279.9395
 30
0.0
 11
122.0561399999999
 21
1268.2895
 31
0.0
  0
LINE
  5
196
330
1E
100
AcDbEntity
  8
0
100
AcDbLine
 10
126.2541399999999
 20
1294.8295
 30
0.0
 11
138.5051399999999
 21
1282.5995
 31
0.0
  0
LINE
  5
197
330
1E
100
AcDbEntity
  8
0
100
AcDbLine
 10
138.5051399999999
 20
1282.5995
 30
0.0
 11
150.4591399999999
 21
1269.7395
 31
0.0
  0
LINE
  5
198
330
1E
100
AcDbEntity
  8
0
100
AcDbLine
 10
122.0561399999999
 20
1268.2895
 30
0.0
 11
132.45514
 21
1255.3695
 31
0.0
  0
LINE
  5
199
330
1E
100
AcDbEntity
  8
0
100
AcDbLine
 10
132.45514
 20
1255.3695
 30
0.0
 11
142.7121399999999
 21
1241.2495
 31
0.0
  0
LINE
  5
19A
330
1E
100
AcDbEntity
  8
0
100
AcDbLine
 10
150.4591399999999
 20
1269.7395
 30
0.0
 11
162.9171399999999
 21
1255.0895
 31
0.0
  0
LINE
  5
19B
330
1E
100
AcDbEntity
  8
0
100
AcDbLine
 10
142.7121399999999
 20
1241.2495
 30
0.0
 11
154.0461399999999
 21
1224.0195
 31
0.0
  0
LINE
  5
19C
330
1E
100
AcDbEntity
  8
0
100
AcDbLine
 10
162.9171399999999
 20
1255.0895
 30
0.0
 11
175.29414
 21
1239.009499999999
 31
0.0
  0
LINE
  5
19D
330
1E
100
AcDbEntity
  8
0
100
AcDbLine
 10
154.0461399999999
 20
1224.0195
 30
0.0
 11
162.86414
 21
1210.4995
 31
0.0
  0
LINE
  5
19E
330
1E
100
AcDbEntity
  8
0
100
AcDbLine
 10
162.86414
 20
1210.4995
 30
0.0
 11
171.75814
 21
1196.9395
 31
0.0
  0
LINE
  5
19F
330
1E
100
AcDbEntity
  8
0
100
AcDbLine
 10
174.50714
 20
1192.749499999999
 30
0.0
 11
174.8783149915499
 21
1192.96725599504
 31
0.0
  0
LINE
  5
1A0
330
1E
100
AcDbEntity
  8
0
100
AcDbLine
 10
174.50714
 20
1192.749499999999
 30
0.0
 11
174.8843362295489
 21
1192.96742072416
 31
0.0
  0
LINE
  5
1A1
330
1E
100
AcDbEntity
  8
0
100
AcDbLine
 10
174.50714
 20
1192.749499999999
 30
0.0
 11
174.8821399999999
 21
1192.9695
 31
0.0
  0
LINE
  5
1A2
330
1E
100
AcDbEntity
  8
0
100
AcDbLine
 10
173.9581399999999
 20
1193.1295
 30
0.0
 11
174.50714
 21
1192.749499999999
 31
0.0
  0
LINE
  5
1A3
330
1E
100
AcDbEntity
  8
0
100
AcDbLine
 10
171.75814
 20
1196.9395
 30
0.0
 11
173.9581399999999
 21
1193.1295
 31
0.0
  0
LINE
  5
23C
330
1E
100
AcDbEntity
  8
0
100
AcDbLine
 10
72.64904
 20
1311.9795
 30
0.0
 11
79.20224000000001
 21
1307.3895
 31
0.0
  0
LINE
  5
353
330
1E
100
AcDbEntity
  8
0
100
AcDbLine
 10
33.24784
 20
1339.5695
 30
0.0
 11
43.73294
 21
1332.219499999999
 31
0.0
  0
LINE
  5
397
330
1E
100
AcDbEntity
  8
0
100
AcDbLine
 10
33.69844
 20
1339.8595
 30
0.0
 11
44.01974
 21
1332.639499999999
 31
0.0
  0
LINE
  5
46E
330
1E
100
AcDbEntity
  8
0
100
AcDbLine
 10
43.73294
 20
1332.219499999999
 30
0.0
 11
54.21814000000001
 21
1324.8795
 31
0.0
  0
LINE
  5
477
330
1E
100
AcDbEntity
  8
0
100
AcDbLine
 10
54.21814000000001
 20
1324.8795
 30
0.0
 11
64.12984
 21
1317.9395
 31
0.0
  0
LINE
  5
47A
330
1E
100
AcDbEntity
  8
0
100
AcDbLine
 10
54.34104
 20
1325.4095
 30
0.0
 11
64.00704000000001
 21
1318.6395
 31
0.0
  0
LINE
  5
47B
330
1E
100
AcDbEntity
  8
0
100
AcDbLine
 10
44.01974
 20
1332.639499999999
 30
0.0
 11
54.34104
 21
1325.4095
 31
0.0
  0
LINE
  5
47C
330
1E
100
AcDbEntity
  8
0
100
AcDbLine
 10
64.12984
 20
1317.9395
 30
0.0
 11
72.64904
 21
1311.9795
 31
0.0
  0
LINE
  5
47D
330
1E
100
AcDbEntity
  8
0
100
AcDbLine
 10
64.00704000000001
 20
1318.6395
 30
0.0
 11
72.36244000000001
 21
1312.7895
 31
0.0
  0
LINE
  5
47E
330
1E
100
AcDbEntity
  8
0
100
AcDbLine
 10
64.70344
 20
1318.7595
 30
0.0
 11
73.22264
 21
1312.7995
 31
0.0
  0
LINE
  5
47F
330
1E
100
AcDbEntity
  8
0
100
AcDbLine
 10
54.79174
 20
1325.6995
 30
0.0
 11
64.70344
 21
1318.7595
 31
0.0
  0
LINE
  5
480
330
1E
100
AcDbEntity
  8
0
100
AcDbLine
 10
44.30654
 20
1333.0395
 30
0.0
 11
54.79174
 21
1325.6995
 31
0.0
  0
LINE
  5
481
330
1E
100
AcDbEntity
  8
0
100
AcDbLine
 10
33.82144
 20
1340.3895
 30
0.0
 11
44.30654
 21
1333.0395
 31
0.0
  0
LINE
  5
482
330
1E
100
AcDbEntity
  8
0
100
AcDbLine
 10
72.36244000000001
 20
1312.7895
 30
0.0
 11
78.75184
 21
1308.3095
 31
0.0
  0
LINE
  5
483
330
1E
100
AcDbEntity
  8
0
100
AcDbLine
 10
73.22264
 20
1312.7995
 30
0.0
 11
79.77584
 21
1308.2095
 31
0.0
  0
LINE
  5
4A0
330
1E
100
AcDbEntity
  8
0
100
AcDbLine
 10
23.33614
 20
1346.5095
 30
0.0
 11
33.24784
 21
1339.5695
 31
0.0
  0
LINE
  5
4A2
330
1E
100
AcDbEntity
  8
0
100
AcDbLine
 10
24.03244
 20
1346.6295
 30
0.0
 11
33.69844
 21
1339.8595
 31
0.0
  0
LINE
  5
4A6
330
1E
100
AcDbEntity
  8
0
100
AcDbLine
 10
79.20224000000001
 20
1307.3895
 30
0.0
 11
83.21614
 21
1304.5795
 31
0.0
  0
LINE
  5
4A7
330
1E
100
AcDbEntity
  8
0
100
AcDbLine
 10
83.21614
 20
1304.5795
 30
0.0
 11
84.69053999999999
 21
1303.5495
 31
0.0
  0
LINE
  5
4A8
330
1E
100
AcDbEntity
  8
0
100
AcDbLine
 10
82.68373999999999
 20
1305.5595
 30
0.0
 11
84.15824
 21
1304.5295
 31
0.0
  0
LINE
  5
4A9
330
1E
100
AcDbEntity
  8
0
100
AcDbLine
 10
78.75184
 20
1308.3095
 30
0.0
 11
82.68373999999999
 21
1305.5595
 31
0.0
  0
LINE
  5
4AA
330
1E
100
AcDbEntity
  8
0
100
AcDbLine
 10
79.77584
 20
1308.2095
 30
0.0
 11
83.78964000000001
 21
1305.3995
 31
0.0
  0
LINE
  5
4AB
330
1E
100
AcDbEntity
  8
0
100
AcDbLine
 10
83.78964000000001
 20
1305.3995
 30
0.0
 11
85.26414
 21
1304.369499999999
 31
0.0
  0
LINE
  5
4B1
330
1E
100
AcDbEntity
  8
0
100
AcDbLine
 10
23.90963999999999
 20
1347.3295
 30
0.0
 11
33.82144
 21
1340.3895
 31
0.0
  0
LINE
  5
4B2
330
1E
100
AcDbEntity
  8
0
100
AcDbLine
 10
0.111860000000007
 20
1353.6095
 30
0.0
 11
1.299370000000009
 21
1350.9495
 31
0.0
  0
LINE
  5
4B3
330
1E
100
AcDbEntity
  8
0
100
AcDbLine
 10
0.317070000000007
 20
1356.5195
 30
0.0
 11
1.341430000000009
 21
1358.8595
 31
0.0
  0
LINE
  5
4B4
330
1E
100
AcDbEntity
  8
0
100
AcDbLine
 10
2.775380000000009
 20
1360.8995
 30
0.0
 11
3.881320000000009
 21
1360.739499999999
 31
0.0
  0
LINE
  5
4B5
330
1E
100
AcDbEntity
  8
0
100
AcDbLine
 10
2.775380000000009
 20
1360.8995
 30
0.0
 11
4.249850000000009
 21
1359.8695
 31
0.0
  0
LINE
  5
4B6
330
1E
100
AcDbEntity
  8
0
100
AcDbLine
 10
1.341430000000009
 20
1358.8595
 30
0.0
 11
2.775380000000009
 21
1360.8995
 31
0.0
  0
LINE
  5
4B7
330
1E
100
AcDbEntity
  8
0
100
AcDbLine
 10
0.317070000000007
 20
1356.5195
 30
0.0
 11
1.341430000000009
 21
1358.8595
 31
0.0
  0
LINE
  5
4B8
330
1E
100
AcDbEntity
  8
0
100
AcDbLine
 10
0.111860000000007
 20
1353.6095
 30
0.0
 11
0.317070000000007
 21
1356.5195
 31
0.0
  0
LINE
  5
4B9
330
1E
100
AcDbEntity
  8
0
100
AcDbLine
 10
0.111860000000007
 20
1353.6095
 30
0.0
 11
1.299370000000009
 21
1350.9495
 31
0.0
  0
LINE
  5
4BA
330
1E
100
AcDbEntity
  8
0
100
AcDbLine
 10
0.111860000000007
 20
1353.6095
 30
0.0
 11
0.317070000000007
 21
1356.5195
 31
0.0
  0
LINE
  5
4BB
330
1E
100
AcDbEntity
  8
0
100
AcDbLine
 10
1.299370000000009
 20
1350.9495
 30
0.0
 11
3.060460000000009
 21
1349.1095
 31
0.0
  0
LINE
  5
4BC
330
1E
100
AcDbEntity
  8
0
100
AcDbLine
 10
8.263740000000009
 20
1357.0595
 30
0.0
 11
14.81694
 21
1352.469499999999
 31
0.0
  0
LINE
  5
4BD
330
1E
100
AcDbEntity
  8
0
100
AcDbLine
 10
4.249850000000009
 20
1359.8695
 30
0.0
 11
8.263740000000009
 21
1357.0595
 31
0.0
  0
LINE
  5
4BE
330
1E
100
AcDbEntity
  8
0
100
AcDbLine
 10
5.355790000000009
 20
1359.7095
 30
0.0
 11
9.28774000000001
 21
1356.9495
 31
0.0
  0
LINE
  5
4BF
330
1E
100
AcDbEntity
  8
0
100
AcDbLine
 10
14.81694
 20
1352.469499999999
 30
0.0
 11
23.33614
 21
1346.5095
 31
0.0
  0
LINE
  5
4C0
330
1E
100
AcDbEntity
  8
0
100
AcDbLine
 10
15.67714
 20
1352.4795
 30
0.0
 11
24.03244
 21
1346.6295
 31
0.0
  0
LINE
  5
4C1
330
1E
100
AcDbEntity
  8
0
100
AcDbLine
 10
15.39044
 20
1353.2895
 30
0.0
 11
23.90963999999999
 21
1347.3295
 31
0.0
  0
LINE
  5
4C2
330
1E
100
AcDbEntity
  8
0
100
AcDbLine
 10
9.28774000000001
 20
1356.9495
 30
0.0
 11
15.67714
 21
1352.4795
 31
0.0
  0
LINE
  5
4C3
330
1E
100
AcDbEntity
  8
0
100
AcDbLine
 10
8.83724000000001
 20
1357.8795
 30
0.0
 11
15.39044
 21
1353.2895
 31
0.0
  0
LINE
  5
4C4
330
1E
100
AcDbEntity
  8
0
100
AcDbLine
 10
3.881320000000009
 20
1360.739499999999
 30
0.0
 11
5.355790000000009
 21
1359.7095
 31
0.0
  0
LINE
  5
4C5
330
1E
100
AcDbEntity
  8
0
100
AcDbLine
 10
4.823430000000009
 20
1360.6895
 30
0.0
 11
8.83724000000001
 21
1357.8795
 31
0.0
  0
LINE
  5
4C6
330
1E
100
AcDbEntity
  8
0
100
AcDbLine
 10
3.348950000000009
 20
1361.719499999999
 30
0.0
 11
9.37154000000001
 21
1370.3195
 31
0.0
  0
LINE
  5
4C7
330
1E
100
AcDbEntity
  8
0
100
AcDbLine
 10
3.348950000000009
 20
1361.719499999999
 30
0.0
 11
9.37154000000001
 21
1370.3195
 31
0.0
  0
LINE
  5
4C8
330
1E
100
AcDbEntity
  8
0
100
AcDbLine
 10
3.348950000000009
 20
1361.719499999999
 30
0.0
 11
3.881320000000009
 21
1360.739499999999
 31
0.0
  0
LINE
  5
4C9
330
1E
100
AcDbEntity
  8
0
100
AcDbLine
 10
3.348950000000009
 20
1361.719499999999
 30
0.0
 11
4.823430000000009
 21
1360.6895
 31
0.0
  0
LINE
  5
4CA
330
1E
100
AcDbEntity
  8
0
100
AcDbLine
 10
49.99554
 20
1358.5995
 30
0.0
 11
54.20604
 21
1355.8995
 31
0.0
  0
LINE
  5
4CB
330
1E
100
AcDbEntity
  8
0
100
AcDbLine
 10
54.36984
 20
1355.7895
 30
0.0
 11
58.35914
 21
1353.1095
 31
0.0
  0
LINE
  5
4CC
330
1E
100
AcDbEntity
  8
0
100
AcDbLine
 10
54.20604
 20
1355.8995
 30
0.0
 11
54.36984
 21
1355.7895
 31
0.0
  0
LINE
  5
4CD
330
1E
100
AcDbEntity
  8
0
100
AcDbLine
 10
43.86004
 20
1362.0495
 30
0.0
 11
49.99554
 21
1358.5995
 31
0.0
  0
LINE
  5
4CE
330
1E
100
AcDbEntity
  8
0
100
AcDbLine
 10
38.37154
 20
1364.669499999999
 30
0.0
 11
43.86004
 21
1362.0495
 31
0.0
  0
LINE
  5
4CF
330
1E
100
AcDbEntity
  8
0
100
AcDbLine
 10
33.70214
 20
1366.7195
 30
0.0
 11
38.37154
 21
1364.669499999999
 31
0.0
  0
LINE
  5
4D0
330
1E
100
AcDbEntity
  8
0
100
AcDbLine
 10
26.82094
 20
1369.0895
 30
0.0
 11
33.70214
 21
1366.7195
 31
0.0
  0
LINE
  5
4D1
330
1E
100
AcDbEntity
  8
0
100
AcDbLine
 10
20.06253999999999
 20
1370.7695
 30
0.0
 11
26.82094
 21
1369.0895
 31
0.0
  0
LINE
  5
4D2
330
1E
100
AcDbEntity
  8
0
100
AcDbLine
 10
14.94244
 20
1371.3095
 30
0.0
 11
20.06253999999999
 21
1370.7695
 31
0.0
  0
LINE
  5
4D3
330
1E
100
AcDbEntity
  8
0
100
AcDbLine
 10
10.35463999999999
 20
1370.8595
 30
0.0
 11
14.94244
 21
1371.3095
 31
0.0
  0
LINE
  5
4D4
330
1E
100
AcDbEntity
  8
0
100
AcDbLine
 10
9.37154000000001
 20
1370.3195
 30
0.0
 11
10.35463999999999
 21
1370.8595
 31
0.0
  0
LINE
  5
4D5
330
1E
100
AcDbEntity
  8
0
100
AcDbLine
 10
58.35914
 20
1353.1095
 30
0.0
 11
62.23374
 21
1350.2795
 31
0.0
  0
LINE
  5
4D6
330
1E
100
AcDbEntity
  8
0
100
AcDbLine
 10
62.23374
 20
1350.2795
 30
0.0
 11
62.39754
 21
1350.1595
 31
0.0
  0
LINE
  5
4D7
330
1E
100
AcDbEntity
  8
0
100
AcDbLine
 10
62.39754
 20
1350.1595
 30
0.0
 11
66.37864
 21
1347.1295
 31
0.0
  0
LINE
  5
4D9
330
1E
100
AcDbEntity
  8
0
100
AcDbLine
 10
85.4930101941505
 20
1304.81478455791
 30
0.0
 11
86.01384000000001
 21
1304.4295
 31
0.0
  0
LINE
  5
4DA
330
1E
100
AcDbEntity
  8
0
100
AcDbLine
 10
86.01384000000001
 20
1304.4295
 30
0.0
 11
94.87484
 21
1296.5495
 31
0.0
  0
LINE
  5
4E3
330
1E
100
AcDbEntity
  8
0
100
AcDbLine
 10
107.5471399999999
 20
1312.5495
 30
0.0
 11
116.6441399999999
 21
1304.0295
 31
0.0
  0
LINE
  5
4E4
330
1E
100
AcDbEntity
  8
0
100
AcDbLine
 10
84.15824
 20
1304.5295
 30
0.0
 11
85.26414
 21
1304.369499999999
 31
0.0
  0
LINE
  5
4E5
330
1E
100
AcDbEntity
  8
0
100
AcDbLine
 10
84.15824
 20
1304.5295
 30
0.0
 11
84.69053999999999
 21
1303.5495
 31
0.0
  0
LINE
  5
4E6
330
1E
100
AcDbEntity
  8
0
100
AcDbLine
 10
85.26414
 20
1304.369499999999
 30
0.0
 11
85.5419541860952
 21
1304.77857817324
 31
0.0
  0
LINE
  5
4ED
330
1E
100
AcDbEntity
  8
0
100
AcDbLine
 10
175.1711399999999
 20
1193.0495
 30
0.0
 11
177.853634541901
 21
1194.606489731019
 31
0.0
  0
LINE
  5
4EE
330
1E
100
AcDbEntity
  8
0
100
AcDbLine
 10
175.1711399999999
 20
1193.0495
 30
0.0
 11
197.1711399999999
 21
1154.9495
 31
0.0
  0
LINE
  5
4EF
330
1E
100
AcDbEntity
  8
0
100
AcDbLine
 10
175.1711399999999
 20
1193.0495
 30
0.0
 11
176.4391399999999
 21
1193.7895
 31
0.0
  0
LINE
  5
4F1
330
1E
100
AcDbEntity
  8
0
100
AcDbLine
 10
174.8821399999999
 20
1192.9695
 30
0.0
 11
175.8791399999999
 21
1193.5495
 31
0.0
  0
LINE
  5
4F2
330
1E
100
AcDbEntity
  8
0
100
AcDbLine
 10
176.4391399999999
 20
1193.7895
 30
0.0
 11
178.9691399999999
 21
1195.249499999999
 31
0.0
  0
LINE
  5
4F3
330
1E
100
AcDbEntity
  8
0
100
AcDbLine
 10
176.4391399999999
 20
1193.7895
 30
0.0
 11
177.880371692155
 21
1194.623089106569
 31
0.0
  0
LINE
  5
4F4
330
1E
100
AcDbEntity
  8
0
100
AcDbLine
 10
175.8791399999999
 20
1193.5495
 30
0.0
 11
177.5001399999999
 21
1194.479499999999
 31
0.0
  0
LINE
  5
4F5
330
1E
100
AcDbEntity
  8
0
100
AcDbLine
 10
179.4725811876539
 20
1185.6001859432
 30
0.0
 11
197.1711399999999
 21
1154.9495
 31
0.0
  0
LINE
  5
4F6
330
1E
100
AcDbEntity
  8
0
100
AcDbLine
 10
178.083635165466
 20
1188.00558791799
 30
0.0
 11
178.7610331481519
 21
1186.83245777525
 31
0.0
  0
LINE
  5
4FC
330
1E
100
AcDbEntity
  8
0
100
AcDbLine
 10
178.779652816939
 20
1186.800211894299
 30
0.0
 11
179.45398135618
 21
1185.632397469519
 31
0.0
  0
LINE
  5
4FE
330
1E
100
AcDbEntity
  8
0
100
AcDbLine
 10
178.9691399999999
 20
1195.249499999999
 30
0.0
 11
181.8331399999999
 21
1196.899499999999
 31
0.0
  0
LINE
  5
510
330
1E
100
AcDbEntity
  8
0
100
AcDbLine
 10
177.5001399999999
 20
1194.479499999999
 30
0.0
 11
179.6201399999999
 21
1195.709499999999
 31
0.0
  0
LINE
  5
511
330
1E
100
AcDbEntity
  8
0
100
AcDbLine
 10
177.5001399999999
 20
1194.479499999999
 30
0.0
 11
177.818281176216
 21
1194.66326546263
 31
0.0
  0
LINE
  5
512
330
1E
100
AcDbEntity
  8
0
100
AcDbLine
 10
181.8331399999999
 20
1196.899499999999
 30
0.0
 11
184.8881399999999
 21
1198.6695
 31
0.0
  0
LINE
  5
513
330
1E
100
AcDbEntity
  8
0
100
AcDbLine
 10
179.6201399999999
 20
1195.709499999999
 30
0.0
 11
182.0311399999999
 21
1197.099499999999
 31
0.0
  0
LINE
  5
518
330
1E
100
AcDbEntity
  8
0
100
AcDbLine
 10
182.0311399999999
 20
1197.099499999999
 30
0.0
 11
184.65014
 21
1198.6095
 31
0.0
  0
LINE
  5
519
330
1E
100
AcDbEntity
  8
0
100
AcDbLine
 10
190.80714
 20
1202.0795
 30
0.0
 11
193.3371399999999
 21
1203.5395
 31
0.0
  0
LINE
  5
51A
330
1E
100
AcDbEntity
  8
0
100
AcDbLine
 10
187.9431399999999
 20
1200.4295
 30
0.0
 11
190.80714
 21
1202.0795
 31
0.0
  0
LINE
  5
51B
330
1E
100
AcDbEntity
  8
0
100
AcDbLine
 10
184.8881399999999
 20
1198.6695
 30
0.0
 11
187.9431399999999
 21
1200.4295
 31
0.0
  0
LINE
  5
51C
330
1E
100
AcDbEntity
  8
0
100
AcDbLine
 10
184.65014
 20
1198.6095
 30
0.0
 11
191.5791399999999
 21
1202.6095
 31
0.0
  0
LINE
  5
51D
330
1E
100
AcDbEntity
  8
0
100
AcDbLine
 10
193.3371399999999
 20
1203.5395
 30
0.0
 11
195.2461399999999
 21
1204.6495
 31
0.0
  0
LINE
  5
51E
330
1E
100
AcDbEntity
  8
0
100
AcDbLine
 10
194.0931399999999
 20
1204.0595
 30
0.0
 11
195.15314
 21
1204.6695
 31
0.0
  0
LINE
  5
51F
330
1E
100
AcDbEntity
  8
0
100
AcDbLine
 10
192.88814
 20
1203.369499999999
 30
0.0
 11
194.0931399999999
 21
1204.0595
 31
0.0
  0
LINE
  5
520
330
1E
100
AcDbEntity
  8
0
100
AcDbLine
 10
191.5791399999999
 20
1202.6095
 30
0.0
 11
192.88814
 21
1203.369499999999
 31
0.0
  0
LINE
  5
521
330
1E
100
AcDbEntity
  8
0
100
AcDbLine
 10
175.29414
 20
1239.009499999999
 30
0.0
 11
184.4241399999999
 21
1225.0295
 31
0.0
  0
LINE
  5
522
330
1E
100
AcDbEntity
  8
0
100
AcDbLine
 10
184.4241399999999
 20
1225.0295
 30
0.0
 11
194.2751399999999
 21
1209.939499999999
 31
0.0
  0
LINE
  5
523
330
1E
100
AcDbEntity
  8
0
100
AcDbLine
 10
194.2751399999999
 20
1209.939499999999
 30
0.0
 11
196.4751399999999
 21
1206.1295
 31
0.0
  0
LINE
  5
524
330
1E
100
AcDbEntity
  8
0
100
AcDbLine
 10
194.7952744811439
 20
1204.38734142172
 30
0.0
 11
195.2461399999999
 21
1204.6495
 31
0.0
  0
LINE
  5
526
330
1E
100
AcDbEntity
  8
0
100
AcDbLine
 10
195.2461399999999
 20
1204.6495
 30
0.0
 11
196.3921399999999
 21
1205.3095
 31
0.0
  0
LINE
  5
527
330
1E
100
AcDbEntity
  8
0
100
AcDbLine
 10
196.3921399999999
 20
1205.3095
 30
0.0
 11
196.8211399999999
 21
1205.5495
 31
0.0
  0
LINE
  5
528
330
1E
100
AcDbEntity
  8
0
100
AcDbLine
 10
196.8211399999999
 20
1205.5495
 30
0.0
 11
218.8211399999999
 21
1167.4495
 31
0.0
  0
LINE
  5
529
330
1E
100
AcDbEntity
  8
0
100
AcDbLine
 10
196.4631399999999
 20
1205.4295
 30
0.0
 11
196.65014
 21
1205.5395
 31
0.0
  0
LINE
  5
52A
330
1E
100
AcDbEntity
  8
0
100
AcDbLine
 10
195.9641399999999
 20
1205.1395
 30
0.0
 11
196.4631399999999
 21
1205.4295
 31
0.0
  0
LINE
  5
52B
330
1E
100
AcDbEntity
  8
0
100
AcDbLine
 10
195.15314
 20
1204.6695
 30
0.0
 11
195.9641399999999
 21
1205.1395
 31
0.0
  0
LINE
  5
52C
330
1E
100
AcDbEntity
  8
0
100
AcDbLine
 10
196.4751399999999
 20
1206.1295
 30
0.0
 11
196.65014
 21
1205.5395
 31
0.0
  0
LINE
  5
535
330
1E
100
AcDbEntity
  8
0
100
AcDbLine
 10
198.89314
 20
1143.1595
 30
0.0
 11
199.47914
 21
1147.909499999999
 31
0.0
  0
LINE
  5
536
330
1E
100
AcDbEntity
  8
0
100
AcDbLine
 10
198.89314
 20
1143.1595
 30
0.0
 11
199.55714
 21
1138.5495
 31
0.0
  0
LINE
  5
53D
330
1E
100
AcDbEntity
  8
0
100
AcDbLine
 10
200.4101399999999
 20
1156.8195
 30
0.0
 11
202.2371399999999
 21
1157.879499999999
 31
0.0
  0
LINE
  5
53E
330
1E
100
AcDbEntity
  8
0
100
AcDbLine
 10
200.9691399999999
 20
1157.1395
 30
0.0
 11
203.8331399999999
 21
1158.7995
 31
0.0
  0
LINE
  5
53F
330
1E
100
AcDbEntity
  8
0
100
AcDbLine
 10
200.9691399999999
 20
1157.1395
 30
0.0
 11
202.2371399999999
 21
1157.879499999999
 31
0.0
  0
LINE
  5
540
330
1E
100
AcDbEntity
  8
0
100
AcDbLine
 10
202.2371399999999
 20
1157.879499999999
 30
0.0
 11
204.4881399999999
 21
1159.1795
 31
0.0
  0
LINE
  5
541
330
1E
100
AcDbEntity
  8
0
100
AcDbLine
 10
204.4881399999999
 20
1159.1795
 30
0.0
 11
206.8881399999999
 21
1160.5595
 31
0.0
  0
LINE
  5
543
330
1E
100
AcDbEntity
  8
0
100
AcDbLine
 10
203.8331399999999
 20
1158.7995
 30
0.0
 11
204.4881399999999
 21
1159.1795
 31
0.0
  0
LINE
  5
544
330
1E
100
AcDbEntity
  8
0
100
AcDbLine
 10
201.6531399999999
 20
1146.5695
 30
0.0
 11
209.55414
 21
1123.7695
 31
0.0
  0
LINE
  5
549
330
1E
100
AcDbEntity
  8
0
100
AcDbLine
 10
199.55714
 20
1138.5495
 30
0.0
 11
201.2991399999999
 21
1134.2395
 31
0.0
  0
LINE
  5
54A
330
1E
100
AcDbEntity
  8
0
100
AcDbLine
 10
199.47914
 20
1147.909499999999
 30
0.0
 11
200.2742069044039
 21
1149.78526106133
 31
0.0
  0
LINE
  5
54D
330
1E
100
AcDbEntity
  8
0
100
AcDbLine
 10
205.8881399999999
 20
658.2394999999999
 30
0.0
 11
205.8881399999999
 21
635.2395
 31
0.0
  0
LINE
  5
54E
330
1E
100
AcDbEntity
  8
0
100
AcDbLine
 10
205.8881399999999
 20
658.2394999999999
 30
0.0
 11
211.8881399999999
 21
658.2394999999999
 31
0.0
  0
LINE
  5
54F
330
1E
100
AcDbEntity
  8
0
100
AcDbLine
 10
205.8881399999999
 20
635.2395
 30
0.0
 11
205.8881399999999
 21
658.2394999999999
 31
0.0
  0
LINE
  5
550
330
1E
100
AcDbEntity
  8
0
100
AcDbLine
 10
205.8881399999999
 20
635.2395
 30
0.0
 11
211.8881399999999
 21
635.2395
 31
0.0
  0
LINE
  5
551
330
1E
100
AcDbEntity
  8
0
100
AcDbLine
 10
205.8881399999999
 20
587.7394999999999
 30
0.0
 11
205.8881399999999
 21
1129.2169261488
 31
0.0
  0
LINE
  5
552
330
1E
100
AcDbEntity
  8
0
100
AcDbLine
 10
205.8881399999999
 20
587.7394999999999
 30
0.0
 11
206.38814
 21
587.2395
 31
0.0
  0
LINE
  5
553
330
1E
100
AcDbEntity
  8
0
100
AcDbLine
 10
205.8881399999999
 20
587.7394999999999
 30
0.0
 11
206.28814
 21
587.7394999999999
 31
0.0
  0
LINE
  5
554
330
1E
100
AcDbEntity
  8
0
100
AcDbLine
 10
205.8881399999999
 20
587.7394999999999
 30
0.0
 11
205.8881399999999
 21
1129.2169261488
 31
0.0
  0
LINE
  5
55A
330
1E
100
AcDbEntity
  8
0
100
AcDbLine
 10
205.8881399999999
 20
535.7395
 30
0.0
 11
205.8881399999999
 21
586.7395
 31
0.0
  0
LINE
  5
55B
330
1E
100
AcDbEntity
  8
0
100
AcDbLine
 10
205.8881399999999
 20
535.7395
 30
0.0
 11
206.38814
 21
535.2395
 31
0.0
  0
LINE
  5
55C
330
1E
100
AcDbEntity
  8
0
100
AcDbLine
 10
205.8881399999999
 20
535.7395
 30
0.0
 11
206.28814
 21
535.7395
 31
0.0
  0
LINE
  5
55D
330
1E
100
AcDbEntity
  8
0
100
AcDbLine
 10
206.38814
 20
535.2395
 30
0.0
 11
206.78814
 21
535.2395
 31
0.0
  0
LINE
  5
55E
330
1E
100
AcDbEntity
  8
0
100
AcDbLine
 10
206.78814
 20
535.2395
 30
0.0
 11
207.7881399999999
 21
535.2395
 31
0.0
  0
LINE
  5
55F
330
1E
100
AcDbEntity
  8
0
100
AcDbLine
 10
207.7881399999999
 20
535.2395
 30
0.0
 11
209.4881399999999
 21
535.2395
 31
0.0
  0
LINE
  5
560
330
1E
100
AcDbEntity
  8
0
100
AcDbLine
 10
209.4881399999999
 20
535.2395
 30
0.0
 11
211.68814
 21
535.2395
 31
0.0
  0
LINE
  5
561
330
1E
100
AcDbEntity
  8
0
100
AcDbLine
 10
211.68814
 20
535.2395
 30
0.0
 11
214.1881399999999
 21
535.2395
 31
0.0
  0
LINE
  5
562
330
1E
100
AcDbEntity
  8
0
100
AcDbLine
 10
216.88814
 20
94.73950000000009
 30
0.0
 11
216.88814
 21
95.2335000000002
 31
0.0
  0
LINE
  5
563
330
1E
100
AcDbEntity
  8
0
100
AcDbLine
 10
216.88814
 20
98.73950000000009
 30
0.0
 11
220.88814
 21
98.73950000000009
 31
0.0
  0
LINE
  5
564
330
1E
100
AcDbEntity
  8
0
100
AcDbLine
 10
216.88814
 20
95.2335000000002
 30
0.0
 11
216.88814
 21
94.73950000000009
 31
0.0
  0
LINE
  5
565
330
1E
100
AcDbEntity
  8
0
100
AcDbLine
 10
216.88814
 20
95.2335000000002
 30
0.0
 11
216.88814
 21
96.6335000000001
 31
0.0
  0
LINE
  5
566
330
1E
100
AcDbEntity
  8
0
100
AcDbLine
 10
216.88814
 20
96.6335000000001
 30
0.0
 11
216.88814
 21
95.2335000000002
 31
0.0
  0
LINE
  5
567
330
1E
100
AcDbEntity
  8
0
100
AcDbLine
 10
216.88814
 20
96.6335000000001
 30
0.0
 11
216.88814
 21
98.85750000000022
 31
0.0
  0
LINE
  5
568
330
1E
100
AcDbEntity
  8
0
100
AcDbLine
 10
216.88814
 20
98.85750000000022
 30
0.0
 11
216.88814
 21
96.6335000000001
 31
0.0
  0
LINE
  5
569
330
1E
100
AcDbEntity
  8
0
100
AcDbLine
 10
216.88814
 20
98.85750000000022
 30
0.0
 11
216.88814
 21
101.7805
 31
0.0
  0
LINE
  5
56A
330
1E
100
AcDbEntity
  8
0
100
AcDbLine
 10
216.88814
 20
101.7805
 30
0.0
 11
216.88814
 21
98.85750000000022
 31
0.0
  0
LINE
  5
56B
330
1E
100
AcDbEntity
  8
0
100
AcDbLine
 10
216.88814
 20
101.7805
 30
0.0
 11
216.88814
 21
105.1165
 31
0.0
  0
LINE
  5
56C
330
1E
100
AcDbEntity
  8
0
100
AcDbLine
 10
216.88814
 20
105.1165
 30
0.0
 11
216.88814
 21
101.7805
 31
0.0
  0
LINE
  5
56D
330
1E
100
AcDbEntity
  8
0
100
AcDbLine
 10
216.88814
 20
105.1165
 30
0.0
 11
216.88814
 21
108.7395
 31
0.0
  0
LINE
  5
56E
330
1E
100
AcDbEntity
  8
0
100
AcDbLine
 10
224.88814
 20
94.73950000000009
 30
0.0
 11
227.8881399999999
 21
94.73950000000009
 31
0.0
  0
LINE
  5
56F
330
1E
100
AcDbEntity
  8
0
100
AcDbLine
 10
220.88814
 20
111.3275
 30
0.0
 11
220.88814
 21
108.7395
 31
0.0
  0
LINE
  5
570
330
1E
100
AcDbEntity
  8
0
100
AcDbLine
 10
220.88814
 20
111.3275
 30
0.0
 11
220.88814
 21
113.7105
 31
0.0
  0
LINE
  5
571
330
1E
100
AcDbEntity
  8
0
100
AcDbLine
 10
220.88814
 20
108.7395
 30
0.0
 11
220.88814
 21
106.1514999999999
 31
0.0
  0
LINE
  5
572
330
1E
100
AcDbEntity
  8
0
100
AcDbLine
 10
220.88814
 20
108.7395
 30
0.0
 11
220.88814
 21
111.3275
 31
0.0
  0
LINE
  5
573
330
1E
100
AcDbEntity
  8
0
100
AcDbLine
 10
220.88814
 20
106.1514999999999
 30
0.0
 11
220.88814
 21
103.7684999999999
 31
0.0
  0
LINE
  5
574
330
1E
100
AcDbEntity
  8
0
100
AcDbLine
 10
220.88814
 20
106.1514999999999
 30
0.0
 11
220.88814
 21
108.7395
 31
0.0
  0
LINE
  5
575
330
1E
100
AcDbEntity
  8
0
100
AcDbLine
 10
220.88814
 20
103.7684999999999
 30
0.0
 11
220.88814
 21
101.6804999999999
 31
0.0
  0
LINE
  5
576
330
1E
100
AcDbEntity
  8
0
100
AcDbLine
 10
220.88814
 20
103.7684999999999
 30
0.0
 11
220.88814
 21
106.1514999999999
 31
0.0
  0
LINE
  5
577
330
1E
100
AcDbEntity
  8
0
100
AcDbLine
 10
220.88814
 20
101.6804999999999
 30
0.0
 11
220.88814
 21
100.0925
 31
0.0
  0
LINE
  5
578
330
1E
100
AcDbEntity
  8
0
100
AcDbLine
 10
220.88814
 20
101.6804999999999
 30
0.0
 11
220.88814
 21
103.7684999999999
 31
0.0
  0
LINE
  5
579
330
1E
100
AcDbEntity
  8
0
100
AcDbLine
 10
220.88814
 20
100.0925
 30
0.0
 11
220.88814
 21
99.0925000000001
 31
0.0
  0
LINE
  5
57A
330
1E
100
AcDbEntity
  8
0
100
AcDbLine
 10
220.88814
 20
100.0925
 30
0.0
 11
220.88814
 21
101.6804999999999
 31
0.0
  0
LINE
  5
57B
330
1E
100
AcDbEntity
  8
0
100
AcDbLine
 10
220.88814
 20
99.0925000000001
 30
0.0
 11
220.88814
 21
98.73950000000009
 31
0.0
  0
LINE
  5
57C
330
1E
100
AcDbEntity
  8
0
100
AcDbLine
 10
220.88814
 20
99.0925000000001
 30
0.0
 11
220.88814
 21
100.0925
 31
0.0
  0
LINE
  5
585
330
1E
100
AcDbEntity
  8
0
100
AcDbLine
 10
220.88814
 20
98.73950000000009
 30
0.0
 11
222.88814
 21
95.73950000000008
 31
0.0
  0
LINE
  5
586
330
1E
100
AcDbEntity
  8
0
100
AcDbLine
 10
220.88814
 20
98.73950000000009
 30
0.0
 11
220.88814
 21
99.0925000000001
 31
0.0
  0
LINE
  5
587
330
1E
100
AcDbEntity
  8
0
100
AcDbLine
 10
222.88814
 20
95.73950000000008
 30
0.0
 11
224.88814
 21
94.73950000000009
 31
0.0
  0
LINE
  5
588
330
1E
100
AcDbEntity
  8
0
100
AcDbLine
 10
216.88814
 20
108.7395
 30
0.0
 11
216.88814
 21
105.1165
 31
0.0
  0
LINE
  5
589
330
1E
100
AcDbEntity
  8
0
100
AcDbLine
 10
216.88814
 20
108.7395
 30
0.0
 11
216.88814
 21
112.3625
 31
0.0
  0
LINE
  5
58A
330
1E
100
AcDbEntity
  8
0
100
AcDbLine
 10
216.88814
 20
118.7395
 30
0.0
 11
220.88814
 21
118.7395
 31
0.0
  0
LINE
  5
58B
330
1E
100
AcDbEntity
  8
0
100
AcDbLine
 10
216.88814
 20
122.7395
 30
0.0
 11
216.88814
 21
122.2455
 31
0.0
  0
LINE
  5
58C
330
1E
100
AcDbEntity
  8
0
100
AcDbLine
 10
216.88814
 20
122.2455
 30
0.0
 11
216.88814
 21
120.8455
 31
0.0
  0
LINE
  5
58D
330
1E
100
AcDbEntity
  8
0
100
AcDbLine
 10
216.88814
 20
122.2455
 30
0.0
 11
216.88814
 21
122.7395
 31
0.0
  0
LINE
  5
58E
330
1E
100
AcDbEntity
  8
0
100
AcDbLine
 10
216.88814
 20
120.8455
 30
0.0
 11
216.88814
 21
118.6215
 31
0.0
  0
LINE
  5
58F
330
1E
100
AcDbEntity
  8
0
100
AcDbLine
 10
216.88814
 20
120.8455
 30
0.0
 11
216.88814
 21
122.2455
 31
0.0
  0
LINE
  5
590
330
1E
100
AcDbEntity
  8
0
100
AcDbLine
 10
216.88814
 20
118.6215
 30
0.0
 11
216.88814
 21
115.6984999999999
 31
0.0
  0
LINE
  5
591
330
1E
100
AcDbEntity
  8
0
100
AcDbLine
 10
216.88814
 20
118.6215
 30
0.0
 11
216.88814
 21
120.8455
 31
0.0
  0
LINE
  5
592
330
1E
100
AcDbEntity
  8
0
100
AcDbLine
 10
220.88814
 20
113.7105
 30
0.0
 11
220.88814
 21
111.3275
 31
0.0
  0
LINE
  5
593
330
1E
100
AcDbEntity
  8
0
100
AcDbLine
 10
220.88814
 20
113.7105
 30
0.0
 11
220.88814
 21
115.7985
 31
0.0
  0
LINE
  5
594
330
1E
100
AcDbEntity
  8
0
100
AcDbLine
 10
220.88814
 20
115.7985
 30
0.0
 11
220.88814
 21
113.7105
 31
0.0
  0
LINE
  5
595
330
1E
100
AcDbEntity
  8
0
100
AcDbLine
 10
220.88814
 20
115.7985
 30
0.0
 11
220.88814
 21
117.3864999999999
 31
0.0
  0
LINE
  5
596
330
1E
100
AcDbEntity
  8
0
100
AcDbLine
 10
220.88814
 20
117.3864999999999
 30
0.0
 11
220.88814
 21
115.7985
 31
0.0
  0
LINE
  5
597
330
1E
100
AcDbEntity
  8
0
100
AcDbLine
 10
220.88814
 20
117.3864999999999
 30
0.0
 11
220.88814
 21
118.3864999999999
 31
0.0
  0
LINE
  5
598
330
1E
100
AcDbEntity
  8
0
100
AcDbLine
 10
220.88814
 20
118.3864999999999
 30
0.0
 11
220.88814
 21
117.3864999999999
 31
0.0
  0
LINE
  5
599
330
1E
100
AcDbEntity
  8
0
100
AcDbLine
 10
220.88814
 20
118.3864999999999
 30
0.0
 11
220.88814
 21
118.7395
 31
0.0
  0
LINE
  5
59A
330
1E
100
AcDbEntity
  8
0
100
AcDbLine
 10
222.88814
 20
95.73950000000008
 30
0.0
 11
222.88814
 21
120.0395
 31
0.0
  0
LINE
  5
59B
330
1E
100
AcDbEntity
  8
0
100
AcDbLine
 10
222.88814
 20
121.7395
 30
0.0
 11
222.88814
 21
120.0395
 31
0.0
  0
LINE
  5
59C
330
1E
100
AcDbEntity
  8
0
100
AcDbLine
 10
222.88814
 20
120.0395
 30
0.0
 11
222.88814
 21
121.7395
 31
0.0
  0
LINE
  5
59D
330
1E
100
AcDbEntity
  8
0
100
AcDbLine
 10
222.88814
 20
120.0395
 30
0.0
 11
222.88814
 21
95.73950000000008
 31
0.0
  0
LINE
  5
59E
330
1E
100
AcDbEntity
  8
0
100
AcDbLine
 10
220.88814
 20
118.7395
 30
0.0
 11
220.88814
 21
118.3864999999999
 31
0.0
  0
LINE
  5
59F
330
1E
100
AcDbEntity
  8
0
100
AcDbLine
 10
220.88814
 20
118.7395
 30
0.0
 11
222.88814
 21
121.7395
 31
0.0
  0
LINE
  5
5A0
330
1E
100
AcDbEntity
  8
0
100
AcDbLine
 10
224.88814
 20
122.7395
 30
0.0
 11
227.8881399999999
 21
122.7395
 31
0.0
  0
LINE
  5
5A1
330
1E
100
AcDbEntity
  8
0
100
AcDbLine
 10
222.88814
 20
121.7395
 30
0.0
 11
224.88814
 21
122.7395
 31
0.0
  0
LINE
  5
5A2
330
1E
100
AcDbEntity
  8
0
100
AcDbLine
 10
216.88814
 20
115.6984999999999
 30
0.0
 11
216.88814
 21
112.3625
 31
0.0
  0
LINE
  5
5A3
330
1E
100
AcDbEntity
  8
0
100
AcDbLine
 10
216.88814
 20
115.6984999999999
 30
0.0
 11
216.88814
 21
118.6215
 31
0.0
  0
LINE
  5
5A4
330
1E
100
AcDbEntity
  8
0
100
AcDbLine
 10
216.88814
 20
112.3625
 30
0.0
 11
216.88814
 21
108.7395
 31
0.0
  0
LINE
  5
5A5
330
1E
100
AcDbEntity
  8
0
100
AcDbLine
 10
216.88814
 20
112.3625
 30
0.0
 11
216.88814
 21
115.6984999999999
 31
0.0
  0
LINE
  5
5A6
330
1E
100
AcDbEntity
  8
0
100
AcDbLine
 10
230.88814
 20
94.73950000000009
 30
0.0
 11
232.8881399999999
 21
95.73950000000008
 31
0.0
  0
LINE
  5
5A7
330
1E
100
AcDbEntity
  8
0
100
AcDbLine
 10
227.8881399999999
 20
122.7395
 30
0.0
 11
230.88814
 21
122.7395
 31
0.0
  0
LINE
  5
5A8
330
1E
100
AcDbEntity
  8
0
100
AcDbLine
 10
230.88814
 20
122.7395
 30
0.0
 11
232.8881399999999
 21
121.7395
 31
0.0
  0
LINE
  5
5A9
330
1E
100
AcDbEntity
  8
0
100
AcDbLine
 10
227.8881399999999
 20
94.73950000000009
 30
0.0
 11
230.88814
 21
94.73950000000009
 31
0.0
  0
LINE
  5
5AA
330
1E
100
AcDbEntity
  8
0
100
AcDbLine
 10
234.8881399999999
 20
76.73950000000009
 30
0.0
 11
234.8881399999999
 21
77.9395000000002
 31
0.0
  0
LINE
  5
5AB
330
1E
100
AcDbEntity
  8
0
100
AcDbLine
 10
234.8881399999999
 20
76.73950000000009
 30
0.0
 11
236.8881399999999
 21
74.73950000000009
 31
0.0
  0
LINE
  5
5AC
330
1E
100
AcDbEntity
  8
0
100
AcDbLine
 10
234.8881399999999
 20
77.9395000000002
 30
0.0
 11
234.8881399999999
 21
81.03950000000009
 31
0.0
  0
LINE
  5
5AD
330
1E
100
AcDbEntity
  8
0
100
AcDbLine
 10
234.8881399999999
 20
77.9395000000002
 30
0.0
 11
234.8881399999999
 21
76.73950000000009
 31
0.0
  0
LINE
  5
5AE
330
1E
100
AcDbEntity
  8
0
100
AcDbLine
 10
234.8881399999999
 20
81.03950000000009
 30
0.0
 11
234.8881399999999
 21
86.13950000000009
 31
0.0
  0
LINE
  5
5AF
330
1E
100
AcDbEntity
  8
0
100
AcDbLine
 10
234.8881399999999
 20
81.03950000000009
 30
0.0
 11
234.8881399999999
 21
77.9395000000002
 31
0.0
  0
LINE
  5
5B0
330
1E
100
AcDbEntity
  8
0
100
AcDbLine
 10
236.8881399999999
 20
75.93950000000019
 30
0.0
 11
236.8881399999999
 21
74.73950000000009
 31
0.0
  0
LINE
  5
5B1
330
1E
100
AcDbEntity
  8
0
100
AcDbLine
 10
236.8881399999999
 20
75.93950000000019
 30
0.0
 11
236.8881399999999
 21
79.3395000000001
 31
0.0
  0
LINE
  5
5B2
330
1E
100
AcDbEntity
  8
0
100
AcDbLine
 10
236.8881399999999
 20
79.3395000000001
 30
0.0
 11
236.8881399999999
 21
75.93950000000019
 31
0.0
  0
LINE
  5
5B3
330
1E
100
AcDbEntity
  8
0
100
AcDbLine
 10
236.8881399999999
 20
79.3395000000001
 30
0.0
 11
236.8881399999999
 21
84.73950000000009
 31
0.0
  0
LINE
  5
5B4
330
1E
100
AcDbEntity
  8
0
100
AcDbLine
 10
236.8881399999999
 20
84.73950000000009
 30
0.0
 11
236.8881399999999
 21
79.3395000000001
 31
0.0
  0
LINE
  5
5B5
330
1E
100
AcDbEntity
  8
0
100
AcDbLine
 10
236.8881399999999
 20
84.73950000000009
 30
0.0
 11
236.8881399999999
 21
91.8395000000001
 31
0.0
  0
LINE
  5
5B6
330
1E
100
AcDbEntity
  8
0
100
AcDbLine
 10
236.8881399999999
 20
91.8395000000001
 30
0.0
 11
236.8881399999999
 21
84.73950000000009
 31
0.0
  0
LINE
  5
5B7
330
1E
100
AcDbEntity
  8
0
100
AcDbLine
 10
236.8881399999999
 20
91.8395000000001
 30
0.0
 11
236.8881399999999
 21
99.93950000000021
 31
0.0
  0
LINE
  5
5B8
330
1E
100
AcDbEntity
  8
0
100
AcDbLine
 10
234.8881399999999
 20
86.13950000000009
 30
0.0
 11
234.8881399999999
 21
92.83950000000022
 31
0.0
  0
LINE
  5
5B9
330
1E
100
AcDbEntity
  8
0
100
AcDbLine
 10
234.8881399999999
 20
86.13950000000009
 30
0.0
 11
234.8881399999999
 21
81.03950000000009
 31
0.0
  0
LINE
  5
5BF
330
1E
100
AcDbEntity
  8
0
100
AcDbLine
 10
234.8881399999999
 20
105.9394999999999
 30
0.0
 11
234.8881399999999
 21
108.7395
 31
0.0
  0
LINE
  5
5C0
330
1E
100
AcDbEntity
  8
0
100
AcDbLine
 10
234.8881399999999
 20
103.2395
 30
0.0
 11
234.8881399999999
 21
105.9394999999999
 31
0.0
  0
LINE
  5
5C1
330
1E
100
AcDbEntity
  8
0
100
AcDbLine
 10
234.8881399999999
 20
100.9395
 30
0.0
 11
234.8881399999999
 21
103.2395
 31
0.0
  0
LINE
  5
5C2
330
1E
100
AcDbEntity
  8
0
100
AcDbLine
 10
234.8881399999999
 20
99.2395000000001
 30
0.0
 11
234.8881399999999
 21
100.9395
 31
0.0
  0
LINE
  5
5C3
330
1E
100
AcDbEntity
  8
0
100
AcDbLine
 10
234.8881399999999
 20
98.1395000000001
 30
0.0
 11
234.8881399999999
 21
99.2395000000001
 31
0.0
  0
LINE
  5
5C4
330
1E
100
AcDbEntity
  8
0
100
AcDbLine
 10
232.8881399999999
 20
95.73950000000008
 30
0.0
 11
234.8881399999999
 21
97.73950000000009
 31
0.0
  0
LINE
  5
5C7
330
1E
100
AcDbEntity
  8
0
100
AcDbLine
 10
234.8881399999999
 20
100.4394999999999
 30
0.0
 11
234.8881399999999
 21
92.83950000000022
 31
0.0
  0
LINE
  5
5C8
330
1E
100
AcDbEntity
  8
0
100
AcDbLine
 10
234.8881399999999
 20
100.4394999999999
 30
0.0
 11
234.8881399999999
 21
108.7395
 31
0.0
  0
LINE
  5
5CA
330
1E
100
AcDbEntity
  8
0
100
AcDbLine
 10
234.8881399999999
 20
111.5395
 30
0.0
 11
234.8881399999999
 21
114.2395
 31
0.0
  0
LINE
  5
5CB
330
1E
100
AcDbEntity
  8
0
100
AcDbLine
 10
232.8881399999999
 20
95.73950000000008
 30
0.0
 11
232.8881399999999
 21
120.0395
 31
0.0
  0
LINE
  5
5CC
330
1E
100
AcDbEntity
  8
0
100
AcDbLine
 10
234.8881399999999
 20
114.2395
 30
0.0
 11
234.8881399999999
 21
116.5394999999999
 31
0.0
  0
LINE
  5
5CD
330
1E
100
AcDbEntity
  8
0
100
AcDbLine
 10
234.8881399999999
 20
116.5394999999999
 30
0.0
 11
234.8881399999999
 21
118.2395
 31
0.0
  0
LINE
  5
5CE
330
1E
100
AcDbEntity
  8
0
100
AcDbLine
 10
232.8881399999999
 20
120.0395
 30
0.0
 11
232.8881399999999
 21
95.73950000000008
 31
0.0
  0
LINE
  5
5CF
330
1E
100
AcDbEntity
  8
0
100
AcDbLine
 10
232.8881399999999
 20
120.0395
 30
0.0
 11
232.8881399999999
 21
121.2395
 31
0.0
  0
LINE
  5
5D0
330
1E
100
AcDbEntity
  8
0
100
AcDbLine
 10
234.8881399999999
 20
118.2395
 30
0.0
 11
234.8881399999999
 21
119.3394999999999
 31
0.0
  0
LINE
  5
5D1
330
1E
100
AcDbEntity
  8
0
100
AcDbLine
 10
232.8881399999999
 20
121.7395
 30
0.0
 11
232.8881399999999
 21
120.0395
 31
0.0
  0
LINE
  5
5D2
330
1E
100
AcDbEntity
  8
0
100
AcDbLine
 10
234.8881399999999
 20
119.3394999999999
 30
0.0
 11
234.8881399999999
 21
119.7394999999999
 31
0.0
  0
LINE
  5
5D3
330
1E
100
AcDbEntity
  8
0
100
AcDbLine
 10
232.8881399999999
 20
121.7395
 30
0.0
 11
234.8881399999999
 21
119.7394999999999
 31
0.0
  0
LINE
  5
5D4
330
1E
100
AcDbEntity
  8
0
100
AcDbLine
 10
234.8881399999999
 20
117.0395
 30
0.0
 11
234.8881399999999
 21
124.6394999999999
 31
0.0
  0
LINE
  5
5D5
330
1E
100
AcDbEntity
  8
0
100
AcDbLine
 10
234.8881399999999
 20
117.0395
 30
0.0
 11
234.8881399999999
 21
108.7395
 31
0.0
  0
LINE
  5
5D6
330
1E
100
AcDbEntity
  8
0
100
AcDbLine
 10
234.8881399999999
 20
108.7395
 30
0.0
 11
234.8881399999999
 21
117.0395
 31
0.0
  0
LINE
  5
5D7
330
1E
100
AcDbEntity
  8
0
100
AcDbLine
 10
234.8881399999999
 20
108.7395
 30
0.0
 11
234.8881399999999
 21
100.4394999999999
 31
0.0
  0
LINE
  5
5D8
330
1E
100
AcDbEntity
  8
0
100
AcDbLine
 10
234.8881399999999
 20
108.7395
 30
0.0
 11
234.8881399999999
 21
111.5395
 31
0.0
  0
LINE
  5
5D9
330
1E
100
AcDbEntity
  8
0
100
AcDbLine
 10
234.8881399999999
 20
97.73950000000009
 30
0.0
 11
234.8881399999999
 21
92.83950000000022
 31
0.0
  0
LINE
  5
5DA
330
1E
100
AcDbEntity
  8
0
100
AcDbLine
 10
234.8881399999999
 20
97.73950000000009
 30
0.0
 11
234.8881399999999
 21
98.1395000000001
 31
0.0
  0
LINE
  5
5DB
330
1E
100
AcDbEntity
  8
0
100
AcDbLine
 10
234.8881399999999
 20
140.7394999999999
 30
0.0
 11
234.8881399999999
 21
139.5395
 31
0.0
  0
LINE
  5
5DC
330
1E
100
AcDbEntity
  8
0
100
AcDbLine
 10
234.8881399999999
 20
140.7394999999999
 30
0.0
 11
236.8881399999999
 21
142.7394999999999
 31
0.0
  0
LINE
  5
5DD
330
1E
100
AcDbEntity
  8
0
100
AcDbLine
 10
234.8881399999999
 20
139.5395
 30
0.0
 11
234.8881399999999
 21
140.7394999999999
 31
0.0
  0
LINE
  5
5DE
330
1E
100
AcDbEntity
  8
0
100
AcDbLine
 10
234.8881399999999
 20
139.5395
 30
0.0
 11
234.8881399999999
 21
136.4395
 31
0.0
  0
LINE
  5
5DF
330
1E
100
AcDbEntity
  8
0
100
AcDbLine
 10
234.8881399999999
 20
136.4395
 30
0.0
 11
234.8881399999999
 21
139.5395
 31
0.0
  0
LINE
  5
5E0
330
1E
100
AcDbEntity
  8
0
100
AcDbLine
 10
234.8881399999999
 20
136.4395
 30
0.0
 11
234.8881399999999
 21
131.3394999999999
 31
0.0
  0
LINE
  5
5E1
330
1E
100
AcDbEntity
  8
0
100
AcDbLine
 10
234.8881399999999
 20
131.3394999999999
 30
0.0
 11
234.8881399999999
 21
136.4395
 31
0.0
  0
LINE
  5
5E2
330
1E
100
AcDbEntity
  8
0
100
AcDbLine
 10
234.8881399999999
 20
131.3394999999999
 30
0.0
 11
234.8881399999999
 21
124.6394999999999
 31
0.0
  0
LINE
  5
5E3
330
1E
100
AcDbEntity
  8
0
100
AcDbLine
 10
234.8881399999999
 20
124.6394999999999
 30
0.0
 11
234.8881399999999
 21
131.3394999999999
 31
0.0
  0
LINE
  5
5E4
330
1E
100
AcDbEntity
  8
0
100
AcDbLine
 10
234.8881399999999
 20
124.6394999999999
 30
0.0
 11
234.8881399999999
 21
119.7394999999999
 31
0.0
  0
LINE
  5
5E5
330
1E
100
AcDbEntity
  8
0
100
AcDbLine
 10
234.8881399999999
 20
124.6394999999999
 30
0.0
 11
234.8881399999999
 21
117.0395
 31
0.0
  0
LINE
  5
5E6
330
1E
100
AcDbEntity
  8
0
100
AcDbLine
 10
236.8881399999999
 20
99.93950000000021
 30
0.0
 11
236.8881399999999
 21
91.8395000000001
 31
0.0
  0
LINE
  5
5E7
330
1E
100
AcDbEntity
  8
0
100
AcDbLine
 10
236.8881399999999
 20
99.93950000000021
 30
0.0
 11
236.8881399999999
 21
108.7395
 31
0.0
  0
LINE
  5
5E8
330
1E
100
AcDbEntity
  8
0
100
AcDbLine
 10
236.8881399999999
 20
108.7395
 30
0.0
 11
236.8881399999999
 21
117.5394999999999
 31
0.0
  0
LINE
  5
5E9
330
1E
100
AcDbEntity
  8
0
100
AcDbLine
 10
236.8881399999999
 20
108.7395
 30
0.0
 11
236.8881399999999
 21
99.93950000000021
 31
0.0
  0
LINE
  5
5EA
330
1E
100
AcDbEntity
  8
0
100
AcDbLine
 10
236.8881399999999
 20
142.7394999999999
 30
0.0
 11
236.8881399999999
 21
141.5395
 31
0.0
  0
LINE
  5
5EB
330
1E
100
AcDbEntity
  8
0
100
AcDbLine
 10
236.8881399999999
 20
142.7394999999999
 30
0.0
 11
260.8881399999999
 21
142.7394999999999
 31
0.0
  0
LINE
  5
5EC
330
1E
100
AcDbEntity
  8
0
100
AcDbLine
 10
236.8881399999999
 20
141.5395
 30
0.0
 11
236.8881399999999
 21
138.1394999999999
 31
0.0
  0
LINE
  5
5ED
330
1E
100
AcDbEntity
  8
0
100
AcDbLine
 10
236.8881399999999
 20
141.5395
 30
0.0
 11
236.8881399999999
 21
142.7394999999999
 31
0.0
  0
LINE
  5
5EE
330
1E
100
AcDbEntity
  8
0
100
AcDbLine
 10
236.8881399999999
 20
138.1394999999999
 30
0.0
 11
236.8881399999999
 21
132.7394999999999
 31
0.0
  0
LINE
  5
5EF
330
1E
100
AcDbEntity
  8
0
100
AcDbLine
 10
236.8881399999999
 20
138.1394999999999
 30
0.0
 11
236.8881399999999
 21
141.5395
 31
0.0
  0
LINE
  5
5F0
330
1E
100
AcDbEntity
  8
0
100
AcDbLine
 10
236.8881399999999
 20
132.7394999999999
 30
0.0
 11
236.8881399999999
 21
125.6394999999999
 31
0.0
  0
LINE
  5
5F1
330
1E
100
AcDbEntity
  8
0
100
AcDbLine
 10
236.8881399999999
 20
132.7394999999999
 30
0.0
 11
236.8881399999999
 21
138.1394999999999
 31
0.0
  0
LINE
  5
5F2
330
1E
100
AcDbEntity
  8
0
100
AcDbLine
 10
236.8881399999999
 20
125.6394999999999
 30
0.0
 11
236.8881399999999
 21
117.5394999999999
 31
0.0
  0
LINE
  5
5F3
330
1E
100
AcDbEntity
  8
0
100
AcDbLine
 10
236.8881399999999
 20
125.6394999999999
 30
0.0
 11
236.8881399999999
 21
132.7394999999999
 31
0.0
  0
LINE
  5
5F4
330
1E
100
AcDbEntity
  8
0
100
AcDbLine
 10
236.8881399999999
 20
117.5394999999999
 30
0.0
 11
236.8881399999999
 21
108.7395
 31
0.0
  0
LINE
  5
5F5
330
1E
100
AcDbEntity
  8
0
100
AcDbLine
 10
236.8881399999999
 20
117.5394999999999
 30
0.0
 11
236.8881399999999
 21
125.6394999999999
 31
0.0
  0
LINE
  5
5F6
330
1E
100
AcDbEntity
  8
0
100
AcDbLine
 10
234.8881399999999
 20
119.7394999999999
 30
0.0
 11
234.8881399999999
 21
124.6394999999999
 31
0.0
  0
LINE
  5
5F7
330
1E
100
AcDbEntity
  8
0
100
AcDbLine
 10
234.8881399999999
 20
92.83950000000022
 30
0.0
 11
234.8881399999999
 21
97.73950000000009
 31
0.0
  0
LINE
  5
5F8
330
1E
100
AcDbEntity
  8
0
100
AcDbLine
 10
234.8881399999999
 20
92.83950000000022
 30
0.0
 11
234.8881399999999
 21
86.13950000000009
 31
0.0
  0
LINE
  5
5F9
330
1E
100
AcDbEntity
  8
0
100
AcDbLine
 10
234.8881399999999
 20
92.83950000000022
 30
0.0
 11
234.8881399999999
 21
100.4394999999999
 31
0.0
  0
LINE
  5
5FA
330
1E
100
AcDbEntity
  8
0
100
AcDbLine
 10
236.8881399999999
 20
74.73950000000009
 30
0.0
 11
260.8881399999999
 21
74.73950000000009
 31
0.0
  0
LINE
  5
5FB
330
1E
100
AcDbEntity
  8
0
100
AcDbLine
 10
236.8881399999999
 20
74.73950000000009
 30
0.0
 11
236.8881399999999
 21
75.93950000000019
 31
0.0
  0
LINE
  5
5FC
330
1E
100
AcDbEntity
  8
0
100
AcDbLine
 10
237.2771399999999
 20
497.0394999999999
 30
0.0
 11
239.6691399999999
 21
497.9894999999999
 31
0.0
  0
LINE
  5
5FD
330
1E
100
AcDbEntity
  8
0
100
AcDbLine
 10
234.37114
 20
496.5295
 30
0.0
 11
237.2771399999999
 21
497.0394999999999
 31
0.0
  0
LINE
  5
5FE
330
1E
100
AcDbEntity
  8
0
100
AcDbLine
 10
231.2281399999999
 20
496.6594999999999
 30
0.0
 11
234.37114
 21
496.5295
 31
0.0
  0
LINE
  5
5FF
330
1E
100
AcDbEntity
  8
0
100
AcDbLine
 10
241.09814
 20
499.3595
 30
0.0
 11
241.3611399999999
 21
500.9095
 31
0.0
  0
LINE
  5
600
330
1E
100
AcDbEntity
  8
0
100
AcDbLine
 10
239.6691399999999
 20
497.9894999999999
 30
0.0
 11
241.09814
 21
499.3595
 31
0.0
  0
LINE
  5
601
330
1E
100
AcDbEntity
  8
0
100
AcDbLine
 10
228.4291399999999
 20
497.3595
 30
0.0
 11
231.2281399999999
 21
496.6594999999999
 31
0.0
  0
LINE
  5
602
330
1E
100
AcDbEntity
  8
0
100
AcDbLine
 10
226.4891399999999
 20
498.5394999999999
 30
0.0
 11
228.4291399999999
 21
497.3595
 31
0.0
  0
LINE
  5
603
330
1E
100
AcDbEntity
  8
0
100
AcDbLine
 10
240.33114
 20
502.3295
 30
0.0
 11
241.3611399999999
 21
500.9095
 31
0.0
  0
LINE
  5
604
330
1E
100
AcDbEntity
  8
0
100
AcDbLine
 10
238.3951399999999
 20
503.5095
 30
0.0
 11
240.33114
 21
502.3295
 31
0.0
  0
LINE
  5
605
330
1E
100
AcDbEntity
  8
0
100
AcDbLine
 10
235.6011399999999
 20
504.2094999999999
 30
0.0
 11
238.3951399999999
 21
503.5095
 31
0.0
  0
LINE
  5
606
330
1E
100
AcDbEntity
  8
0
100
AcDbLine
 10
232.45814
 20
504.3395
 30
0.0
 11
235.6011399999999
 21
504.2094999999999
 31
0.0
  0
LINE
  5
607
330
1E
100
AcDbEntity
  8
0
100
AcDbLine
 10
229.5481399999999
 20
503.8395
 30
0.0
 11
232.45814
 21
504.3395
 31
0.0
  0
LINE
  5
608
330
1E
100
AcDbEntity
  8
0
100
AcDbLine
 10
227.1531399999999
 20
502.8895
 30
0.0
 11
229.5481399999999
 21
503.8395
 31
0.0
  0
LINE
  5
609
330
1E
100
AcDbEntity
  8
0
100
AcDbLine
 10
225.72014
 20
501.5095
 30
0.0
 11
227.1531399999999
 21
502.8895
 31
0.0
  0
LINE
  5
60A
330
1E
100
AcDbEntity
  8
0
100
AcDbLine
 10
225.4551399999999
 20
499.9695
 30
0.0
 11
226.4891399999999
 21
498.5394999999999
 31
0.0
  0
LINE
  5
60B
330
1E
100
AcDbEntity
  8
0
100
AcDbLine
 10
225.4551399999999
 20
499.9695
 30
0.0
 11
225.72014
 21
501.5095
 31
0.0
  0
LINE
  5
60C
330
1E
100
AcDbEntity
  8
0
100
AcDbLine
 10
214.1881399999999
 20
535.2395
 30
0.0
 11
216.88814
 21
535.2395
 31
0.0
  0
LINE
  5
60D
330
1E
100
AcDbEntity
  8
0
100
AcDbLine
 10
216.88814
 20
535.2395
 30
0.0
 11
225.4279728415399
 21
535.2395
 31
0.0
  0
LINE
  5
60E
330
1E
100
AcDbEntity
  8
0
100
AcDbLine
 10
260.8881399999999
 20
74.73950000000009
 30
0.0
 11
260.8881399999999
 21
75.93950000000019
 31
0.0
  0
LINE
  5
60F
330
1E
100
AcDbEntity
  8
0
100
AcDbLine
 10
260.8881399999999
 20
75.93950000000019
 30
0.0
 11
260.8881399999999
 21
79.3395000000001
 31
0.0
  0
LINE
  5
610
330
1E
100
AcDbEntity
  8
0
100
AcDbLine
 10
260.8881399999999
 20
79.3395000000001
 30
0.0
 11
260.8881399999999
 21
84.73950000000009
 31
0.0
  0
LINE
  5
611
330
1E
100
AcDbEntity
  8
0
100
AcDbLine
 10
260.8881399999999
 20
84.73950000000009
 30
0.0
 11
260.8881399999999
 21
91.8395000000001
 31
0.0
  0
LINE
  5
612
330
1E
100
AcDbEntity
  8
0
100
AcDbLine
 10
260.8881399999999
 20
91.8395000000001
 30
0.0
 11
260.8881399999999
 21
99.93950000000021
 31
0.0
  0
LINE
  5
613
330
1E
100
AcDbEntity
  8
0
100
AcDbLine
 10
260.8881399999999
 20
99.93950000000021
 30
0.0
 11
260.8881399999999
 21
108.7395
 31
0.0
  0
LINE
  5
614
330
1E
100
AcDbEntity
  8
0
100
AcDbLine
 10
260.8881399999999
 20
141.5395
 30
0.0
 11
260.8881399999999
 21
142.7394999999999
 31
0.0
  0
LINE
  5
615
330
1E
100
AcDbEntity
  8
0
100
AcDbLine
 10
260.8881399999999
 20
138.1394999999999
 30
0.0
 11
260.8881399999999
 21
141.5395
 31
0.0
  0
LINE
  5
616
330
1E
100
AcDbEntity
  8
0
100
AcDbLine
 10
260.8881399999999
 20
132.7394999999999
 30
0.0
 11
260.8881399999999
 21
138.1394999999999
 31
0.0
  0
LINE
  5
617
330
1E
100
AcDbEntity
  8
0
100
AcDbLine
 10
260.8881399999999
 20
125.6394999999999
 30
0.0
 11
260.8881399999999
 21
132.7394999999999
 31
0.0
  0
LINE
  5
618
330
1E
100
AcDbEntity
  8
0
100
AcDbLine
 10
260.8881399999999
 20
117.5394999999999
 30
0.0
 11
260.8881399999999
 21
125.6394999999999
 31
0.0
  0
LINE
  5
619
330
1E
100
AcDbEntity
  8
0
100
AcDbLine
 10
260.8881399999999
 20
108.7395
 30
0.0
 11
260.8881399999999
 21
117.5394999999999
 31
0.0
  0
LINE
  5
61A
330
1E
100
AcDbEntity
  8
0
100
AcDbLine
 10
241.340843936887
 20
535.2395
 30
0.0
 11
260.3881399999999
 21
535.2395
 31
0.0
  0
LINE
  5
61B
330
1E
100
AcDbEntity
  8
0
100
AcDbLine
 10
206.28814
 20
535.7395
 30
0.0
 11
207.3881399999999
 21
535.7395
 31
0.0
  0
LINE
  5
61C
330
1E
100
AcDbEntity
  8
0
100
AcDbLine
 10
206.28814
 20
586.7395
 30
0.0
 11
207.3881399999999
 21
586.7395
 31
0.0
  0
LINE
  5
61D
330
1E
100
AcDbEntity
  8
0
100
AcDbLine
 10
207.3881399999999
 20
535.7395
 30
0.0
 11
209.0881399999999
 21
535.7395
 31
0.0
  0
LINE
  5
61E
330
1E
100
AcDbEntity
  8
0
100
AcDbLine
 10
207.3881399999999
 20
586.7395
 30
0.0
 11
209.0881399999999
 21
586.7395
 31
0.0
  0
LINE
  5
61F
330
1E
100
AcDbEntity
  8
0
100
AcDbLine
 10
206.38814
 20
587.2395
 30
0.0
 11
206.78814
 21
587.2395
 31
0.0
  0
LINE
  5
620
330
1E
100
AcDbEntity
  8
0
100
AcDbLine
 10
206.78814
 20
587.2395
 30
0.0
 11
207.7881399999999
 21
587.2395
 31
0.0
  0
LINE
  5
621
330
1E
100
AcDbEntity
  8
0
100
AcDbLine
 10
209.0881399999999
 20
535.7395
 30
0.0
 11
211.3881399999999
 21
535.7395
 31
0.0
  0
LINE
  5
622
330
1E
100
AcDbEntity
  8
0
100
AcDbLine
 10
211.3881399999999
 20
535.7395
 30
0.0
 11
214.08814
 21
535.7395
 31
0.0
  0
LINE
  5
623
330
1E
100
AcDbEntity
  8
0
100
AcDbLine
 10
209.0881399999999
 20
586.7395
 30
0.0
 11
211.3881399999999
 21
586.7395
 31
0.0
  0
LINE
  5
624
330
1E
100
AcDbEntity
  8
0
100
AcDbLine
 10
211.3881399999999
 20
586.7395
 30
0.0
 11
214.08814
 21
586.7395
 31
0.0
  0
LINE
  5
625
330
1E
100
AcDbEntity
  8
0
100
AcDbLine
 10
207.7881399999999
 20
587.2395
 30
0.0
 11
209.4881399999999
 21
587.2395
 31
0.0
  0
LINE
  5
626
330
1E
100
AcDbEntity
  8
0
100
AcDbLine
 10
209.4881399999999
 20
587.2395
 30
0.0
 11
211.68814
 21
587.2395
 31
0.0
  0
LINE
  5
627
330
1E
100
AcDbEntity
  8
0
100
AcDbLine
 10
214.08814
 20
535.7395
 30
0.0
 11
216.88814
 21
535.7395
 31
0.0
  0
LINE
  5
628
330
1E
100
AcDbEntity
  8
0
100
AcDbLine
 10
216.88814
 20
535.7395
 30
0.0
 11
225.427587710289
 21
535.7395
 31
0.0
  0
LINE
  5
629
330
1E
100
AcDbEntity
  8
0
100
AcDbLine
 10
214.08814
 20
586.7395
 30
0.0
 11
216.88814
 21
586.7395
 31
0.0
  0
LINE
  5
62A
330
1E
100
AcDbEntity
  8
0
100
AcDbLine
 10
216.88814
 20
586.7395
 30
0.0
 11
225.388304322667
 21
586.7395
 31
0.0
  0
LINE
  5
62B
330
1E
100
AcDbEntity
  8
0
100
AcDbLine
 10
211.68814
 20
587.2395
 30
0.0
 11
214.1881399999999
 21
587.2395
 31
0.0
  0
LINE
  5
62D
330
1E
100
AcDbEntity
  8
0
100
AcDbLine
 10
206.28814
 20
1440.7395
 30
0.0
 11
207.3881399999999
 21
1440.7395
 31
0.0
  0
LINE
  5
62E
330
1E
100
AcDbEntity
  8
0
100
AcDbLine
 10
206.28814
 20
587.7394999999999
 30
0.0
 11
207.3881399999999
 21
587.7394999999999
 31
0.0
  0
LINE
  5
62F
330
1E
100
AcDbEntity
  8
0
100
AcDbLine
 10
205.8881399999999
 20
1440.7395
 30
0.0
 11
206.38814
 21
1441.2395
 31
0.0
  0
LINE
  5
630
330
1E
100
AcDbEntity
  8
0
100
AcDbLine
 10
205.8881399999999
 20
1440.7395
 30
0.0
 11
206.28814
 21
1440.7395
 31
0.0
  0
LINE
  5
631
330
1E
100
AcDbEntity
  8
0
100
AcDbLine
 10
205.8881399999999
 20
1189.847104545454
 30
0.0
 11
205.8881399999999
 21
1440.7395
 31
0.0
  0
LINE
  5
632
330
1E
100
AcDbEntity
  8
0
100
AcDbLine
 10
205.8881399999999
 20
1189.847104545454
 30
0.0
 11
205.8881399999999
 21
1440.7395
 31
0.0
  0
LINE
  5
633
330
1E
100
AcDbEntity
  8
0
100
AcDbLine
 10
206.38814
 20
1441.2395
 30
0.0
 11
206.78814
 21
1441.2395
 31
0.0
  0
LINE
  5
634
330
1E
100
AcDbEntity
  8
0
100
AcDbLine
 10
207.3881399999999
 20
587.7394999999999
 30
0.0
 11
209.0881399999999
 21
587.7394999999999
 31
0.0
  0
LINE
  5
635
330
1E
100
AcDbEntity
  8
0
100
AcDbLine
 10
209.0881399999999
 20
587.7394999999999
 30
0.0
 11
211.3881399999999
 21
587.7394999999999
 31
0.0
  0
LINE
  5
636
330
1E
100
AcDbEntity
  8
0
100
AcDbLine
 10
206.8881399999999
 20
1160.5595
 30
0.0
 11
209.28814
 21
1161.949499999999
 31
0.0
  0
LINE
  5
638
330
1E
100
AcDbEntity
  8
0
100
AcDbLine
 10
207.3881399999999
 20
1440.7395
 30
0.0
 11
209.0881399999999
 21
1440.7395
 31
0.0
  0
LINE
  5
63A
330
1E
100
AcDbEntity
  8
0
100
AcDbLine
 10
208.9681399999999
 20
1137.439499999999
 30
0.0
 11
210.7041399999999
 21
1140.2795
 31
0.0
  0
LINE
  5
63B
330
1E
100
AcDbEntity
  8
0
100
AcDbLine
 10
208.25214
 20
1135.7595
 30
0.0
 11
211.4691399999999
 21
1137.6695
 31
0.0
  0
LINE
  5
63C
330
1E
100
AcDbEntity
  8
0
100
AcDbLine
 10
208.25214
 20
1135.7595
 30
0.0
 11
208.9681399999999
 21
1137.439499999999
 31
0.0
  0
LINE
  5
63D
330
1E
100
AcDbEntity
  8
0
100
AcDbLine
 10
209.28814
 20
1161.949499999999
 30
0.0
 11
211.53914
 21
1163.249499999999
 31
0.0
  0
LINE
  5
63E
330
1E
100
AcDbEntity
  8
0
100
AcDbLine
 10
209.28814
 20
1161.949499999999
 30
0.0
 11
209.9431399999999
 21
1162.3195
 31
0.0
  0
LINE
  5
640
330
1E
100
AcDbEntity
  8
0
100
AcDbLine
 10
209.0881399999999
 20
1440.7395
 30
0.0
 11
211.3881399999999
 21
1440.7395
 31
0.0
  0
LINE
  5
642
330
1E
100
AcDbEntity
  8
0
100
AcDbLine
 10
207.8211399999999
 20
1127.6995
 30
0.0
 11
208.256320199304
 21
1127.514632445999
 31
0.0
  0
LINE
  5
643
330
1E
100
AcDbEntity
  8
0
100
AcDbLine
 10
207.8211399999999
 20
1127.6995
 30
0.0
 11
208.256405640017
 21
1127.51438588883
 31
0.0
  0
LINE
  5
644
330
1E
100
AcDbEntity
  8
0
100
AcDbLine
 10
206.78814
 20
1441.2395
 30
0.0
 11
207.7881399999999
 21
1441.2395
 31
0.0
  0
LINE
  5
645
330
1E
100
AcDbEntity
  8
0
100
AcDbLine
 10
207.7881399999999
 20
1441.2395
 30
0.0
 11
209.4881399999999
 21
1441.2395
 31
0.0
  0
LINE
  5
646
330
1E
100
AcDbEntity
  8
0
100
AcDbLine
 10
211.3881399999999
 20
587.7394999999999
 30
0.0
 11
214.08814
 21
587.7394999999999
 31
0.0
  0
LINE
  5
647
330
1E
100
AcDbEntity
  8
0
100
AcDbLine
 10
211.8881399999999
 20
635.2395
 30
0.0
 11
216.88814
 21
635.2395
 31
0.0
  0
LINE
  5
648
330
1E
100
AcDbEntity
  8
0
100
AcDbLine
 10
211.8881399999999
 20
658.2394999999999
 30
0.0
 11
216.88814
 21
658.2394999999999
 31
0.0
  0
LINE
  5
649
330
1E
100
AcDbEntity
  8
0
100
AcDbLine
 10
211.4691399999999
 20
1137.6695
 30
0.0
 11
212.8501399999999
 21
1139.4895
 31
0.0
  0
LINE
  5
64A
330
1E
100
AcDbEntity
  8
0
100
AcDbLine
 10
212.8501399999999
 20
1139.4895
 30
0.0
 11
214.78214
 21
1141.3395
 31
0.0
  0
LINE
  5
64B
330
1E
100
AcDbEntity
  8
0
100
AcDbLine
 10
210.7041399999999
 20
1140.2795
 30
0.0
 11
213.0761399999999
 21
1142.7895
 31
0.0
  0
LINE
  5
64C
330
1E
100
AcDbEntity
  8
0
100
AcDbLine
 10
213.0761399999999
 20
1142.7895
 30
0.0
 11
215.8881399999999
 21
1144.969499999999
 31
0.0
  0
LINE
  5
64D
330
1E
100
AcDbEntity
  8
0
100
AcDbLine
 10
214.08814
 20
587.7394999999999
 30
0.0
 11
216.88814
 21
587.7394999999999
 31
0.0
  0
LINE
  5
64E
330
1E
100
AcDbEntity
  8
0
100
AcDbLine
 10
209.55414
 20
1123.7695
 30
0.0
 11
215.7541399999999
 21
1099.3795
 31
0.0
  0
LINE
  5
650
330
1E
100
AcDbEntity
  8
0
100
AcDbLine
 10
209.9431399999999
 20
1162.3195
 30
0.0
 11
212.80714
 21
1163.979499999999
 31
0.0
  0
LINE
  5
651
330
1E
100
AcDbEntity
  8
0
100
AcDbLine
 10
211.4082605588449
 20
1163.17391436095
 30
0.0
 11
211.53914
 21
1163.249499999999
 31
0.0
  0
LINE
  5
652
330
1E
100
AcDbEntity
  8
0
100
AcDbLine
 10
211.53914
 20
1163.249499999999
 30
0.0
 11
213.52614
 21
1164.3895
 31
0.0
  0
LINE
  5
653
330
1E
100
AcDbEntity
  8
0
100
AcDbLine
 10
211.53914
 20
1163.249499999999
 30
0.0
 11
212.80714
 21
1163.979499999999
 31
0.0
  0
LINE
  5
654
330
1E
100
AcDbEntity
  8
0
100
AcDbLine
 10
213.52614
 20
1164.3895
 30
0.0
 11
215.02714
 21
1165.2595
 31
0.0
  0
LINE
  5
655
330
1E
100
AcDbEntity
  8
0
100
AcDbLine
 10
213.52614
 20
1164.3895
 30
0.0
 11
215.3371399999999
 21
1165.439499999999
 31
0.0
  0
LINE
  5
656
330
1E
100
AcDbEntity
  8
0
100
AcDbLine
 10
212.80714
 20
1163.979499999999
 30
0.0
 11
215.3371399999999
 21
1165.439499999999
 31
0.0
  0
LINE
  5
657
330
1E
100
AcDbEntity
  8
0
100
AcDbLine
 10
211.410159414238
 20
1163.169797565519
 30
0.0
 11
212.80714
 21
1163.979499999999
 31
0.0
  0
LINE
  5
658
330
1E
100
AcDbEntity
  8
0
100
AcDbLine
 10
211.3881399999999
 20
1440.7395
 30
0.0
 11
214.08814
 21
1440.7395
 31
0.0
  0
LINE
  5
659
330
1E
100
AcDbEntity
  8
0
100
AcDbLine
 10
214.08814
 20
1440.7395
 30
0.0
 11
216.88814
 21
1440.7395
 31
0.0
  0
LINE
  5
65B
330
1E
100
AcDbEntity
  8
0
100
AcDbLine
 10
209.4881399999999
 20
1441.2395
 30
0.0
 11
211.68814
 21
1441.2395
 31
0.0
  0
LINE
  5
65C
330
1E
100
AcDbEntity
  8
0
100
AcDbLine
 10
205.8881399999999
 20
1441.739499999999
 30
0.0
 11
206.28814
 21
1441.739499999999
 31
0.0
  0
LINE
  5
65D
330
1E
100
AcDbEntity
  8
0
100
AcDbLine
 10
205.8881399999999
 20
1441.739499999999
 30
0.0
 11
206.38814
 21
1441.2395
 31
0.0
  0
LINE
  5
65E
330
1E
100
AcDbEntity
  8
0
100
AcDbLine
 10
205.8881399999999
 20
1441.739499999999
 30
0.0
 11
205.8881399999999
 21
1492.739499999999
 31
0.0
  0
LINE
  5
65F
330
1E
100
AcDbEntity
  8
0
100
AcDbLine
 10
206.28814
 20
1441.739499999999
 30
0.0
 11
207.3881399999999
 21
1441.739499999999
 31
0.0
  0
LINE
  5
660
330
1E
100
AcDbEntity
  8
0
100
AcDbLine
 10
207.3881399999999
 20
1441.739499999999
 30
0.0
 11
209.0881399999999
 21
1441.739499999999
 31
0.0
  0
LINE
  5
661
330
1E
100
AcDbEntity
  8
0
100
AcDbLine
 10
209.0881399999999
 20
1441.739499999999
 30
0.0
 11
211.3881399999999
 21
1441.739499999999
 31
0.0
  0
LINE
  5
662
330
1E
100
AcDbEntity
  8
0
100
AcDbLine
 10
205.8881399999999
 20
1492.739499999999
 30
0.0
 11
206.28814
 21
1492.739499999999
 31
0.0
  0
LINE
  5
663
330
1E
100
AcDbEntity
  8
0
100
AcDbLine
 10
205.8881399999999
 20
1492.739499999999
 30
0.0
 11
206.38814
 21
1493.2395
 31
0.0
  0
LINE
  5
664
330
1E
100
AcDbEntity
  8
0
100
AcDbLine
 10
205.8881399999999
 20
1492.739499999999
 30
0.0
 11
205.8881399999999
 21
1441.739499999999
 31
0.0
  0
LINE
  5
665
330
1E
100
AcDbEntity
  8
0
100
AcDbLine
 10
206.28814
 20
1492.739499999999
 30
0.0
 11
207.3881399999999
 21
1492.739499999999
 31
0.0
  0
LINE
  5
666
330
1E
100
AcDbEntity
  8
0
100
AcDbLine
 10
207.3881399999999
 20
1492.739499999999
 30
0.0
 11
209.0881399999999
 21
1492.739499999999
 31
0.0
  0
LINE
  5
667
330
1E
100
AcDbEntity
  8
0
100
AcDbLine
 10
209.0881399999999
 20
1492.739499999999
 30
0.0
 11
211.3881399999999
 21
1492.739499999999
 31
0.0
  0
LINE
  5
668
330
1E
100
AcDbEntity
  8
0
100
AcDbLine
 10
206.38814
 20
1493.2395
 30
0.0
 11
206.78814
 21
1493.2395
 31
0.0
  0
LINE
  5
669
330
1E
100
AcDbEntity
  8
0
100
AcDbLine
 10
206.78814
 20
1493.2395
 30
0.0
 11
207.7881399999999
 21
1493.2395
 31
0.0
  0
LINE
  5
66A
330
1E
100
AcDbEntity
  8
0
100
AcDbLine
 10
207.7881399999999
 20
1493.2395
 30
0.0
 11
209.4881399999999
 21
1493.2395
 31
0.0
  0
LINE
  5
66B
330
1E
100
AcDbEntity
  8
0
100
AcDbLine
 10
209.4881399999999
 20
1493.2395
 30
0.0
 11
211.68814
 21
1493.2395
 31
0.0
  0
LINE
  5
66C
330
1E
100
AcDbEntity
  8
0
100
AcDbLine
 10
211.68814
 20
1493.2395
 30
0.0
 11
214.1881399999999
 21
1493.2395
 31
0.0
  0
LINE
  5
66D
330
1E
100
AcDbEntity
  8
0
100
AcDbLine
 10
211.3881399999999
 20
1492.739499999999
 30
0.0
 11
214.08814
 21
1492.739499999999
 31
0.0
  0
LINE
  5
66E
330
1E
100
AcDbEntity
  8
0
100
AcDbLine
 10
214.08814
 20
1492.739499999999
 30
0.0
 11
216.88814
 21
1492.739499999999
 31
0.0
  0
LINE
  5
66F
330
1E
100
AcDbEntity
  8
0
100
AcDbLine
 10
211.3881399999999
 20
1441.739499999999
 30
0.0
 11
214.08814
 21
1441.739499999999
 31
0.0
  0
LINE
  5
670
330
1E
100
AcDbEntity
  8
0
100
AcDbLine
 10
214.08814
 20
1441.739499999999
 30
0.0
 11
216.88814
 21
1441.739499999999
 31
0.0
  0
LINE
  5
671
330
1E
100
AcDbEntity
  8
0
100
AcDbLine
 10
211.68814
 20
1441.2395
 30
0.0
 11
214.1881399999999
 21
1441.2395
 31
0.0
  0
LINE
  5
672
330
1E
100
AcDbEntity
  8
0
100
AcDbLine
 10
214.78214
 20
1141.3395
 30
0.0
 11
217.02414
 21
1143.0095
 31
0.0
  0
LINE
  5
673
330
1E
100
AcDbEntity
  8
0
100
AcDbLine
 10
215.8881399999999
 20
1144.969499999999
 30
0.0
 11
219.1481399999999
 21
1146.3795
 31
0.0
  0
LINE
  5
674
330
1E
100
AcDbEntity
  8
0
100
AcDbLine
 10
215.7541399999999
 20
1099.3795
 30
0.0
 11
220.35314
 21
1075.1695
 31
0.0
  0
LINE
  5
675
330
1E
100
AcDbEntity
  8
0
100
AcDbLine
 10
215.02714
 20
1165.2595
 30
0.0
 11
215.9271399999999
 21
1165.7795
 31
0.0
  0
LINE
  5
676
330
1E
100
AcDbEntity
  8
0
100
AcDbLine
 10
215.02714
 20
1165.2595
 30
0.0
 11
217.2461399999999
 21
1166.5395
 31
0.0
  0
LINE
  5
677
330
1E
100
AcDbEntity
  8
0
100
AcDbLine
 10
216.26414
 20
1165.969499999999
 30
0.0
 11
218.8211399999999
 21
1167.4495
 31
0.0
  0
LINE
  5
679
330
1E
100
AcDbEntity
  8
0
100
AcDbLine
 10
215.9271399999999
 20
1165.7795
 30
0.0
 11
216.26414
 21
1165.969499999999
 31
0.0
  0
LINE
  5
67A
330
1E
100
AcDbEntity
  8
0
100
AcDbLine
 10
215.9271399999999
 20
1165.7795
 30
0.0
 11
218.39214
 21
1167.199499999999
 31
0.0
  0
LINE
  5
67B
330
1E
100
AcDbEntity
  8
0
100
AcDbLine
 10
215.3371399999999
 20
1165.439499999999
 30
0.0
 11
217.2461399999999
 21
1166.5395
 31
0.0
  0
LINE
  5
67C
330
1E
100
AcDbEntity
  8
0
100
AcDbLine
 10
219.1070959342958
 20
1143.934348803832
 30
0.0
 11
223.4531399999999
 21
1131.7795
 31
0.0
  0
LINE
  5
67D
330
1E
100
AcDbEntity
  8
0
100
AcDbLine
 10
216.88814
 20
658.2394999999999
 30
0.0
 11
220.21614
 21
658.2394999999999
 31
0.0
  0
LINE
  5
67E
330
1E
100
AcDbEntity
  8
0
100
AcDbLine
 10
216.88814
 20
658.2394999999999
 30
0.0
 11
219.7041399999999
 21
658.2394999999999
 31
0.0
  0
LINE
  5
67F
330
1E
100
AcDbEntity
  8
0
100
AcDbLine
 10
216.88814
 20
635.2395
 30
0.0
 11
220.21614
 21
635.2395
 31
0.0
  0
LINE
  5
680
330
1E
100
AcDbEntity
  8
0
100
AcDbLine
 10
216.88814
 20
635.2395
 30
0.0
 11
219.7041399999999
 21
635.2395
 31
0.0
  0
LINE
  5
681
330
1E
100
AcDbEntity
  8
0
100
AcDbLine
 10
216.88814
 20
587.7394999999999
 30
0.0
 11
219.68814
 21
587.7394999999999
 31
0.0
  0
LINE
  5
683
330
1E
100
AcDbEntity
  8
0
100
AcDbLine
 10
214.1881399999999
 20
1493.2395
 30
0.0
 11
216.88814
 21
1493.2395
 31
0.0
  0
LINE
  5
684
330
1E
100
AcDbEntity
  8
0
100
AcDbLine
 10
214.1881399999999
 20
1441.2395
 30
0.0
 11
216.88814
 21
1441.2395
 31
0.0
  0
LINE
  5
685
330
1E
100
AcDbEntity
  8
0
100
AcDbLine
 10
214.1881399999999
 20
587.2395
 30
0.0
 11
216.88814
 21
587.2395
 31
0.0
  0
LINE
  5
686
330
1E
100
AcDbEntity
  8
0
100
AcDbLine
 10
241.340548334453
 20
535.7395
 30
0.0
 11
260.8881399999999
 21
535.7395
 31
0.0
  0
LINE
  5
687
330
1E
100
AcDbEntity
  8
0
100
AcDbLine
 10
241.310396886193
 20
586.7395
 30
0.0
 11
260.8881399999999
 21
586.7395
 31
0.0
  0
LINE
  5
688
330
1E
100
AcDbEntity
  8
0
100
AcDbLine
 10
260.8881399999999
 20
535.7395
 30
0.0
 11
260.8881399999999
 21
586.7395
 31
0.0
  0
LINE
  5
689
330
1E
100
AcDbEntity
  8
0
100
AcDbLine
 10
260.8881399999999
 20
586.7395
 30
0.0
 11
260.8881399999999
 21
535.7395
 31
0.0
  0
LINE
  5
68A
330
1E
100
AcDbEntity
  8
0
100
AcDbLine
 10
260.3881399999999
 20
587.2395
 30
0.0
 11
260.8881399999999
 21
586.7395
 31
0.0
  0
LINE
  5
68B
330
1E
100
AcDbEntity
  8
0
100
AcDbLine
 10
219.7041399999999
 20
635.2395
 30
0.0
 11
222.34414
 21
635.2395
 31
0.0
  0
LINE
  5
68C
330
1E
100
AcDbEntity
  8
0
100
AcDbLine
 10
219.7041399999999
 20
658.2394999999999
 30
0.0
 11
222.34414
 21
658.2394999999999
 31
0.0
  0
LINE
  5
68D
330
1E
100
AcDbEntity
  8
0
100
AcDbLine
 10
220.21614
 20
658.2394999999999
 30
0.0
 11
223.33614
 21
658.2394999999999
 31
0.0
  0
LINE
  5
68E
330
1E
100
AcDbEntity
  8
0
100
AcDbLine
 10
220.21614
 20
635.2395
 30
0.0
 11
223.33614
 21
635.2395
 31
0.0
  0
LINE
  5
68F
330
1E
100
AcDbEntity
  8
0
100
AcDbLine
 10
219.68814
 20
587.7394999999999
 30
0.0
 11
222.3881399999999
 21
587.7394999999999
 31
0.0
  0
LINE
  5
690
330
1E
100
AcDbEntity
  8
0
100
AcDbLine
 10
224.6881399999999
 20
587.7394999999999
 30
0.0
 11
225.3875340601649
 21
587.7394999999999
 31
0.0
  0
LINE
  5
691
330
1E
100
AcDbEntity
  8
0
100
AcDbLine
 10
222.34414
 20
635.2395
 30
0.0
 11
224.67614
 21
635.2395
 31
0.0
  0
LINE
  5
692
330
1E
100
AcDbEntity
  8
0
100
AcDbLine
 10
222.34414
 20
658.2394999999999
 30
0.0
 11
224.67614
 21
658.2394999999999
 31
0.0
  0
LINE
  5
693
330
1E
100
AcDbEntity
  8
0
100
AcDbLine
 10
223.33614
 20
658.2394999999999
 30
0.0
 11
225.333230553746
 21
658.2394999999999
 31
0.0
  0
LINE
  5
694
330
1E
100
AcDbEntity
  8
0
100
AcDbLine
 10
224.67614
 20
635.2395
 30
0.0
 11
225.350946591301
 21
635.2395
 31
0.0
  0
LINE
  5
695
330
1E
100
AcDbEntity
  8
0
100
AcDbLine
 10
224.67614
 20
658.2394999999999
 30
0.0
 11
225.333230553746
 21
658.2394999999999
 31
0.0
  0
LINE
  5
696
330
1E
100
AcDbEntity
  8
0
100
AcDbLine
 10
223.33614
 20
635.2395
 30
0.0
 11
225.350946591301
 21
635.2395
 31
0.0
  0
LINE
  5
697
330
1E
100
AcDbEntity
  8
0
100
AcDbLine
 10
222.3881399999999
 20
587.7394999999999
 30
0.0
 11
224.6881399999999
 21
587.7394999999999
 31
0.0
  0
LINE
  5
698
330
1E
100
AcDbEntity
  8
0
100
AcDbLine
 10
225.0531399999999
 20
1021.869499999999
 30
0.0
 11
225.4551399999999
 21
499.9695
 31
0.0
  0
LINE
  5
699
330
1E
100
AcDbEntity
  8
0
100
AcDbLine
 10
223.2521399999999
 20
1053.4695
 30
0.0
 11
225.0531399999999
 21
1021.869499999999
 31
0.0
  0
LINE
  5
69A
330
1E
100
AcDbEntity
  8
0
100
AcDbLine
 10
220.35314
 20
1075.1695
 30
0.0
 11
223.2521399999999
 21
1053.4695
 31
0.0
  0
LINE
  5
69C
330
1E
100
AcDbEntity
  8
0
100
AcDbLine
 10
222.1781399999999
 20
1144.8195
 30
0.0
 11
224.70514
 21
1145.0295
 31
0.0
  0
LINE
  5
69D
330
1E
100
AcDbEntity
  8
0
100
AcDbLine
 10
219.56914
 20
1144.1395
 30
0.0
 11
222.1781399999999
 21
1144.8195
 31
0.0
  0
LINE
  5
69E
330
1E
100
AcDbEntity
  8
0
100
AcDbLine
 10
217.02414
 20
1143.0095
 30
0.0
 11
219.56914
 21
1144.1395
 31
0.0
  0
LINE
  5
69F
330
1E
100
AcDbEntity
  8
0
100
AcDbLine
 10
219.1481399999999
 20
1146.3795
 30
0.0
 11
222.4361399999999
 21
1147.2995
 31
0.0
  0
LINE
  5
6A0
330
1E
100
AcDbEntity
  8
0
100
AcDbLine
 10
222.4361399999999
 20
1147.2995
 30
0.0
 11
225.84214
 21
1147.239499999999
 31
0.0
  0
LINE
  5
6A1
330
1E
100
AcDbEntity
  8
0
100
AcDbLine
 10
222.347307084751
 20
1134.87225094406
 30
0.0
 11
224.2251399999999
 21
1136.0695
 31
0.0
  0
LINE
  5
6A2
330
1E
100
AcDbEntity
  8
0
100
AcDbLine
 10
222.355674628841
 20
1134.84884891874
 30
0.0
 11
224.94314
 21
1136.3395
 31
0.0
  0
LINE
  5
6A3
330
1E
100
AcDbEntity
  8
0
100
AcDbLine
 10
224.2251399999999
 20
1136.0695
 30
0.0
 11
226.3151399999999
 21
1137.649499999999
 31
0.0
  0
LINE
  5
6A4
330
1E
100
AcDbEntity
  8
0
100
AcDbLine
 10
224.70514
 20
1145.0295
 30
0.0
 11
226.8561399999999
 21
1144.7695
 31
0.0
  0
LINE
  5
6A5
330
1E
100
AcDbEntity
  8
0
100
AcDbLine
 10
225.84214
 20
1147.239499999999
 30
0.0
 11
228.64914
 21
1146.7895
 31
0.0
  0
LINE
  5
6A6
330
1E
100
AcDbEntity
  8
0
100
AcDbLine
 10
224.94314
 20
1136.3395
 30
0.0
 11
227.8071399999999
 21
1137.9995
 31
0.0
  0
LINE
  5
6A7
330
1E
100
AcDbEntity
  8
0
100
AcDbLine
 10
223.4531399999999
 20
1131.7795
 30
0.0
 11
230.2531399999999
 21
1106.0695
 31
0.0
  0
LINE
  5
6A8
330
1E
100
AcDbEntity
  8
0
100
AcDbLine
 10
218.8211399999999
 20
1167.4495
 30
0.0
 11
231.9531399999999
 21
1144.699499999999
 31
0.0
  0
LINE
  5
6A9
330
1E
100
AcDbEntity
  8
0
100
AcDbLine
 10
218.39214
 20
1167.199499999999
 30
0.0
 11
218.8211399999999
 21
1167.4495
 31
0.0
  0
LINE
  5
6AA
330
1E
100
AcDbEntity
  8
0
100
AcDbLine
 10
217.2461399999999
 20
1166.5395
 30
0.0
 11
218.39214
 21
1167.199499999999
 31
0.0
  0
LINE
  5
6AB
330
1E
100
AcDbEntity
  8
0
100
AcDbLine
 10
224.6881399999999
 20
1440.7395
 30
0.0
 11
226.3881399999999
 21
1440.7395
 31
0.0
  0
LINE
  5
6AC
330
1E
100
AcDbEntity
  8
0
100
AcDbLine
 10
222.3881399999999
 20
1440.7395
 30
0.0
 11
224.6881399999999
 21
1440.7395
 31
0.0
  0
LINE
  5
6AD
330
1E
100
AcDbEntity
  8
0
100
AcDbLine
 10
224.2881399999999
 20
1441.2395
 30
0.0
 11
225.9881399999999
 21
1441.2395
 31
0.0
  0
LINE
  5
6AE
330
1E
100
AcDbEntity
  8
0
100
AcDbLine
 10
222.0881399999999
 20
1441.2395
 30
0.0
 11
224.2881399999999
 21
1441.2395
 31
0.0
  0
LINE
  5
6AF
330
1E
100
AcDbEntity
  8
0
100
AcDbLine
 10
219.5881399999999
 20
1441.2395
 30
0.0
 11
222.0881399999999
 21
1441.2395
 31
0.0
  0
LINE
  5
6B0
330
1E
100
AcDbEntity
  8
0
100
AcDbLine
 10
219.68814
 20
1440.7395
 30
0.0
 11
222.3881399999999
 21
1440.7395
 31
0.0
  0
LINE
  5
6B1
330
1E
100
AcDbEntity
  8
0
100
AcDbLine
 10
216.88814
 20
1440.7395
 30
0.0
 11
219.68814
 21
1440.7395
 31
0.0
  0
LINE
  5
6B2
330
1E
100
AcDbEntity
  8
0
100
AcDbLine
 10
223.1339396755068
 20
1159.977965380918
 30
0.0
 11
225.9551399999999
 21
1158.7795
 31
0.0
  0
LINE
  5
6B3
330
1E
100
AcDbEntity
  8
0
100
AcDbLine
 10
226.8561399999999
 20
1144.7695
 30
0.0
 11
228.40814
 21
1144.159499999999
 31
0.0
  0
LINE
  5
6B4
330
1E
100
AcDbEntity
  8
0
100
AcDbLine
 10
226.3151399999999
 20
1137.649499999999
 30
0.0
 11
228.03314
 21
1139.2695
 31
0.0
  0
LINE
  5
6B5
330
1E
100
AcDbEntity
  8
0
100
AcDbLine
 10
225.9881399999999
 20
1441.2395
 30
0.0
 11
226.98814
 21
1441.2395
 31
0.0
  0
LINE
  5
6B6
330
1E
100
AcDbEntity
  8
0
100
AcDbLine
 10
226.98814
 20
1441.2395
 30
0.0
 11
227.38814
 21
1441.2395
 31
0.0
  0
LINE
  5
6B7
330
1E
100
AcDbEntity
  8
0
100
AcDbLine
 10
226.3881399999999
 20
1440.7395
 30
0.0
 11
227.4881399999999
 21
1440.7395
 31
0.0
  0
LINE
  5
6B8
330
1E
100
AcDbEntity
  8
0
100
AcDbLine
 10
225.9551399999999
 20
1158.7795
 30
0.0
 11
229.61114
 21
1155.909499999999
 31
0.0
  0
LINE
  5
6B9
330
1E
100
AcDbEntity
  8
0
100
AcDbLine
 10
225.8881399999999
 20
1127.6495
 30
0.0
 11
229.5551399999999
 21
1130.5195
 31
0.0
  0
LINE
  5
6BA
330
1E
100
AcDbEntity
  8
0
100
AcDbLine
 10
224.674876465515
 20
1127.16025815759
 30
0.0
 11
225.8881399999999
 21
1127.6495
 31
0.0
  0
LINE
  5
6BB
330
1E
100
AcDbEntity
  8
0
100
AcDbLine
 10
227.8881399999999
 20
1157.262073851203
 30
0.0
 11
227.8881399999999
 21
1440.7395
 31
0.0
  0
LINE
  5
6BC
330
1E
100
AcDbEntity
  8
0
100
AcDbLine
 10
227.8881399999999
 20
1157.262073851203
 30
0.0
 11
227.8881399999999
 21
1440.7395
 31
0.0
  0
LINE
  5
6BD
330
1E
100
AcDbEntity
  8
0
100
AcDbLine
 10
241.0531399999999
 20
1021.8795
 30
0.0
 11
241.3611399999999
 21
500.9095
 31
0.0
  0
LINE
  5
6BE
330
1E
100
AcDbEntity
  8
0
100
AcDbLine
 10
239.0531399999999
 20
1056.2795
 30
0.0
 11
241.0531399999999
 21
1021.8795
 31
0.0
  0
LINE
  5
6BF
330
1E
100
AcDbEntity
  8
0
100
AcDbLine
 10
235.35314
 20
1080.6795
 30
0.0
 11
239.0531399999999
 21
1056.2795
 31
0.0
  0
LINE
  5
6C0
330
1E
100
AcDbEntity
  8
0
100
AcDbLine
 10
230.2531399999999
 20
1106.0695
 30
0.0
 11
235.35314
 21
1080.6795
 31
0.0
  0
LINE
  5
6C1
330
1E
100
AcDbEntity
  8
0
100
AcDbLine
 10
227.8881399999999
 20
1129.21481224434
 30
0.0
 11
229.5551399999999
 21
1130.5195
 31
0.0
  0
LINE
  5
6C2
330
1E
100
AcDbEntity
  8
0
100
AcDbLine
 10
227.8071399999999
 20
1137.9995
 30
0.0
 11
230.1841399999999
 21
1139.719499999999
 31
0.0
  0
LINE
  5
6C4
330
1E
100
AcDbEntity
  8
0
100
AcDbLine
 10
227.4881399999999
 20
1440.7395
 30
0.0
 11
227.8881399999999
 21
1440.7395
 31
0.0
  0
LINE
  5
6C5
330
1E
100
AcDbEntity
  8
0
100
AcDbLine
 10
227.8881399999999
 20
1157.2620738512
 30
0.0
 11
229.61114
 21
1155.909499999999
 31
0.0
  0
LINE
  5
6CB
330
1E
100
AcDbEntity
  8
0
100
AcDbLine
 10
228.40814
 20
1144.159499999999
 30
0.0
 11
229.4411399999999
 21
1143.1495
 31
0.0
  0
LINE
  5
6CC
330
1E
100
AcDbEntity
  8
0
100
AcDbLine
 10
228.64914
 20
1146.7895
 30
0.0
 11
230.64814
 21
1145.9695
 31
0.0
  0
LINE
  5
6CD
330
1E
100
AcDbEntity
  8
0
100
AcDbLine
 10
229.2361399999999
 20
1140.6495
 30
0.0
 11
229.66514
 21
1141.979499999999
 31
0.0
  0
LINE
  5
6CE
330
1E
100
AcDbEntity
  8
0
100
AcDbLine
 10
228.03314
 20
1139.2695
 30
0.0
 11
229.2361399999999
 21
1140.6495
 31
0.0
  0
LINE
  5
6D2
330
1E
100
AcDbEntity
  8
0
100
AcDbLine
 10
229.5551399999999
 20
1130.5195
 30
0.0
 11
232.43214
 21
1134.1695
 31
0.0
  0
LINE
  5
6D3
330
1E
100
AcDbEntity
  8
0
100
AcDbLine
 10
232.43214
 20
1134.1695
 30
0.0
 11
234.2971399999999
 21
1138.5695
 31
0.0
  0
LINE
  5
6D4
330
1E
100
AcDbEntity
  8
0
100
AcDbLine
 10
229.4411399999999
 20
1143.1495
 30
0.0
 11
229.66514
 21
1141.979499999999
 31
0.0
  0
LINE
  5
6D5
330
1E
100
AcDbEntity
  8
0
100
AcDbLine
 10
230.64814
 20
1145.9695
 30
0.0
 11
231.9531399999999
 21
1144.699499999999
 31
0.0
  0
LINE
  5
6D6
330
1E
100
AcDbEntity
  8
0
100
AcDbLine
 10
231.9531399999999
 20
1144.699499999999
 30
0.0
 11
232.30914
 21
1143.0995
 31
0.0
  0
LINE
  5
6D7
330
1E
100
AcDbEntity
  8
0
100
AcDbLine
 10
231.7251399999999
 20
1141.4595
 30
0.0
 11
232.30914
 21
1143.0995
 31
0.0
  0
LINE
  5
6D8
330
1E
100
AcDbEntity
  8
0
100
AcDbLine
 10
230.1841399999999
 20
1139.719499999999
 30
0.0
 11
231.7251399999999
 21
1141.4595
 31
0.0
  0
LINE
  5
6D9
330
1E
100
AcDbEntity
  8
0
100
AcDbLine
 10
229.61114
 20
1155.909499999999
 30
0.0
 11
232.4771399999999
 21
1152.2395
 31
0.0
  0
LINE
  5
6DA
330
1E
100
AcDbEntity
  8
0
100
AcDbLine
 10
232.4771399999999
 20
1152.2395
 30
0.0
 11
234.2191399999999
 21
1147.9295
 31
0.0
  0
LINE
  5
6DC
330
1E
100
AcDbEntity
  8
0
100
AcDbLine
 10
234.2971399999999
 20
1138.5695
 30
0.0
 11
234.8831399999999
 21
1143.3195
 31
0.0
  0
LINE
  5
6DD
330
1E
100
AcDbEntity
  8
0
100
AcDbLine
 10
234.2191399999999
 20
1147.9295
 30
0.0
 11
234.8831399999999
 21
1143.3195
 31
0.0
  0
LINE
  5
6E3
330
1E
100
AcDbEntity
  8
0
100
AcDbLine
 10
227.38814
 20
1441.2395
 30
0.0
 11
260.3881399999999
 21
1441.2395
 31
0.0
  0
LINE
  5
6E4
330
1E
100
AcDbEntity
  8
0
100
AcDbLine
 10
227.38814
 20
1441.2395
 30
0.0
 11
227.8881399999999
 21
1440.7395
 31
0.0
  0
LINE
  5
6E5
330
1E
100
AcDbEntity
  8
0
100
AcDbLine
 10
216.88814
 20
1493.2395
 30
0.0
 11
260.3881399999999
 21
1493.2395
 31
0.0
  0
LINE
  5
6E6
330
1E
100
AcDbEntity
  8
0
100
AcDbLine
 10
216.88814
 20
1492.739499999999
 30
0.0
 11
260.8881399999999
 21
1492.739499999999
 31
0.0
  0
LINE
  5
6E7
330
1E
100
AcDbEntity
  8
0
100
AcDbLine
 10
260.3881399999999
 20
1493.2395
 30
0.0
 11
260.8881399999999
 21
1492.739499999999
 31
0.0
  0
LINE
  5
6E8
330
1E
100
AcDbEntity
  8
0
100
AcDbLine
 10
216.88814
 20
1441.739499999999
 30
0.0
 11
260.8881399999999
 21
1441.739499999999
 31
0.0
  0
LINE
  5
6E9
330
1E
100
AcDbEntity
  8
0
100
AcDbLine
 10
216.88814
 20
1441.2395
 30
0.0
 11
260.3881399999999
 21
1441.2395
 31
0.0
  0
LINE
  5
6EA
330
1E
100
AcDbEntity
  8
0
100
AcDbLine
 10
216.88814
 20
1441.2395
 30
0.0
 11
219.5881399999999
 21
1441.2395
 31
0.0
  0
LINE
  5
6EB
330
1E
100
AcDbEntity
  8
0
100
AcDbLine
 10
260.8881399999999
 20
1492.739499999999
 30
0.0
 11
260.8881399999999
 21
1441.739499999999
 31
0.0
  0
LINE
  5
6EC
330
1E
100
AcDbEntity
  8
0
100
AcDbLine
 10
260.8881399999999
 20
1441.739499999999
 30
0.0
 11
260.8881399999999
 21
1492.739499999999
 31
0.0
  0
LINE
  5
6ED
330
1E
100
AcDbEntity
  8
0
100
AcDbLine
 10
260.3881399999999
 20
1441.2395
 30
0.0
 11
260.8881399999999
 21
1441.739499999999
 31
0.0
  0
LINE
  5
6EE
330
1E
100
AcDbEntity
  8
0
100
AcDbLine
 10
241.3101012837589
 20
587.2395
 30
0.0
 11
260.3881399999999
 21
587.2395
 31
0.0
  0
LINE
  5
6EF
330
1E
100
AcDbEntity
  8
0
100
AcDbLine
 10
216.88814
 20
587.2395
 30
0.0
 11
225.387919191416
 21
587.2395
 31
0.0
  0
LINE
  5
6F0
330
1E
100
AcDbEntity
  8
0
100
AcDbLine
 10
260.3881399999999
 20
535.2395
 30
0.0
 11
260.8881399999999
 21
535.7395
 31
0.0
  0
LINE
  5
6F1
330
1E
100
AcDbEntity
  8
0
100
AcDbLine
 10
205.8881399999999
 20
586.7395
 30
0.0
 11
206.38814
 21
587.2395
 31
0.0
  0
LINE
  5
6F2
330
1E
100
AcDbEntity
  8
0
100
AcDbLine
 10
205.8881399999999
 20
586.7395
 30
0.0
 11
206.28814
 21
586.7395
 31
0.0
  0
LINE
  5
6F3
330
1E
100
AcDbEntity
  8
0
100
AcDbLine
 10
205.8881399999999
 20
586.7395
 30
0.0
 11
205.8881399999999
 21
535.7395
 31
0.0
  0
LINE
  5
6F8
330
1E
100
AcDbEntity
  8
0
100
AcDbLine
 10
77.78484
 20
1338.4495
 30
0.0
 11
107.5471399999999
 21
1312.5495
 31
0.0
  0
LINE
  5
6F9
330
1E
100
AcDbEntity
  8
0
100
AcDbLine
 10
77.78484
 20
1338.4495
 30
0.0
 11
66.37864
 21
1347.1295
 31
0.0
  0
LINE
  5
6FA
330
1E
100
AcDbEntity
  8
0
100
AcDbLine
 10
75.57754
 20
1298.0695
 30
0.0
 11
3.060460000000009
 21
1349.1095
 31
0.0
  0
LINE
  5
6FB
330
1E
100
AcDbEntity
  8
0
100
AcDbLine
 10
227.8881399999999
 20
1115.011286764709
 30
0.0
 11
227.8881399999999
 21
1129.21481224434
 31
0.0
  0
ENDSEC
  0
SECTION
  2
OBJECTS
  0
DICTIONARY
  5
C
330
0
100
AcDbDictionary
281
     1
  3
ACAD_GROUP
350
D
  3
ACAD_LAYOUT
350
19
  3
ACAD_MLINESTYLE
350
16
  3
ACAD_PLOTSETTINGS
350
18
  3
ACAD_PLOTSTYLENAME
350
E
  3
AcDbVariableDictionary
350
6FC
  0
DICTIONARY
  5
D
102
{ACAD_REACTORS
330
C
102
}
330
C
100
AcDbDictionary
281
     1
  0
DICTIONARY
  5
19
102
{ACAD_REACTORS
330
C
102
}
330
C
100
AcDbDictionary
281
     1
  3
Layout1
350
1D
  3
Model
350
21
  0
DICTIONARY
  5
16
102
{ACAD_REACTORS
330
C
102
}
330
C
100
AcDbDictionary
281
     1
  3
Standard
350
17
  0
DICTIONARY
  5
18
102
{ACAD_REACTORS
330
C
102
}
330
C
100
AcDbDictionary
281
     1
  0
ACDBDICTIONARYWDFLT
  5
E
102
{ACAD_REACTORS
330
C
102
}
330
C
100
AcDbDictionary
281
     1
  3
Normal
350
F
100
AcDbDictionaryWithDefault
340
F
  0
DICTIONARY
  5
6FC
102
{ACAD_REACTORS
330
C
102
}
330
C
100
AcDbDictionary
281
     1
  3
DIMASSOC
350
6FD
  0
LAYOUT
  5
1D
102
{ACAD_REACTORS
330
19
102
}
330
19
100
AcDbPlotSettings
  1

  2
hp deskjet 980c series
  4

  6

 40
0.0
 41
0.0
 42
0.0
 43
0.0
 44
0.0
 45
0.0
 46
0.0
 47
0.0
 48
0.0
 49
0.0
140
0.0
141
0.0
142
1.0
143
1.0
 70
   688
 72
     0
 73
     0
 74
     5
  7

 75
    16
147
1.0
148
0.0
149
0.0
100
AcDbLayout
  1
Layout1
 70
     1
 71
     1
 10
0.0
 20
0.0
 11
12.0
 21
9.0
 12
0.0
 22
0.0
 32
0.0
 14
1.000000000000000E+20
 24
1.000000000000000E+20
 34
1.000000000000000E+20
 15
-1.000000000000000E+20
 25
-1.000000000000000E+20
 35
-1.000000000000000E+20
146
0.0
 13
0.0
 23
0.0
 33
0.0
 16
1.0
 26
0.0
 36
0.0
 17
0.0
 27
1.0
 37
0.0
 76
     0
330
1A
  0
LAYOUT
  5
21
102
{ACAD_REACTORS
330
19
102
}
330
19
100
AcDbPlotSettings
  1

  2
hp deskjet 980c series
  4

  6

 40
0.0
 41
0.0
 42
0.0
 43
0.0
 44
0.0
 45
0.0
 46
0.0
 47
0.0
 48
0.0
 49
0.0
140
0.0
141
0.0
142
1.0
143
1.0
 70
  1712
 72
     0
 73
     0
 74
     0
  7

 75
     0
147
1.0
148
0.0
149
0.0
100
AcDbLayout
  1
Model
 70
     1
 71
     0
 10
0.0
 20
0.0
 11
12.0
 21
9.0
 12
0.0
 22
0.0
 32
0.0
 14
0.0
 24
0.0
 34
0.0
 15
0.0
 25
0.0
 35
0.0
146
0.0
 13
0.0
 23
0.0
 33
0.0
 16
1.0
 26
0.0
 36
0.0
 17
0.0
 27
1.0
 37
0.0
 76
     0
330
1E
  0
MLINESTYLE
  5
17
102
{ACAD_REACTORS
330
16
102
}
330
16
100
AcDbMlineStyle
  2
STANDARD
 70
     0
  3

 62
   256
 51
90.0
 52
90.0
 71
     2
 49
0.5
 62
   256
  6
BYLAYER
 49
-0.5
 62
   256
  6
BYLAYER
  0
ACDBPLACEHOLDER
  5
F
102
{ACAD_REACTORS
330
E
102
}
330
E
  0
DICTIONARYVAR
  5
6FD
102
{ACAD_REACTORS
330
6FC
102
}
330
6FC
100
DictionaryVariables
280
     0
  1
1
  0
ENDSEC
  0
EOF
