  0
SECTION
  2
HEADER
  9
$ACADVER
  1
AC1015
  9
$ACADMAINTVER
 70
    13
  9
$DWGCODEPAGE
  3
ANSI_1252
  9
$INSBASE
 10
0.0
 20
0.0
 30
0.0
  9
$EXTMIN
 10
-0.231621999999996
 20
-0.133840499999865
 30
0.0
  9
$EXTMAX
 10
491.231622
 20
1597.133840499999
 30
0.0
  9
$LIMMIN
 10
0.0
 20
0.0
  9
$LIMMAX
 10
12.0
 20
9.0
  9
$ORTHOMODE
 70
     0
  9
$REGENMODE
 70
     1
  9
$FILLMODE
 70
     1
  9
$QTEXTMODE
 70
     0
  9
$MIRRTEXT
 70
     1
  9
$LTSCALE
 40
1.0
  9
$ATTMODE
 70
     1
  9
$TEXTSIZE
 40
0.2
  9
$TRACEWID
 40
0.05
  9
$TEXTSTYLE
  7
Standard
  9
$CLAYER
  8
0
  9
$CELTYPE
  6
Continuous
  9
$CECOLOR
 62
   256
  9
$CELTSCALE
 40
1.0
  9
$DISPSILH
 70
     0
  9
$DIMSCALE
 40
1.0
  9
$DIMASZ
 40
0.18
  9
$DIMEXO
 40
0.0625
  9
$DIMDLI
 40
0.38
  9
$DIMRND
 40
0.0
  9
$DIMDLE
 40
0.0
  9
$DIMEXE
 40
0.18
  9
$DIMTP
 40
0.0
  9
$DIMTM
 40
0.0
  9
$DIMTXT
 40
0.18
  9
$DIMCEN
 40
0.09
  9
$DIMTSZ
 40
0.0
  9
$DIMTOL
 70
     0
  9
$DIMLIM
 70
     0
  9
$DIMTIH
 70
     1
  9
$DIMTOH
 70
     1
  9
$DIMSE1
 70
     0
  9
$DIMSE2
 70
     0
  9
$DIMTAD
 70
     0
  9
$DIMZIN
 70
     0
  9
$DIMBLK
  1

  9
$DIMASO
 70
     1
  9
$DIMSHO
 70
     1
  9
$DIMPOST
  1

  9
$DIMAPOST
  1

  9
$DIMALT
 70
     0
  9
$DIMALTD
 70
     2
  9
$DIMALTF
 40
25.4
  9
$DIMLFAC
 40
1.0
  9
$DIMTOFL
 70
     0
  9
$DIMTVP
 40
0.0
  9
$DIMTIX
 70
     0
  9
$DIMSOXD
 70
     0
  9
$DIMSAH
 70
     0
  9
$DIMBLK1
  1

  9
$DIMBLK2
  1

  9
$DIMSTYLE
  2
Standard
  9
$DIMCLRD
 70
     0
  9
$DIMCLRE
 70
     0
  9
$DIMCLRT
 70
     0
  9
$DIMTFAC
 40
1.0
  9
$DIMGAP
 40
0.09
  9
$DIMJUST
 70
     0
  9
$DIMSD1
 70
     0
  9
$DIMSD2
 70
     0
  9
$DIMTOLJ
 70
     1
  9
$DIMTZIN
 70
     0
  9
$DIMALTZ
 70
     0
  9
$DIMALTTZ
 70
     0
  9
$DIMUPT
 70
     0
  9
$DIMDEC
 70
     4
  9
$DIMTDEC
 70
     4
  9
$DIMALTU
 70
     2
  9
$DIMALTTD
 70
     2
  9
$DIMTXSTY
  7
Standard
  9
$DIMAUNIT
 70
     0
  9
$DIMADEC
 70
     0
  9
$DIMALTRND
 40
0.0
  9
$DIMAZIN
 70
     0
  9
$DIMDSEP
 70
    46
  9
$DIMATFIT
 70
     3
  9
$DIMFRAC
 70
     0
  9
$DIMLDRBLK
  1

  9
$DIMLUNIT
 70
     2
  9
$DIMLWD
 70
    -2
  9
$DIMLWE
 70
    -2
  9
$DIMTMOVE
 70
     0
  9
$LUNITS
 70
     2
  9
$LUPREC
 70
     4
  9
$SKETCHINC
 40
0.1
  9
$FILLETRAD
 40
0.0
  9
$AUNITS
 70
     0
  9
$AUPREC
 70
     0
  9
$MENU
  1
.
  9
$ELEVATION
 40
0.0
  9
$PELEVATION
 40
0.0
  9
$THICKNESS
 40
0.0
  9
$LIMCHECK
 70
     0
  9
$CHAMFERA
 40
0.0
  9
$CHAMFERB
 40
0.0
  9
$CHAMFERC
 40
0.0
  9
$CHAMFERD
 40
0.0
  9
$SKPOLY
 70
     0
  9
$TDCREATE
 40
2455001.716809352
  9
$TDUCREATE
 40
2455001.633476018
  9
$TDUPDATE
 40
2455001.725547048
  9
$TDUUPDATE
 40
2455001.642213715
  9
$TDINDWG
 40
0.0087376968
  9
$TDUSRTIMER
 40
0.0087376968
  9
$USRTIMER
 70
     1
  9
$ANGBASE
 50
0.0
  9
$ANGDIR
 70
     0
  9
$PDMODE
 70
     0
  9
$PDSIZE
 40
0.0
  9
$PLINEWID
 40
0.0
  9
$SPLFRAME
 70
     0
  9
$SPLINETYPE
 70
     6
  9
$SPLINESEGS
 70
     8
  9
$HANDSEED
  5
462
  9
$SURFTAB1
 70
     6
  9
$SURFTAB2
 70
     6
  9
$SURFTYPE
 70
     6
  9
$SURFU
 70
     6
  9
$SURFV
 70
     6
  9
$UCSBASE
  2

  9
$UCSNAME
  2

  9
$UCSORG
 10
0.0
 20
0.0
 30
0.0
  9
$UCSXDIR
 10
1.0
 20
0.0
 30
0.0
  9
$UCSYDIR
 10
0.0
 20
1.0
 30
0.0
  9
$UCSORTHOREF
  2

  9
$UCSORTHOVIEW
 70
     1
  9
$UCSORGTOP
 10
0.0
 20
0.0
 30
0.0
  9
$UCSORGBOTTOM
 10
0.0
 20
0.0
 30
0.0
  9
$UCSORGLEFT
 10
0.0
 20
0.0
 30
0.0
  9
$UCSORGRIGHT
 10
0.0
 20
0.0
 30
0.0
  9
$UCSORGFRONT
 10
0.0
 20
0.0
 30
0.0
  9
$UCSORGBACK
 10
0.0
 20
0.0
 30
0.0
  9
$PUCSBASE
  2

  9
$PUCSNAME
  2

  9
$PUCSORG
 10
0.0
 20
0.0
 30
0.0
  9
$PUCSXDIR
 10
1.0
 20
0.0
 30
0.0
  9
$PUCSYDIR
 10
0.0
 20
1.0
 30
0.0
  9
$PUCSORTHOREF
  2

  9
$PUCSORTHOVIEW
 70
     0
  9
$PUCSORGTOP
 10
0.0
 20
0.0
 30
0.0
  9
$PUCSORGBOTTOM
 10
0.0
 20
0.0
 30
0.0
  9
$PUCSORGLEFT
 10
0.0
 20
0.0
 30
0.0
  9
$PUCSORGRIGHT
 10
0.0
 20
0.0
 30
0.0
  9
$PUCSORGFRONT
 10
0.0
 20
0.0
 30
0.0
  9
$PUCSORGBACK
 10
0.0
 20
0.0
 30
0.0
  9
$USERI1
 70
     0
  9
$USERI2
 70
     0
  9
$USERI3
 70
     0
  9
$USERI4
 70
     0
  9
$USERI5
 70
     0
  9
$USERR1
 40
0.0
  9
$USERR2
 40
0.0
  9
$USERR3
 40
0.0
  9
$USERR4
 40
0.0
  9
$USERR5
 40
0.0
  9
$WORLDVIEW
 70
     1
  9
$SHADEDGE
 70
     3
  9
$SHADEDIF
 70
    70
  9
$TILEMODE
 70
     1
  9
$MAXACTVP
 70
    64
  9
$PINSBASE
 10
0.0
 20
0.0
 30
0.0
  9
$PLIMCHECK
 70
     0
  9
$PEXTMIN
 10
1.000000000000000E+20
 20
1.000000000000000E+20
 30
1.000000000000000E+20
  9
$PEXTMAX
 10
-1.000000000000000E+20
 20
-1.000000000000000E+20
 30
-1.000000000000000E+20
  9
$PLIMMIN
 10
0.0
 20
0.0
  9
$PLIMMAX
 10
12.0
 20
9.0
  9
$UNITMODE
 70
     0
  9
$VISRETAIN
 70
     1
  9
$PLINEGEN
 70
     0
  9
$PSLTSCALE
 70
     1
  9
$TREEDEPTH
 70
  3020
  9
$CMLSTYLE
  2
Standard
  9
$CMLJUST
 70
     0
  9
$CMLSCALE
 40
1.0
  9
$PROXYGRAPHICS
 70
     1
  9
$MEASUREMENT
 70
     0
  9
$CELWEIGHT
370
    -1
  9
$ENDCAPS
280
     0
  9
$JOINSTYLE
280
     0
  9
$LWDISPLAY
290
     0
  9
$INSUNITS
 70
     0
  9
$HYPERLINKBASE
  1

  9
$STYLESHEET
  1

  9
$XEDIT
290
     1
  9
$CEPSNTYPE
380
     0
  9
$PSTYLEMODE
290
     1
  9
$FINGERPRINTGUID
  2
{00012E0B-BAC4-47CA-86E9-A5E52ACB785F}
  9
$VERSIONGUID
  2
{FA01BDF4-6F8A-4D3C-9759-170311E9E6A8}
  9
$EXTNAMES
290
     1
  9
$PSVPSCALE
 40
0.0
  9
$OLESTARTUP
290
     0
  0
ENDSEC
  0
SECTION
  2
CLASSES
  0
CLASS
  1
ACDBDICTIONARYWDFLT
  2
AcDbDictionaryWithDefault
  3
AutoCAD 2000
 90
        0
280
     0
281
     0
  0
CLASS
  1
ACDBPLACEHOLDER
  2
AcDbPlaceHolder
  3
AutoCAD 2000
 90
        0
280
     0
281
     0
  0
CLASS
  1
LAYOUT
  2
AcDbLayout
  3
AutoCAD 2000
 90
        0
280
     0
281
     0
  0
CLASS
  1
DICTIONARYVAR
  2
AcDbDictionaryVar
  3
AutoCAD 2000
 90
        0
280
     0
281
     0
  0
ENDSEC
  0
SECTION
  2
TABLES
  0
TABLE
  2
VPORT
  5
8
330
0
100
AcDbSymbolTable
 70
     2
  0
VPORT
  5
461
330
8
100
AcDbSymbolTableRecord
100
AcDbViewportTableRecord
  2
*Active
 70
     0
 10
0.0
 20
0.0
 11
1.0
 21
1.0
 12
245.5
 22
798.5
 13
0.0
 23
0.0
 14
1.0
 24
1.0
 15
0.0
 25
0.0
 16
0.0
 26
0.0
 36
1.0
 17
0.0
 27
0.0
 37
0.0
 40
1607.355687406315
 41
1.968387776606954
 42
50.0
 43
0.0
 44
0.0
 50
0.0
 51
0.0
 71
     0
 72
   100
 73
     1
 74
     3
 75
     0
 76
     0
 77
     0
 78
     0
281
     0
 65
     1
110
0.0
120
0.0
130
0.0
111
1.0
121
0.0
131
0.0
112
0.0
122
1.0
132
0.0
 79
     1
146
0.0
  0
ENDTAB
  0
TABLE
  2
LTYPE
  5
5
330
0
100
AcDbSymbolTable
 70
     1
  0
LTYPE
  5
13
330
5
100
AcDbSymbolTableRecord
100
AcDbLinetypeTableRecord
  2
ByBlock
 70
     0
  3

 72
    65
 73
     0
 40
0.0
  0
LTYPE
  5
14
330
5
100
AcDbSymbolTableRecord
100
AcDbLinetypeTableRecord
  2
ByLayer
 70
     0
  3

 72
    65
 73
     0
 40
0.0
  0
LTYPE
  5
15
330
5
100
AcDbSymbolTableRecord
100
AcDbLinetypeTableRecord
  2
Continuous
 70
     0
  3
Solid line
 72
    65
 73
     0
 40
0.0
  0
ENDTAB
  0
TABLE
  2
LAYER
  5
2
330
0
100
AcDbSymbolTable
 70
     1
  0
LAYER
  5
10
330
2
100
AcDbSymbolTableRecord
100
AcDbLayerTableRecord
  2
0
 70
     0
 62
     7
  6
Continuous
370
    -3
390
F
  0
ENDTAB
  0
TABLE
  2
STYLE
  5
3
330
0
100
AcDbSymbolTable
 70
     1
  0
STYLE
  5
11
330
3
100
AcDbSymbolTableRecord
100
AcDbTextStyleTableRecord
  2
Standard
 70
     0
 40
0.0
 41
1.0
 50
0.0
 71
     0
 42
0.2
  3
txt
  4

  0
ENDTAB
  0
TABLE
  2
VIEW
  5
6
330
0
100
AcDbSymbolTable
 70
     0
  0
ENDTAB
  0
TABLE
  2
UCS
  5
7
330
0
100
AcDbSymbolTable
 70
     0
  0
ENDTAB
  0
TABLE
  2
APPID
  5
9
330
0
100
AcDbSymbolTable
 70
     1
  0
APPID
  5
12
330
9
100
AcDbSymbolTableRecord
100
AcDbRegAppTableRecord
  2
ACAD
 70
     0
  0
ENDTAB
  0
TABLE
  2
DIMSTYLE
  5
A
330
0
100
AcDbSymbolTable
 70
     1
100
AcDbDimStyleTable
 71
     0
  0
DIMSTYLE
105
446
330
A
100
AcDbSymbolTableRecord
100
AcDbDimStyleTableRecord
  2
Standard
 70
     0
340
11
  0
ENDTAB
  0
TABLE
  2
BLOCK_RECORD
  5
1
330
0
100
AcDbSymbolTable
 70
     0
  0
BLOCK_RECORD
  5
1E
330
1
100
AcDbSymbolTableRecord
100
AcDbBlockTableRecord
  2
*Model_Space
340
21
  0
BLOCK_RECORD
  5
1A
330
1
100
AcDbSymbolTableRecord
100
AcDbBlockTableRecord
  2
*Paper_Space
340
1D
  0
ENDTAB
  0
ENDSEC
  0
SECTION
  2
BLOCKS
  0
BLOCK
  5
1F
330
1E
100
AcDbEntity
  8
0
100
AcDbBlockBegin
  2
*Model_Space
 70
     0
 10
0.0
 20
0.0
 30
0.0
  3
*Model_Space
  1

  0
ENDBLK
  5
20
330
1E
100
AcDbEntity
  8
0
100
AcDbBlockEnd
  0
BLOCK
  5
1B
330
1A
100
AcDbEntity
 67
     1
  8
0
100
AcDbBlockBegin
  2
*Paper_Space
 70
     0
 10
0.0
 20
0.0
 30
0.0
  3
*Paper_Space
  1

  0
ENDBLK
  5
1C
330
1A
100
AcDbEntity
 67
     1
  8
0
100
AcDbBlockEnd
  0
ENDSEC
  0
SECTION
  2
ENTITIES
  0
LINE
  5
22
330
1E
100
AcDbEntity
  8
0
100
AcDbLine
 10
100.594622
 20
1544.3538405
 30
0.0
 11
101.630622
 21
1544.183840499999
 31
0.0
  0
LINE
  5
24
330
1E
100
AcDbEntity
  8
0
100
AcDbLine
 10
99.558622
 20
1544.5238405
 30
0.0
 11
100.594622
 21
1544.3538405
 31
0.0
  0
LINE
  5
26
330
1E
100
AcDbEntity
  8
0
100
AcDbLine
 10
-0.231621999999996
 20
1562.8938405
 30
0.0
 11
2.080481999999999
 21
1576.8738405
 31
0.0
  0
LINE
  5
27
330
1E
100
AcDbEntity
  8
0
100
AcDbLine
 10
3.197172
 20
1561.4838405
 30
0.0
 11
4.757241999999999
 21
1561.2238405
 31
0.0
  0
LINE
  5
28
330
1E
100
AcDbEntity
  8
0
100
AcDbLine
 10
9.830322
 20
1561.2338405
 30
0.0
 11
108.293622
 21
1544.9438405
 31
0.0
  0
LINE
  5
29
330
1E
100
AcDbEntity
  8
0
100
AcDbLine
 10
4.757241999999999
 20
1561.2238405
 30
0.0
 11
6.742811999999999
 21
1560.8938405
 31
0.0
  0
LINE
  5
2A
330
1E
100
AcDbEntity
  8
0
100
AcDbLine
 10
0.7745720000000041
 20
1562.723840499999
 30
0.0
 11
1.924502
 21
1562.5338405
 31
0.0
  0
LINE
  5
2B
330
1E
100
AcDbEntity
  8
0
100
AcDbLine
 10
0.0271140000000037
 20
1562.8538405
 30
0.0
 11
0.7745720000000041
 21
1562.723840499999
 31
0.0
  0
LINE
  5
2C
330
1E
100
AcDbEntity
  8
0
100
AcDbLine
 10
1.924502
 20
1562.5338405
 30
0.0
 11
3.505662
 21
1562.2738405
 31
0.0
  0
LINE
  5
2D
330
1E
100
AcDbEntity
  8
0
100
AcDbLine
 10
1.069792
 20
1561.8338405
 30
0.0
 11
3.197172
 21
1561.4838405
 31
0.0
  0
LINE
  5
2E
330
1E
100
AcDbEntity
  8
0
100
AcDbLine
 10
-0.231621999999996
 20
1562.8938405
 30
0.0
 11
0.0271140000000037
 21
1562.8538405
 31
0.0
  0
LINE
  5
2F
330
1E
100
AcDbEntity
  8
0
100
AcDbLine
 10
-0.231621999999996
 20
1562.8938405
 30
0.0
 11
1.069792
 21
1561.8338405
 31
0.0
  0
LINE
  5
30
330
1E
100
AcDbEntity
  8
0
100
AcDbLine
 10
3.086672
 20
1576.7038405
 30
0.0
 11
4.236612
 21
1576.5138405
 31
0.0
  0
LINE
  5
31
330
1E
100
AcDbEntity
  8
0
100
AcDbLine
 10
2.339212000000009
 20
1576.8238405
 30
0.0
 11
3.086672
 21
1576.7038405
 31
0.0
  0
LINE
  5
32
330
1E
100
AcDbEntity
  8
0
100
AcDbLine
 10
4.236612
 20
1576.5138405
 30
0.0
 11
5.817771999999999
 21
1576.2538405
 31
0.0
  0
LINE
  5
33
330
1E
100
AcDbEntity
  8
0
100
AcDbLine
 10
5.817771999999999
 20
1576.2538405
 30
0.0
 11
7.830161999999999
 21
1575.923840499999
 31
0.0
  0
LINE
  5
34
330
1E
100
AcDbEntity
  8
0
100
AcDbLine
 10
3.505662
 20
1562.2738405
 30
0.0
 11
5.518062
 21
1561.943840499999
 31
0.0
  0
LINE
  5
35
330
1E
100
AcDbEntity
  8
0
100
AcDbLine
 10
5.518062
 20
1561.943840499999
 30
0.0
 11
7.616691999999999
 21
1561.5938405
 31
0.0
  0
LINE
  5
36
330
1E
100
AcDbEntity
  8
0
100
AcDbLine
 10
7.830161999999999
 20
1575.923840499999
 30
0.0
 11
9.928822
 21
1575.5738405
 31
0.0
  0
LINE
  5
37
330
1E
100
AcDbEntity
  8
0
100
AcDbLine
 10
7.616691999999999
 20
1561.5938405
 30
0.0
 11
9.830322
 21
1561.2338405
 31
0.0
  0
LINE
  5
38
330
1E
100
AcDbEntity
  8
0
100
AcDbLine
 10
8.238182000000008
 20
1578.383840499999
 30
0.0
 11
17.134622
 21
1578.6038405
 31
0.0
  0
LINE
  5
39
330
1E
100
AcDbEntity
  8
0
100
AcDbLine
 10
2.935202000000009
 20
1577.5738405
 30
0.0
 11
8.238182000000008
 21
1578.383840499999
 31
0.0
  0
LINE
  5
3A
330
1E
100
AcDbEntity
  8
0
100
AcDbLine
 10
2.080481999999999
 20
1576.8738405
 30
0.0
 11
2.339212000000009
 21
1576.8238405
 31
0.0
  0
LINE
  5
3B
330
1E
100
AcDbEntity
  8
0
100
AcDbLine
 10
2.080481999999999
 20
1576.8738405
 30
0.0
 11
2.935202000000009
 21
1577.5738405
 31
0.0
  0
LINE
  5
3C
330
1E
100
AcDbEntity
  8
0
100
AcDbLine
 10
-0.231621999999996
 20
1562.8938405
 30
0.0
 11
0.0271140000000037
 21
1562.8538405
 31
0.0
  0
LINE
  5
3D
330
1E
100
AcDbEntity
  8
0
100
AcDbLine
 10
-0.231621999999996
 20
1562.8938405
 30
0.0
 11
1.069792
 21
1561.8338405
 31
0.0
  0
LINE
  5
3E
330
1E
100
AcDbEntity
  8
0
100
AcDbLine
 10
-0.231621999999996
 20
1562.8938405
 30
0.0
 11
2.080481999999999
 21
1576.8738405
 31
0.0
  0
LINE
  5
3F
330
1E
100
AcDbEntity
  8
0
100
AcDbLine
 10
4.75724200000094
 20
1561.2238405
 30
0.0
 11
10.997622
 21
1560.1938405
 31
0.0
  0
LINE
  5
40
330
1E
100
AcDbEntity
  8
0
100
AcDbLine
 10
87.27582199999998
 20
1546.5638405
 30
0.0
 11
87.43931230197169
 21
1547.55059262894
 31
0.0
  0
LINE
  5
41
330
1E
100
AcDbEntity
  8
0
100
AcDbLine
 10
86.83192199999998
 20
1546.6338405
 30
0.0
 11
87.27582199999998
 21
1546.5638405
 31
0.0
  0
LINE
  5
43
330
1E
100
AcDbEntity
  8
0
100
AcDbLine
 10
84.76002199999999
 20
1546.973840499999
 30
0.0
 11
85.79592199999998
 21
1546.803840499999
 31
0.0
  0
LINE
  5
45
330
1E
100
AcDbEntity
  8
0
100
AcDbLine
 10
85.79592199999998
 20
1546.803840499999
 30
0.0
 11
86.83192199999998
 21
1546.6338405
 31
0.0
  0
LINE
  5
47
330
1E
100
AcDbEntity
  8
0
100
AcDbLine
 10
84.316022
 20
1547.0538405
 30
0.0
 11
84.76002199999999
 21
1546.973840499999
 31
0.0
  0
LINE
  5
48
330
1E
100
AcDbEntity
  8
0
100
AcDbLine
 10
84.316022
 20
1547.0538405
 30
0.0
 11
84.4794873142475
 21
1548.04013963956
 31
0.0
  0
LINE
  5
49
330
1E
100
AcDbEntity
  8
0
100
AcDbLine
 10
84.316022
 20
1547.0538405
 30
0.0
 11
84.4794146900449
 21
1548.039701447589
 31
0.0
  0
LINE
  5
4A
330
1E
100
AcDbEntity
  8
0
100
AcDbLine
 10
84.316022
 20
1547.0538405
 30
0.0
 11
84.4794146900449
 21
1548.039701447589
 31
0.0
  0
LINE
  5
4B
330
1E
100
AcDbEntity
  8
0
100
AcDbLine
 10
42.87922199999999
 20
1553.9038405
 30
0.0
 11
43.0432085184706
 21
1554.89358756307
 31
0.0
  0
LINE
  5
4C
330
1E
100
AcDbEntity
  8
0
100
AcDbLine
 10
41.39932199999999
 20
1554.1438405
 30
0.0
 11
42.435222
 21
1553.973840499999
 31
0.0
  0
LINE
  5
4E
330
1E
100
AcDbEntity
  8
0
100
AcDbLine
 10
40.36342199999999
 20
1554.3238405
 30
0.0
 11
41.39932199999999
 21
1554.1438405
 31
0.0
  0
LINE
  5
50
330
1E
100
AcDbEntity
  8
0
100
AcDbLine
 10
39.919422
 20
1554.393840499999
 30
0.0
 11
40.08333480020679
 21
1555.3831426336
 31
0.0
  0
LINE
  5
51
330
1E
100
AcDbEntity
  8
0
100
AcDbLine
 10
39.919422
 20
1554.393840499999
 30
0.0
 11
40.08312606894139
 21
1555.38188282786
 31
0.0
  0
LINE
  5
52
330
1E
100
AcDbEntity
  8
0
100
AcDbLine
 10
39.919422
 20
1554.393840499999
 30
0.0
 11
41.39932199999999
 21
1554.1438405
 31
0.0
  0
LINE
  5
53
330
1E
100
AcDbEntity
  8
0
100
AcDbLine
 10
39.919422
 20
1554.393840499999
 30
0.0
 11
40.36342199999999
 21
1554.3238405
 31
0.0
  0
LINE
  5
54
330
1E
100
AcDbEntity
  8
0
100
AcDbLine
 10
42.435222
 20
1553.973840499999
 30
0.0
 11
42.87922199999999
 21
1553.9038405
 31
0.0
  0
LINE
  5
56
330
1E
100
AcDbEntity
  8
0
100
AcDbLine
 10
57.67812199999999
 20
1551.453840499999
 30
0.0
 11
57.8416717193916
 21
1552.445961959549
 31
0.0
  0
LINE
  5
57
330
1E
100
AcDbEntity
  8
0
100
AcDbLine
 10
57.234122
 20
1551.5338405
 30
0.0
 11
57.67812199999999
 21
1551.453840499999
 31
0.0
  0
LINE
  5
59
330
1E
100
AcDbEntity
  8
0
100
AcDbLine
 10
56.19822199999999
 20
1551.7038405
 30
0.0
 11
57.234122
 21
1551.5338405
 31
0.0
  0
LINE
  5
5A
330
1E
100
AcDbEntity
  8
0
100
AcDbLine
 10
56.19822199999999
 20
1551.7038405
 30
0.0
 11
57.67812199999999
 21
1551.453840499999
 31
0.0
  0
LINE
  5
5C
330
1E
100
AcDbEntity
  8
0
100
AcDbLine
 10
55.162322
 20
1551.873840499999
 30
0.0
 11
56.19822199999999
 21
1551.7038405
 31
0.0
  0
LINE
  5
5E
330
1E
100
AcDbEntity
  8
0
100
AcDbLine
 10
54.718322
 20
1551.943840499999
 30
0.0
 11
56.19822199999999
 21
1551.7038405
 31
0.0
  0
LINE
  5
5F
330
1E
100
AcDbEntity
  8
0
100
AcDbLine
 10
54.718322
 20
1551.943840499999
 30
0.0
 11
54.882606058821
 21
1552.93538337953
 31
0.0
  0
LINE
  5
60
330
1E
100
AcDbEntity
  8
0
100
AcDbLine
 10
54.718322
 20
1551.943840499999
 30
0.0
 11
54.8824427054912
 21
1552.9343974541
 31
0.0
  0
LINE
  5
61
330
1E
100
AcDbEntity
  8
0
100
AcDbLine
 10
54.718322
 20
1551.943840499999
 30
0.0
 11
55.162322
 21
1551.873840499999
 31
0.0
  0
LINE
  5
62
330
1E
100
AcDbEntity
  8
0
100
AcDbLine
 10
10.32172199999999
 20
1559.2938405
 30
0.0
 11
10.765622
 21
1559.2138405
 31
0.0
  0
LINE
  5
63
330
1E
100
AcDbEntity
  8
0
100
AcDbLine
 10
10.32172199999999
 20
1559.2938405
 30
0.0
 11
10.48484207099759
 21
1560.27835808537
 31
0.0
  0
LINE
  5
64
330
1E
100
AcDbEntity
  8
0
100
AcDbLine
 10
10.32172199999999
 20
1559.2938405
 30
0.0
 11
10.4845901288453
 21
1560.27683747863
 31
0.0
  0
LINE
  5
65
330
1E
100
AcDbEntity
  8
0
100
AcDbLine
 10
10.32172199999999
 20
1559.2938405
 30
0.0
 11
10.4843096623183
 21
1560.27514471191
 31
0.0
  0
LINE
  5
66
330
1E
100
AcDbEntity
  8
0
100
AcDbLine
 10
10.765622
 20
1559.2138405
 30
0.0
 11
11.80152199999999
 21
1559.0438405
 31
0.0
  0
LINE
  5
68
330
1E
100
AcDbEntity
  8
0
100
AcDbLine
 10
13.281422
 20
1558.8038405
 30
0.0
 11
13.4446660012423
 21
1559.789106071219
 31
0.0
  0
LINE
  5
69
330
1E
100
AcDbEntity
  8
0
100
AcDbLine
 10
11.80152199999999
 20
1559.0438405
 30
0.0
 11
12.837522
 21
1558.873840499999
 31
0.0
  0
LINE
  5
6B
330
1E
100
AcDbEntity
  8
0
100
AcDbLine
 10
12.837522
 20
1558.873840499999
 30
0.0
 11
13.281422
 21
1558.8038405
 31
0.0
  0
LINE
  5
6D
330
1E
100
AcDbEntity
  8
0
100
AcDbLine
 10
25.120522
 20
1556.8438405
 30
0.0
 11
25.2840635415926
 21
1557.83090188768
 31
0.0
  0
LINE
  5
6E
330
1E
100
AcDbEntity
  8
0
100
AcDbLine
 10
25.120522
 20
1556.8438405
 30
0.0
 11
25.2838094323917
 21
1557.829368201629
 31
0.0
  0
LINE
  5
6F
330
1E
100
AcDbEntity
  8
0
100
AcDbLine
 10
25.120522
 20
1556.8438405
 30
0.0
 11
25.28357146158299
 21
1557.82793191948
 31
0.0
  0
LINE
  5
70
330
1E
100
AcDbEntity
  8
0
100
AcDbLine
 10
25.120522
 20
1556.8438405
 30
0.0
 11
25.564522
 21
1556.7638405
 31
0.0
  0
LINE
  5
71
330
1E
100
AcDbEntity
  8
0
100
AcDbLine
 10
28.08032199999999
 20
1556.353840499999
 30
0.0
 11
28.2439372598564
 21
1557.34134681715
 31
0.0
  0
LINE
  5
72
330
1E
100
AcDbEntity
  8
0
100
AcDbLine
 10
27.63632199999999
 20
1556.423840499999
 30
0.0
 11
28.08032199999999
 21
1556.353840499999
 31
0.0
  0
LINE
  5
74
330
1E
100
AcDbEntity
  8
0
100
AcDbLine
 10
26.60042199999999
 20
1556.593840499999
 30
0.0
 11
27.63632199999999
 21
1556.423840499999
 31
0.0
  0
LINE
  5
76
330
1E
100
AcDbEntity
  8
0
100
AcDbLine
 10
25.564522
 20
1556.7638405
 30
0.0
 11
26.60042199999999
 21
1556.593840499999
 31
0.0
  0
LINE
  5
78
330
1E
100
AcDbEntity
  8
0
100
AcDbLine
 10
10.997622
 20
1560.1938405
 30
0.0
 11
108.157622
 21
1544.1238405
 31
0.0
  0
LINE
  5
79
330
1E
100
AcDbEntity
  8
0
100
AcDbLine
 10
10.997622
 20
1560.1938405
 30
0.0
 11
108.157622
 21
1544.1238405
 31
0.0
  0
LINE
  5
7A
330
1E
100
AcDbEntity
  8
0
100
AcDbLine
 10
9.928822
 20
1575.5738405
 30
0.0
 11
12.142422
 21
1575.203840499999
 31
0.0
  0
LINE
  5
7B
330
1E
100
AcDbEntity
  8
0
100
AcDbLine
 10
17.134622
 20
1578.6038405
 30
0.0
 11
28.90612199999999
 21
1578.3438405
 31
0.0
  0
LINE
  5
7C
330
1E
100
AcDbEntity
  8
0
100
AcDbLine
 10
12.142422
 20
1575.203840499999
 30
0.0
 11
110.6056219999999
 21
1558.913840499999
 31
0.0
  0
LINE
  5
7D
330
1E
100
AcDbEntity
  8
0
100
AcDbLine
 10
12.142422
 20
1575.203840499999
 30
0.0
 11
110.6056219999999
 21
1558.913840499999
 31
0.0
  0
LINE
  5
7E
330
1E
100
AcDbEntity
  8
0
100
AcDbLine
 10
13.58122000396869
 20
1560.61328310974
 30
0.0
 11
25.4205314935416
 21
1558.65455956335
 31
0.0
  0
LINE
  5
7F
330
1E
100
AcDbEntity
  8
0
100
AcDbLine
 10
44.98972199999999
 20
1577.373840499999
 30
0.0
 11
55.187622
 21
1576.533840499999
 31
0.0
  0
LINE
  5
80
330
1E
100
AcDbEntity
  8
0
100
AcDbLine
 10
28.90612199999999
 20
1578.3438405
 30
0.0
 11
44.98972199999999
 21
1577.373840499999
 31
0.0
  0
LINE
  5
81
330
1E
100
AcDbEntity
  8
0
100
AcDbLine
 10
55.187622
 20
1576.533840499999
 30
0.0
 11
68.260322
 21
1575.2138405
 31
0.0
  0
LINE
  5
82
330
1E
100
AcDbEntity
  8
0
100
AcDbLine
 10
28.38038369893419
 20
1558.16487465104
 30
0.0
 11
40.2196951885071
 21
1556.20615110465
 31
0.0
  0
LINE
  5
83
330
1E
100
AcDbEntity
  8
0
100
AcDbLine
 10
43.1795473938997
 20
1555.716466192349
 30
0.0
 11
55.0188588834726
 21
1553.75774264596
 31
0.0
  0
LINE
  5
84
330
1E
100
AcDbEntity
  8
0
100
AcDbLine
 10
72.033022
 20
1549.083840499999
 30
0.0
 11
72.476922
 21
1549.0038405
 31
0.0
  0
LINE
  5
86
330
1E
100
AcDbEntity
  8
0
100
AcDbLine
 10
69.961122
 20
1549.4238405
 30
0.0
 11
70.997022
 21
1549.2538405
 31
0.0
  0
LINE
  5
88
330
1E
100
AcDbEntity
  8
0
100
AcDbLine
 10
70.997022
 20
1549.2538405
 30
0.0
 11
72.476922
 21
1549.0038405
 31
0.0
  0
LINE
  5
89
330
1E
100
AcDbEntity
  8
0
100
AcDbLine
 10
70.997022
 20
1549.2538405
 30
0.0
 11
72.033022
 21
1549.083840499999
 31
0.0
  0
LINE
  5
8B
330
1E
100
AcDbEntity
  8
0
100
AcDbLine
 10
72.476922
 20
1549.0038405
 30
0.0
 11
72.64089269469491
 21
1549.99821102219
 31
0.0
  0
LINE
  5
8C
330
1E
100
AcDbEntity
  8
0
100
AcDbLine
 10
69.517222
 20
1549.4938405
 30
0.0
 11
70.997022
 21
1549.2538405
 31
0.0
  0
LINE
  5
8D
330
1E
100
AcDbEntity
  8
0
100
AcDbLine
 10
69.517222
 20
1549.4938405
 30
0.0
 11
69.68106779689809
 21
1550.48775801795
 31
0.0
  0
LINE
  5
8E
330
1E
100
AcDbEntity
  8
0
100
AcDbLine
 10
69.517222
 20
1549.4938405
 30
0.0
 11
69.6809503990564
 21
1550.487045861919
 31
0.0
  0
LINE
  5
8F
330
1E
100
AcDbEntity
  8
0
100
AcDbLine
 10
69.517222
 20
1549.4938405
 30
0.0
 11
69.961122
 21
1549.4238405
 31
0.0
  0
LINE
  5
90
330
1E
100
AcDbEntity
  8
0
100
AcDbLine
 10
89.95762199999999
 20
1572.473840499999
 30
0.0
 11
91.09648660766799
 21
1572.285222438859
 31
0.0
  0
LINE
  5
91
330
1E
100
AcDbEntity
  8
0
100
AcDbLine
 10
68.260322
 20
1575.2138405
 30
0.0
 11
89.95762199999999
 21
1572.473840499999
 31
0.0
  0
LINE
  5
92
330
1E
100
AcDbEntity
  8
0
100
AcDbLine
 10
90.38892199999999
 20
1572.3938405
 30
0.0
 11
90.70512200000001
 21
1572.3438405
 31
0.0
  0
LINE
  5
93
330
1E
100
AcDbEntity
  8
0
100
AcDbLine
 10
90.38892199999999
 20
1572.3938405
 30
0.0
 11
91.33465291283458
 21
1572.23758000874
 31
0.0
  0
LINE
  5
94
330
1E
100
AcDbEntity
  8
0
100
AcDbLine
 10
90.38892199999999
 20
1572.3938405
 30
0.0
 11
91.33465291283458
 21
1572.23758000874
 31
0.0
  0
LINE
  5
95
330
1E
100
AcDbEntity
  8
0
100
AcDbLine
 10
91.97012200000001
 20
1572.1338405
 30
0.0
 11
112.237622
 21
1568.7838405
 31
0.0
  0
LINE
  5
96
330
1E
100
AcDbEntity
  8
0
100
AcDbLine
 10
91.5039647156979
 20
1572.21773616333
 30
0.0
 11
112.237622
 21
1568.7838405
 31
0.0
  0
LINE
  5
97
330
1E
100
AcDbEntity
  8
0
100
AcDbLine
 10
91.50396471569749
 20
1572.21773616333
 30
0.0
 11
112.237622
 21
1568.7838405
 31
0.0
  0
LINE
  5
98
330
1E
100
AcDbEntity
  8
0
100
AcDbLine
 10
90.70512200000001
 20
1572.3438405
 30
0.0
 11
91.10762199999999
 21
1572.2838405
 31
0.0
  0
LINE
  5
99
330
1E
100
AcDbEntity
  8
0
100
AcDbLine
 10
91.10762199999999
 20
1572.2838405
 30
0.0
 11
112.237622
 21
1568.7838405
 31
0.0
  0
LINE
  5
9A
330
1E
100
AcDbEntity
  8
0
100
AcDbLine
 10
72.77638760497841
 20
1550.81989531733
 30
0.0
 11
84.61556558958839
 21
1548.86119385831
 31
0.0
  0
LINE
  5
9B
330
1E
100
AcDbEntity
  8
0
100
AcDbLine
 10
57.9772332666817
 20
1553.26830222803
 30
0.0
 11
69.8165437164831
 21
1551.30957885367
 31
0.0
  0
LINE
  5
9C
330
1E
100
AcDbEntity
  8
0
100
AcDbLine
 10
87.5753284988834
 20
1548.37152371936
 30
0.0
 11
98.42856013596399
 21
1546.57593954366
 31
0.0
  0
LINE
  5
9D
330
1E
100
AcDbEntity
  8
0
100
AcDbLine
 10
9.830322
 20
1561.2338405
 30
0.0
 11
10.62146513057339
 21
1561.10295191921
 31
0.0
  0
LINE
  5
9E
330
1E
100
AcDbEntity
  8
0
100
AcDbLine
 10
9.830322
 20
1561.2338405
 30
0.0
 11
108.293622
 21
1544.9438405
 31
0.0
  0
LINE
  5
9F
330
1E
100
AcDbEntity
  8
0
100
AcDbLine
 10
98.128322
 20
1544.7638405
 30
0.0
 11
98.29262282277969
 21
1545.75548455906
 31
0.0
  0
LINE
  5
A0
330
1E
100
AcDbEntity
  8
0
100
AcDbLine
 10
98.128322
 20
1544.7638405
 30
0.0
 11
98.483522
 21
1544.703840499999
 31
0.0
  0
LINE
  5
A1
330
1E
100
AcDbEntity
  8
0
100
AcDbLine
 10
99.11492199999999
 20
1544.603840499999
 30
0.0
 11
99.558622
 21
1544.5238405
 31
0.0
  0
LINE
  5
A3
330
1E
100
AcDbEntity
  8
0
100
AcDbLine
 10
98.483522
 20
1544.703840499999
 30
0.0
 11
99.43062199999999
 21
1544.5438405
 31
0.0
  0
LINE
  5
A4
330
1E
100
AcDbEntity
  8
0
100
AcDbLine
 10
99.43062199999999
 20
1544.5438405
 30
0.0
 11
101.0096219999999
 21
1544.2838405
 31
0.0
  0
LINE
  5
A5
330
1E
100
AcDbEntity
  8
0
100
AcDbLine
 10
102.0746219999999
 20
1544.1138405
 30
0.0
 11
102.23877940006
 21
1545.102800983539
 31
0.0
  0
LINE
  5
A6
330
1E
100
AcDbEntity
  8
0
100
AcDbLine
 10
101.630622
 20
1544.183840499999
 30
0.0
 11
102.0746219999999
 21
1544.1138405
 31
0.0
  0
LINE
  5
A8
330
1E
100
AcDbEntity
  8
0
100
AcDbLine
 10
101.0096219999999
 20
1544.2838405
 30
0.0
 11
103.100622
 21
1543.943840499999
 31
0.0
  0
LINE
  5
A9
330
1E
100
AcDbEntity
  8
0
100
AcDbLine
 10
103.100622
 20
1543.943840499999
 30
0.0
 11
105.468622
 21
1543.5538405
 31
0.0
  0
LINE
  5
AB
330
1E
100
AcDbEntity
  8
0
100
AcDbLine
 10
146.4716219999999
 20
1536.7638405
 30
0.0
 11
146.6349398393139
 21
1537.7557709351
 31
0.0
  0
LINE
  5
AC
330
1E
100
AcDbEntity
  8
0
100
AcDbLine
 10
146.027622
 20
1536.8438405
 30
0.0
 11
146.4716219999999
 21
1536.7638405
 31
0.0
  0
LINE
  5
AE
330
1E
100
AcDbEntity
  8
0
100
AcDbLine
 10
131.6726219999999
 20
1539.213840499999
 30
0.0
 11
131.8366280153989
 21
1540.20491979551
 31
0.0
  0
LINE
  5
AF
330
1E
100
AcDbEntity
  8
0
100
AcDbLine
 10
143.955622
 20
1537.1838405
 30
0.0
 11
144.991622
 21
1537.0138405
 31
0.0
  0
LINE
  5
B1
330
1E
100
AcDbEntity
  8
0
100
AcDbLine
 10
143.5116219999999
 20
1537.2538405
 30
0.0
 11
144.991622
 21
1537.0138405
 31
0.0
  0
LINE
  5
B2
330
1E
100
AcDbEntity
  8
0
100
AcDbLine
 10
143.5116219999999
 20
1537.2538405
 30
0.0
 11
143.6749215116309
 21
1538.24565961972
 31
0.0
  0
LINE
  5
B3
330
1E
100
AcDbEntity
  8
0
100
AcDbLine
 10
143.5116219999999
 20
1537.2538405
 30
0.0
 11
143.955622
 21
1537.1838405
 31
0.0
  0
LINE
  5
B4
330
1E
100
AcDbEntity
  8
0
100
AcDbLine
 10
144.991622
 20
1537.0138405
 30
0.0
 11
146.4716219999999
 21
1536.7638405
 31
0.0
  0
LINE
  5
B5
330
1E
100
AcDbEntity
  8
0
100
AcDbLine
 10
144.991622
 20
1537.0138405
 30
0.0
 11
146.027622
 21
1536.8438405
 31
0.0
  0
LINE
  5
B7
330
1E
100
AcDbEntity
  8
0
100
AcDbLine
 10
131.228622
 20
1539.2838405
 30
0.0
 11
131.6726219999999
 21
1539.213840499999
 31
0.0
  0
LINE
  5
B9
330
1E
100
AcDbEntity
  8
0
100
AcDbLine
 10
129.1566219999999
 20
1539.6338405
 30
0.0
 11
130.192622
 21
1539.463840499999
 31
0.0
  0
LINE
  5
BB
330
1E
100
AcDbEntity
  8
0
100
AcDbLine
 10
128.712622
 20
1539.703840499999
 30
0.0
 11
130.192622
 21
1539.463840499999
 31
0.0
  0
LINE
  5
BC
330
1E
100
AcDbEntity
  8
0
100
AcDbLine
 10
128.712622
 20
1539.703840499999
 30
0.0
 11
128.876609597162
 21
1540.694808495119
 31
0.0
  0
LINE
  5
BD
330
1E
100
AcDbEntity
  8
0
100
AcDbLine
 10
128.712622
 20
1539.703840499999
 30
0.0
 11
129.1566219999999
 21
1539.6338405
 31
0.0
  0
LINE
  5
BE
330
1E
100
AcDbEntity
  8
0
100
AcDbLine
 10
130.192622
 20
1539.463840499999
 30
0.0
 11
131.228622
 21
1539.2838405
 31
0.0
  0
LINE
  5
C0
330
1E
100
AcDbEntity
  8
0
100
AcDbLine
 10
161.2706219999999
 20
1534.323840499999
 30
0.0
 11
161.433254804006
 21
1535.30662155489
 31
0.0
  0
LINE
  5
C1
330
1E
100
AcDbEntity
  8
0
100
AcDbLine
 10
173.1096219999999
 20
1532.363840499999
 30
0.0
 11
173.553622
 21
1532.2838405
 31
0.0
  0
LINE
  5
C2
330
1E
100
AcDbEntity
  8
0
100
AcDbLine
 10
173.1096219999999
 20
1532.363840499999
 30
0.0
 11
173.272232509005
 21
1533.34648682743
 31
0.0
  0
LINE
  5
C3
330
1E
100
AcDbEntity
  8
0
100
AcDbLine
 10
173.1096219999999
 20
1532.363840499999
 30
0.0
 11
173.272355134495
 21
1533.34722784649
 31
0.0
  0
LINE
  5
C4
330
1E
100
AcDbEntity
  8
0
100
AcDbLine
 10
173.553622
 20
1532.2838405
 30
0.0
 11
174.5896219999999
 21
1532.1138405
 31
0.0
  0
LINE
  5
C6
330
1E
100
AcDbEntity
  8
0
100
AcDbLine
 10
176.068622
 20
1531.8738405
 30
0.0
 11
176.231886179563
 21
1532.85741980807
 31
0.0
  0
LINE
  5
C7
330
1E
100
AcDbEntity
  8
0
100
AcDbLine
 10
175.625622
 20
1531.9438405
 30
0.0
 11
176.068622
 21
1531.8738405
 31
0.0
  0
LINE
  5
C9
330
1E
100
AcDbEntity
  8
0
100
AcDbLine
 10
174.5896219999999
 20
1532.1138405
 30
0.0
 11
175.625622
 21
1531.9438405
 31
0.0
  0
LINE
  5
CB
330
1E
100
AcDbEntity
  8
0
100
AcDbLine
 10
158.7546219999999
 20
1534.7338405
 30
0.0
 11
159.7906219999999
 21
1534.5638405
 31
0.0
  0
LINE
  5
CD
330
1E
100
AcDbEntity
  8
0
100
AcDbLine
 10
159.7906219999999
 20
1534.5638405
 30
0.0
 11
160.8266219999999
 21
1534.393840499999
 31
0.0
  0
LINE
  5
CF
330
1E
100
AcDbEntity
  8
0
100
AcDbLine
 10
158.3106219999999
 20
1534.8038405
 30
0.0
 11
158.473945385421
 21
1535.79580462004
 31
0.0
  0
LINE
  5
D0
330
1E
100
AcDbEntity
  8
0
100
AcDbLine
 10
158.3106219999999
 20
1534.8038405
 30
0.0
 11
158.473945385421
 21
1535.79580462004
 31
0.0
  0
LINE
  5
D1
330
1E
100
AcDbEntity
  8
0
100
AcDbLine
 10
158.3106219999999
 20
1534.8038405
 30
0.0
 11
158.474039676525
 21
1535.79637730834
 31
0.0
  0
LINE
  5
D2
330
1E
100
AcDbEntity
  8
0
100
AcDbLine
 10
158.3106219999999
 20
1534.8038405
 30
0.0
 11
158.7546219999999
 21
1534.7338405
 31
0.0
  0
LINE
  5
D3
330
1E
100
AcDbEntity
  8
0
100
AcDbLine
 10
158.3106219999999
 20
1534.8038405
 30
0.0
 11
159.7906219999999
 21
1534.5638405
 31
0.0
  0
LINE
  5
D4
330
1E
100
AcDbEntity
  8
0
100
AcDbLine
 10
160.8266219999999
 20
1534.393840499999
 30
0.0
 11
161.2706219999999
 21
1534.323840499999
 31
0.0
  0
LINE
  5
D6
330
1E
100
AcDbEntity
  8
0
100
AcDbLine
 10
207.501622
 20
1527.683840499999
 30
0.0
 11
209.5716219999999
 21
1527.3438405
 31
0.0
  0
LINE
  5
D7
330
1E
100
AcDbEntity
  8
0
100
AcDbLine
 10
205.316622
 20
1528.0438405
 30
0.0
 11
207.501622
 21
1527.683840499999
 31
0.0
  0
LINE
  5
D8
330
1E
100
AcDbEntity
  8
0
100
AcDbLine
 10
206.7566219999999
 20
1528.6538405
 30
0.0
 11
208.970622
 21
1528.2838405
 31
0.0
  0
LINE
  5
D9
330
1E
100
AcDbEntity
  8
0
100
AcDbLine
 10
176.231757597886
 20
1532.856645172279
 30
0.0
 11
214.251622
 21
1526.5638405
 31
0.0
  0
LINE
  5
DA
330
1E
100
AcDbEntity
  8
0
100
AcDbLine
 10
161.43315447417
 20
1535.306015267219
 30
0.0
 11
173.272232509005
 21
1533.34648682743
 31
0.0
  0
LINE
  5
DB
330
1E
100
AcDbEntity
  8
0
100
AcDbLine
 10
146.634867734246
 20
1537.75533299634
 30
0.0
 11
158.473945385421
 21
1535.79580462004
 31
0.0
  0
LINE
  5
DC
330
1E
100
AcDbEntity
  8
0
100
AcDbLine
 10
131.836583422577
 20
1540.20465032355
 30
0.0
 11
143.6748549535269
 21
1538.24525537111
 31
0.0
  0
LINE
  5
DD
330
1E
100
AcDbEntity
  8
0
100
AcDbLine
 10
131.836583422577
 20
1540.20465032355
 30
0.0
 11
143.6748549535269
 21
1538.24525537111
 31
0.0
  0
LINE
  5
DE
330
1E
100
AcDbEntity
  8
0
100
AcDbLine
 10
448.0176219999999
 20
145.8738405
 30
0.0
 11
448.2126219999999
 21
123.4568405
 31
0.0
  0
LINE
  5
DF
330
1E
100
AcDbEntity
  8
0
100
AcDbLine
 10
448.2126219999999
 20
123.4568405
 30
0.0
 11
448.5276219999999
 21
101.0298405
 31
0.0
  0
LINE
  5
E0
330
1E
100
AcDbEntity
  8
0
100
AcDbLine
 10
448.5276219999999
 20
101.0298405
 30
0.0
 11
449.0516219999999
 21
78.4839405000001
 31
0.0
  0
LINE
  5
E1
330
1E
100
AcDbEntity
  8
0
100
AcDbLine
 10
449.0516219999999
 20
78.4839405000001
 30
0.0
 11
449.6336219999999
 21
58.43294050000011
 31
0.0
  0
LINE
  5
E2
330
1E
100
AcDbEntity
  8
0
100
AcDbLine
 10
449.6336219999999
 20
58.43294050000011
 30
0.0
 11
450.4086219999999
 21
42.36524050000009
 31
0.0
  0
LINE
  5
E3
330
1E
100
AcDbEntity
  8
0
100
AcDbLine
 10
450.4086219999999
 20
42.36524050000009
 30
0.0
 11
451.3976219999999
 21
25.8783405000001
 31
0.0
  0
LINE
  5
E4
330
1E
100
AcDbEntity
  8
0
100
AcDbLine
 10
451.3976219999999
 20
25.8783405000001
 30
0.0
 11
452.370622
 21
16.29304050000009
 31
0.0
  0
LINE
  5
E5
330
1E
100
AcDbEntity
  8
0
100
AcDbLine
 10
452.370622
 20
16.29304050000009
 30
0.0
 11
453.4866219999999
 21
9.695640500000131
 31
0.0
  0
LINE
  5
E6
330
1E
100
AcDbEntity
  8
0
100
AcDbLine
 10
453.4866219999999
 20
9.695640500000131
 30
0.0
 11
454.0586219999999
 21
6.698400500000139
 31
0.0
  0
LINE
  5
E7
330
1E
100
AcDbEntity
  8
0
100
AcDbLine
 10
454.0586219999999
 20
6.698400500000139
 30
0.0
 11
455.8296219999999
 21
4.100140500000139
 31
0.0
  0
LINE
  5
E8
330
1E
100
AcDbEntity
  8
0
100
AcDbLine
 10
455.8296219999999
 20
4.100140500000139
 30
0.0
 11
457.372622
 21
2.265680500000129
 31
0.0
  0
LINE
  5
E9
330
1E
100
AcDbEntity
  8
0
100
AcDbLine
 10
447.9586219999999
 20
165.4788404999999
 30
0.0
 11
448.0216219999999
 21
185.0728405
 31
0.0
  0
LINE
  5
EA
330
1E
100
AcDbEntity
  8
0
100
AcDbLine
 10
447.9586219999999
 20
165.4788404999999
 30
0.0
 11
448.0176219999999
 21
145.8738405
 31
0.0
  0
LINE
  5
EB
330
1E
100
AcDbEntity
  8
0
100
AcDbLine
 10
457.372622
 20
2.265680500000129
 30
0.0
 11
459.8696219999999
 21
0.465240500000135
 31
0.0
  0
LINE
  5
EC
330
1E
100
AcDbEntity
  8
0
100
AcDbLine
 10
457.372622
 20
2.265680500000129
 30
0.0
 11
459.8696219999999
 21
0.465240500000136
 31
0.0
  0
LINE
  5
ED
330
1E
100
AcDbEntity
  8
0
100
AcDbLine
 10
459.8696219999999
 20
0.465240500000135
 30
0.0
 11
462.9646219999999
 21
-0.133840499999865
 31
0.0
  0
LINE
  5
EE
330
1E
100
AcDbEntity
  8
0
100
AcDbLine
 10
463.9356219999999
 20
165.4808404999999
 30
0.0
 11
463.995622
 21
145.8758405
 31
0.0
  0
LINE
  5
EF
330
1E
100
AcDbEntity
  8
0
100
AcDbLine
 10
463.9356219999999
 20
165.4808404999999
 30
0.0
 11
463.9996219999999
 21
185.0758405
 31
0.0
  0
LINE
  5
F0
330
1E
100
AcDbEntity
  8
0
100
AcDbLine
 10
463.995622
 20
145.8758405
 30
0.0
 11
464.190622
 21
123.4588404999999
 31
0.0
  0
LINE
  5
F1
330
1E
100
AcDbEntity
  8
0
100
AcDbLine
 10
464.190622
 20
123.4588404999999
 30
0.0
 11
464.5056219999999
 21
101.0308404999999
 31
0.0
  0
LINE
  5
F2
330
1E
100
AcDbEntity
  8
0
100
AcDbLine
 10
464.5056219999999
 20
101.0308404999999
 30
0.0
 11
465.0296219999999
 21
78.48534050000009
 31
0.0
  0
LINE
  5
F3
330
1E
100
AcDbEntity
  8
0
100
AcDbLine
 10
465.0296219999999
 20
78.48534050000009
 30
0.0
 11
465.6126219999999
 21
58.4342405000001
 31
0.0
  0
LINE
  5
F4
330
1E
100
AcDbEntity
  8
0
100
AcDbLine
 10
462.9646219999999
 20
-0.133840499999865
 30
0.0
 11
466.061622
 21
0.4666005000001351
 31
0.0
  0
LINE
  5
F5
330
1E
100
AcDbEntity
  8
0
100
AcDbLine
 10
448.0216219999999
 20
185.0728405
 30
0.0
 11
448.222622
 21
207.4558404999999
 31
0.0
  0
LINE
  5
F6
330
1E
100
AcDbEntity
  8
0
100
AcDbLine
 10
448.222622
 20
207.4558404999999
 30
0.0
 11
448.5436219999999
 21
229.8278405
 31
0.0
  0
LINE
  5
F7
330
1E
100
AcDbEntity
  8
0
100
AcDbLine
 10
463.9996219999999
 20
185.0758405
 30
0.0
 11
464.201622
 21
207.4578405
 31
0.0
  0
LINE
  5
F8
330
1E
100
AcDbEntity
  8
0
100
AcDbLine
 10
464.201622
 20
207.4578405
 30
0.0
 11
464.521622
 21
229.8298405
 31
0.0
  0
LINE
  5
F9
330
1E
100
AcDbEntity
  8
0
100
AcDbLine
 10
465.2316219999999
 20
184.1138405
 30
0.0
 11
468.2316219999999
 21
181.1138405
 31
0.0
  0
LINE
  5
FB
330
1E
100
AcDbEntity
  8
0
100
AcDbLine
 10
465.2316219999999
 20
184.1138405
 30
0.0
 11
465.2316219999999
 21
217.1138404999999
 31
0.0
  0
LINE
  5
FC
330
1E
100
AcDbEntity
  8
0
100
AcDbLine
 10
465.2316219999999
 20
217.1138404999999
 30
0.0
 11
465.2316219999999
 21
219.1138404999999
 31
0.0
  0
LINE
  5
FD
330
1E
100
AcDbEntity
  8
0
100
AcDbLine
 10
465.2316219999999
 20
217.1138404999999
 30
0.0
 11
465.2316219999999
 21
184.1138405
 31
0.0
  0
LINE
  5
FE
330
1E
100
AcDbEntity
  8
0
100
AcDbLine
 10
448.5436219999999
 20
229.8278405
 30
0.0
 11
449.073622
 21
252.2818404999999
 31
0.0
  0
LINE
  5
FF
330
1E
100
AcDbEntity
  8
0
100
AcDbLine
 10
449.7466219999999
 20
273.2268404999999
 30
0.0
 11
450.2206219999999
 21
275.2378404999999
 31
0.0
  0
LINE
  5
100
330
1E
100
AcDbEntity
  8
0
100
AcDbLine
 10
449.7466219999999
 20
273.2268404999999
 30
0.0
 11
450.4106219999999
 21
295.2688404999999
 31
0.0
  0
LINE
  5
101
330
1E
100
AcDbEntity
  8
0
100
AcDbLine
 10
449.7466219999999
 20
273.2268404999999
 30
0.0
 11
449.8375298348699
 21
272.985010465736
 31
0.0
  0
LINE
  5
102
330
1E
100
AcDbEntity
  8
0
100
AcDbLine
 10
449.6596219999999
 20
272.2298404999999
 30
0.0
 11
450.1336219999999
 21
274.2418404999999
 31
0.0
  0
LINE
  5
103
330
1E
100
AcDbEntity
  8
0
100
AcDbLine
 10
449.073622
 20
252.2818404999999
 30
0.0
 11
449.6596219999999
 21
272.2298404999999
 31
0.0
  0
LINE
  5
104
330
1E
100
AcDbEntity
  8
0
100
AcDbLine
 10
448.877622
 20
466.5208405
 30
0.0
 11
449.8776219999999
 21
436.5218405
 31
0.0
  0
LINE
  5
105
330
1E
100
AcDbEntity
  8
0
100
AcDbLine
 10
448.877622
 20
466.5208405
 30
0.0
 11
449.2776219999999
 21
466.5208405
 31
0.0
  0
LINE
  5
106
330
1E
100
AcDbEntity
  8
0
100
AcDbLine
 10
449.2776219999999
 20
466.5208405
 30
0.0
 11
450.3776219999999
 21
466.5208405
 31
0.0
  0
LINE
  5
107
330
1E
100
AcDbEntity
  8
0
100
AcDbLine
 10
450.2206219999999
 20
275.2378404999999
 30
0.0
 11
451.9196219999999
 21
276.8468404999999
 31
0.0
  0
LINE
  5
108
330
1E
100
AcDbEntity
  8
0
100
AcDbLine
 10
450.1336219999999
 20
274.2418404999999
 30
0.0
 11
451.8326219999999
 21
275.8508405
 31
0.0
  0
LINE
  5
109
330
1E
100
AcDbEntity
  8
0
100
AcDbLine
 10
449.8776219999999
 20
436.5218405
 30
0.0
 11
450.2776219999999
 21
436.5218405
 31
0.0
  0
LINE
  5
10A
330
1E
100
AcDbEntity
  8
0
100
AcDbLine
 10
450.8926219999999
 20
315.2268405
 30
0.0
 11
451.323622
 21
338.2888405
 31
0.0
  0
LINE
  5
10B
330
1E
100
AcDbEntity
  8
0
100
AcDbLine
 10
450.4106219999999
 20
295.2688404999999
 30
0.0
 11
450.8926219999999
 21
315.2268405
 31
0.0
  0
LINE
  5
10C
330
1E
100
AcDbEntity
  8
0
100
AcDbLine
 10
450.2776219999999
 20
436.5218405
 30
0.0
 11
451.2776219999999
 21
436.5218405
 31
0.0
  0
LINE
  5
10D
330
1E
100
AcDbEntity
  8
0
100
AcDbLine
 10
450.3776219999999
 20
466.5208405
 30
0.0
 11
452.2776219999999
 21
466.5208405
 31
0.0
  0
LINE
  5
10E
330
1E
100
AcDbEntity
  8
0
100
AcDbLine
 10
451.9186219999999
 20
388.1368405
 30
0.0
 11
452.0926219999999
 21
411.1218404999999
 31
0.0
  0
LINE
  5
10F
330
1E
100
AcDbEntity
  8
0
100
AcDbLine
 10
451.6596219999999
 20
363.3588404999999
 30
0.0
 11
451.9186219999999
 21
388.1368405
 31
0.0
  0
LINE
  5
110
330
1E
100
AcDbEntity
  8
0
100
AcDbLine
 10
451.323622
 20
338.2888405
 30
0.0
 11
451.6596219999999
 21
363.3588404999999
 31
0.0
  0
LINE
  5
111
330
1E
100
AcDbEntity
  8
0
100
AcDbLine
 10
452.0926219999999
 20
411.1218404999999
 30
0.0
 11
452.172786498852
 21
436.5218405
 31
0.0
  0
LINE
  5
112
330
1E
100
AcDbEntity
  8
0
100
AcDbLine
 10
451.9196219999999
 20
276.8468404999999
 30
0.0
 11
454.343622
 21
278.0528405
 31
0.0
  0
LINE
  5
113
330
1E
100
AcDbEntity
  8
0
100
AcDbLine
 10
451.8326219999999
 20
275.8508405
 30
0.0
 11
454.256622
 21
277.0568404999999
 31
0.0
  0
LINE
  5
114
330
1E
100
AcDbEntity
  8
0
100
AcDbLine
 10
451.2776219999999
 20
436.5218405
 30
0.0
 11
452.977622
 21
436.5218405
 31
0.0
  0
LINE
  5
115
330
1E
100
AcDbEntity
  8
0
100
AcDbLine
 10
451.2776219999999
 20
436.5218405
 30
0.0
 11
452.172786498852
 21
436.5218405
 31
0.0
  0
LINE
  5
116
330
1E
100
AcDbEntity
  8
0
100
AcDbLine
 10
452.2776219999999
 20
466.5208405
 30
0.0
 11
454.6776219999999
 21
466.5208405
 31
0.0
  0
LINE
  5
117
330
1E
100
AcDbEntity
  8
0
100
AcDbLine
 10
449.773622
 20
466.8808405
 30
0.0
 11
450.829622
 21
466.8808405
 31
0.0
  0
LINE
  5
118
330
1E
100
AcDbEntity
  8
0
100
AcDbLine
 10
450.829622
 20
466.8808405
 30
0.0
 11
452.5896219999999
 21
466.8808405
 31
0.0
  0
LINE
  5
119
330
1E
100
AcDbEntity
  8
0
100
AcDbLine
 10
454.343622
 20
278.0528405
 30
0.0
 11
457.4186219999999
 21
278.4558404999999
 31
0.0
  0
LINE
  5
11A
330
1E
100
AcDbEntity
  8
0
100
AcDbLine
 10
454.256622
 20
277.0568404999999
 30
0.0
 11
457.3316219999999
 21
277.4598404999999
 31
0.0
  0
LINE
  5
11B
330
1E
100
AcDbEntity
  8
0
100
AcDbLine
 10
452.977622
 20
436.5218405
 30
0.0
 11
455.1776219999999
 21
436.5218405
 31
0.0
  0
LINE
  5
11C
330
1E
100
AcDbEntity
  8
0
100
AcDbLine
 10
457.3316219999999
 20
277.4598404999999
 30
0.0
 11
460.4476219999999
 21
277.0578405
 31
0.0
  0
LINE
  5
11D
330
1E
100
AcDbEntity
  8
0
100
AcDbLine
 10
457.4186219999999
 20
278.4558404999999
 30
0.0
 11
460.5346219999999
 21
278.0538404999999
 31
0.0
  0
LINE
  5
11E
330
1E
100
AcDbEntity
  8
0
100
AcDbLine
 10
455.1776219999999
 20
436.5218405
 30
0.0
 11
457.677622
 21
436.5218405
 31
0.0
  0
LINE
  5
11F
330
1E
100
AcDbEntity
  8
0
100
AcDbLine
 10
454.6776219999999
 20
466.5208405
 30
0.0
 11
457.377622
 21
466.5208405
 31
0.0
  0
LINE
  5
120
330
1E
100
AcDbEntity
  8
0
100
AcDbLine
 10
457.377622
 20
466.5208405
 30
0.0
 11
460.3776219999999
 21
466.5208405
 31
0.0
  0
LINE
  5
121
330
1E
100
AcDbEntity
  8
0
100
AcDbLine
 10
452.5896219999999
 20
466.8808405
 30
0.0
 11
454.9216219999999
 21
466.8808405
 31
0.0
  0
LINE
  5
122
330
1E
100
AcDbEntity
  8
0
100
AcDbLine
 10
454.9216219999999
 20
466.8808405
 30
0.0
 11
457.5616219999999
 21
466.8808405
 31
0.0
  0
LINE
  5
123
330
1E
100
AcDbEntity
  8
0
100
AcDbLine
 10
460.3776219999999
 20
436.5218405
 30
0.0
 11
463.0776219999999
 21
436.5218405
 31
0.0
  0
LINE
  5
124
330
1E
100
AcDbEntity
  8
0
100
AcDbLine
 10
460.3776219999999
 20
466.5208405
 30
0.0
 11
463.3776219999999
 21
466.5208405
 31
0.0
  0
LINE
  5
125
330
1E
100
AcDbEntity
  8
0
100
AcDbLine
 10
457.677622
 20
436.5218405
 30
0.0
 11
460.3776219999999
 21
436.5218405
 31
0.0
  0
LINE
  5
126
330
1E
100
AcDbEntity
  8
0
100
AcDbLine
 10
457.5616219999999
 20
466.8808405
 30
0.0
 11
460.3776219999999
 21
466.8808405
 31
0.0
  0
LINE
  5
127
330
1E
100
AcDbEntity
  8
0
100
AcDbLine
 10
449.3776219999999
 20
466.8808405
 30
0.0
 11
449.3776219999999
 21
469.1138405
 31
0.0
  0
LINE
  5
128
330
1E
100
AcDbEntity
  8
0
100
AcDbLine
 10
449.3776219999999
 20
466.8808405
 30
0.0
 11
449.6416219999999
 21
466.5208405
 31
0.0
  0
LINE
  5
129
330
1E
100
AcDbEntity
  8
0
100
AcDbLine
 10
449.3776219999999
 20
466.8808405
 30
0.0
 11
449.773622
 21
466.8808405
 31
0.0
  0
LINE
  5
12A
330
1E
100
AcDbEntity
  8
0
100
AcDbLine
 10
463.0166219999999
 20
275.8518404999999
 30
0.0
 11
464.912622
 21
274.2438404999999
 31
0.0
  0
LINE
  5
12B
330
1E
100
AcDbEntity
  8
0
100
AcDbLine
 10
460.4476219999999
 20
277.0578405
 30
0.0
 11
463.0166219999999
 21
275.8518404999999
 31
0.0
  0
LINE
  5
12C
330
1E
100
AcDbEntity
  8
0
100
AcDbLine
 10
460.5346219999999
 20
278.0538404999999
 30
0.0
 11
463.1046219999999
 21
276.8478404999999
 31
0.0
  0
LINE
  5
12D
330
1E
100
AcDbEntity
  8
0
100
AcDbLine
 10
464.521622
 20
229.8298405
 30
0.0
 11
465.0516219999999
 21
252.2838404999999
 31
0.0
  0
LINE
  5
12E
330
1E
100
AcDbEntity
  8
0
100
AcDbLine
 10
464.912622
 20
274.2438404999999
 30
0.0
 11
465.2316219999999
 21
273.3590004999999
 31
0.0
  0
LINE
  5
12F
330
1E
100
AcDbEntity
  8
0
100
AcDbLine
 10
465.0516219999999
 20
252.2838404999999
 30
0.0
 11
465.2316219999999
 21
258.411519680888
 31
0.0
  0
LINE
  5
130
330
1E
100
AcDbEntity
  8
0
100
AcDbLine
 10
465.0006219999999
 20
275.2398404999999
 30
0.0
 11
465.2316219999999
 21
274.5982092845309
 31
0.0
  0
LINE
  5
131
330
1E
100
AcDbEntity
  8
0
100
AcDbLine
 10
463.1046219999999
 20
276.8478404999999
 30
0.0
 11
465.0006219999999
 21
275.2398404999999
 31
0.0
  0
LINE
  5
132
330
1E
100
AcDbEntity
  8
0
100
AcDbLine
 10
463.3776219999999
 20
466.5208405
 30
0.0
 11
465.2316219999999
 21
466.5208405
 31
0.0
  0
LINE
  5
133
330
1E
100
AcDbEntity
  8
0
100
AcDbLine
 10
463.0776219999999
 20
436.5218405
 30
0.0
 11
465.2316219999999
 21
436.5218405
 31
0.0
  0
LINE
  5
134
330
1E
100
AcDbEntity
  8
0
100
AcDbLine
 10
463.1936219999999
 20
466.8808405
 30
0.0
 11
465.2316219999999
 21
466.8808405
 31
0.0
  0
LINE
  5
135
330
1E
100
AcDbEntity
  8
0
100
AcDbLine
 10
460.3776219999999
 20
466.8808405
 30
0.0
 11
463.1936219999999
 21
466.8808405
 31
0.0
  0
LINE
  5
136
330
1E
100
AcDbEntity
  8
0
100
AcDbLine
 10
465.2316219999999
 20
219.1138404999999
 30
0.0
 11
465.2316219999999
 21
217.1138404999999
 31
0.0
  0
LINE
  5
137
330
1E
100
AcDbEntity
  8
0
100
AcDbLine
 10
465.2316219999999
 20
219.1138404999999
 30
0.0
 11
466.231622
 21
220.1138405
 31
0.0
  0
LINE
  5
138
330
1E
100
AcDbEntity
  8
0
100
AcDbLine
 10
465.2316219999999
 20
219.1138404999999
 30
0.0
 11
465.4156219999999
 21
219.1138404999999
 31
0.0
  0
LINE
  5
139
330
1E
100
AcDbEntity
  8
0
100
AcDbLine
 10
465.2316219999999
 20
221.1138404999999
 30
0.0
 11
465.2316219999999
 21
469.1138405
 31
0.0
  0
LINE
  5
13A
330
1E
100
AcDbEntity
  8
0
100
AcDbLine
 10
465.2316219999999
 20
221.1138404999999
 30
0.0
 11
465.4156219999999
 21
221.1138404999999
 31
0.0
  0
LINE
  5
13B
330
1E
100
AcDbEntity
  8
0
100
AcDbLine
 10
352.231622
 20
529.1138405
 30
0.0
 11
352.631622
 21
530.5138405
 31
0.0
  0
LINE
  5
13C
330
1E
100
AcDbEntity
  8
0
100
AcDbLine
 10
352.231622
 20
529.1138405
 30
0.0
 11
352.231622
 21
528.1138405
 31
0.0
  0
LINE
  5
13D
330
1E
100
AcDbEntity
  8
0
100
AcDbLine
 10
385.731622
 20
472.1948405
 30
0.0
 11
391.278622
 21
469.8978405
 31
0.0
  0
LINE
  5
13E
330
1E
100
AcDbEntity
  8
0
100
AcDbLine
 10
380.968622
 20
475.8508404999999
 30
0.0
 11
385.731622
 21
472.1948405
 31
0.0
  0
LINE
  5
13F
330
1E
100
AcDbEntity
  8
0
100
AcDbLine
 10
352.631622
 20
530.5138405
 30
0.0
 11
353.831622
 21
531.7138405
 31
0.0
  0
LINE
  5
140
330
1E
100
AcDbEntity
  8
0
100
AcDbLine
 10
385.123622
 20
486.8928405
 30
0.0
 11
389.653622
 21
483.4628405
 31
0.0
  0
LINE
  5
141
330
1E
100
AcDbEntity
  8
0
100
AcDbLine
 10
397.047622
 20
482.2628405
 30
0.0
 11
397.670622
 21
481.4398405
 31
0.0
  0
LINE
  5
142
330
1E
100
AcDbEntity
  8
0
100
AcDbLine
 10
396.6596219999999
 20
483.2158405
 30
0.0
 11
397.047622
 21
482.2628405
 31
0.0
  0
LINE
  5
143
330
1E
100
AcDbEntity
  8
0
100
AcDbLine
 10
396.518622
 20
484.2278405
 30
0.0
 11
396.6596219999999
 21
483.2158405
 31
0.0
  0
LINE
  5
144
330
1E
100
AcDbEntity
  8
0
100
AcDbLine
 10
396.518622
 20
484.2278405
 30
0.0
 11
396.518622
 21
520.2278405
 31
0.0
  0
LINE
  5
145
330
1E
100
AcDbEntity
  8
0
100
AcDbLine
 10
389.653622
 20
483.4628405
 30
0.0
 11
394.894622
 21
481.3278405
 31
0.0
  0
LINE
  5
146
330
1E
100
AcDbEntity
  8
0
100
AcDbLine
 10
394.894622
 20
481.3278405
 30
0.0
 11
398.3744493038289
 21
480.8419778198429
 31
0.0
  0
LINE
  5
147
330
1E
100
AcDbEntity
  8
0
100
AcDbLine
 10
381.694622
 20
491.4218405
 30
0.0
 11
385.123622
 21
486.8928405
 31
0.0
  0
LINE
  5
148
330
1E
100
AcDbEntity
  8
0
100
AcDbLine
 10
385.123622
 20
517.5628405
 30
0.0
 11
389.653622
 21
520.9928405
 31
0.0
  0
LINE
  5
149
330
1E
100
AcDbEntity
  8
0
100
AcDbLine
 10
389.653622
 20
520.9928405
 30
0.0
 11
394.894622
 21
523.1278405
 31
0.0
  0
LINE
  5
14A
330
1E
100
AcDbEntity
  8
0
100
AcDbLine
 10
397.047622
 20
522.1928404999999
 30
0.0
 11
397.670622
 21
523.0158405
 31
0.0
  0
LINE
  5
14B
330
1E
100
AcDbEntity
  8
0
100
AcDbLine
 10
396.6596219999999
 20
521.2398405
 30
0.0
 11
397.047622
 21
522.1928404999999
 31
0.0
  0
LINE
  5
14C
330
1E
100
AcDbEntity
  8
0
100
AcDbLine
 10
396.518622
 20
520.2278405
 30
0.0
 11
396.6596219999999
 21
521.2398405
 31
0.0
  0
LINE
  5
14D
330
1E
100
AcDbEntity
  8
0
100
AcDbLine
 10
396.518622
 20
520.2278405
 30
0.0
 11
396.518622
 21
484.2278405
 31
0.0
  0
LINE
  5
14E
330
1E
100
AcDbEntity
  8
0
100
AcDbLine
 10
394.894622
 20
523.1278405
 30
0.0
 11
398.3736294687519
 21
523.612963554044
 31
0.0
  0
LINE
  5
14F
330
1E
100
AcDbEntity
  8
0
100
AcDbLine
 10
381.694622
 20
513.0338404999999
 30
0.0
 11
385.123622
 21
517.5628405
 31
0.0
  0
LINE
  5
150
330
1E
100
AcDbEntity
  8
0
100
AcDbLine
 10
379.559622
 20
507.7928405
 30
0.0
 11
381.694622
 21
513.0338404999999
 31
0.0
  0
LINE
  5
151
330
1E
100
AcDbEntity
  8
0
100
AcDbLine
 10
379.559622
 20
496.6628405
 30
0.0
 11
381.694622
 21
491.4218405
 31
0.0
  0
LINE
  5
152
330
1E
100
AcDbEntity
  8
0
100
AcDbLine
 10
378.7826219999999
 20
502.2278405
 30
0.0
 11
379.559622
 21
496.6628405
 31
0.0
  0
LINE
  5
153
330
1E
100
AcDbEntity
  8
0
100
AcDbLine
 10
378.7826219999999
 20
502.2278405
 30
0.0
 11
379.559622
 21
507.7928405
 31
0.0
  0
LINE
  5
154
330
1E
100
AcDbEntity
  8
0
100
AcDbLine
 10
355.231622
 20
532.1138405
 30
0.0
 11
491.231622
 21
532.1138405
 31
0.0
  0
LINE
  5
155
330
1E
100
AcDbEntity
  8
0
100
AcDbLine
 10
353.831622
 20
531.7138405
 30
0.0
 11
355.231622
 21
532.1138405
 31
0.0
  0
LINE
  5
156
330
1E
100
AcDbEntity
  8
0
100
AcDbLine
 10
377.312622
 20
480.6138405
 30
0.0
 11
380.968622
 21
475.8508404999999
 31
0.0
  0
LINE
  5
157
330
1E
100
AcDbEntity
  8
0
100
AcDbLine
 10
352.231622
 20
528.1138405
 30
0.0
 11
377.312622
 21
480.6138405
 31
0.0
  0
LINE
  5
158
330
1E
100
AcDbEntity
  8
0
100
AcDbLine
 10
352.231622
 20
528.1138405
 30
0.0
 11
352.231622
 21
529.1138405
 31
0.0
  0
LINE
  5
159
330
1E
100
AcDbEntity
  8
0
100
AcDbLine
 10
391.278622
 20
469.8978405
 30
0.0
 11
397.231622
 21
469.1138405
 31
0.0
  0
LINE
  5
15A
330
1E
100
AcDbEntity
  8
0
100
AcDbLine
 10
398.4946219999999
 20
480.8158405
 30
0.0
 11
399.447622
 21
480.4278404999999
 31
0.0
  0
LINE
  5
15B
330
1E
100
AcDbEntity
  8
0
100
AcDbLine
 10
399.447622
 20
480.4278404999999
 30
0.0
 11
400.459622
 21
480.2868405
 31
0.0
  0
LINE
  5
15C
330
1E
100
AcDbEntity
  8
0
100
AcDbLine
 10
399.152432412194
 20
480.4862247851009
 30
0.0
 11
399.435622
 21
480.3688405
 31
0.0
  0
LINE
  5
15D
330
1E
100
AcDbEntity
  8
0
100
AcDbLine
 10
399.435622
 20
480.3688405
 30
0.0
 11
400.459622
 21
480.2278405
 31
0.0
  0
LINE
  5
15E
330
1E
100
AcDbEntity
  8
0
100
AcDbLine
 10
402.423622
 20
480.8158405
 30
0.0
 11
403.247622
 21
481.4398405
 31
0.0
  0
LINE
  5
15F
330
1E
100
AcDbEntity
  8
0
100
AcDbLine
 10
401.470622
 20
480.4278404999999
 30
0.0
 11
402.423622
 21
480.8158405
 31
0.0
  0
LINE
  5
160
330
1E
100
AcDbEntity
  8
0
100
AcDbLine
 10
400.459622
 20
480.2868405
 30
0.0
 11
401.470622
 21
480.4278404999999
 31
0.0
  0
LINE
  5
161
330
1E
100
AcDbEntity
  8
0
100
AcDbLine
 10
397.670622
 20
523.0158405
 30
0.0
 11
398.4946219999999
 21
523.6398405
 31
0.0
  0
LINE
  5
162
330
1E
100
AcDbEntity
  8
0
100
AcDbLine
 10
398.4946219999999
 20
523.6398405
 30
0.0
 11
399.447622
 21
524.0278405
 31
0.0
  0
LINE
  5
163
330
1E
100
AcDbEntity
  8
0
100
AcDbLine
 10
399.447622
 20
524.0278405
 30
0.0
 11
400.459622
 21
524.1688404999999
 31
0.0
  0
LINE
  5
164
330
1E
100
AcDbEntity
  8
0
100
AcDbLine
 10
399.435622
 20
524.0868404999999
 30
0.0
 11
400.459622
 21
524.2278405
 31
0.0
  0
LINE
  5
165
330
1E
100
AcDbEntity
  8
0
100
AcDbLine
 10
402.423622
 20
523.6398405
 30
0.0
 11
403.247622
 21
523.0158405
 31
0.0
  0
LINE
  5
166
330
1E
100
AcDbEntity
  8
0
100
AcDbLine
 10
401.470622
 20
524.0278405
 30
0.0
 11
402.423622
 21
523.6398405
 31
0.0
  0
LINE
  5
167
330
1E
100
AcDbEntity
  8
0
100
AcDbLine
 10
400.459622
 20
524.1688404999999
 30
0.0
 11
401.470622
 21
524.0278405
 31
0.0
  0
LINE
  5
168
330
1E
100
AcDbEntity
  8
0
100
AcDbLine
 10
397.670622
 20
481.4398405
 30
0.0
 11
398.4946219999999
 21
480.8158405
 31
0.0
  0
LINE
  5
169
330
1E
100
AcDbEntity
  8
0
100
AcDbLine
 10
402.543654041937
 20
480.841870855245
 30
0.0
 11
406.023622
 21
481.3278405
 31
0.0
  0
LINE
  5
16A
330
1E
100
AcDbEntity
  8
0
100
AcDbLine
 10
403.247622
 20
481.4398405
 30
0.0
 11
403.8706219999999
 21
482.2628405
 31
0.0
  0
LINE
  5
16B
330
1E
100
AcDbEntity
  8
0
100
AcDbLine
 10
403.8706219999999
 20
482.2628405
 30
0.0
 11
404.259622
 21
483.2158405
 31
0.0
  0
LINE
  5
16C
330
1E
100
AcDbEntity
  8
0
100
AcDbLine
 10
403.247622
 20
523.0158405
 30
0.0
 11
403.8706219999999
 21
522.1928404999999
 31
0.0
  0
LINE
  5
16D
330
1E
100
AcDbEntity
  8
0
100
AcDbLine
 10
403.8706219999999
 20
522.1928404999999
 30
0.0
 11
404.259622
 21
521.2398405
 31
0.0
  0
LINE
  5
16E
330
1E
100
AcDbEntity
  8
0
100
AcDbLine
 10
404.4006219999999
 20
484.2278405
 30
0.0
 11
404.4006219999999
 21
520.2278405
 31
0.0
  0
LINE
  5
16F
330
1E
100
AcDbEntity
  8
0
100
AcDbLine
 10
404.4006219999999
 20
520.2278405
 30
0.0
 11
404.4006219999999
 21
484.2278405
 31
0.0
  0
LINE
  5
170
330
1E
100
AcDbEntity
  8
0
100
AcDbLine
 10
404.259622
 20
521.2398405
 30
0.0
 11
404.4006219999999
 21
520.2278405
 31
0.0
  0
LINE
  5
171
330
1E
100
AcDbEntity
  8
0
100
AcDbLine
 10
404.259622
 20
483.2158405
 30
0.0
 11
404.4006219999999
 21
484.2278405
 31
0.0
  0
LINE
  5
172
330
1E
100
AcDbEntity
  8
0
100
AcDbLine
 10
411.2656219999999
 20
483.4628405
 30
0.0
 11
415.794622
 21
486.8928405
 31
0.0
  0
LINE
  5
173
330
1E
100
AcDbEntity
  8
0
100
AcDbLine
 10
406.023622
 20
481.3278405
 30
0.0
 11
411.2656219999999
 21
483.4628405
 31
0.0
  0
LINE
  5
174
330
1E
100
AcDbEntity
  8
0
100
AcDbLine
 10
415.794622
 20
486.8928405
 30
0.0
 11
419.223622
 21
491.4218405
 31
0.0
  0
LINE
  5
175
330
1E
100
AcDbEntity
  8
0
100
AcDbLine
 10
419.223622
 20
491.4218405
 30
0.0
 11
421.359622
 21
496.6628405
 31
0.0
  0
LINE
  5
176
330
1E
100
AcDbEntity
  8
0
100
AcDbLine
 10
421.359622
 20
496.6628405
 30
0.0
 11
422.1356219999999
 21
502.2278405
 31
0.0
  0
LINE
  5
177
330
1E
100
AcDbEntity
  8
0
100
AcDbLine
 10
415.794622
 20
517.5628405
 30
0.0
 11
419.223622
 21
513.0338404999999
 31
0.0
  0
LINE
  5
178
330
1E
100
AcDbEntity
  8
0
100
AcDbLine
 10
419.223622
 20
513.0338404999999
 30
0.0
 11
421.359622
 21
507.7928405
 31
0.0
  0
LINE
  5
179
330
1E
100
AcDbEntity
  8
0
100
AcDbLine
 10
421.359622
 20
507.7928405
 30
0.0
 11
422.1356219999999
 21
502.2278405
 31
0.0
  0
LINE
  5
17A
330
1E
100
AcDbEntity
  8
0
100
AcDbLine
 10
411.2656219999999
 20
520.9928405
 30
0.0
 11
415.794622
 21
517.5628405
 31
0.0
  0
LINE
  5
17B
330
1E
100
AcDbEntity
  8
0
100
AcDbLine
 10
419.2656219999999
 20
729.4348405
 30
0.0
 11
419.535621999987
 21
728.857267684494
 31
0.0
  0
LINE
  5
17C
330
1E
100
AcDbEntity
  8
0
100
AcDbLine
 10
419.2656219999999
 20
729.4348405
 30
0.0
 11
419.535621999987
 21
728.857267684494
 31
0.0
  0
LINE
  5
17D
330
1E
100
AcDbEntity
  8
0
100
AcDbLine
 10
419.2656219999999
 20
729.4348405
 30
0.0
 11
419.797820952862
 21
728.294840500038
 31
0.0
  0
LINE
  5
17E
330
1E
100
AcDbEntity
  8
0
100
AcDbLine
 10
419.2656219999999
 20
729.4348405
 30
0.0
 11
419.797820952862
 21
728.294840500038
 31
0.0
  0
LINE
  5
17F
330
1E
100
AcDbEntity
  8
0
100
AcDbLine
 10
419.229622
 20
729.5128405
 30
0.0
 11
419.5386219999999
 21
728.8508404999999
 31
0.0
  0
LINE
  5
180
330
1E
100
AcDbEntity
  8
0
100
AcDbLine
 10
419.229622
 20
729.5128405
 30
0.0
 11
420.0677769614669
 21
729.9034863590399
 31
0.0
  0
LINE
  5
181
330
1E
100
AcDbEntity
  8
0
100
AcDbLine
 10
419.301622
 20
731.7278405
 30
0.0
 11
420.1956219999999
 21
729.8088404999999
 31
0.0
  0
LINE
  5
182
330
1E
100
AcDbEntity
  8
0
100
AcDbLine
 10
419.301622
 20
731.7278405
 30
0.0
 11
420.136588460641
 21
729.935557907193
 31
0.0
  0
LINE
  5
183
330
1E
100
AcDbEntity
  8
0
100
AcDbLine
 10
418.776622
 20
732.8518404999999
 30
0.0
 11
419.301622
 21
731.7278405
 31
0.0
  0
LINE
  5
184
330
1E
100
AcDbEntity
  8
0
100
AcDbLine
 10
418.560622
 20
733.3148405000001
 30
0.0
 11
418.776622
 21
732.8518404999999
 31
0.0
  0
LINE
  5
185
330
1E
100
AcDbEntity
  8
0
100
AcDbLine
 10
418.560622
 20
733.3148405000001
 30
0.0
 11
419.158622
 21
734.3988405
 31
0.0
  0
LINE
  5
186
330
1E
100
AcDbEntity
  8
0
100
AcDbLine
 10
419.676622000024
 20
728.5549416235429
 30
0.0
 11
420.1086219999999
 21
727.6278405
 31
0.0
  0
LINE
  5
187
330
1E
100
AcDbEntity
  8
0
100
AcDbLine
 10
419.676622000024
 20
728.5549416235429
 30
0.0
 11
420.1086219999999
 21
727.6278405
 31
0.0
  0
LINE
  5
188
330
1E
100
AcDbEntity
  8
0
100
AcDbLine
 10
419.5386219999999
 20
728.8508404999999
 30
0.0
 11
420.330936317829
 21
729.2207620854769
 31
0.0
  0
LINE
  5
189
330
1E
100
AcDbEntity
  8
0
100
AcDbLine
 10
419.5386219999999
 20
728.8508404999999
 30
0.0
 11
420.0726219999999
 21
727.7058405
 31
0.0
  0
LINE
  5
18A
330
1E
100
AcDbEntity
  8
0
100
AcDbLine
 10
420.5833678514939
 20
726.610840500074
 30
0.0
 11
420.7216219999999
 21
726.3138404999999
 31
0.0
  0
LINE
  5
18B
330
1E
100
AcDbEntity
  8
0
100
AcDbLine
 10
420.5132275647149
 20
726.761234935208
 30
0.0
 11
421.0306219999999
 21
725.6518405
 31
0.0
  0
LINE
  5
18C
330
1E
100
AcDbEntity
  8
0
100
AcDbLine
 10
420.7216219999999
 20
726.3138404999999
 30
0.0
 11
421.0306219999999
 21
725.6518405
 31
0.0
  0
LINE
  5
18D
330
1E
100
AcDbEntity
  8
0
100
AcDbLine
 10
420.5132275647149
 20
726.761234935208
 30
0.0
 11
421.0306219999999
 21
725.6518405
 31
0.0
  0
LINE
  5
18E
330
1E
100
AcDbEntity
  8
0
100
AcDbLine
 10
420.362622
 20
727.0838405000001
 30
0.0
 11
421.228970367821
 21
727.4876266946001
 31
0.0
  0
LINE
  5
18F
330
1E
100
AcDbEntity
  8
0
100
AcDbLine
 10
420.362622
 20
727.0838405000001
 30
0.0
 11
420.8976219999999
 21
725.9378404999999
 31
0.0
  0
LINE
  5
190
330
1E
100
AcDbEntity
  8
0
100
AcDbLine
 10
420.0546219999999
 20
727.7448405
 30
0.0
 11
420.362622
 21
727.0838405000001
 31
0.0
  0
LINE
  5
191
330
1E
100
AcDbEntity
  8
0
100
AcDbLine
 10
420.0546219999999
 20
727.7448405
 30
0.0
 11
420.9605082690339
 21
728.1677874004429
 31
0.0
  0
LINE
  5
192
330
1E
100
AcDbEntity
  8
0
100
AcDbLine
 10
419.670622
 20
730.9338405
 30
0.0
 11
420.1956219999999
 21
729.8088404999999
 31
0.0
  0
LINE
  5
193
330
1E
100
AcDbEntity
  8
0
100
AcDbLine
 10
419.485622
 20
731.3308405
 30
0.0
 11
419.670622
 21
730.9338405
 31
0.0
  0
LINE
  5
194
330
1E
100
AcDbEntity
  8
0
100
AcDbLine
 10
419.485622
 20
731.3308405
 30
0.0
 11
420.035664412787
 21
729.888519396197
 31
0.0
  0
LINE
  5
195
330
1E
100
AcDbEntity
  8
0
100
AcDbLine
 10
420.1956219999999
 20
729.8088404999999
 30
0.0
 11
421.336622
 21
727.3608405
 31
0.0
  0
LINE
  5
196
330
1E
100
AcDbEntity
  8
0
100
AcDbLine
 10
422.800622
 20
720.6728404999999
 30
0.0
 11
423.462651861762
 21
720.981398267892
 31
0.0
  0
LINE
  5
197
330
1E
100
AcDbEntity
  8
0
100
AcDbLine
 10
422.800622
 20
720.6728404999999
 30
0.0
 11
422.900844399851
 21
720.4579441557499
 31
0.0
  0
LINE
  5
198
330
1E
100
AcDbEntity
  8
0
100
AcDbLine
 10
422.4926219999999
 20
721.3348405
 30
0.0
 11
422.800622
 21
720.6728404999999
 31
0.0
  0
LINE
  5
199
330
1E
100
AcDbEntity
  8
0
100
AcDbLine
 10
422.4926219999999
 20
721.3348405
 30
0.0
 11
423.201950910067
 21
721.665625780909
 31
0.0
  0
LINE
  5
19A
330
1E
100
AcDbEntity
  8
0
100
AcDbLine
 10
422.4686219999999
 20
722.5678405
 30
0.0
 11
423.192824508522
 21
722.905775040656
 31
0.0
  0
LINE
  5
19B
330
1E
100
AcDbEntity
  8
0
100
AcDbLine
 10
421.0306219999999
 20
725.6518405
 30
0.0
 11
421.5576798775029
 21
725.8974907517869
 31
0.0
  0
LINE
  5
19C
330
1E
100
AcDbEntity
  8
0
100
AcDbLine
 10
420.8976219999999
 20
725.9378404999999
 30
0.0
 11
421.673641248434
 21
726.29972585592
 31
0.0
  0
LINE
  5
19D
330
1E
100
AcDbEntity
  8
0
100
AcDbLine
 10
421.9336219999999
 20
723.7138405
 30
0.0
 11
422.8405752972419
 21
724.1365517720179
 31
0.0
  0
LINE
  5
19E
330
1E
100
AcDbEntity
  8
0
100
AcDbLine
 10
421.9336219999999
 20
723.7138405
 30
0.0
 11
422.4686219999999
 21
722.5678405
 31
0.0
  0
LINE
  5
19F
330
1E
100
AcDbEntity
  8
0
100
AcDbLine
 10
421.6256219999999
 20
724.3758405
 30
0.0
 11
421.9336219999999
 21
723.7138405
 31
0.0
  0
LINE
  5
1A0
330
1E
100
AcDbEntity
  8
0
100
AcDbLine
 10
421.6256219999999
 20
724.3758405
 30
0.0
 11
422.5319291841639
 21
724.7982506327189
 31
0.0
  0
LINE
  5
1A1
330
1E
100
AcDbEntity
  8
0
100
AcDbLine
 10
421.6256219999999
 20
724.3758405
 30
0.0
 11
422.060651611671
 21
724.578598371959
 31
0.0
  0
LINE
  5
1A2
330
1E
100
AcDbEntity
  8
0
100
AcDbLine
 10
421.44495389017
 20
726.1930808130209
 30
0.0
 11
422.060651611671
 21
724.578598371959
 31
0.0
  0
LINE
  5
1A3
330
1E
100
AcDbEntity
  8
0
100
AcDbLine
 10
422.7732610042259
 20
722.7099941666169
 30
0.0
 11
423.5217408286139
 21
720.7473305221619
 31
0.0
  0
LINE
  5
1A4
330
1E
100
AcDbEntity
  8
0
100
AcDbLine
 10
423.4346219999999
 20
719.3118404999999
 30
0.0
 11
423.7426219999999
 21
718.6508405
 31
0.0
  0
LINE
  5
1A5
330
1E
100
AcDbEntity
  8
0
100
AcDbLine
 10
423.2096219999999
 20
719.7958405
 30
0.0
 11
423.6629055672489
 21
720.007222737487
 31
0.0
  0
LINE
  5
1A6
330
1E
100
AcDbEntity
  8
0
100
AcDbLine
 10
423.2096219999999
 20
719.7958405
 30
0.0
 11
423.7426219999999
 21
718.6508405
 31
0.0
  0
LINE
  5
1A7
330
1E
100
AcDbEntity
  8
0
100
AcDbLine
 10
422.900622
 20
720.4578404999999
 30
0.0
 11
423.2096219999999
 21
719.7958405
 31
0.0
  0
LINE
  5
1A8
330
1E
100
AcDbEntity
  8
0
100
AcDbLine
 10
422.900622
 20
720.4578404999999
 30
0.0
 11
423.66918895136
 21
720.816052895973
 31
0.0
  0
LINE
  5
1A9
330
1E
100
AcDbEntity
  8
0
100
AcDbLine
 10
422.900622
 20
720.4578404999999
 30
0.0
 11
423.4346219999999
 21
719.3118404999999
 31
0.0
  0
LINE
  5
1AA
330
1E
100
AcDbEntity
  8
0
100
AcDbLine
 10
422.8796219999999
 20
724.0528405
 30
0.0
 11
424.6686219999999
 21
720.2158405
 31
0.0
  0
LINE
  5
1AB
330
1E
100
AcDbEntity
  8
0
100
AcDbLine
 10
421.336622
 20
727.3608405
 30
0.0
 11
422.8796219999999
 21
724.0528405
 31
0.0
  0
LINE
  5
1AC
330
1E
100
AcDbEntity
  8
0
100
AcDbLine
 10
435.194622
 20
691.4228405
 30
0.0
 11
435.732622
 21
690.2698404999999
 31
0.0
  0
LINE
  5
1AD
330
1E
100
AcDbEntity
  8
0
100
AcDbLine
 10
435.732622
 20
690.2698404999999
 30
0.0
 11
436.3416219999999
 21
688.9648405
 31
0.0
  0
LINE
  5
1AE
330
1E
100
AcDbEntity
  8
0
100
AcDbLine
 10
436.3416219999999
 20
688.9648405
 30
0.0
 11
436.9906219999999
 21
687.5728405
 31
0.0
  0
LINE
  5
1AF
330
1E
100
AcDbEntity
  8
0
100
AcDbLine
 10
434.4546219999999
 20
693.0108404999999
 30
0.0
 11
434.5456219999999
 21
692.8148405
 31
0.0
  0
LINE
  5
1B0
330
1E
100
AcDbEntity
  8
0
100
AcDbLine
 10
434.4546219999999
 20
693.0108404999999
 30
0.0
 11
435.0243178956829
 21
693.2763634078058
 31
0.0
  0
LINE
  5
1B1
330
1E
100
AcDbEntity
  8
0
100
AcDbLine
 10
434.5456219999999
 20
692.8148405
 30
0.0
 11
434.7896219999999
 21
692.2928405
 31
0.0
  0
LINE
  5
1B2
330
1E
100
AcDbEntity
  8
0
100
AcDbLine
 10
434.7896219999999
 20
692.2928405
 30
0.0
 11
435.194622
 21
691.4228405
 31
0.0
  0
LINE
  5
1B3
330
1E
100
AcDbEntity
  8
0
100
AcDbLine
 10
434.1046219999999
 20
695.2478405
 30
0.0
 11
435.5036219999999
 21
692.2478405
 31
0.0
  0
LINE
  5
1B4
330
1E
100
AcDbEntity
  8
0
100
AcDbLine
 10
434.8866219999999
 20
693.5718405
 30
0.0
 11
435.0243178956829
 21
693.2763634078058
 31
0.0
  0
LINE
  5
1B5
330
1E
100
AcDbEntity
  8
0
100
AcDbLine
 10
435.5036219999999
 20
692.2478405
 30
0.0
 11
436.860622
 21
689.3378404999999
 31
0.0
  0
LINE
  5
1B6
330
1E
100
AcDbEntity
  8
0
100
AcDbLine
 10
437.639622
 20
686.1808405
 30
0.0
 11
438.247622
 21
684.8758404999999
 31
0.0
  0
LINE
  5
1B7
330
1E
100
AcDbEntity
  8
0
100
AcDbLine
 10
436.9906219999999
 20
687.5728405
 30
0.0
 11
437.639622
 21
686.1808405
 31
0.0
  0
LINE
  5
1B8
330
1E
100
AcDbEntity
  8
0
100
AcDbLine
 10
437.2626219999999
 20
688.4778405
 30
0.0
 11
437.8786219999999
 21
687.1548404999999
 31
0.0
  0
LINE
  5
1B9
330
1E
100
AcDbEntity
  8
0
100
AcDbLine
 10
437.2626219999999
 20
688.4778405
 30
0.0
 11
438.168241927955
 21
688.9001632588969
 31
0.0
  0
LINE
  5
1BA
330
1E
100
AcDbEntity
  8
0
100
AcDbLine
 10
437.4256219999999
 20
686.9438405000001
 30
0.0
 11
437.8785709325369
 21
687.1549501789821
 31
0.0
  0
LINE
  5
1BB
330
1E
100
AcDbEntity
  8
0
100
AcDbLine
 10
436.8086219999999
 20
688.2658405
 30
0.0
 11
437.4256219999999
 21
686.9438405000001
 31
0.0
  0
LINE
  5
1BC
330
1E
100
AcDbEntity
  8
0
100
AcDbLine
 10
436.8086219999999
 20
688.2658405
 30
0.0
 11
437.2626793860299
 21
688.477717250459
 31
0.0
  0
LINE
  5
1BD
330
1E
100
AcDbEntity
  8
0
100
AcDbLine
 10
437.7156219999999
 20
688.6888404999999
 30
0.0
 11
438.3326219999999
 21
687.3658405
 31
0.0
  0
LINE
  5
1BE
330
1E
100
AcDbEntity
  8
0
100
AcDbLine
 10
437.7156219999999
 20
688.6888404999999
 30
0.0
 11
438.27498985263
 21
688.949549730818
 31
0.0
  0
LINE
  5
1BF
330
1E
100
AcDbEntity
  8
0
100
AcDbLine
 10
438.247622
 20
684.8758404999999
 30
0.0
 11
438.7856219999999
 21
683.7228405000001
 31
0.0
  0
LINE
  5
1C0
330
1E
100
AcDbEntity
  8
0
100
AcDbLine
 10
437.8786219999999
 20
687.1548404999999
 30
0.0
 11
438.3323923125789
 21
687.366333006414
 31
0.0
  0
LINE
  5
1C1
330
1E
100
AcDbEntity
  8
0
100
AcDbLine
 10
438.3326219999999
 20
687.3658405
 30
0.0
 11
438.78552623591
 21
687.577045841801
 31
0.0
  0
LINE
  5
1C2
330
1E
100
AcDbEntity
  8
0
100
AcDbLine
 10
438.1686219999999
 20
688.8998404999999
 30
0.0
 11
438.7856219999999
 21
687.5768405
 31
0.0
  0
LINE
  5
1C3
330
1E
100
AcDbEntity
  8
0
100
AcDbLine
 10
438.1686219999999
 20
688.8998404999999
 30
0.0
 11
439.075212255267
 21
689.3228826158059
 31
0.0
  0
LINE
  5
1C4
330
1E
100
AcDbEntity
  8
0
100
AcDbLine
 10
438.2796219999999
 20
686.2938405
 30
0.0
 11
439.6366219999999
 21
683.3838405
 31
0.0
  0
LINE
  5
1C5
330
1E
100
AcDbEntity
  8
0
100
AcDbLine
 10
437.8785023543019
 20
687.1549182161531
 30
0.0
 11
438.2796219999999
 21
686.2938405
 31
0.0
  0
LINE
  5
1C6
330
1E
100
AcDbEntity
  8
0
100
AcDbLine
 10
436.860622
 20
689.3378404999999
 30
0.0
 11
437.262008242926
 21
688.477404075023
 31
0.0
  0
LINE
  5
1C7
330
1E
100
AcDbEntity
  8
0
100
AcDbLine
 10
436.698622
 20
694.4168405
 30
0.0
 11
439.3836219999999
 21
688.6618405
 31
0.0
  0
LINE
  5
1C8
330
1E
100
AcDbEntity
  8
0
100
AcDbLine
 10
430.725622
 20
701.3108405
 30
0.0
 11
431.4589485769309
 21
701.6526281213499
 31
0.0
  0
LINE
  5
1C9
330
1E
100
AcDbEntity
  8
0
100
AcDbLine
 10
430.725622
 20
701.3108405
 30
0.0
 11
431.2907331255559
 21
701.5742265458329
 31
0.0
  0
LINE
  5
1CA
330
1E
100
AcDbEntity
  8
0
100
AcDbLine
 10
430.417622
 20
701.9718404999999
 30
0.0
 11
430.725622
 21
701.3108405
 31
0.0
  0
LINE
  5
1CB
330
1E
100
AcDbEntity
  8
0
100
AcDbLine
 10
430.1926219999999
 20
702.4558405
 30
0.0
 11
430.9960766991079
 21
702.8305199816479
 31
0.0
  0
LINE
  5
1CC
330
1E
100
AcDbEntity
  8
0
100
AcDbLine
 10
430.1926219999999
 20
702.4558405
 30
0.0
 11
430.725622
 21
701.3108405
 31
0.0
  0
LINE
  5
1CD
330
1E
100
AcDbEntity
  8
0
100
AcDbLine
 10
429.876622
 20
703.1308404999999
 30
0.0
 11
430.550263436642
 21
703.445181732984
 31
0.0
  0
LINE
  5
1CE
330
1E
100
AcDbEntity
  8
0
100
AcDbLine
 10
430.2956219999999
 20
703.4148405
 30
0.0
 11
430.98416081772
 21
703.735753517636
 31
0.0
  0
LINE
  5
1CF
330
1E
100
AcDbEntity
  8
0
100
AcDbLine
 10
429.8836219999999
 20
703.1168405
 30
0.0
 11
430.1926219999999
 21
702.4558405
 31
0.0
  0
LINE
  5
1D0
330
1E
100
AcDbEntity
  8
0
100
AcDbLine
 10
429.8836219999999
 20
703.1168405
 30
0.0
 11
430.676334005371
 21
703.486743619991
 31
0.0
  0
LINE
  5
1D1
330
1E
100
AcDbEntity
  8
0
100
AcDbLine
 10
429.8836219999999
 20
703.1168405
 30
0.0
 11
430.417622
 21
701.9718404999999
 31
0.0
  0
LINE
  5
1D2
330
1E
100
AcDbEntity
  8
0
100
AcDbLine
 10
429.8836219999999
 20
703.1168405
 30
0.0
 11
430.537886792542
 21
703.4221400115781
 31
0.0
  0
LINE
  5
1D3
330
1E
100
AcDbEntity
  8
0
100
AcDbLine
 10
430.492831881071
 20
703.506755750692
 30
0.0
 11
430.5290451616929
 21
703.4180142423011
 31
0.0
  0
LINE
  5
1D4
330
1E
100
AcDbEntity
  8
0
100
AcDbLine
 10
431.2829340377259
 20
701.570591560054
 30
0.0
 11
432.1716219999999
 21
699.3928405
 31
0.0
  0
LINE
  5
1D5
330
1E
100
AcDbEntity
  8
0
100
AcDbLine
 10
432.2336219999999
 20
699.2598404999999
 30
0.0
 11
432.881622
 21
697.8718405000001
 31
0.0
  0
LINE
  5
1D6
330
1E
100
AcDbEntity
  8
0
100
AcDbLine
 10
432.1716219999999
 20
699.3928405
 30
0.0
 11
432.2336219999999
 21
699.2598404999999
 31
0.0
  0
LINE
  5
1D7
330
1E
100
AcDbEntity
  8
0
100
AcDbLine
 10
429.3426219999999
 20
704.2778404999999
 30
0.0
 11
429.7955187620019
 21
704.4889258634269
 31
0.0
  0
LINE
  5
1D8
330
1E
100
AcDbEntity
  8
0
100
AcDbLine
 10
429.3426219999999
 20
704.2778404999999
 30
0.0
 11
429.876622
 21
703.1308404999999
 31
0.0
  0
LINE
  5
1D9
330
1E
100
AcDbEntity
  8
0
100
AcDbLine
 10
429.679622
 20
704.7378405
 30
0.0
 11
430.1328726628939
 21
704.949207393016
 31
0.0
  0
LINE
  5
1DA
330
1E
100
AcDbEntity
  8
0
100
AcDbLine
 10
429.679622
 20
704.7378405
 30
0.0
 11
430.2956219999999
 21
703.4148405
 31
0.0
  0
LINE
  5
1DB
330
1E
100
AcDbEntity
  8
0
100
AcDbLine
 10
429.0346219999999
 20
704.9388405
 30
0.0
 11
429.3426219999999
 21
704.2778404999999
 31
0.0
  0
LINE
  5
1DC
330
1E
100
AcDbEntity
  8
0
100
AcDbLine
 10
429.0346219999999
 20
704.9388405
 30
0.0
 11
429.79897989691
 21
705.2957095843189
 31
0.0
  0
LINE
  5
1DD
330
1E
100
AcDbEntity
  8
0
100
AcDbLine
 10
430.1666219999999
 20
704.8768405
 30
0.0
 11
430.8868490760099
 21
705.212707983018
 31
0.0
  0
LINE
  5
1DE
330
1E
100
AcDbEntity
  8
0
100
AcDbLine
 10
430.1666219999999
 20
704.8768405
 30
0.0
 11
430.771954917195
 21
705.159128753328
 31
0.0
  0
LINE
  5
1DF
330
1E
100
AcDbEntity
  8
0
100
AcDbLine
 10
430.5506219999999
 20
705.2358404999999
 30
0.0
 11
431.457431351692
 21
705.6584846821181
 31
0.0
  0
LINE
  5
1E0
330
1E
100
AcDbEntity
  8
0
100
AcDbLine
 10
432.328557830546
 20
703.79045582028
 30
0.0
 11
434.139622
 21
699.9068405
 31
0.0
  0
LINE
  5
1E1
330
1E
100
AcDbEntity
  8
0
100
AcDbLine
 10
432.7946219999999
 20
696.8748405
 30
0.0
 11
433.591818250845
 21
697.2463963918719
 31
0.0
  0
LINE
  5
1E2
330
1E
100
AcDbEntity
  8
0
100
AcDbLine
 10
432.7946219999999
 20
696.8748405
 30
0.0
 11
433.4116219999999
 21
695.5518405
 31
0.0
  0
LINE
  5
1E3
330
1E
100
AcDbEntity
  8
0
100
AcDbLine
 10
432.7946219999999
 20
696.8748405
 30
0.0
 11
433.2479777887799
 21
697.086139805857
 31
0.0
  0
LINE
  5
1E4
330
1E
100
AcDbEntity
  8
0
100
AcDbLine
 10
433.4886219999999
 20
696.5708405
 30
0.0
 11
433.940992556854
 21
696.782046620915
 31
0.0
  0
LINE
  5
1E5
330
1E
100
AcDbEntity
  8
0
100
AcDbLine
 10
433.4886219999999
 20
696.5708405
 30
0.0
 11
434.1046219999999
 21
695.2478405
 31
0.0
  0
LINE
  5
1E6
330
1E
100
AcDbEntity
  8
0
100
AcDbLine
 10
433.4116219999999
 20
695.5518405
 30
0.0
 11
433.8647448343209
 21
695.763031230834
 31
0.0
  0
LINE
  5
1E7
330
1E
100
AcDbEntity
  8
0
100
AcDbLine
 10
434.1046219999999
 20
695.2478405
 30
0.0
 11
434.952582575857
 21
695.643524254647
 31
0.0
  0
LINE
  5
1E8
330
1E
100
AcDbEntity
  8
0
100
AcDbLine
 10
433.6316219999999
 20
697.4448405
 30
0.0
 11
434.085027224516
 21
697.6561628467821
 31
0.0
  0
LINE
  5
1E9
330
1E
100
AcDbEntity
  8
0
100
AcDbLine
 10
433.6316219999999
 20
697.4448405
 30
0.0
 11
434.249622
 21
696.1208404999999
 31
0.0
  0
LINE
  5
1EA
330
1E
100
AcDbEntity
  8
0
100
AcDbLine
 10
434.0166219999999
 20
697.8028404999999
 30
0.0
 11
434.923352969711
 21
698.225448149976
 31
0.0
  0
LINE
  5
1EB
330
1E
100
AcDbEntity
  8
0
100
AcDbLine
 10
434.0166219999999
 20
697.8028404999999
 30
0.0
 11
434.6336219999999
 21
696.4798405
 31
0.0
  0
LINE
  5
1EC
330
1E
100
AcDbEntity
  8
0
100
AcDbLine
 10
432.881622
 20
697.8718405000001
 30
0.0
 11
433.2479777887799
 21
697.086139805857
 31
0.0
  0
LINE
  5
1ED
330
1E
100
AcDbEntity
  8
0
100
AcDbLine
 10
432.328557830547
 20
703.7904558202789
 30
0.0
 11
434.139622
 21
699.9068405
 31
0.0
  0
LINE
  5
1EE
330
1E
100
AcDbEntity
  8
0
100
AcDbLine
 10
432.328557830547
 20
703.7904558202789
 30
0.0
 11
434.5706219999999
 21
698.9808404999999
 31
0.0
  0
LINE
  5
1EF
330
1E
100
AcDbEntity
  8
0
100
AcDbLine
 10
432.328557830547
 20
703.7904558202789
 30
0.0
 11
434.5706219999999
 21
698.9808404999999
 31
0.0
  0
LINE
  5
1F0
330
1E
100
AcDbEntity
  8
0
100
AcDbLine
 10
429.549622
 20
706.1998405
 30
0.0
 11
430.003274067519
 21
706.4113945822599
 31
0.0
  0
LINE
  5
1F1
330
1E
100
AcDbEntity
  8
0
100
AcDbLine
 10
429.549622
 20
706.1998405
 30
0.0
 11
430.1666219999999
 21
704.8768405
 31
0.0
  0
LINE
  5
1F2
330
1E
100
AcDbEntity
  8
0
100
AcDbLine
 10
431.424622
 20
705.7288405
 30
0.0
 11
434.139622
 21
699.9068405
 31
0.0
  0
LINE
  5
1F3
330
1E
100
AcDbEntity
  8
0
100
AcDbLine
 10
434.249622
 20
696.1208404999999
 30
0.0
 11
434.826952090272
 21
696.389921540419
 31
0.0
  0
LINE
  5
1F4
330
1E
100
AcDbEntity
  8
0
100
AcDbLine
 10
434.6336219999999
 20
696.4798405
 30
0.0
 11
435.5400876575649
 21
696.902324493735
 31
0.0
  0
LINE
  5
1F5
330
1E
100
AcDbEntity
  8
0
100
AcDbLine
 10
434.5706219999999
 20
698.9808404999999
 30
0.0
 11
435.412130196779
 21
697.176840499877
 31
0.0
  0
LINE
  5
1F6
330
1E
100
AcDbEntity
  8
0
100
AcDbLine
 10
434.5706219999999
 20
698.9808404999999
 30
0.0
 11
435.412130196778
 21
697.1768404998779
 31
0.0
  0
LINE
  5
1F7
330
1E
100
AcDbEntity
  8
0
100
AcDbLine
 10
434.139622
 20
699.9068405
 30
0.0
 11
436.698622
 21
694.4168405
 31
0.0
  0
LINE
  5
1F8
330
1E
100
AcDbEntity
  8
0
100
AcDbLine
 10
434.139622
 20
699.9068405
 30
0.0
 11
434.923352969711
 21
698.225448149976
 31
0.0
  0
LINE
  5
1F9
330
1E
100
AcDbEntity
  8
0
100
AcDbLine
 10
427.4396219999999
 20
709.5428404999999
 30
0.0
 11
428.216072696149
 21
709.9049270553239
 31
0.0
  0
LINE
  5
1FA
330
1E
100
AcDbEntity
  8
0
100
AcDbLine
 10
427.4396219999999
 20
709.5428404999999
 30
0.0
 11
427.973622
 21
708.3968405
 31
0.0
  0
LINE
  5
1FB
330
1E
100
AcDbEntity
  8
0
100
AcDbLine
 10
426.913622
 20
710.6698405000001
 30
0.0
 11
427.4779860361689
 21
710.9328783436638
 31
0.0
  0
LINE
  5
1FC
330
1E
100
AcDbEntity
  8
0
100
AcDbLine
 10
426.8017895392559
 20
710.9098405000239
 30
0.0
 11
426.913622
 21
710.6698405000001
 31
0.0
  0
LINE
  5
1FD
330
1E
100
AcDbEntity
  8
0
100
AcDbLine
 10
426.8017895392559
 20
710.9098405000239
 30
0.0
 11
426.913622
 21
710.6698405000001
 31
0.0
  0
LINE
  5
1FE
330
1E
100
AcDbEntity
  8
0
100
AcDbLine
 10
426.8886219999999
 20
710.7238405
 30
0.0
 11
427.341710450558
 21
710.9353817964529
 31
0.0
  0
LINE
  5
1FF
330
1E
100
AcDbEntity
  8
0
100
AcDbLine
 10
426.3536219999999
 20
711.8698404999999
 30
0.0
 11
426.807299798767
 21
712.0812898877319
 31
0.0
  0
LINE
  5
200
330
1E
100
AcDbEntity
  8
0
100
AcDbLine
 10
426.3536219999999
 20
711.8698404999999
 30
0.0
 11
426.8886219999999
 21
710.7238405
 31
0.0
  0
LINE
  5
201
330
1E
100
AcDbEntity
  8
0
100
AcDbLine
 10
426.0706219999999
 20
712.4768405
 30
0.0
 11
426.1948591134069
 21
712.211077613391
 31
0.0
  0
LINE
  5
202
330
1E
100
AcDbEntity
  8
0
100
AcDbLine
 10
426.0706219999999
 20
712.4768405
 30
0.0
 11
426.244207690519
 21
712.105010217131
 31
0.0
  0
LINE
  5
203
330
1E
100
AcDbEntity
  8
0
100
AcDbLine
 10
426.045622
 20
712.5318405
 30
0.0
 11
426.3536219999999
 21
711.8698404999999
 31
0.0
  0
LINE
  5
204
330
1E
100
AcDbEntity
  8
0
100
AcDbLine
 10
426.045622
 20
712.5318405
 30
0.0
 11
426.737833367091
 21
712.8544652132879
 31
0.0
  0
LINE
  5
205
330
1E
100
AcDbEntity
  8
0
100
AcDbLine
 10
426.7366219999999
 20
712.2328405000001
 30
0.0
 11
427.4931979735379
 21
712.586076302215
 31
0.0
  0
LINE
  5
206
330
1E
100
AcDbEntity
  8
0
100
AcDbLine
 10
426.7366219999999
 20
712.2328405000001
 30
0.0
 11
427.3536219999999
 21
710.9098405
 31
0.0
  0
LINE
  5
207
330
1E
100
AcDbEntity
  8
0
100
AcDbLine
 10
426.7366219999999
 20
712.2328405000001
 30
0.0
 11
427.403604430376
 21
712.5442462042489
 31
0.0
  0
LINE
  5
208
330
1E
100
AcDbEntity
  8
0
100
AcDbLine
 10
427.3536219999999
 20
710.9098405
 30
0.0
 11
427.9748629772609
 21
711.1998900953438
 31
0.0
  0
LINE
  5
209
330
1E
100
AcDbEntity
  8
0
100
AcDbLine
 10
427.1206219999999
 20
712.5928405
 30
0.0
 11
428.025783872088
 21
713.0154491886239
 31
0.0
  0
LINE
  5
20A
330
1E
100
AcDbEntity
  8
0
100
AcDbLine
 10
426.502622
 20
713.9168405
 30
0.0
 11
427.408470219001
 21
714.339036719005
 31
0.0
  0
LINE
  5
20B
330
1E
100
AcDbEntity
  8
0
100
AcDbLine
 10
426.502622
 20
713.9168405
 30
0.0
 11
427.1206219999999
 21
712.5928405
 31
0.0
  0
LINE
  5
20C
330
1E
100
AcDbEntity
  8
0
100
AcDbLine
 10
426.502622
 20
713.9168405
 30
0.0
 11
427.378940437673
 21
714.3252735280388
 31
0.0
  0
LINE
  5
20D
330
1E
100
AcDbEntity
  8
0
100
AcDbLine
 10
425.2206219999999
 20
715.4818405
 30
0.0
 11
425.925017675074
 21
715.8105325800399
 31
0.0
  0
LINE
  5
20E
330
1E
100
AcDbEntity
  8
0
100
AcDbLine
 10
427.1306219999999
 20
710.2038405
 30
0.0
 11
427.4396219999999
 21
709.5428404999999
 31
0.0
  0
LINE
  5
20F
330
1E
100
AcDbEntity
  8
0
100
AcDbLine
 10
427.1306219999999
 20
710.2038405
 30
0.0
 11
427.8395569528569
 21
710.5342597141009
 31
0.0
  0
LINE
  5
210
330
1E
100
AcDbEntity
  8
0
100
AcDbLine
 10
427.1306219999999
 20
710.2038405
 30
0.0
 11
427.6628209529389
 21
709.063840499873
 31
0.0
  0
LINE
  5
211
330
1E
100
AcDbEntity
  8
0
100
AcDbLine
 10
427.1306219999999
 20
710.2038405
 30
0.0
 11
427.6628209529389
 21
709.063840499873
 31
0.0
  0
LINE
  5
212
330
1E
100
AcDbEntity
  8
0
100
AcDbLine
 10
427.1306219999999
 20
710.2038405
 30
0.0
 11
427.6721686549819
 21
710.4562436569
 31
0.0
  0
LINE
  5
213
330
1E
100
AcDbEntity
  8
0
100
AcDbLine
 10
427.6628209529389
 20
709.063840499873
 30
0.0
 11
427.973622
 21
708.3968405
 31
0.0
  0
LINE
  5
214
330
1E
100
AcDbEntity
  8
0
100
AcDbLine
 10
427.973622
 20
708.3968405
 30
0.0
 11
428.679429202678
 21
708.7258019375419
 31
0.0
  0
LINE
  5
215
330
1E
100
AcDbEntity
  8
0
100
AcDbLine
 10
427.452896306349
 20
710.956190424488
 30
0.0
 11
427.6593505353859
 21
710.450269409212
 31
0.0
  0
LINE
  5
216
330
1E
100
AcDbEntity
  8
0
100
AcDbLine
 10
425.5444278268409
 20
715.632937979045
 30
0.0
 11
426.687776492077
 21
712.8311347889159
 31
0.0
  0
LINE
  5
217
330
1E
100
AcDbEntity
  8
0
100
AcDbLine
 10
428.41362001903
 20
708.601914038931
 30
0.0
 11
429.940760905072
 21
704.8596188525309
 31
0.0
  0
LINE
  5
218
330
1E
100
AcDbEntity
  8
0
100
AcDbLine
 10
424.8387849982079
 20
716.302003498231
 30
0.0
 11
425.2206219999999
 21
715.4818405
 31
0.0
  0
LINE
  5
219
330
1E
100
AcDbEntity
  8
0
100
AcDbLine
 10
424.8387849982079
 20
716.302003498231
 30
0.0
 11
425.2206219999999
 21
715.4818405
 31
0.0
  0
LINE
  5
21A
330
1E
100
AcDbEntity
  8
0
100
AcDbLine
 10
426.734622
 20
715.7838404999999
 30
0.0
 11
429.0176219999999
 21
710.8888405
 31
0.0
  0
LINE
  5
21B
330
1E
100
AcDbEntity
  8
0
100
AcDbLine
 10
429.0176219999999
 20
710.8888405
 30
0.0
 11
431.424622
 21
705.7288405
 31
0.0
  0
LINE
  5
21C
330
1E
100
AcDbEntity
  8
0
100
AcDbLine
 10
423.8876219999999
 20
718.3418405
 30
0.0
 11
424.355868845507
 21
718.560080204608
 31
0.0
  0
LINE
  5
21D
330
1E
100
AcDbEntity
  8
0
100
AcDbLine
 10
423.743456476901
 20
718.6512294315949
 30
0.0
 11
423.8876219999999
 21
718.3418405
 31
0.0
  0
LINE
  5
21E
330
1E
100
AcDbEntity
  8
0
100
AcDbLine
 10
423.7426219999999
 20
718.6508405
 30
0.0
 11
424.1967611260299
 21
718.862504902369
 31
0.0
  0
LINE
  5
21F
330
1E
100
AcDbEntity
  8
0
100
AcDbLine
 10
424.2726219999999
 20
718.6998405
 30
0.0
 11
425.1782176705549
 21
719.12265172367
 31
0.0
  0
LINE
  5
220
330
1E
100
AcDbEntity
  8
0
100
AcDbLine
 10
423.6556219999999
 20
720.0228405
 30
0.0
 11
424.5614270194789
 21
720.445749466048
 31
0.0
  0
LINE
  5
221
330
1E
100
AcDbEntity
  8
0
100
AcDbLine
 10
423.6556219999999
 20
720.0228405
 30
0.0
 11
424.2726219999999
 21
718.6998405
 31
0.0
  0
LINE
  5
222
330
1E
100
AcDbEntity
  8
0
100
AcDbLine
 10
424.686622
 20
716.6288405
 30
0.0
 11
425.4694167923729
 21
716.9936841842559
 31
0.0
  0
LINE
  5
223
330
1E
100
AcDbEntity
  8
0
100
AcDbLine
 10
424.686622
 20
716.6288405
 30
0.0
 11
425.2206219999999
 21
715.4818405
 31
0.0
  0
LINE
  5
224
330
1E
100
AcDbEntity
  8
0
100
AcDbLine
 10
424.3776219999999
 20
717.2898405
 30
0.0
 11
424.686622
 21
716.6288405
 31
0.0
  0
LINE
  5
225
330
1E
100
AcDbEntity
  8
0
100
AcDbLine
 10
424.3776219999999
 20
717.2898405
 30
0.0
 11
425.096856431582
 21
717.6252717729429
 31
0.0
  0
LINE
  5
226
330
1E
100
AcDbEntity
  8
0
100
AcDbLine
 10
424.3776219999999
 20
717.2898405
 30
0.0
 11
424.8387849982079
 21
716.302003498231
 31
0.0
  0
LINE
  5
227
330
1E
100
AcDbEntity
  8
0
100
AcDbLine
 10
424.3776219999999
 20
717.2898405
 30
0.0
 11
424.8387849982079
 21
716.302003498231
 31
0.0
  0
LINE
  5
228
330
1E
100
AcDbEntity
  8
0
100
AcDbLine
 10
424.3776219999999
 20
717.2898405
 30
0.0
 11
424.7898351156849
 21
717.482085426058
 31
0.0
  0
LINE
  5
229
330
1E
100
AcDbEntity
  8
0
100
AcDbLine
 10
424.440622
 20
718.3378405
 30
0.0
 11
424.7898351156849
 21
717.482085426058
 31
0.0
  0
LINE
  5
22A
330
1E
100
AcDbEntity
  8
0
100
AcDbLine
 10
424.2980436085909
 20
718.7117095291768
 30
0.0
 11
424.440622
 21
718.3378405
 31
0.0
  0
LINE
  5
22B
330
1E
100
AcDbEntity
  8
0
100
AcDbLine
 10
424.6686219999999
 20
720.2158405
 30
0.0
 11
426.734622
 21
715.7838404999999
 31
0.0
  0
LINE
  5
22C
330
1E
100
AcDbEntity
  8
0
100
AcDbLine
 10
425.359622
 20
721.1018404999999
 30
0.0
 11
427.4566219999999
 21
716.6038405
 31
0.0
  0
LINE
  5
22D
330
1E
100
AcDbEntity
  8
0
100
AcDbLine
 10
427.4566219999999
 20
716.6038405
 30
0.0
 11
429.7706219999999
 21
711.6428405
 31
0.0
  0
LINE
  5
22E
330
1E
100
AcDbEntity
  8
0
100
AcDbLine
 10
429.934622
 20
706.5588404999999
 30
0.0
 11
430.8404106977449
 21
706.981241962249
 31
0.0
  0
LINE
  5
22F
330
1E
100
AcDbEntity
  8
0
100
AcDbLine
 10
429.934622
 20
706.5588404999999
 30
0.0
 11
430.5506219999999
 21
705.2358404999999
 31
0.0
  0
LINE
  5
230
330
1E
100
AcDbEntity
  8
0
100
AcDbLine
 10
429.7706219999999
 20
711.6428405
 30
0.0
 11
432.2076219999999
 21
706.4158405
 31
0.0
  0
LINE
  5
231
330
1E
100
AcDbEntity
  8
0
100
AcDbLine
 10
432.2076219999999
 20
706.4158405
 30
0.0
 11
434.828622
 21
700.7928405
 31
0.0
  0
LINE
  5
232
330
1E
100
AcDbEntity
  8
0
100
AcDbLine
 10
434.828622
 20
700.7928405
 30
0.0
 11
437.5746219999999
 21
694.9048405
 31
0.0
  0
LINE
  5
233
330
1E
100
AcDbEntity
  8
0
100
AcDbLine
 10
437.5746219999999
 20
694.9048405
 30
0.0
 11
440.2896219999999
 21
689.0838405000001
 31
0.0
  0
LINE
  5
234
330
1E
100
AcDbEntity
  8
0
100
AcDbLine
 10
423.5386219999999
 20
725.0048405
 30
0.0
 11
425.359622
 21
721.1018404999999
 31
0.0
  0
LINE
  5
235
330
1E
100
AcDbEntity
  8
0
100
AcDbLine
 10
421.9966219999999
 20
728.3128405
 30
0.0
 11
423.5386219999999
 21
725.0048405
 31
0.0
  0
LINE
  5
236
330
1E
100
AcDbEntity
  8
0
100
AcDbLine
 10
420.7936219999999
 20
730.8928405
 30
0.0
 11
421.9966219999999
 21
728.3128405
 31
0.0
  0
LINE
  5
237
330
1E
100
AcDbEntity
  8
0
100
AcDbLine
 10
419.9296219999999
 20
732.7448405
 30
0.0
 11
420.7936219999999
 21
730.8928405
 31
0.0
  0
LINE
  5
238
330
1E
100
AcDbEntity
  8
0
100
AcDbLine
 10
419.374622
 20
733.9358405
 30
0.0
 11
419.9296219999999
 21
732.7448405
 31
0.0
  0
LINE
  5
239
330
1E
100
AcDbEntity
  8
0
100
AcDbLine
 10
419.158622
 20
734.3988405
 30
0.0
 11
419.374622
 21
733.9358405
 31
0.0
  0
LINE
  5
23A
330
1E
100
AcDbEntity
  8
0
100
AcDbLine
 10
419.158622
 20
734.3988405
 30
0.0
 11
438.1916219999999
 21
743.2738405
 31
0.0
  0
LINE
  5
23B
330
1E
100
AcDbEntity
  8
0
100
AcDbLine
 10
439.1916219999999
 20
682.8528405000001
 30
0.0
 11
439.434622
 21
682.3308405
 31
0.0
  0
LINE
  5
23C
330
1E
100
AcDbEntity
  8
0
100
AcDbLine
 10
438.7856219999999
 20
683.7228405000001
 30
0.0
 11
439.1916219999999
 21
682.8528405000001
 31
0.0
  0
LINE
  5
23D
330
1E
100
AcDbEntity
  8
0
100
AcDbLine
 10
438.7856219999999
 20
687.5768405
 30
0.0
 11
439.6920485542769
 21
688.000039652825
 31
0.0
  0
LINE
  5
23E
330
1E
100
AcDbEntity
  8
0
100
AcDbLine
 10
439.3836219999999
 20
688.6618405
 30
0.0
 11
442.066622
 21
682.9048404999999
 31
0.0
  0
LINE
  5
23F
330
1E
100
AcDbEntity
  8
0
100
AcDbLine
 10
439.3836219999999
 20
688.6618405
 30
0.0
 11
442.0046219999999
 21
683.0378405
 31
0.0
  0
LINE
  5
240
330
1E
100
AcDbEntity
  8
0
100
AcDbLine
 10
438.9626219999999
 20
741.6208404999999
 30
0.0
 11
439.8256219999999
 21
739.7678405
 31
0.0
  0
LINE
  5
241
330
1E
100
AcDbEntity
  8
0
100
AcDbLine
 10
438.406622
 20
742.8118405
 30
0.0
 11
438.9626219999999
 21
741.6208404999999
 31
0.0
  0
LINE
  5
242
330
1E
100
AcDbEntity
  8
0
100
AcDbLine
 10
438.1916219999999
 20
743.2738405
 30
0.0
 11
438.406622
 21
742.8118405
 31
0.0
  0
LINE
  5
243
330
1E
100
AcDbEntity
  8
0
100
AcDbLine
 10
438.1916219999999
 20
743.2738405
 30
0.0
 11
439.405622
 21
743.0348405
 31
0.0
  0
LINE
  5
244
330
1E
100
AcDbEntity
  8
0
100
AcDbLine
 10
439.525622
 20
682.1358404999999
 30
0.0
 11
440.0952294839649
 21
682.401322201021
 31
0.0
  0
LINE
  5
245
330
1E
100
AcDbEntity
  8
0
100
AcDbLine
 10
439.434622
 20
682.3308405
 30
0.0
 11
439.525622
 21
682.1358404999999
 31
0.0
  0
LINE
  5
246
330
1E
100
AcDbEntity
  8
0
100
AcDbLine
 10
439.6366219999999
 20
683.3838405
 30
0.0
 11
440.8396219999999
 21
680.8038404999999
 31
0.0
  0
LINE
  5
247
330
1E
100
AcDbEntity
  8
0
100
AcDbLine
 10
440.0952294839649
 20
682.401322201021
 30
0.0
 11
440.8396219999999
 21
680.8038404999999
 31
0.0
  0
LINE
  5
248
330
1E
100
AcDbEntity
  8
0
100
AcDbLine
 10
439.692144354008
 20
687.9998340922391
 30
0.0
 11
442.040623038279
 21
682.960627314248
 31
0.0
  0
LINE
  5
249
330
1E
100
AcDbEntity
  8
0
100
AcDbLine
 10
439.692144354008
 20
687.9998340922391
 30
0.0
 11
442.040623038281
 21
682.960627314245
 31
0.0
  0
LINE
  5
24A
330
1E
100
AcDbEntity
  8
0
100
AcDbLine
 10
439.8256219999999
 20
739.7678405
 30
0.0
 11
441.0286219999999
 21
737.1888404999999
 31
0.0
  0
LINE
  5
24B
330
1E
100
AcDbEntity
  8
0
100
AcDbLine
 10
440.823622
 20
679.6568405
 30
0.0
 11
441.4396219999999
 21
678.3338405000001
 31
0.0
  0
LINE
  5
24C
330
1E
100
AcDbEntity
  8
0
100
AcDbLine
 10
440.823622
 20
679.6568405
 30
0.0
 11
441.276395195641
 21
679.868234607899
 31
0.0
  0
LINE
  5
24D
330
1E
100
AcDbEntity
  8
0
100
AcDbLine
 10
440.823622
 20
679.6568405
 30
0.0
 11
441.2764581811769
 21
679.868264015053
 31
0.0
  0
LINE
  5
24E
330
1E
100
AcDbEntity
  8
0
100
AcDbLine
 10
441.653622
 20
679.0608405
 30
0.0
 11
442.1062385150279
 21
679.2721614556919
 31
0.0
  0
LINE
  5
24F
330
1E
100
AcDbEntity
  8
0
100
AcDbLine
 10
441.7976219999999
 20
679.9328404999999
 30
0.0
 11
442.4156219999999
 21
678.6098405
 31
0.0
  0
LINE
  5
250
330
1E
100
AcDbEntity
  8
0
100
AcDbLine
 10
441.7976219999999
 20
679.9328404999999
 30
0.0
 11
442.3761266930699
 21
680.2024689973221
 31
0.0
  0
LINE
  5
251
330
1E
100
AcDbEntity
  8
0
100
AcDbLine
 10
441.4396219999999
 20
678.3338405000001
 30
0.0
 11
442.237054911189
 21
678.705946535779
 31
0.0
  0
LINE
  5
252
330
1E
100
AcDbEntity
  8
0
100
AcDbLine
 10
441.0356219999999
 20
680.3838405
 30
0.0
 11
441.150982000037
 21
680.136880499922
 31
0.0
  0
LINE
  5
253
330
1E
100
AcDbEntity
  8
0
100
AcDbLine
 10
441.0356219999999
 20
680.3838405
 30
0.0
 11
441.653622
 21
679.0608405
 31
0.0
  0
LINE
  5
254
330
1E
100
AcDbEntity
  8
0
100
AcDbLine
 10
441.0356219999999
 20
680.3838405
 30
0.0
 11
441.884136459935
 21
680.779782713517
 31
0.0
  0
LINE
  5
255
330
1E
100
AcDbEntity
  8
0
100
AcDbLine
 10
441.150982000037
 20
680.136880499922
 30
0.0
 11
441.276395195641
 21
679.868234607899
 31
0.0
  0
LINE
  5
256
330
1E
100
AcDbEntity
  8
0
100
AcDbLine
 10
440.8396219999999
 20
680.8038404999999
 30
0.0
 11
441.0356799132119
 21
680.3838675240361
 31
0.0
  0
LINE
  5
257
330
1E
100
AcDbEntity
  8
0
100
AcDbLine
 10
442.0046219999999
 20
683.0378405
 30
0.0
 11
442.0406230382799
 21
682.9606273142469
 31
0.0
  0
LINE
  5
258
330
1E
100
AcDbEntity
  8
0
100
AcDbLine
 10
442.0046219999999
 20
683.0378405
 30
0.0
 11
442.040623038279
 21
682.960627314249
 31
0.0
  0
LINE
  5
259
330
1E
100
AcDbEntity
  8
0
100
AcDbLine
 10
442.066622
 20
682.9048404999999
 30
0.0
 11
444.626622
 21
677.4148405
 31
0.0
  0
LINE
  5
25A
330
1E
100
AcDbEntity
  8
0
100
AcDbLine
 10
440.2896219999999
 20
689.0838405000001
 30
0.0
 11
443.004622
 21
683.2618405
 31
0.0
  0
LINE
  5
25B
330
1E
100
AcDbEntity
  8
0
100
AcDbLine
 10
441.0286219999999
 20
737.1888404999999
 30
0.0
 11
442.5716219999999
 21
733.8808404999999
 31
0.0
  0
LINE
  5
25C
330
1E
100
AcDbEntity
  8
0
100
AcDbLine
 10
445.0026219999999
 20
534.5128405
 30
0.0
 11
445.8026219999999
 21
534.5128405
 31
0.0
  0
LINE
  5
25D
330
1E
100
AcDbEntity
  8
0
100
AcDbLine
 10
445.0026219999999
 20
534.5128405
 30
0.0
 11
446.442622
 21
534.5128405
 31
0.0
  0
LINE
  5
25E
330
1E
100
AcDbEntity
  8
0
100
AcDbLine
 10
445.0026219999999
 20
551.5388405
 30
0.0
 11
446.442622
 21
551.5388405
 31
0.0
  0
LINE
  5
25F
330
1E
100
AcDbEntity
  8
0
100
AcDbLine
 10
444.102622
 20
551.5388405
 30
0.0
 11
445.0026219999999
 21
551.5388405
 31
0.0
  0
LINE
  5
260
330
1E
100
AcDbEntity
  8
0
100
AcDbLine
 10
444.102622
 20
534.5128405
 30
0.0
 11
445.0026219999999
 21
534.5128405
 31
0.0
  0
LINE
  5
261
330
1E
100
AcDbEntity
  8
0
100
AcDbLine
 10
443.802622
 20
534.5128405
 30
0.0
 11
443.802622
 21
551.5388405
 31
0.0
  0
LINE
  5
262
330
1E
100
AcDbEntity
  8
0
100
AcDbLine
 10
443.802622
 20
534.5128405
 30
0.0
 11
444.102622
 21
534.5128405
 31
0.0
  0
LINE
  5
263
330
1E
100
AcDbEntity
  8
0
100
AcDbLine
 10
442.7836219999999
 20
676.6358405
 30
0.0
 11
442.9076219999999
 21
676.3718405
 31
0.0
  0
LINE
  5
264
330
1E
100
AcDbEntity
  8
0
100
AcDbLine
 10
444.844622
 20
672.2168404999999
 30
0.0
 11
445.461622
 21
670.8938405
 31
0.0
  0
LINE
  5
265
330
1E
100
AcDbEntity
  8
0
100
AcDbLine
 10
444.844622
 20
672.2168404999999
 30
0.0
 11
445.554260892371
 21
672.547587805049
 31
0.0
  0
LINE
  5
266
330
1E
100
AcDbEntity
  8
0
100
AcDbLine
 10
444.844622
 20
672.2168404999999
 30
0.0
 11
445.532312095869
 21
672.537357946779
 31
0.0
  0
LINE
  5
267
330
1E
100
AcDbEntity
  8
0
100
AcDbLine
 10
444.3576219999999
 20
672.0778404999999
 30
0.0
 11
444.891622
 21
670.9308405
 31
0.0
  0
LINE
  5
268
330
1E
100
AcDbEntity
  8
0
100
AcDbLine
 10
444.3576219999999
 20
672.0778404999999
 30
0.0
 11
445.0313206993359
 21
672.391836860143
 31
0.0
  0
LINE
  5
269
330
1E
100
AcDbEntity
  8
0
100
AcDbLine
 10
444.891622
 20
670.9308405
 30
0.0
 11
445.1996219999999
 21
670.2698404999999
 31
0.0
  0
LINE
  5
26A
330
1E
100
AcDbEntity
  8
0
100
AcDbLine
 10
444.891622
 20
670.9308405
 30
0.0
 11
445.3455770360009
 21
671.1426694908759
 31
0.0
  0
LINE
  5
26B
330
1E
100
AcDbEntity
  8
0
100
AcDbLine
 10
444.3506219999999
 20
672.0918404999999
 30
0.0
 11
445.1957986626609
 21
672.485759021759
 31
0.0
  0
LINE
  5
26C
330
1E
100
AcDbEntity
  8
0
100
AcDbLine
 10
444.3506219999999
 20
672.0918404999999
 30
0.0
 11
445.005826968476
 21
672.397217333074
 31
0.0
  0
LINE
  5
26D
330
1E
100
AcDbEntity
  8
0
100
AcDbLine
 10
444.039820952892
 20
672.758840499974
 30
0.0
 11
444.3506219999999
 21
672.0918404999999
 31
0.0
  0
LINE
  5
26E
330
1E
100
AcDbEntity
  8
0
100
AcDbLine
 10
443.507622
 20
673.8988405
 30
0.0
 11
444.0426219999999
 21
672.7528405000001
 31
0.0
  0
LINE
  5
26F
330
1E
100
AcDbEntity
  8
0
100
AcDbLine
 10
443.507622
 20
673.8988405
 30
0.0
 11
444.2807490086689
 21
674.2591782398379
 31
0.0
  0
LINE
  5
270
330
1E
100
AcDbEntity
  8
0
100
AcDbLine
 10
443.507622
 20
673.8988405
 30
0.0
 11
444.2807490086689
 21
674.2591782398379
 31
0.0
  0
LINE
  5
271
330
1E
100
AcDbEntity
  8
0
100
AcDbLine
 10
443.507622
 20
673.8988405
 30
0.0
 11
444.039820952892
 21
672.758840499974
 31
0.0
  0
LINE
  5
272
330
1E
100
AcDbEntity
  8
0
100
AcDbLine
 10
443.507622
 20
673.8988405
 30
0.0
 11
444.039820952892
 21
672.758840499974
 31
0.0
  0
LINE
  5
273
330
1E
100
AcDbEntity
  8
0
100
AcDbLine
 10
444.0426219999999
 20
672.7528405000001
 30
0.0
 11
444.3506219999999
 21
672.0918404999999
 31
0.0
  0
LINE
  5
274
330
1E
100
AcDbEntity
  8
0
100
AcDbLine
 10
444.0426219999999
 20
672.7528405000001
 30
0.0
 11
444.8465841594599
 21
673.1277566284459
 31
0.0
  0
LINE
  5
275
330
1E
100
AcDbEntity
  8
0
100
AcDbLine
 10
444.996893118539
 20
672.3930534592749
 30
0.0
 11
445.0414372245179
 21
672.3085718098279
 31
0.0
  0
LINE
  5
276
330
1E
100
AcDbEntity
  8
0
100
AcDbLine
 10
442.9686219999999
 20
676.2398404999999
 30
0.0
 11
444.065780881265
 21
674.1589862554709
 31
0.0
  0
LINE
  5
277
330
1E
100
AcDbEntity
  8
0
100
AcDbLine
 10
443.802622
 20
551.5388405
 30
0.0
 11
445.0026219999999
 21
552.2698404999999
 31
0.0
  0
LINE
  5
278
330
1E
100
AcDbEntity
  8
0
100
AcDbLine
 10
443.802622
 20
551.5388405
 30
0.0
 11
444.102622
 21
551.5388405
 31
0.0
  0
LINE
  5
279
330
1E
100
AcDbEntity
  8
0
100
AcDbLine
 10
443.802622
 20
551.5388405
 30
0.0
 11
443.802622
 21
534.5128405
 31
0.0
  0
LINE
  5
27A
330
1E
100
AcDbEntity
  8
0
100
AcDbLine
 10
445.461622
 20
670.8938405
 30
0.0
 11
445.914562865286
 21
671.1050629233819
 31
0.0
  0
LINE
  5
27B
330
1E
100
AcDbEntity
  8
0
100
AcDbLine
 10
445.1996219999999
 20
670.2698404999999
 30
0.0
 11
445.96589771982
 21
670.627210543532
 31
0.0
  0
LINE
  5
27C
330
1E
100
AcDbEntity
  8
0
100
AcDbLine
 10
445.723084742329
 20
671.015769869353
 30
0.0
 11
447.6078581765059
 21
667.441138275468
 31
0.0
  0
LINE
  5
27D
330
1E
100
AcDbEntity
  8
0
100
AcDbLine
 10
445.0026219999999
 20
552.2698404999999
 30
0.0
 11
452.802622
 21
552.5128405
 31
0.0
  0
LINE
  5
27E
330
1E
100
AcDbEntity
  8
0
100
AcDbLine
 10
441.4396219999999
 20
678.3338405000001
 30
0.0
 11
442.7836219999999
 21
676.6358405
 31
0.0
  0
LINE
  5
27F
330
1E
100
AcDbEntity
  8
0
100
AcDbLine
 10
442.4156219999999
 20
678.6098405
 30
0.0
 11
442.8680699207959
 21
678.820833045846
 31
0.0
  0
LINE
  5
280
330
1E
100
AcDbEntity
  8
0
100
AcDbLine
 10
442.936622
 20
678.6738405
 30
0.0
 11
443.8423587331369
 21
679.0967175840139
 31
0.0
  0
LINE
  5
281
330
1E
100
AcDbEntity
  8
0
100
AcDbLine
 10
442.319622
 20
679.9968405000001
 30
0.0
 11
442.936622
 21
678.6738405
 31
0.0
  0
LINE
  5
282
330
1E
100
AcDbEntity
  8
0
100
AcDbLine
 10
442.319622
 20
679.9968405000001
 30
0.0
 11
443.22551537931
 21
680.4195574326509
 31
0.0
  0
LINE
  5
283
330
1E
100
AcDbEntity
  8
0
100
AcDbLine
 10
442.1841301965689
 20
682.6528405003269
 30
0.0
 11
444.194622
 21
678.3408405
 31
0.0
  0
LINE
  5
284
330
1E
100
AcDbEntity
  8
0
100
AcDbLine
 10
444.194622
 20
678.3408405
 30
0.0
 11
446.9716219999999
 21
672.3878405
 31
0.0
  0
LINE
  5
285
330
1E
100
AcDbEntity
  8
0
100
AcDbLine
 10
442.1841301965669
 20
682.652840500332
 30
0.0
 11
444.194622
 21
678.3408405
 31
0.0
  0
LINE
  5
286
330
1E
100
AcDbEntity
  8
0
100
AcDbLine
 10
444.626622
 20
677.4148405
 30
0.0
 11
447.3426219999999
 21
671.5938405000001
 31
0.0
  0
LINE
  5
287
330
1E
100
AcDbEntity
  8
0
100
AcDbLine
 10
444.626622
 20
677.4148405
 30
0.0
 11
447.2409065449659
 21
671.8118396398209
 31
0.0
  0
LINE
  5
288
330
1E
100
AcDbEntity
  8
0
100
AcDbLine
 10
445.8026219999999
 20
534.5128405
 30
0.0
 11
445.8026219999999
 21
532.1138405
 31
0.0
  0
LINE
  5
289
330
1E
100
AcDbEntity
  8
0
100
AcDbLine
 10
445.8026219999999
 20
532.1138405
 30
0.0
 11
445.8026219999999
 21
534.5128405
 31
0.0
  0
LINE
  5
28A
330
1E
100
AcDbEntity
  8
0
100
AcDbLine
 10
446.442622
 20
534.5128405
 30
0.0
 11
448.302622
 21
534.5128405
 31
0.0
  0
LINE
  5
28B
330
1E
100
AcDbEntity
  8
0
100
AcDbLine
 10
448.302622
 20
534.5128405
 30
0.0
 11
450.4626219999999
 21
534.5128405
 31
0.0
  0
LINE
  5
28C
330
1E
100
AcDbEntity
  8
0
100
AcDbLine
 10
448.227622
 20
664.9628404999999
 30
0.0
 11
448.253138120456
 21
664.908081185313
 31
0.0
  0
LINE
  5
28D
330
1E
100
AcDbEntity
  8
0
100
AcDbLine
 10
448.227622
 20
664.9628404999999
 30
0.0
 11
448.7961857343499
 21
665.2279819765599
 31
0.0
  0
LINE
  5
28E
330
1E
100
AcDbEntity
  8
0
100
AcDbLine
 10
448.227622
 20
664.9628404999999
 30
0.0
 11
448.253106092385
 21
664.9080662494839
 31
0.0
  0
LINE
  5
28F
330
1E
100
AcDbEntity
  8
0
100
AcDbLine
 10
448.2526219999999
 20
664.9078405
 30
0.0
 11
448.7866219999999
 21
663.7618405
 31
0.0
  0
LINE
  5
290
330
1E
100
AcDbEntity
  8
0
100
AcDbLine
 10
448.2526219999999
 20
664.9078405
 30
0.0
 11
448.705246238472
 21
665.118915269045
 31
0.0
  0
LINE
  5
291
330
1E
100
AcDbEntity
  8
0
100
AcDbLine
 10
448.2526219999999
 20
664.9078405
 30
0.0
 11
448.560622
 21
664.2458405
 31
0.0
  0
LINE
  5
292
330
1E
100
AcDbEntity
  8
0
100
AcDbLine
 10
448.009622
 20
665.4278405
 30
0.0
 11
448.7186435330359
 21
665.758691143656
 31
0.0
  0
LINE
  5
293
330
1E
100
AcDbEntity
  8
0
100
AcDbLine
 10
448.009622
 20
665.4278405
 30
0.0
 11
448.55148429744
 21
665.680689647068
 31
0.0
  0
LINE
  5
294
330
1E
100
AcDbEntity
  8
0
100
AcDbLine
 10
447.4756219999999
 20
666.5738405
 30
0.0
 11
448.009622
 21
665.4278405
 31
0.0
  0
LINE
  5
295
330
1E
100
AcDbEntity
  8
0
100
AcDbLine
 10
446.4976219999999
 20
669.8548405
 30
0.0
 11
446.950935952501
 21
670.066120306874
 31
0.0
  0
LINE
  5
296
330
1E
100
AcDbEntity
  8
0
100
AcDbLine
 10
447.019622
 20
669.9188405
 30
0.0
 11
447.9263452953709
 21
670.3414445731319
 31
0.0
  0
LINE
  5
297
330
1E
100
AcDbEntity
  8
0
100
AcDbLine
 10
447.1676219999999
 20
667.2358404999999
 30
0.0
 11
447.701622
 21
666.0898405
 31
0.0
  0
LINE
  5
298
330
1E
100
AcDbEntity
  8
0
100
AcDbLine
 10
447.1676219999999
 20
667.2358404999999
 30
0.0
 11
447.872651151689
 21
667.5646206507599
 31
0.0
  0
LINE
  5
299
330
1E
100
AcDbEntity
  8
0
100
AcDbLine
 10
447.1676219999999
 20
667.2358404999999
 30
0.0
 11
447.4756219999999
 21
666.5738405
 31
0.0
  0
LINE
  5
29A
330
1E
100
AcDbEntity
  8
0
100
AcDbLine
 10
447.1676219999999
 20
667.2358404999999
 30
0.0
 11
447.619320955119
 21
667.4464837765319
 31
0.0
  0
LINE
  5
29B
330
1E
100
AcDbEntity
  8
0
100
AcDbLine
 10
447.701622
 20
666.0898405
 30
0.0
 11
448.009622
 21
665.4278405
 31
0.0
  0
LINE
  5
29C
330
1E
100
AcDbEntity
  8
0
100
AcDbLine
 10
447.701622
 20
666.0898405
 30
0.0
 11
448.4778363403209
 21
666.452045316278
 31
0.0
  0
LINE
  5
29D
330
1E
100
AcDbEntity
  8
0
100
AcDbLine
 10
449.095622
 20
663.0998405
 30
0.0
 11
449.8394734129799
 21
663.446724850976
 31
0.0
  0
LINE
  5
29E
330
1E
100
AcDbEntity
  8
0
100
AcDbLine
 10
448.6936219999999
 20
665.1438405
 30
0.0
 11
449.3106219999999
 21
663.8208405
 31
0.0
  0
LINE
  5
29F
330
1E
100
AcDbEntity
  8
0
100
AcDbLine
 10
448.6936219999999
 20
665.1438405
 30
0.0
 11
449.3154465197109
 21
665.433659429485
 31
0.0
  0
LINE
  5
2A0
330
1E
100
AcDbEntity
  8
0
100
AcDbLine
 10
448.560622
 20
664.2458405
 30
0.0
 11
449.095622
 21
663.0998405
 31
0.0
  0
LINE
  5
2A1
330
1E
100
AcDbEntity
  8
0
100
AcDbLine
 10
448.7866219999999
 20
663.7618405
 30
0.0
 11
449.095622
 21
663.0998405
 31
0.0
  0
LINE
  5
2A2
330
1E
100
AcDbEntity
  8
0
100
AcDbLine
 10
448.7866219999999
 20
663.7618405
 30
0.0
 11
449.2396633782499
 21
663.972993265925
 31
0.0
  0
LINE
  5
2A3
330
1E
100
AcDbEntity
  8
0
100
AcDbLine
 10
449.3106219999999
 20
663.8208405
 30
0.0
 11
450.0676704378919
 21
664.17368436653
 31
0.0
  0
LINE
  5
2A4
330
1E
100
AcDbEntity
  8
0
100
AcDbLine
 10
449.738736660222
 20
663.399747722896
 30
0.0
 11
451.150222080188
 21
660.72274671841
 31
0.0
  0
LINE
  5
2A5
330
1E
100
AcDbEntity
  8
0
100
AcDbLine
 10
448.539120710962
 20
665.6749204280049
 30
0.0
 11
448.794379180268
 21
665.1908012376319
 31
0.0
  0
LINE
  5
2A6
330
1E
100
AcDbEntity
  8
0
100
AcDbLine
 10
448.302622
 20
551.5388405
 30
0.0
 11
450.4626219999999
 21
551.5388405
 31
0.0
  0
LINE
  5
2A7
330
1E
100
AcDbEntity
  8
0
100
AcDbLine
 10
446.442622
 20
551.5388405
 30
0.0
 11
448.302622
 21
551.5388405
 31
0.0
  0
LINE
  5
2A8
330
1E
100
AcDbEntity
  8
0
100
AcDbLine
 10
445.8806219999999
 20
671.1778405
 30
0.0
 11
446.4976219999999
 21
669.8548405
 31
0.0
  0
LINE
  5
2A9
330
1E
100
AcDbEntity
  8
0
100
AcDbLine
 10
445.8806219999999
 20
671.1778405
 30
0.0
 11
446.600735161448
 21
671.5134696348169
 31
0.0
  0
LINE
  5
2AA
330
1E
100
AcDbEntity
  8
0
100
AcDbLine
 10
446.402622
 20
671.2418405000001
 30
0.0
 11
447.019622
 21
669.9188405
 31
0.0
  0
LINE
  5
2AB
330
1E
100
AcDbEntity
  8
0
100
AcDbLine
 10
446.402622
 20
671.2418405000001
 30
0.0
 11
447.309619469353
 21
671.6645723596819
 31
0.0
  0
LINE
  5
2AC
330
1E
100
AcDbEntity
  8
0
100
AcDbLine
 10
447.9263452953709
 20
670.3414445731319
 30
0.0
 11
448.6434259214679
 21
668.8029264730659
 31
0.0
  0
LINE
  5
2AD
330
1E
100
AcDbEntity
  8
0
100
AcDbLine
 10
450.4626219999999
 20
534.5128405
 30
0.0
 11
452.802622
 21
534.5128405
 31
0.0
  0
LINE
  5
2AE
330
1E
100
AcDbEntity
  8
0
100
AcDbLine
 10
450.4506219999999
 20
662.5608405
 30
0.0
 11
451.356593060174
 21
662.9833270043309
 31
0.0
  0
LINE
  5
2AF
330
1E
100
AcDbEntity
  8
0
100
AcDbLine
 10
449.8336219999999
 20
663.8838405
 30
0.0
 11
450.4506219999999
 21
662.5608405
 31
0.0
  0
LINE
  5
2B0
330
1E
100
AcDbEntity
  8
0
100
AcDbLine
 10
449.8336219999999
 20
663.8838405
 30
0.0
 11
450.7396640256599
 21
664.306360098059
 31
0.0
  0
LINE
  5
2B1
330
1E
100
AcDbEntity
  8
0
100
AcDbLine
 10
449.8336219999999
 20
663.8838405
 30
0.0
 11
450.60888686587
 21
664.245374060519
 31
0.0
  0
LINE
  5
2B2
330
1E
100
AcDbEntity
  8
0
100
AcDbLine
 10
450.4626219999999
 20
551.5388405
 30
0.0
 11
452.802622
 21
551.5388405
 31
0.0
  0
LINE
  5
2B3
330
1E
100
AcDbEntity
  8
0
100
AcDbLine
 10
449.747622
 20
666.4338404999999
 30
0.0
 11
452.030622
 21
661.5378405
 31
0.0
  0
LINE
  5
2B4
330
1E
100
AcDbEntity
  8
0
100
AcDbLine
 10
447.3426219999999
 20
671.5938405000001
 30
0.0
 11
449.747622
 21
666.4338404999999
 31
0.0
  0
LINE
  5
2B5
330
1E
100
AcDbEntity
  8
0
100
AcDbLine
 10
451.6686219999999
 20
658.7648405
 30
0.0
 11
452.387233785203
 21
659.099769875895
 31
0.0
  0
LINE
  5
2B6
330
1E
100
AcDbEntity
  8
0
100
AcDbLine
 10
451.134622
 20
659.9108405
 30
0.0
 11
451.6686219999999
 21
658.7648405
 31
0.0
  0
LINE
  5
2B7
330
1E
100
AcDbEntity
  8
0
100
AcDbLine
 10
450.826622
 20
660.5718405
 30
0.0
 11
451.3606219999999
 21
659.4268405
 31
0.0
  0
LINE
  5
2B8
330
1E
100
AcDbEntity
  8
0
100
AcDbLine
 10
450.826622
 20
660.5718405
 30
0.0
 11
451.5295776556749
 21
660.899653705875
 31
0.0
  0
LINE
  5
2B9
330
1E
100
AcDbEntity
  8
0
100
AcDbLine
 10
450.826622
 20
660.5718405
 30
0.0
 11
451.134622
 21
659.9108405
 31
0.0
  0
LINE
  5
2BA
330
1E
100
AcDbEntity
  8
0
100
AcDbLine
 10
450.826622
 20
660.5718405
 30
0.0
 11
451.165117242519
 21
660.729692861992
 31
0.0
  0
LINE
  5
2BB
330
1E
100
AcDbEntity
  8
0
100
AcDbLine
 10
451.3606219999999
 20
659.4268405
 30
0.0
 11
451.6686219999999
 21
658.7648405
 31
0.0
  0
LINE
  5
2BC
330
1E
100
AcDbEntity
  8
0
100
AcDbLine
 10
451.3606219999999
 20
659.4268405
 30
0.0
 11
452.1424250617939
 21
659.7912219601299
 31
0.0
  0
LINE
  5
2BD
330
1E
100
AcDbEntity
  8
0
100
AcDbLine
 10
452.802622
 20
534.5128405
 30
0.0
 11
455.1426219999999
 21
534.5128405
 31
0.0
  0
LINE
  5
2BE
330
1E
100
AcDbEntity
  8
0
100
AcDbLine
 10
452.4676219999999
 20
657.0508405
 30
0.0
 11
452.522893523207
 21
656.932549109211
 31
0.0
  0
LINE
  5
2BF
330
1E
100
AcDbEntity
  8
0
100
AcDbLine
 10
452.6116219999999
 20
656.7418405
 30
0.0
 11
453.1466219999999
 21
655.5958405
 31
0.0
  0
LINE
  5
2C0
330
1E
100
AcDbEntity
  8
0
100
AcDbLine
 10
452.802622
 20
551.5388405
 30
0.0
 11
455.1426219999999
 21
551.5378404999999
 31
0.0
  0
LINE
  5
2C1
330
1E
100
AcDbEntity
  8
0
100
AcDbLine
 10
455.1426219999999
 20
534.5128405
 30
0.0
 11
457.302622
 21
534.5128405
 31
0.0
  0
LINE
  5
2C2
330
1E
100
AcDbEntity
  8
0
100
AcDbLine
 10
453.0457843036669
 20
655.811840499996
 30
0.0
 11
453.5546219999999
 21
654.7198405
 31
0.0
  0
LINE
  5
2C3
330
1E
100
AcDbEntity
  8
0
100
AcDbLine
 10
453.0457843036669
 20
655.811840499996
 30
0.0
 11
453.5546219999999
 21
654.7198405
 31
0.0
  0
LINE
  5
2C4
330
1E
100
AcDbEntity
  8
0
100
AcDbLine
 10
453.5546219999999
 20
654.7198405
 30
0.0
 11
454.264431404857
 21
655.051058788202
 31
0.0
  0
LINE
  5
2C5
330
1E
100
AcDbEntity
  8
0
100
AcDbLine
 10
453.1468542051519
 20
655.595948913664
 30
0.0
 11
453.2466219999999
 21
655.3818405000001
 31
0.0
  0
LINE
  5
2C6
330
1E
100
AcDbEntity
  8
0
100
AcDbLine
 10
453.2466219999999
 20
655.3818405000001
 30
0.0
 11
453.5546219999999
 21
654.7198405
 31
0.0
  0
LINE
  5
2C7
330
1E
100
AcDbEntity
  8
0
100
AcDbLine
 10
453.2466219999999
 20
655.3818405000001
 30
0.0
 11
453.9080000816269
 21
655.6902646053949
 31
0.0
  0
LINE
  5
2C8
330
1E
100
AcDbEntity
  8
0
100
AcDbLine
 10
453.1466219999999
 20
655.5958405
 30
0.0
 11
453.914613067769
 21
655.954405866078
 31
0.0
  0
LINE
  5
2C9
330
1E
100
AcDbEntity
  8
0
100
AcDbLine
 10
453.297622
 20
656.4538405
 30
0.0
 11
454.2045362746749
 21
656.876533584446
 31
0.0
  0
LINE
  5
2CA
330
1E
100
AcDbEntity
  8
0
100
AcDbLine
 10
452.8376219999999
 20
656.2578405
 30
0.0
 11
453.1466219999999
 21
655.5958405
 31
0.0
  0
LINE
  5
2CB
330
1E
100
AcDbEntity
  8
0
100
AcDbLine
 10
452.8376219999999
 20
656.2578405
 30
0.0
 11
453.290583975171
 21
656.468956257871
 31
0.0
  0
LINE
  5
2CC
330
1E
100
AcDbEntity
  8
0
100
AcDbLine
 10
454.7936219999999
 20
653.2468405000001
 30
0.0
 11
455.3276219999999
 21
652.1008404999999
 31
0.0
  0
LINE
  5
2CD
330
1E
100
AcDbEntity
  8
0
100
AcDbLine
 10
454.4856219999999
 20
653.9078405
 30
0.0
 11
455.019622
 21
652.7628405
 31
0.0
  0
LINE
  5
2CE
330
1E
100
AcDbEntity
  8
0
100
AcDbLine
 10
454.4856219999999
 20
653.9078405
 30
0.0
 11
455.20867399849
 21
654.24542438009
 31
0.0
  0
LINE
  5
2CF
330
1E
100
AcDbEntity
  8
0
100
AcDbLine
 10
454.4856219999999
 20
653.9078405
 30
0.0
 11
454.7936219999999
 21
653.2468405000001
 31
0.0
  0
LINE
  5
2D0
330
1E
100
AcDbEntity
  8
0
100
AcDbLine
 10
455.019622
 20
652.7628405
 30
0.0
 11
455.3276219999999
 21
652.1008404999999
 31
0.0
  0
LINE
  5
2D1
330
1E
100
AcDbEntity
  8
0
100
AcDbLine
 10
455.019622
 20
652.7628405
 30
0.0
 11
455.925668702758
 21
653.1851292279819
 31
0.0
  0
LINE
  5
2D2
330
1E
100
AcDbEntity
  8
0
100
AcDbLine
 10
453.7677521243189
 20
655.8858383395
 30
0.0
 11
454.790405471255
 21
654.050140067705
 31
0.0
  0
LINE
  5
2D3
330
1E
100
AcDbEntity
  8
0
100
AcDbLine
 10
455.1426219999999
 20
551.5378404999999
 30
0.0
 11
457.302622
 21
551.5388405
 31
0.0
  0
LINE
  5
2D4
330
1E
100
AcDbEntity
  8
0
100
AcDbLine
 10
452.802622
 20
552.5128405
 30
0.0
 11
460.602622
 21
552.2698404999999
 31
0.0
  0
LINE
  5
2D5
330
1E
100
AcDbEntity
  8
0
100
AcDbLine
 10
452.1596219999999
 20
657.7128404999999
 30
0.0
 11
452.313888666718
 21
657.3817738332239
 31
0.0
  0
LINE
  5
2D6
330
1E
100
AcDbEntity
  8
0
100
AcDbLine
 10
452.1596219999999
 20
657.7128404999999
 30
0.0
 11
452.6520497850019
 21
657.9426220257099
 31
0.0
  0
LINE
  5
2D7
330
1E
100
AcDbEntity
  8
0
100
AcDbLine
 10
452.1596219999999
 20
657.7128404999999
 30
0.0
 11
452.4676219999999
 21
657.0508405
 31
0.0
  0
LINE
  5
2D8
330
1E
100
AcDbEntity
  8
0
100
AcDbLine
 10
452.1596219999999
 20
657.7128404999999
 30
0.0
 11
452.313888666718
 21
657.3817738332239
 31
0.0
  0
LINE
  5
2D9
330
1E
100
AcDbEntity
  8
0
100
AcDbLine
 10
452.3036219999999
 20
657.4038405
 30
0.0
 11
452.8376219999999
 21
656.2578405
 31
0.0
  0
LINE
  5
2DA
330
1E
100
AcDbEntity
  8
0
100
AcDbLine
 10
452.3036219999999
 20
657.4038405
 30
0.0
 11
452.756923083649
 21
657.615114308982
 31
0.0
  0
LINE
  5
2DB
330
1E
100
AcDbEntity
  8
0
100
AcDbLine
 10
452.3036219999999
 20
657.4038405
 30
0.0
 11
452.6116219999999
 21
656.7418405
 31
0.0
  0
LINE
  5
2DC
330
1E
100
AcDbEntity
  8
0
100
AcDbLine
 10
452.0811722787999
 20
658.957121242188
 30
0.0
 11
452.5126219999999
 21
658.1388405
 31
0.0
  0
LINE
  5
2DD
330
1E
100
AcDbEntity
  8
0
100
AcDbLine
 10
452.6816219999999
 20
657.7768405
 30
0.0
 11
453.297622
 21
656.4538405
 31
0.0
  0
LINE
  5
2DE
330
1E
100
AcDbEntity
  8
0
100
AcDbLine
 10
452.6816219999999
 20
657.7768405
 30
0.0
 11
453.587632285557
 21
658.1993452965209
 31
0.0
  0
LINE
  5
2DF
330
1E
100
AcDbEntity
  8
0
100
AcDbLine
 10
452.5126219999999
 20
658.1388405
 30
0.0
 11
452.707552795988
 21
657.7889329517709
 31
0.0
  0
LINE
  5
2E0
330
1E
100
AcDbEntity
  8
0
100
AcDbLine
 10
453.028335255627
 20
659.3985733742441
 30
0.0
 11
453.518746319468
 21
658.347048538759
 31
0.0
  0
LINE
  5
2E1
330
1E
100
AcDbEntity
  8
0
100
AcDbLine
 10
453.4186219999999
 20
658.5608405
 30
0.0
 11
454.4554219999019
 21
656.3384405002099
 31
0.0
  0
LINE
  5
2E2
330
1E
100
AcDbEntity
  8
0
100
AcDbLine
 10
453.4186219999999
 20
658.5608405
 30
0.0
 11
454.4554219999019
 21
656.3384405002111
 31
0.0
  0
LINE
  5
2E3
330
1E
100
AcDbEntity
  8
0
100
AcDbLine
 10
454.097622
 20
657.1058405
 30
0.0
 11
455.8866219999999
 21
653.2688405
 31
0.0
  0
LINE
  5
2E4
330
1E
100
AcDbEntity
  8
0
100
AcDbLine
 10
455.922622
 20
650.8248405
 30
0.0
 11
456.4566219999999
 21
649.6798405
 31
0.0
  0
LINE
  5
2E5
330
1E
100
AcDbEntity
  8
0
100
AcDbLine
 10
455.922622
 20
650.8248405
 30
0.0
 11
456.4500793284779
 21
651.070967857911
 31
0.0
  0
LINE
  5
2E6
330
1E
100
AcDbEntity
  8
0
100
AcDbLine
 10
456.0566219999999
 20
650.5388404999999
 30
0.0
 11
456.590622
 21
649.3928405
 31
0.0
  0
LINE
  5
2E7
330
1E
100
AcDbEntity
  8
0
100
AcDbLine
 10
456.0566219999999
 20
650.5388404999999
 30
0.0
 11
456.8324903668139
 21
650.9010836778839
 31
0.0
  0
LINE
  5
2E8
330
1E
100
AcDbEntity
  8
0
100
AcDbLine
 10
456.0566219999999
 20
650.5388404999999
 30
0.0
 11
456.3646219999999
 21
649.8778405
 31
0.0
  0
LINE
  5
2E9
330
1E
100
AcDbEntity
  8
0
100
AcDbLine
 10
455.3276219999999
 20
652.1008404999999
 30
0.0
 11
456.234314815836
 21
652.523430367282
 31
0.0
  0
LINE
  5
2EA
330
1E
100
AcDbEntity
  8
0
100
AcDbLine
 10
455.763238097236
 20
652.3038717201679
 30
0.0
 11
456.604119591476
 21
650.794460236418
 31
0.0
  0
LINE
  5
2EB
330
1E
100
AcDbEntity
  8
0
100
AcDbLine
 10
456.4566219999999
 20
649.6798405
 30
0.0
 11
456.6095922970539
 21
649.3521177276719
 31
0.0
  0
LINE
  5
2EC
330
1E
100
AcDbEntity
  8
0
100
AcDbLine
 10
456.3646219999999
 20
649.8778405
 30
0.0
 11
456.898622
 21
648.7318404999999
 31
0.0
  0
LINE
  5
2ED
330
1E
100
AcDbEntity
  8
0
100
AcDbLine
 10
456.590622
 20
649.3928405
 30
0.0
 11
456.898622
 21
648.7318404999999
 31
0.0
  0
LINE
  5
2EE
330
1E
100
AcDbEntity
  8
0
100
AcDbLine
 10
456.590622
 20
649.3928405
 30
0.0
 11
457.4566254839639
 21
649.7969436149659
 31
0.0
  0
LINE
  5
2EF
330
1E
100
AcDbEntity
  8
0
100
AcDbLine
 10
456.234314815836
 20
652.523430367282
 30
0.0
 11
456.8292741843319
 21
651.247911513759
 31
0.0
  0
LINE
  5
2F0
330
1E
100
AcDbEntity
  8
0
100
AcDbLine
 10
455.88662199995
 20
653.268840500107
 30
0.0
 11
456.626622
 21
651.6808405
 31
0.0
  0
LINE
  5
2F1
330
1E
100
AcDbEntity
  8
0
100
AcDbLine
 10
455.8866219999999
 20
653.2688405
 30
0.0
 11
457.4296219999999
 21
649.9608405
 31
0.0
  0
LINE
  5
2F2
330
1E
100
AcDbEntity
  8
0
100
AcDbLine
 10
455.2196219999999
 20
657.0648405
 30
0.0
 11
457.0396219999999
 21
653.1618405
 31
0.0
  0
LINE
  5
2F3
330
1E
100
AcDbEntity
  8
0
100
AcDbLine
 10
452.4956970001309
 20
660.5406404997199
 30
0.0
 11
453.4186219999999
 21
658.5608405
 31
0.0
  0
LINE
  5
2F4
330
1E
100
AcDbEntity
  8
0
100
AcDbLine
 10
452.030622
 20
661.5378405
 30
0.0
 11
454.097622
 21
657.1058405
 31
0.0
  0
LINE
  5
2F5
330
1E
100
AcDbEntity
  8
0
100
AcDbLine
 10
453.1226219999999
 20
661.5638404999999
 30
0.0
 11
455.2196219999999
 21
657.0648405
 31
0.0
  0
LINE
  5
2F6
330
1E
100
AcDbEntity
  8
0
100
AcDbLine
 10
450.808622
 20
666.5248404999999
 30
0.0
 11
453.1226219999999
 21
661.5638404999999
 31
0.0
  0
LINE
  5
2F7
330
1E
100
AcDbEntity
  8
0
100
AcDbLine
 10
446.6576219999999
 20
673.0618405
 30
0.0
 11
446.8761538503009
 21
672.5924936851489
 31
0.0
  0
LINE
  5
2F8
330
1E
100
AcDbEntity
  8
0
100
AcDbLine
 10
446.6576219999999
 20
673.0618405
 30
0.0
 11
446.8761538503009
 21
672.5924936851489
 31
0.0
  0
LINE
  5
2F9
330
1E
100
AcDbEntity
  8
0
100
AcDbLine
 10
446.9716219999999
 20
672.3878405
 30
0.0
 11
448.6434259214679
 21
668.8029264730659
 31
0.0
  0
LINE
  5
2FA
330
1E
100
AcDbEntity
  8
0
100
AcDbLine
 10
446.9716219999999
 20
672.3878405
 30
0.0
 11
448.6434259214679
 21
668.8029264730659
 31
0.0
  0
LINE
  5
2FB
330
1E
100
AcDbEntity
  8
0
100
AcDbLine
 10
448.3716219999999
 20
671.7518405
 30
0.0
 11
450.808622
 21
666.5248404999999
 31
0.0
  0
LINE
  5
2FC
330
1E
100
AcDbEntity
  8
0
100
AcDbLine
 10
445.749622
 20
677.3748405
 30
0.0
 11
448.3716219999999
 21
671.7518405
 31
0.0
  0
LINE
  5
2FD
330
1E
100
AcDbEntity
  8
0
100
AcDbLine
 10
443.004622
 20
683.2618405
 30
0.0
 11
445.749622
 21
677.3748405
 31
0.0
  0
LINE
  5
2FE
330
1E
100
AcDbEntity
  8
0
100
AcDbLine
 10
456.899047081222
 20
648.732038621143
 30
0.0
 11
456.960622000056
 21
648.599892447932
 31
0.0
  0
LINE
  5
2FF
330
1E
100
AcDbEntity
  8
0
100
AcDbLine
 10
456.899047081222
 20
648.732038621143
 30
0.0
 11
456.960622000056
 21
648.599892447932
 31
0.0
  0
LINE
  5
300
330
1E
100
AcDbEntity
  8
0
100
AcDbLine
 10
456.8990478413049
 20
648.732038975402
 30
0.0
 11
456.95933311114
 21
648.6026627221609
 31
0.0
  0
LINE
  5
301
330
1E
100
AcDbEntity
  8
0
100
AcDbLine
 10
456.8990478413049
 20
648.732038975402
 30
0.0
 11
456.95933311114
 21
648.6026627221609
 31
0.0
  0
LINE
  5
302
330
1E
100
AcDbEntity
  8
0
100
AcDbLine
 10
456.8991235193779
 20
648.732074247311
 30
0.0
 11
457.1886219999999
 21
648.1098405
 31
0.0
  0
LINE
  5
303
330
1E
100
AcDbEntity
  8
0
100
AcDbLine
 10
457.1886219999999
 20
648.1098405
 30
0.0
 11
457.360586285717
 21
647.7418047857089
 31
0.0
  0
LINE
  5
304
330
1E
100
AcDbEntity
  8
0
100
AcDbLine
 10
457.1886219999999
 20
648.1098405
 30
0.0
 11
457.360586285717
 21
647.7418047857089
 31
0.0
  0
LINE
  5
305
330
1E
100
AcDbEntity
  8
0
100
AcDbLine
 10
456.899146774134
 20
648.732085085848
 30
0.0
 11
457.4146219999999
 21
647.6258405
 31
0.0
  0
LINE
  5
306
330
1E
100
AcDbEntity
  8
0
100
AcDbLine
 10
456.898622
 20
648.7318404999999
 30
0.0
 11
457.8055812460479
 21
649.154554544628
 31
0.0
  0
LINE
  5
307
330
1E
100
AcDbEntity
  8
0
100
AcDbLine
 10
457.302622
 20
534.5128405
 30
0.0
 11
459.162622
 21
534.5128405
 31
0.0
  0
LINE
  5
308
330
1E
100
AcDbEntity
  8
0
100
AcDbLine
 10
457.316639857179
 20
647.8358583570659
 30
0.0
 11
457.3786219999999
 21
647.7028404999999
 31
0.0
  0
LINE
  5
309
330
1E
100
AcDbEntity
  8
0
100
AcDbLine
 10
457.3786219999999
 20
647.7028404999999
 30
0.0
 11
457.6876219999999
 21
647.0418405
 31
0.0
  0
LINE
  5
30A
330
1E
100
AcDbEntity
  8
0
100
AcDbLine
 10
457.4146219999999
 20
647.6258405
 30
0.0
 11
457.7236219999999
 21
646.9648405
 31
0.0
  0
LINE
  5
30B
330
1E
100
AcDbEntity
  8
0
100
AcDbLine
 10
457.4146219999999
 20
647.6258405
 30
0.0
 11
458.281315411362
 21
648.0297875119149
 31
0.0
  0
LINE
  5
30C
330
1E
100
AcDbEntity
  8
0
100
AcDbLine
 10
457.302622
 20
551.5388405
 30
0.0
 11
459.162622
 21
551.5388405
 31
0.0
  0
LINE
  5
30D
330
1E
100
AcDbEntity
  8
0
100
AcDbLine
 10
456.626622
 20
651.6808405
 30
0.0
 11
457.7376219999999
 21
649.2998405
 31
0.0
  0
LINE
  5
30E
330
1E
100
AcDbEntity
  8
0
100
AcDbLine
 10
457.4296219999999
 20
649.9608405
 30
0.0
 11
458.5706219999999
 21
647.5138405
 31
0.0
  0
LINE
  5
30F
330
1E
100
AcDbEntity
  8
0
100
AcDbLine
 10
457.0396219999999
 20
653.1618405
 30
0.0
 11
458.5826219999999
 21
649.8548405
 31
0.0
  0
LINE
  5
310
330
1E
100
AcDbEntity
  8
0
100
AcDbLine
 10
456.607622
 20
703.7808405
 30
0.0
 11
459.321622
 21
697.9588405000001
 31
0.0
  0
LINE
  5
311
330
1E
100
AcDbEntity
  8
0
100
AcDbLine
 10
448.802622
 20
720.5168405000001
 30
0.0
 11
451.239622
 21
715.2908405
 31
0.0
  0
LINE
  5
312
330
1E
100
AcDbEntity
  8
0
100
AcDbLine
 10
451.239622
 20
715.2908405
 30
0.0
 11
453.8616219999999
 21
709.6678405
 31
0.0
  0
LINE
  5
313
330
1E
100
AcDbEntity
  8
0
100
AcDbLine
 10
446.4896219999999
 20
725.4788405
 30
0.0
 11
448.802622
 21
720.5168405000001
 31
0.0
  0
LINE
  5
314
330
1E
100
AcDbEntity
  8
0
100
AcDbLine
 10
444.391622
 20
729.9768405
 30
0.0
 11
446.4896219999999
 21
725.4788405
 31
0.0
  0
LINE
  5
315
330
1E
100
AcDbEntity
  8
0
100
AcDbLine
 10
445.5136219999999
 20
729.9368405
 30
0.0
 11
447.5806219999999
 21
725.5048405
 31
0.0
  0
LINE
  5
316
330
1E
100
AcDbEntity
  8
0
100
AcDbLine
 10
447.5806219999999
 20
725.5048405
 30
0.0
 11
449.862622
 21
720.6088405
 31
0.0
  0
LINE
  5
317
330
1E
100
AcDbEntity
  8
0
100
AcDbLine
 10
449.862622
 20
720.6088405
 30
0.0
 11
452.2696219999999
 21
715.4488405000001
 31
0.0
  0
LINE
  5
318
330
1E
100
AcDbEntity
  8
0
100
AcDbLine
 10
453.8616219999999
 20
709.6678405
 30
0.0
 11
456.607622
 21
703.7808405
 31
0.0
  0
LINE
  5
319
330
1E
100
AcDbEntity
  8
0
100
AcDbLine
 10
452.2696219999999
 20
715.4488405000001
 30
0.0
 11
454.984622
 21
709.6278405
 31
0.0
  0
LINE
  5
31A
330
1E
100
AcDbEntity
  8
0
100
AcDbLine
 10
454.984622
 20
709.6278405
 30
0.0
 11
457.5436219999999
 21
704.1368405
 31
0.0
  0
LINE
  5
31B
330
1E
100
AcDbEntity
  8
0
100
AcDbLine
 10
459.802622
 20
532.1138405
 30
0.0
 11
459.802622
 21
534.5128405
 31
0.0
  0
LINE
  5
31C
330
1E
100
AcDbEntity
  8
0
100
AcDbLine
 10
459.162622
 20
534.5128405
 30
0.0
 11
460.602622
 21
534.5128405
 31
0.0
  0
LINE
  5
31D
330
1E
100
AcDbEntity
  8
0
100
AcDbLine
 10
459.162622
 20
551.5388405
 30
0.0
 11
460.602622
 21
551.5388405
 31
0.0
  0
LINE
  5
31E
330
1E
100
AcDbEntity
  8
0
100
AcDbLine
 10
459.802622
 20
534.5128405
 30
0.0
 11
460.602622
 21
534.5128405
 31
0.0
  0
LINE
  5
31F
330
1E
100
AcDbEntity
  8
0
100
AcDbLine
 10
459.802622
 20
534.5128405
 30
0.0
 11
459.802622
 21
532.1138405
 31
0.0
  0
LINE
  5
320
330
1E
100
AcDbEntity
  8
0
100
AcDbLine
 10
459.802622
 20
533.0555077413789
 30
0.0
 11
460.0486219999999
 21
533.0578404999999
 31
0.0
  0
LINE
  5
321
330
1E
100
AcDbEntity
  8
0
100
AcDbLine
 10
458.3666219999999
 20
621.3478405
 30
0.0
 11
458.8016219999999
 21
621.5598405
 31
0.0
  0
LINE
  5
322
330
1E
100
AcDbEntity
  8
0
100
AcDbLine
 10
458.3666219999999
 20
621.3478405
 30
0.0
 11
458.372090743393
 21
552.3393301276099
 31
0.0
  0
LINE
  5
323
330
1E
100
AcDbEntity
  8
0
100
AcDbLine
 10
458.8016219999999
 20
621.5598405
 30
0.0
 11
460.018622
 21
622.1508405
 31
0.0
  0
LINE
  5
324
330
1E
100
AcDbEntity
  8
0
100
AcDbLine
 10
460.602622
 20
551.5388405
 30
0.0
 11
461.5026219999999
 21
551.5388405
 31
0.0
  0
LINE
  5
325
330
1E
100
AcDbEntity
  8
0
100
AcDbLine
 10
460.602622
 20
534.5128405
 30
0.0
 11
461.5026219999999
 21
534.5128405
 31
0.0
  0
LINE
  5
326
330
1E
100
AcDbEntity
  8
0
100
AcDbLine
 10
460.602622
 20
552.2698404999999
 30
0.0
 11
461.8026219999999
 21
551.5388405
 31
0.0
  0
LINE
  5
327
330
1E
100
AcDbEntity
  8
0
100
AcDbLine
 10
460.0486219999999
 20
533.0578404999999
 30
0.0
 11
461.9376219999999
 21
533.0938405
 31
0.0
  0
LINE
  5
328
330
1E
100
AcDbEntity
  8
0
100
AcDbLine
 10
460.018622
 20
622.1508405
 30
0.0
 11
461.9316219999999
 21
623.0808405
 31
0.0
  0
LINE
  5
329
330
1E
100
AcDbEntity
  8
0
100
AcDbLine
 10
460.2056219999999
 20
644.0068405
 30
0.0
 11
461.4206219999999
 21
643.7678405
 31
0.0
  0
LINE
  5
32A
330
1E
100
AcDbEntity
  8
0
100
AcDbLine
 10
461.8026219999999
 20
534.5128405
 30
0.0
 11
461.8026219999999
 21
551.5388405
 31
0.0
  0
LINE
  5
32B
330
1E
100
AcDbEntity
  8
0
100
AcDbLine
 10
461.5026219999999
 20
551.5388405
 30
0.0
 11
461.8026219999999
 21
551.5388405
 31
0.0
  0
LINE
  5
32C
330
1E
100
AcDbEntity
  8
0
100
AcDbLine
 10
461.8026219999999
 20
551.5388405
 30
0.0
 11
461.8026219999999
 21
534.5128405
 31
0.0
  0
LINE
  5
32D
330
1E
100
AcDbEntity
  8
0
100
AcDbLine
 10
461.5026219999999
 20
534.5128405
 30
0.0
 11
461.8026219999999
 21
534.5128405
 31
0.0
  0
LINE
  5
32E
330
1E
100
AcDbEntity
  8
0
100
AcDbLine
 10
461.9376219999999
 20
533.0938405
 30
0.0
 11
464.3836219999999
 21
533.0688405
 31
0.0
  0
LINE
  5
32F
330
1E
100
AcDbEntity
  8
0
100
AcDbLine
 10
461.9316219999999
 20
623.0808405
 30
0.0
 11
464.4526219999999
 21
624.3068405
 31
0.0
  0
LINE
  5
330
330
1E
100
AcDbEntity
  8
0
100
AcDbLine
 10
461.9316219999999
 20
623.0808405
 30
0.0
 11
463.136099777666
 21
623.666596055501
 31
0.0
  0
LINE
  5
331
330
1E
100
AcDbEntity
  8
0
100
AcDbLine
 10
461.9316219999999
 20
623.0808405
 30
0.0
 11
463.136099777666
 21
623.666596055501
 31
0.0
  0
LINE
  5
332
330
1E
100
AcDbEntity
  8
0
100
AcDbLine
 10
461.757622
 20
622.9968405000001
 30
0.0
 11
462.1056219999999
 21
623.1658405000001
 31
0.0
  0
LINE
  5
333
330
1E
100
AcDbEntity
  8
0
100
AcDbLine
 10
461.757622
 20
622.9968405000001
 30
0.0
 11
461.863497578281
 21
643.987654223723
 31
0.0
  0
LINE
  5
334
330
1E
100
AcDbEntity
  8
0
100
AcDbLine
 10
461.4206219999999
 20
643.7678405
 30
0.0
 11
461.8704938071669
 21
643.9776246681701
 31
0.0
  0
LINE
  5
335
330
1E
100
AcDbEntity
  8
0
100
AcDbLine
 10
457.7236219999999
 20
646.9648405
 30
0.0
 11
458.5607919756369
 21
647.3552426133631
 31
0.0
  0
LINE
  5
336
330
1E
100
AcDbEntity
  8
0
100
AcDbLine
 10
459.0946219999999
 20
646.3888405
 30
0.0
 11
459.2796219999999
 21
645.9918405
 31
0.0
  0
LINE
  5
337
330
1E
100
AcDbEntity
  8
0
100
AcDbLine
 10
459.465622
 20
645.5948405
 30
0.0
 11
459.9896219999999
 21
644.4708405
 31
0.0
  0
LINE
  5
338
330
1E
100
AcDbEntity
  8
0
100
AcDbLine
 10
459.9896219999999
 20
644.4708405
 30
0.0
 11
460.2056219999999
 21
644.0068405
 31
0.0
  0
LINE
  5
339
330
1E
100
AcDbEntity
  8
0
100
AcDbLine
 10
458.5284764996639
 20
647.340172758398
 30
0.0
 11
459.2796219999999
 21
645.9918405
 31
0.0
  0
LINE
  5
33A
330
1E
100
AcDbEntity
  8
0
100
AcDbLine
 10
457.7376219999999
 20
649.2998405
 30
0.0
 11
458.5706219999999
 21
647.5138405
 31
0.0
  0
LINE
  5
33B
330
1E
100
AcDbEntity
  8
0
100
AcDbLine
 10
458.5706219999999
 20
647.5138405
 30
0.0
 11
459.465622
 21
645.5948405
 31
0.0
  0
LINE
  5
33C
330
1E
100
AcDbEntity
  8
0
100
AcDbLine
 10
458.5706219999999
 20
647.5138405
 30
0.0
 11
459.0946219999999
 21
646.3888405
 31
0.0
  0
LINE
  5
33D
330
1E
100
AcDbEntity
  8
0
100
AcDbLine
 10
458.6296205019499
 20
647.387339801406
 30
0.0
 11
459.465622
 21
645.5948405
 31
0.0
  0
LINE
  5
33E
330
1E
100
AcDbEntity
  8
0
100
AcDbLine
 10
458.5826219999999
 20
649.8548405
 30
0.0
 11
459.7856219999999
 21
647.2748404999999
 31
0.0
  0
LINE
  5
33F
330
1E
100
AcDbEntity
  8
0
100
AcDbLine
 10
459.7856219999999
 20
647.2748404999999
 30
0.0
 11
460.6486219999999
 21
645.4218405
 31
0.0
  0
LINE
  5
340
330
1E
100
AcDbEntity
  8
0
100
AcDbLine
 10
460.6486219999999
 20
645.4218405
 30
0.0
 11
461.2046219999999
 21
644.2318404999999
 31
0.0
  0
LINE
  5
341
330
1E
100
AcDbEntity
  8
0
100
AcDbLine
 10
461.2046219999999
 20
644.2318404999999
 30
0.0
 11
461.4206219999999
 21
643.7678405
 31
0.0
  0
LINE
  5
342
330
1E
100
AcDbEntity
  8
0
100
AcDbLine
 10
462.1056219999999
 20
623.1658405000001
 30
0.0
 11
462.8876219999999
 21
623.5458405000001
 31
0.0
  0
LINE
  5
343
330
1E
100
AcDbEntity
  8
0
100
AcDbLine
 10
462.8876219999999
 20
623.5458405000001
 30
0.0
 11
463.136099777666
 21
623.666596055501
 31
0.0
  0
LINE
  5
344
330
1E
100
AcDbEntity
  8
0
100
AcDbLine
 10
462.8876219999999
 20
623.5458405000001
 30
0.0
 11
463.136099777666
 21
623.666596055501
 31
0.0
  0
LINE
  5
345
330
1E
100
AcDbEntity
  8
0
100
AcDbLine
 10
462.036622
 20
692.1368405
 30
0.0
 11
464.781622
 21
686.2488405
 31
0.0
  0
LINE
  5
346
330
1E
100
AcDbEntity
  8
0
100
AcDbLine
 10
459.321622
 20
697.9588405000001
 30
0.0
 11
462.036622
 21
692.1368405
 31
0.0
  0
LINE
  5
347
330
1E
100
AcDbEntity
  8
0
100
AcDbLine
 10
464.3836219999999
 20
533.0688405
 30
0.0
 11
465.2316219999999
 21
533.0702724486659
 31
0.0
  0
LINE
  5
348
330
1E
100
AcDbEntity
  8
0
100
AcDbLine
 10
464.4526219999999
 20
624.3068405
 30
0.0
 11
465.2316219999999
 21
624.685211928572
 31
0.0
  0
LINE
  5
349
330
1E
100
AcDbEntity
  8
0
100
AcDbLine
 10
464.781622
 20
686.2488405
 30
0.0
 11
465.2316219999999
 21
685.28379473341
 31
0.0
  0
LINE
  5
34A
330
1E
100
AcDbEntity
  8
0
100
AcDbLine
 10
462.9116219999999
 20
692.6258404999999
 30
0.0
 11
465.2316219999999
 21
687.651564826435
 31
0.0
  0
LINE
  5
34B
330
1E
100
AcDbEntity
  8
0
100
AcDbLine
 10
462.0406219999999
 20
699.2258405
 30
0.0
 11
465.2316219999999
 21
691.5885907367179
 31
0.0
  0
LINE
  5
34C
330
1E
100
AcDbEntity
  8
0
100
AcDbLine
 10
460.227622
 20
698.3808404999999
 30
0.0
 11
462.9116219999999
 21
692.6258404999999
 31
0.0
  0
LINE
  5
34D
330
1E
100
AcDbEntity
  8
0
100
AcDbLine
 10
457.5436219999999
 20
704.1368405
 30
0.0
 11
460.227622
 21
698.3808404999999
 31
0.0
  0
LINE
  5
34E
330
1E
100
AcDbEntity
  8
0
100
AcDbLine
 10
442.5716219999999
 20
733.8808404999999
 30
0.0
 11
444.391622
 21
729.9768405
 31
0.0
  0
LINE
  5
34F
330
1E
100
AcDbEntity
  8
0
100
AcDbLine
 10
443.7246219999999
 20
733.7738405
 30
0.0
 11
445.5136219999999
 21
729.9368405
 31
0.0
  0
LINE
  5
350
330
1E
100
AcDbEntity
  8
0
100
AcDbLine
 10
442.1826219999999
 20
737.0818405
 30
0.0
 11
443.7246219999999
 21
733.7738405
 31
0.0
  0
LINE
  5
351
330
1E
100
AcDbEntity
  8
0
100
AcDbLine
 10
441.0406219999999
 20
739.5288405
 30
0.0
 11
442.1826219999999
 21
737.0818405
 31
0.0
  0
LINE
  5
352
330
1E
100
AcDbEntity
  8
0
100
AcDbLine
 10
440.1456219999999
 20
741.4468405
 30
0.0
 11
441.0406219999999
 21
739.5288405
 31
0.0
  0
LINE
  5
353
330
1E
100
AcDbEntity
  8
0
100
AcDbLine
 10
439.621622
 20
742.5728405
 30
0.0
 11
440.1456219999999
 21
741.4468405
 31
0.0
  0
LINE
  5
354
330
1E
100
AcDbEntity
  8
0
100
AcDbLine
 10
439.405622
 20
743.0348405
 30
0.0
 11
462.0406219999999
 21
699.2258405
 31
0.0
  0
LINE
  5
355
330
1E
100
AcDbEntity
  8
0
100
AcDbLine
 10
439.405622
 20
743.0348405
 30
0.0
 11
439.621622
 21
742.5728405
 31
0.0
  0
LINE
  5
356
330
1E
100
AcDbEntity
  8
0
100
AcDbLine
 10
406.023622
 20
523.1278405
 30
0.0
 11
411.2656219999999
 21
520.9928405
 31
0.0
  0
LINE
  5
357
330
1E
100
AcDbEntity
  8
0
100
AcDbLine
 10
402.544474402011
 20
523.613070287211
 30
0.0
 11
406.023622
 21
523.1278405
 31
0.0
  0
LINE
  5
358
330
1E
100
AcDbEntity
  8
0
100
AcDbLine
 10
449.3776219999999
 20
469.1138405
 30
0.0
 11
449.3776219999999
 21
466.8808405
 31
0.0
  0
LINE
  5
359
330
1E
100
AcDbEntity
  8
0
100
AcDbLine
 10
397.231622
 20
469.1138405
 30
0.0
 11
449.3776219999999
 21
469.1138405
 31
0.0
  0
LINE
  5
35A
330
1E
100
AcDbEntity
  8
0
100
AcDbLine
 10
397.231622
 20
469.1138405
 30
0.0
 11
491.231622
 21
469.1138405
 31
0.0
  0
LINE
  5
35B
330
1E
100
AcDbEntity
  8
0
100
AcDbLine
 10
465.2316219999999
 20
469.1138405
 30
0.0
 11
465.2316219999999
 21
221.1138404999999
 31
0.0
  0
LINE
  5
35C
330
1E
100
AcDbEntity
  8
0
100
AcDbLine
 10
465.4156219999999
 20
219.1138404999999
 30
0.0
 11
465.865622
 21
219.1138404999999
 31
0.0
  0
LINE
  5
35D
330
1E
100
AcDbEntity
  8
0
100
AcDbLine
 10
465.6126219999999
 20
58.4342405000001
 30
0.0
 11
466.3876219999999
 21
42.3666405000001
 31
0.0
  0
LINE
  5
35E
330
1E
100
AcDbEntity
  8
0
100
AcDbLine
 10
466.061622
 20
0.4666005000001351
 30
0.0
 11
468.5576219999999
 21
2.266870500000139
 31
0.0
  0
LINE
  5
35F
330
1E
100
AcDbEntity
  8
0
100
AcDbLine
 10
466.061622
 20
0.4666005000001351
 30
0.0
 11
468.5576219999999
 21
2.266870500000139
 31
0.0
  0
LINE
  5
361
330
1E
100
AcDbEntity
  8
0
100
AcDbLine
 10
465.865622
 20
219.1138404999999
 30
0.0
 11
466.4126219999999
 21
219.1138404999999
 31
0.0
  0
LINE
  5
363
330
1E
100
AcDbEntity
  8
0
100
AcDbLine
 10
465.4156219999999
 20
221.1138404999999
 30
0.0
 11
465.865622
 21
221.1138404999999
 31
0.0
  0
LINE
  5
364
330
1E
100
AcDbEntity
  8
0
100
AcDbLine
 10
465.4156219999999
 20
1462.613840499999
 30
0.0
 11
465.865622
 21
1462.613840499999
 31
0.0
  0
LINE
  5
365
330
1E
100
AcDbEntity
  8
0
100
AcDbLine
 10
465.865622
 20
1462.613840499999
 30
0.0
 11
466.4126219999999
 21
1462.613840499999
 31
0.0
  0
LINE
  5
366
330
1E
100
AcDbEntity
  8
0
100
AcDbLine
 10
465.865622
 20
221.1138404999999
 30
0.0
 11
466.4126219999999
 21
221.1138404999999
 31
0.0
  0
LINE
  5
367
330
1E
100
AcDbEntity
  8
0
100
AcDbLine
 10
466.231622
 20
220.1138405
 30
0.0
 11
466.4016219999999
 21
220.1138405
 31
0.0
  0
LINE
  5
368
330
1E
100
AcDbEntity
  8
0
100
AcDbLine
 10
465.4156219999999
 20
1464.6138405
 30
0.0
 11
465.865622
 21
1464.6138405
 31
0.0
  0
LINE
  5
369
330
1E
100
AcDbEntity
  8
0
100
AcDbLine
 10
465.865622
 20
1464.6138405
 30
0.0
 11
466.4126219999999
 21
1464.6138405
 31
0.0
  0
LINE
  5
36A
330
1E
100
AcDbEntity
  8
0
100
AcDbLine
 10
465.2316219999999
 20
1462.613840499999
 30
0.0
 11
465.4156219999999
 21
1462.613840499999
 31
0.0
  0
LINE
  5
36B
330
1E
100
AcDbEntity
  8
0
100
AcDbLine
 10
465.2316219999999
 20
532.1138405
 30
0.0
 11
465.2316219999999
 21
1462.613840499999
 31
0.0
  0
LINE
  5
36C
330
1E
100
AcDbEntity
  8
0
100
AcDbLine
 10
465.2316219999999
 20
532.1138405
 30
0.0
 11
465.2316219999999
 21
1462.613840499999
 31
0.0
  0
LINE
  5
36D
330
1E
100
AcDbEntity
  8
0
100
AcDbLine
 10
449.581622
 20
1517.8438405
 30
0.0
 11
453.5156219999999
 21
1514.3938405
 31
0.0
  0
LINE
  5
36E
330
1E
100
AcDbEntity
  8
0
100
AcDbLine
 10
445.2316219999999
 20
1520.7538405
 30
0.0
 11
449.581622
 21
1517.8438405
 31
0.0
  0
LINE
  5
36F
330
1E
100
AcDbEntity
  8
0
100
AcDbLine
 10
440.5386219999999
 20
1523.0738405
 30
0.0
 11
445.2316219999999
 21
1520.7538405
 31
0.0
  0
LINE
  5
370
330
1E
100
AcDbEntity
  8
0
100
AcDbLine
 10
462.186622
 20
1501.4238405
 30
0.0
 11
463.8686219999999
 21
1496.463840499999
 31
0.0
  0
LINE
  5
371
330
1E
100
AcDbEntity
  8
0
100
AcDbLine
 10
459.8726219999999
 20
1506.1138405
 30
0.0
 11
462.186622
 21
1501.4238405
 31
0.0
  0
LINE
  5
372
330
1E
100
AcDbEntity
  8
0
100
AcDbLine
 10
463.8686219999999
 20
1496.463840499999
 30
0.0
 11
464.889622
 21
1491.3338405
 31
0.0
  0
LINE
  5
373
330
1E
100
AcDbEntity
  8
0
100
AcDbLine
 10
456.9656219999999
 20
1510.463840499999
 30
0.0
 11
459.8726219999999
 21
1506.1138405
 31
0.0
  0
LINE
  5
374
330
1E
100
AcDbEntity
  8
0
100
AcDbLine
 10
465.2316219999999
 20
1486.1138405
 30
0.0
 11
465.2316219999999
 21
1464.6138405
 31
0.0
  0
LINE
  5
375
330
1E
100
AcDbEntity
  8
0
100
AcDbLine
 10
453.5156219999999
 20
1514.3938405
 30
0.0
 11
456.9656219999999
 21
1510.463840499999
 31
0.0
  0
LINE
  5
376
330
1E
100
AcDbEntity
  8
0
100
AcDbLine
 10
465.2316219999999
 20
1464.6138405
 30
0.0
 11
465.2316219999999
 21
1486.1138405
 31
0.0
  0
LINE
  5
377
330
1E
100
AcDbEntity
  8
0
100
AcDbLine
 10
465.2316219999999
 20
1464.6138405
 30
0.0
 11
465.4156219999999
 21
1464.6138405
 31
0.0
  0
LINE
  5
378
330
1E
100
AcDbEntity
  8
0
100
AcDbLine
 10
466.3876219999999
 20
42.3666405000001
 30
0.0
 11
467.3746219999999
 21
25.8797405000001
 31
0.0
  0
LINE
  5
379
330
1E
100
AcDbEntity
  8
0
100
AcDbLine
 10
467.3746219999999
 20
25.8797405000001
 30
0.0
 11
468.3496219999999
 21
16.2954405000001
 31
0.0
  0
LINE
  5
37A
330
1E
100
AcDbEntity
  8
0
100
AcDbLine
 10
468.3496219999999
 20
16.2954405000001
 30
0.0
 11
469.464622
 21
9.697140500000131
 31
0.0
  0
LINE
  5
37B
330
1E
100
AcDbEntity
  8
0
100
AcDbLine
 10
468.5576219999999
 20
2.266870500000139
 30
0.0
 11
470.100622
 21
3.832320500000129
 31
0.0
  0
LINE
  5
37C
330
1E
100
AcDbEntity
  8
0
100
AcDbLine
 10
468.3726219999999
 20
181.1138405
 30
0.0
 11
468.841772827732
 21
181.4383277167279
 31
0.0
  0
LINE
  5
37D
330
1E
100
AcDbEntity
  8
0
100
AcDbLine
 10
468.3726219999999
 20
181.1138405
 30
0.0
 11
468.710622
 21
181.3548404999999
 31
0.0
  0
LINE
  5
37E
330
1E
100
AcDbEntity
  8
0
100
AcDbLine
 10
468.3726219999999
 20
181.1138405
 30
0.0
 11
468.841772827732
 21
181.4383277167279
 31
0.0
  0
LINE
  5
37F
330
1E
100
AcDbEntity
  8
0
100
AcDbLine
 10
477.9476219999999
 20
144.6558405
 30
0.0
 11
478.013622
 21
164.2488404999999
 31
0.0
  0
LINE
  5
380
330
1E
100
AcDbEntity
  8
0
100
AcDbLine
 10
477.7466219999999
 20
122.2728405
 30
0.0
 11
477.9476219999999
 21
144.6558405
 31
0.0
  0
LINE
  5
381
330
1E
100
AcDbEntity
  8
0
100
AcDbLine
 10
477.4256219999999
 20
99.9008405000001
 30
0.0
 11
477.7466219999999
 21
122.2728405
 31
0.0
  0
LINE
  5
382
330
1E
100
AcDbEntity
  8
0
100
AcDbLine
 10
476.896622
 20
77.44714050000009
 30
0.0
 11
477.4256219999999
 21
99.9008405000001
 31
0.0
  0
LINE
  5
383
330
1E
100
AcDbEntity
  8
0
100
AcDbLine
 10
476.310622
 20
57.49834050000011
 30
0.0
 11
476.896622
 21
77.44714050000009
 31
0.0
  0
LINE
  5
384
330
1E
100
AcDbEntity
  8
0
100
AcDbLine
 10
475.531622
 20
41.56664050000009
 30
0.0
 11
476.310622
 21
57.49834050000011
 31
0.0
  0
LINE
  5
385
330
1E
100
AcDbEntity
  8
0
100
AcDbLine
 10
474.5386219999999
 20
25.2530405000001
 30
0.0
 11
475.531622
 21
41.56664050000009
 31
0.0
  0
LINE
  5
386
330
1E
100
AcDbEntity
  8
0
100
AcDbLine
 10
473.5626219999999
 20
15.8393405000001
 30
0.0
 11
474.5386219999999
 21
25.2530405000001
 31
0.0
  0
LINE
  5
387
330
1E
100
AcDbEntity
  8
0
100
AcDbLine
 10
472.446622
 20
9.43624050000014
 30
0.0
 11
473.5626219999999
 21
15.8393405000001
 31
0.0
  0
LINE
  5
388
330
1E
100
AcDbEntity
  8
0
100
AcDbLine
 10
471.8736219999999
 20
6.434740500000129
 30
0.0
 11
472.446622
 21
9.43624050000014
 31
0.0
  0
LINE
  5
389
330
1E
100
AcDbEntity
  8
0
100
AcDbLine
 10
470.100622
 20
3.832320500000129
 30
0.0
 11
471.8736219999999
 21
6.434740500000129
 31
0.0
  0
LINE
  5
38A
330
1E
100
AcDbEntity
  8
0
100
AcDbLine
 10
468.710622
 20
181.3548404999999
 30
0.0
 11
491.0646352038965
 21
197.4977235688143
 31
0.0
  0
LINE
  5
38E
330
1E
100
AcDbEntity
  8
0
100
AcDbLine
 10
468.2316219999999
 20
181.1138405
 30
0.0
 11
468.3726219999999
 21
181.1138405
 31
0.0
  0
LINE
  5
38F
330
1E
100
AcDbEntity
  8
0
100
AcDbLine
 10
468.2316219999999
 20
181.1138405
 30
0.0
 11
468.313641677042
 21
181.1701731866829
 31
0.0
  0
LINE
  5
396
330
1E
100
AcDbEntity
  8
0
100
AcDbLine
 10
477.9516219999999
 20
183.8548405
 30
0.0
 11
478.013622
 21
164.2488404999999
 31
0.0
  0
LINE
  5
399
330
1E
100
AcDbEntity
  8
0
100
AcDbLine
 10
477.9181872546569
 20
187.698635992759
 30
0.0
 11
477.9516219999999
 21
183.8548405
 31
0.0
  0
LINE
  5
3B0
330
1E
100
AcDbEntity
  8
0
100
AcDbLine
 10
466.4016219999999
 20
220.1138405
 30
0.0
 11
466.8166219999999
 21
220.1138405
 31
0.0
  0
LINE
  5
3B1
330
1E
100
AcDbEntity
  8
0
100
AcDbLine
 10
466.8166219999999
 20
220.1138405
 30
0.0
 11
467.3216219999999
 21
220.1138405
 31
0.0
  0
LINE
  5
3B2
330
1E
100
AcDbEntity
  8
0
100
AcDbLine
 10
466.4126219999999
 20
219.1138404999999
 30
0.0
 11
467.1836219999999
 21
219.1138404999999
 31
0.0
  0
LINE
  5
3B3
330
1E
100
AcDbEntity
  8
0
100
AcDbLine
 10
467.1836219999999
 20
219.1138404999999
 30
0.0
 11
468.2316219999999
 21
219.1138404999999
 31
0.0
  0
LINE
  5
3B4
330
1E
100
AcDbEntity
  8
0
100
AcDbLine
 10
466.4126219999999
 20
221.1138404999999
 30
0.0
 11
467.1836219999999
 21
221.1138404999999
 31
0.0
  0
LINE
  5
3B5
330
1E
100
AcDbEntity
  8
0
100
AcDbLine
 10
469.2316219999999
 20
219.1138404999999
 30
0.0
 11
489.279622
 21
219.1138404999999
 31
0.0
  0
LINE
  5
3B6
330
1E
100
AcDbEntity
  8
0
100
AcDbLine
 10
467.3216219999999
 20
220.1138405
 30
0.0
 11
468.033622
 21
220.1138405
 31
0.0
  0
LINE
  5
3B7
330
1E
100
AcDbEntity
  8
0
100
AcDbLine
 10
469.0006219999999
 20
220.1138405
 30
0.0
 11
469.9236219999999
 21
220.1138405
 31
0.0
  0
LINE
  5
3B8
330
1E
100
AcDbEntity
  8
0
100
AcDbLine
 10
468.033622
 20
220.1138405
 30
0.0
 11
469.0006219999999
 21
220.1138405
 31
0.0
  0
LINE
  5
3B9
330
1E
100
AcDbEntity
  8
0
100
AcDbLine
 10
468.2316219999999
 20
219.1138404999999
 30
0.0
 11
469.2316219999999
 21
219.1138404999999
 31
0.0
  0
LINE
  5
3BA
330
1E
100
AcDbEntity
  8
0
100
AcDbLine
 10
469.9236219999999
 20
220.1138405
 30
0.0
 11
488.429622
 21
220.1138405
 31
0.0
  0
LINE
  5
3BB
330
1E
100
AcDbEntity
  8
0
100
AcDbLine
 10
469.2316219999999
 20
221.1138404999999
 30
0.0
 11
489.279622
 21
221.1138404999999
 31
0.0
  0
LINE
  5
3BC
330
1E
100
AcDbEntity
  8
0
100
AcDbLine
 10
468.2316219999999
 20
221.1138404999999
 30
0.0
 11
469.2316219999999
 21
221.1138404999999
 31
0.0
  0
LINE
  5
3BD
330
1E
100
AcDbEntity
  8
0
100
AcDbLine
 10
467.1836219999999
 20
221.1138404999999
 30
0.0
 11
468.2316219999999
 21
221.1138404999999
 31
0.0
  0
LINE
  5
3BF
330
1E
100
AcDbEntity
  8
0
100
AcDbLine
 10
489.1416219999999
 20
220.1138405
 30
0.0
 11
489.6466219999999
 21
220.1138405
 31
0.0
  0
LINE
  5
3C0
330
1E
100
AcDbEntity
  8
0
100
AcDbLine
 10
488.429622
 20
220.1138405
 30
0.0
 11
489.1416219999999
 21
220.1138405
 31
0.0
  0
LINE
  5
3C1
330
1E
100
AcDbEntity
  8
0
100
AcDbLine
 10
489.279622
 20
219.1138404999999
 30
0.0
 11
490.0506219999999
 21
219.1138404999999
 31
0.0
  0
LINE
  5
3C2
330
1E
100
AcDbEntity
  8
0
100
AcDbLine
 10
489.279622
 20
221.1138404999999
 30
0.0
 11
490.0506219999999
 21
221.1138404999999
 31
0.0
  0
LINE
  5
3C4
330
1E
100
AcDbEntity
  8
0
100
AcDbLine
 10
490.597622
 20
219.1138404999999
 30
0.0
 11
491.0476219999999
 21
219.1138404999999
 31
0.0
  0
LINE
  5
3C5
330
1E
100
AcDbEntity
  8
0
100
AcDbLine
 10
490.0616219999999
 20
220.1138405
 30
0.0
 11
490.2316219999999
 21
220.1138405
 31
0.0
  0
LINE
  5
3C6
330
1E
100
AcDbEntity
  8
0
100
AcDbLine
 10
490.0506219999999
 20
219.1138404999999
 30
0.0
 11
490.597622
 21
219.1138404999999
 31
0.0
  0
LINE
  5
3C7
330
1E
100
AcDbEntity
  8
0
100
AcDbLine
 10
491.0476219999999
 20
219.1138404999999
 30
0.0
 11
491.231622
 21
219.1138404999999
 31
0.0
  0
LINE
  5
3C8
330
1E
100
AcDbEntity
  8
0
100
AcDbLine
 10
491.0476219999999
 20
221.1138404999999
 30
0.0
 11
491.231622
 21
221.1138404999999
 31
0.0
  0
LINE
  5
3C9
330
1E
100
AcDbEntity
  8
0
100
AcDbLine
 10
490.597622
 20
221.1138404999999
 30
0.0
 11
491.0476219999999
 21
221.1138404999999
 31
0.0
  0
LINE
  5
3CA
330
1E
100
AcDbEntity
  8
0
100
AcDbLine
 10
490.0506219999999
 20
221.1138404999999
 30
0.0
 11
490.597622
 21
221.1138404999999
 31
0.0
  0
LINE
  5
3CB
330
1E
100
AcDbEntity
  8
0
100
AcDbLine
 10
489.6466219999999
 20
220.1138405
 30
0.0
 11
490.0616219999999
 21
220.1138405
 31
0.0
  0
LINE
  5
3CC
330
1E
100
AcDbEntity
  8
0
100
AcDbLine
 10
469.2316219999999
 20
1462.613840499999
 30
0.0
 11
489.279622
 21
1462.613840499999
 31
0.0
  0
LINE
  5
3CD
330
1E
100
AcDbEntity
  8
0
100
AcDbLine
 10
468.2316219999999
 20
1462.613840499999
 30
0.0
 11
469.2316219999999
 21
1462.613840499999
 31
0.0
  0
LINE
  5
3CE
330
1E
100
AcDbEntity
  8
0
100
AcDbLine
 10
466.4126219999999
 20
1462.613840499999
 30
0.0
 11
467.1836219999999
 21
1462.613840499999
 31
0.0
  0
LINE
  5
3CF
330
1E
100
AcDbEntity
  8
0
100
AcDbLine
 10
466.4016219999999
 20
1463.613840499999
 30
0.0
 11
466.8166219999999
 21
1463.613840499999
 31
0.0
  0
LINE
  5
3D0
330
1E
100
AcDbEntity
  8
0
100
AcDbLine
 10
466.8166219999999
 20
1463.613840499999
 30
0.0
 11
467.3216219999999
 21
1463.613840499999
 31
0.0
  0
LINE
  5
3D1
330
1E
100
AcDbEntity
  8
0
100
AcDbLine
 10
466.4126219999999
 20
1464.6138405
 30
0.0
 11
467.1836219999999
 21
1464.6138405
 31
0.0
  0
LINE
  5
3D2
330
1E
100
AcDbEntity
  8
0
100
AcDbLine
 10
469.0006219999999
 20
1463.613840499999
 30
0.0
 11
469.9236219999999
 21
1463.613840499999
 31
0.0
  0
LINE
  5
3D3
330
1E
100
AcDbEntity
  8
0
100
AcDbLine
 10
467.3216219999999
 20
1463.613840499999
 30
0.0
 11
468.033622
 21
1463.613840499999
 31
0.0
  0
LINE
  5
3D4
330
1E
100
AcDbEntity
  8
0
100
AcDbLine
 10
468.033622
 20
1463.613840499999
 30
0.0
 11
469.0006219999999
 21
1463.613840499999
 31
0.0
  0
LINE
  5
3D5
330
1E
100
AcDbEntity
  8
0
100
AcDbLine
 10
469.9236219999999
 20
1463.613840499999
 30
0.0
 11
488.429622
 21
1463.613840499999
 31
0.0
  0
LINE
  5
3D6
330
1E
100
AcDbEntity
  8
0
100
AcDbLine
 10
469.2316219999999
 20
1464.6138405
 30
0.0
 11
489.279622
 21
1464.6138405
 31
0.0
  0
LINE
  5
3D7
330
1E
100
AcDbEntity
  8
0
100
AcDbLine
 10
468.2316219999999
 20
1464.6138405
 30
0.0
 11
469.2316219999999
 21
1464.6138405
 31
0.0
  0
LINE
  5
3D8
330
1E
100
AcDbEntity
  8
0
100
AcDbLine
 10
467.1836219999999
 20
1464.6138405
 30
0.0
 11
468.2316219999999
 21
1464.6138405
 31
0.0
  0
LINE
  5
3D9
330
1E
100
AcDbEntity
  8
0
100
AcDbLine
 10
467.1836219999999
 20
1462.613840499999
 30
0.0
 11
468.2316219999999
 21
1462.613840499999
 31
0.0
  0
LINE
  5
3DA
330
1E
100
AcDbEntity
  8
0
100
AcDbLine
 10
491.231622
 20
469.1138405
 30
0.0
 11
491.231622
 21
469.5138405
 31
0.0
  0
LINE
  5
3DB
330
1E
100
AcDbEntity
  8
0
100
AcDbLine
 10
491.231622
 20
469.5138405
 30
0.0
 11
491.231622
 21
469.1138405
 31
0.0
  0
LINE
  5
3DC
330
1E
100
AcDbEntity
  8
0
100
AcDbLine
 10
491.231622
 20
469.5138405
 30
0.0
 11
491.231622
 21
470.7138405
 31
0.0
  0
LINE
  5
3DD
330
1E
100
AcDbEntity
  8
0
100
AcDbLine
 10
491.231622
 20
470.7138405
 30
0.0
 11
491.231622
 21
469.5138405
 31
0.0
  0
LINE
  5
3DE
330
1E
100
AcDbEntity
  8
0
100
AcDbLine
 10
491.231622
 20
470.7138405
 30
0.0
 11
491.231622
 21
472.1138405
 31
0.0
  0
LINE
  5
3DF
330
1E
100
AcDbEntity
  8
0
100
AcDbLine
 10
491.231622
 20
472.1138405
 30
0.0
 11
491.231622
 21
470.7138405
 31
0.0
  0
LINE
  5
3E0
330
1E
100
AcDbEntity
  8
0
100
AcDbLine
 10
491.231622
 20
472.1138405
 30
0.0
 11
491.231622
 21
529.1138405
 31
0.0
  0
LINE
  5
3E1
330
1E
100
AcDbEntity
  8
0
100
AcDbLine
 10
491.231622
 20
529.1138405
 30
0.0
 11
491.231622
 21
472.1138405
 31
0.0
  0
LINE
  5
3E2
330
1E
100
AcDbEntity
  8
0
100
AcDbLine
 10
491.231622
 20
529.1138405
 30
0.0
 11
491.231622
 21
530.5138405
 31
0.0
  0
LINE
  5
3E3
330
1E
100
AcDbEntity
  8
0
100
AcDbLine
 10
491.231622
 20
530.5138405
 30
0.0
 11
491.231622
 21
529.1138405
 31
0.0
  0
LINE
  5
3E4
330
1E
100
AcDbEntity
  8
0
100
AcDbLine
 10
491.231622
 20
530.5138405
 30
0.0
 11
491.231622
 21
531.7138405
 31
0.0
  0
LINE
  5
3E5
330
1E
100
AcDbEntity
  8
0
100
AcDbLine
 10
491.231622
 20
531.7138405
 30
0.0
 11
491.231622
 21
530.5138405
 31
0.0
  0
LINE
  5
3E6
330
1E
100
AcDbEntity
  8
0
100
AcDbLine
 10
491.231622
 20
531.7138405
 30
0.0
 11
491.231622
 21
532.1138405
 31
0.0
  0
LINE
  5
3E7
330
1E
100
AcDbEntity
  8
0
100
AcDbLine
 10
491.231622
 20
532.1138405
 30
0.0
 11
491.231622
 21
531.7138405
 31
0.0
  0
LINE
  5
3E8
330
1E
100
AcDbEntity
  8
0
100
AcDbLine
 10
491.0476219999999
 20
1462.613840499999
 30
0.0
 11
491.231622
 21
1462.613840499999
 31
0.0
  0
LINE
  5
3E9
330
1E
100
AcDbEntity
  8
0
100
AcDbLine
 10
490.597622
 20
1462.613840499999
 30
0.0
 11
491.0476219999999
 21
1462.613840499999
 31
0.0
  0
LINE
  5
3EA
330
1E
100
AcDbEntity
  8
0
100
AcDbLine
 10
490.0506219999999
 20
1462.613840499999
 30
0.0
 11
490.597622
 21
1462.613840499999
 31
0.0
  0
LINE
  5
3EB
330
1E
100
AcDbEntity
  8
0
100
AcDbLine
 10
489.1416219999999
 20
1463.613840499999
 30
0.0
 11
489.6466219999999
 21
1463.613840499999
 31
0.0
  0
LINE
  5
3EC
330
1E
100
AcDbEntity
  8
0
100
AcDbLine
 10
488.429622
 20
1463.613840499999
 30
0.0
 11
489.1416219999999
 21
1463.613840499999
 31
0.0
  0
LINE
  5
3ED
330
1E
100
AcDbEntity
  8
0
100
AcDbLine
 10
490.0616219999999
 20
1463.613840499999
 30
0.0
 11
490.2316219999999
 21
1463.613840499999
 31
0.0
  0
LINE
  5
3EE
330
1E
100
AcDbEntity
  8
0
100
AcDbLine
 10
489.6466219999999
 20
1463.613840499999
 30
0.0
 11
490.0616219999999
 21
1463.613840499999
 31
0.0
  0
LINE
  5
3EF
330
1E
100
AcDbEntity
  8
0
100
AcDbLine
 10
491.0476219999999
 20
1464.6138405
 30
0.0
 11
491.231622
 21
1464.6138405
 31
0.0
  0
LINE
  5
3F0
330
1E
100
AcDbEntity
  8
0
100
AcDbLine
 10
490.597622
 20
1464.6138405
 30
0.0
 11
491.0476219999999
 21
1464.6138405
 31
0.0
  0
LINE
  5
3F1
330
1E
100
AcDbEntity
  8
0
100
AcDbLine
 10
490.0506219999999
 20
1464.6138405
 30
0.0
 11
490.597622
 21
1464.6138405
 31
0.0
  0
LINE
  5
3F2
330
1E
100
AcDbEntity
  8
0
100
AcDbLine
 10
489.279622
 20
1464.6138405
 30
0.0
 11
490.0506219999999
 21
1464.6138405
 31
0.0
  0
LINE
  5
3F3
330
1E
100
AcDbEntity
  8
0
100
AcDbLine
 10
489.279622
 20
1462.613840499999
 30
0.0
 11
490.0506219999999
 21
1462.613840499999
 31
0.0
  0
LINE
  5
3F4
330
1E
100
AcDbEntity
  8
0
100
AcDbLine
 10
486.2076219999999
 20
1511.3738405
 30
0.0
 11
488.9826219999999
 21
1503.193840499999
 31
0.0
  0
LINE
  5
3F5
330
1E
100
AcDbEntity
  8
0
100
AcDbLine
 10
491.231622
 20
221.1138404999999
 30
0.0
 11
491.231622
 21
1462.613840499999
 31
0.0
  0
LINE
  5
3F6
330
1E
100
AcDbEntity
  8
0
100
AcDbLine
 10
466.231622
 20
1463.613840499999
 30
0.0
 11
466.4016219999999
 21
1463.613840499999
 31
0.0
  0
LINE
  5
3F7
330
1E
100
AcDbEntity
  8
0
100
AcDbLine
 10
215.244622
 20
1526.403840499999
 30
0.0
 11
216.818622
 21
1526.9838405
 31
0.0
  0
LINE
  5
3F8
330
1E
100
AcDbEntity
  8
0
100
AcDbLine
 10
213.081622
 20
1527.6038405
 30
0.0
 11
214.662622
 21
1527.3438405
 31
0.0
  0
LINE
  5
3F9
330
1E
100
AcDbEntity
  8
0
100
AcDbLine
 10
211.068622
 20
1527.943840499999
 30
0.0
 11
213.081622
 21
1527.6038405
 31
0.0
  0
LINE
  5
3FA
330
1E
100
AcDbEntity
  8
0
100
AcDbLine
 10
208.970622
 20
1528.2838405
 30
0.0
 11
211.068622
 21
1527.943840499999
 31
0.0
  0
LINE
  5
3FB
330
1E
100
AcDbEntity
  8
0
100
AcDbLine
 10
214.662622
 20
1527.3438405
 30
0.0
 11
215.812622
 21
1527.1538405
 31
0.0
  0
LINE
  5
3FC
330
1E
100
AcDbEntity
  8
0
100
AcDbLine
 10
215.812622
 20
1527.1538405
 30
0.0
 11
216.559622
 21
1527.0338405
 31
0.0
  0
LINE
  5
3FD
330
1E
100
AcDbEntity
  8
0
100
AcDbLine
 10
216.559622
 20
1527.0338405
 30
0.0
 11
216.818622
 21
1526.9838405
 31
0.0
  0
LINE
  5
3FE
330
1E
100
AcDbEntity
  8
0
100
AcDbLine
 10
471.9006219999999
 20
1532.7838405
 30
0.0
 11
477.5926219999999
 21
1526.2938405
 31
0.0
  0
LINE
  5
3FF
330
1E
100
AcDbEntity
  8
0
100
AcDbLine
 10
216.818622
 20
1526.9838405
 30
0.0
 11
219.130622
 21
1540.963840499999
 31
0.0
  0
LINE
  5
400
330
1E
100
AcDbEntity
  8
0
100
AcDbLine
 10
216.9746219999999
 20
1541.3238405
 30
0.0
 11
218.124622
 21
1541.133840499999
 31
0.0
  0
LINE
  5
401
330
1E
100
AcDbEntity
  8
0
100
AcDbLine
 10
218.124622
 20
1541.133840499999
 30
0.0
 11
218.8726219999999
 21
1541.0038405
 31
0.0
  0
LINE
  5
402
330
1E
100
AcDbEntity
  8
0
100
AcDbLine
 10
218.8726219999999
 20
1541.0038405
 30
0.0
 11
219.130622
 21
1540.963840499999
 31
0.0
  0
LINE
  5
403
330
1E
100
AcDbEntity
  8
0
100
AcDbLine
 10
214.251622
 20
1526.5638405
 30
0.0
 11
214.989622
 21
1526.443840499999
 31
0.0
  0
LINE
  5
404
330
1E
100
AcDbEntity
  8
0
100
AcDbLine
 10
214.989622
 20
1526.443840499999
 30
0.0
 11
215.244622
 21
1526.403840499999
 31
0.0
  0
LINE
  5
405
330
1E
100
AcDbEntity
  8
0
100
AcDbLine
 10
208.5835090524319
 20
1527.506139245009
 30
0.0
 11
209.5716219999999
 21
1527.3438405
 31
0.0
  0
LINE
  5
406
330
1E
100
AcDbEntity
  8
0
100
AcDbLine
 10
215.393622
 20
1541.5838405
 30
0.0
 11
216.9746219999999
 21
1541.3238405
 31
0.0
  0
LINE
  5
407
330
1E
100
AcDbEntity
  8
0
100
AcDbLine
 10
117.860622
 20
1541.5038405
 30
0.0
 11
118.0239696172909
 21
1542.490941132099
 31
0.0
  0
LINE
  5
408
330
1E
100
AcDbEntity
  8
0
100
AcDbLine
 10
117.504622
 20
1541.5638405
 30
0.0
 11
117.860622
 21
1541.5038405
 31
0.0
  0
LINE
  5
409
330
1E
100
AcDbEntity
  8
0
100
AcDbLine
 10
116.4296219999999
 20
1541.7338405
 30
0.0
 11
116.8736219999999
 21
1541.6638405
 31
0.0
  0
LINE
  5
40B
330
1E
100
AcDbEntity
  8
0
100
AcDbLine
 10
115.393622
 20
1541.903840499999
 30
0.0
 11
116.4296219999999
 21
1541.7338405
 31
0.0
  0
LINE
  5
40D
330
1E
100
AcDbEntity
  8
0
100
AcDbLine
 10
114.9377820000679
 20
1541.98084049999
 30
0.0
 11
115.393622
 21
1541.903840499999
 31
0.0
  0
LINE
  5
40E
330
1E
100
AcDbEntity
  8
0
100
AcDbLine
 10
114.3576219999999
 20
1542.0838405
 30
0.0
 11
115.393622
 21
1541.903840499999
 31
0.0
  0
LINE
  5
410
330
1E
100
AcDbEntity
  8
0
100
AcDbLine
 10
113.913622
 20
1542.1538405
 30
0.0
 11
115.393622
 21
1541.903840499999
 31
0.0
  0
LINE
  5
411
330
1E
100
AcDbEntity
  8
0
100
AcDbLine
 10
113.913622
 20
1542.1538405
 30
0.0
 11
114.3576219999999
 21
1542.0838405
 31
0.0
  0
LINE
  5
412
330
1E
100
AcDbEntity
  8
0
100
AcDbLine
 10
113.913622
 20
1542.1538405
 30
0.0
 11
114.077980073794
 21
1543.14400993539
 31
0.0
  0
LINE
  5
413
330
1E
100
AcDbEntity
  8
0
100
AcDbLine
 10
114.9377820000679
 20
1541.98084049999
 30
0.0
 11
115.393622
 21
1541.903840499999
 31
0.0
  0
LINE
  5
414
330
1E
100
AcDbEntity
  8
0
100
AcDbLine
 10
118.02395103677
 20
1542.49082885103
 30
0.0
 11
128.8765705787109
 21
1540.69457270878
 31
0.0
  0
LINE
  5
415
330
1E
100
AcDbEntity
  8
0
100
AcDbLine
 10
117.037492543875
 20
1542.65410114857
 30
0.0
 11
128.8765705787109
 21
1540.69457270878
 31
0.0
  0
LINE
  5
416
330
1E
100
AcDbEntity
  8
0
100
AcDbLine
 10
117.037492543875
 20
1542.65410114857
 30
0.0
 11
128.8765705787109
 21
1540.69457270878
 31
0.0
  0
LINE
  5
417
330
1E
100
AcDbEntity
  8
0
100
AcDbLine
 10
118.02395103677
 20
1542.49082885103
 30
0.0
 11
128.8765705787109
 21
1540.69457270878
 31
0.0
  0
LINE
  5
418
330
1E
100
AcDbEntity
  8
0
100
AcDbLine
 10
218.548622
 20
1541.903840499999
 30
0.0
 11
219.130622
 21
1540.963840499999
 31
0.0
  0
LINE
  5
419
330
1E
100
AcDbEntity
  8
0
100
AcDbLine
 10
213.380622
 20
1541.9138405
 30
0.0
 11
215.393622
 21
1541.5838405
 31
0.0
  0
LINE
  5
41A
330
1E
100
AcDbEntity
  8
0
100
AcDbLine
 10
209.068622
 20
1542.633840499999
 30
0.0
 11
211.282622
 21
1542.2638405
 31
0.0
  0
LINE
  5
41B
330
1E
100
AcDbEntity
  8
0
100
AcDbLine
 10
211.282622
 20
1542.2638405
 30
0.0
 11
213.380622
 21
1541.9138405
 31
0.0
  0
LINE
  5
41C
330
1E
100
AcDbEntity
  8
0
100
AcDbLine
 10
116.802009096751
 20
1541.67513082258
 30
0.0
 11
117.504622
 21
1541.5638405
 31
0.0
  0
LINE
  5
41D
330
1E
100
AcDbEntity
  8
0
100
AcDbLine
 10
112.8876219999999
 20
1542.323840499999
 30
0.0
 11
114.9377820000679
 21
1541.98084049999
 31
0.0
  0
LINE
  5
41E
330
1E
100
AcDbEntity
  8
0
100
AcDbLine
 10
108.157622
 20
1544.1238405
 30
0.0
 11
205.316622
 21
1528.0438405
 31
0.0
  0
LINE
  5
41F
330
1E
100
AcDbEntity
  8
0
100
AcDbLine
 10
113.0519393199379
 20
1543.31376441523
 30
0.0
 11
114.07796889116
 21
1543.143942566009
 31
0.0
  0
LINE
  5
420
330
1E
100
AcDbEntity
  8
0
100
AcDbLine
 10
213.788622
 20
1544.3838405
 30
0.0
 11
218.548622
 21
1541.903840499999
 31
0.0
  0
LINE
  5
421
330
1E
100
AcDbEntity
  8
0
100
AcDbLine
 10
113.0519393199379
 20
1543.31376441523
 30
0.0
 11
114.07796889116
 21
1543.143942566009
 31
0.0
  0
LINE
  5
422
330
1E
100
AcDbEntity
  8
0
100
AcDbLine
 10
108.293622
 20
1544.9438405
 30
0.0
 11
206.7566219999999
 21
1528.6538405
 31
0.0
  0
LINE
  5
423
330
1E
100
AcDbEntity
  8
0
100
AcDbLine
 10
110.519622
 20
1542.7138405
 30
0.0
 11
112.8876219999999
 21
1542.323840499999
 31
0.0
  0
LINE
  5
424
330
1E
100
AcDbEntity
  8
0
100
AcDbLine
 10
107.9946219999999
 20
1543.1338405
 30
0.0
 11
110.519622
 21
1542.7138405
 31
0.0
  0
LINE
  5
425
330
1E
100
AcDbEntity
  8
0
100
AcDbLine
 10
110.6056219999999
 20
1558.913840499999
 30
0.0
 11
209.068622
 21
1542.633840499999
 31
0.0
  0
LINE
  5
426
330
1E
100
AcDbEntity
  8
0
100
AcDbLine
 10
132.9486219999999
 20
1565.3538405
 30
0.0
 11
133.3676219999999
 21
1565.2838405
 31
0.0
  0
LINE
  5
427
330
1E
100
AcDbEntity
  8
0
100
AcDbLine
 10
132.505622
 20
1565.433840499999
 30
0.0
 11
132.9486219999999
 21
1565.3538405
 31
0.0
  0
LINE
  5
428
330
1E
100
AcDbEntity
  8
0
100
AcDbLine
 10
112.237622000001
 20
1568.7838405
 30
0.0
 11
134.086622
 21
1565.173840499999
 31
0.0
  0
LINE
  5
429
330
1E
100
AcDbEntity
  8
0
100
AcDbLine
 10
132.671546936811
 20
1565.39913925633
 30
0.0
 11
133.3676219999999
 21
1565.2838405
 31
0.0
  0
LINE
  5
42A
330
1E
100
AcDbEntity
  8
0
100
AcDbLine
 10
112.237622
 20
1568.7838405
 30
0.0
 11
132.505622
 21
1565.433840499999
 31
0.0
  0
LINE
  5
42B
330
1E
100
AcDbEntity
  8
0
100
AcDbLine
 10
112.237622
 20
1568.7838405
 30
0.0
 11
134.086622
 21
1565.173840499999
 31
0.0
  0
LINE
  5
42C
330
1E
100
AcDbEntity
  8
0
100
AcDbLine
 10
134.086622
 20
1565.173840499999
 30
0.0
 11
134.316622
 21
1565.133840499999
 31
0.0
  0
LINE
  5
42D
330
1E
100
AcDbEntity
  8
0
100
AcDbLine
 10
134.086622
 20
1565.173840499999
 30
0.0
 11
134.316622
 21
1565.133840499999
 31
0.0
  0
LINE
  5
42E
330
1E
100
AcDbEntity
  8
0
100
AcDbLine
 10
134.5176219999999
 20
1565.0938405
 30
0.0
 11
155.9426219999999
 21
1560.7138405
 31
0.0
  0
LINE
  5
42F
330
1E
100
AcDbEntity
  8
0
100
AcDbLine
 10
198.648427936075
 20
1549.60015610012
 30
0.0
 11
204.0276219999999
 21
1555.9238405
 31
0.0
  0
LINE
  5
430
330
1E
100
AcDbEntity
  8
0
100
AcDbLine
 10
442.3136219999999
 20
1549.8638405
 30
0.0
 11
450.4886219999999
 21
1547.0938405
 31
0.0
  0
LINE
  5
431
330
1E
100
AcDbEntity
  8
0
100
AcDbLine
 10
205.4356219999999
 20
1547.4538405
 30
0.0
 11
213.788622
 21
1544.3838405
 31
0.0
  0
LINE
  5
432
330
1E
100
AcDbEntity
  8
0
100
AcDbLine
 10
204.0276219999999
 20
1555.9238405
 30
0.0
 11
206.967622
 21
1559.5138405
 31
0.0
  0
LINE
  5
433
330
1E
100
AcDbEntity
  8
0
100
AcDbLine
 10
194.2096219999999
 20
1551.0038405
 30
0.0
 11
205.4356219999999
 21
1547.4538405
 31
0.0
  0
LINE
  5
434
330
1E
100
AcDbEntity
  8
0
100
AcDbLine
 10
178.669622
 20
1555.2638405
 30
0.0
 11
194.2096219999999
 21
1551.0038405
 31
0.0
  0
LINE
  5
435
330
1E
100
AcDbEntity
  8
0
100
AcDbLine
 10
206.967622
 20
1559.5138405
 30
0.0
 11
211.183622
 21
1563.8638405
 31
0.0
  0
LINE
  5
436
330
1E
100
AcDbEntity
  8
0
100
AcDbLine
 10
211.183622
 20
1563.8638405
 30
0.0
 11
214.170622
 21
1565.5138405
 31
0.0
  0
LINE
  5
437
330
1E
100
AcDbEntity
  8
0
100
AcDbLine
 10
209.89639079681
 20
1562.535696350599
 30
0.0
 11
211.183622
 21
1563.8638405
 31
0.0
  0
LINE
  5
438
330
1E
100
AcDbEntity
  8
0
100
AcDbLine
 10
209.89639079681
 20
1562.535696350599
 30
0.0
 11
211.183622
 21
1563.8638405
 31
0.0
  0
LINE
  5
439
330
1E
100
AcDbEntity
  8
0
100
AcDbLine
 10
168.7436219999999
 20
1557.7438405
 30
0.0
 11
178.669622
 21
1555.2638405
 31
0.0
  0
LINE
  5
43A
330
1E
100
AcDbEntity
  8
0
100
AcDbLine
 10
155.9426219999999
 20
1560.7138405
 30
0.0
 11
168.7436219999999
 21
1557.7438405
 31
0.0
  0
LINE
  5
43B
330
1E
100
AcDbEntity
  8
0
100
AcDbLine
 10
168.949622
 20
1579.8938405
 30
0.0
 11
175.7616219999999
 21
1587.043840499999
 31
0.0
  0
LINE
  5
43C
330
1E
100
AcDbEntity
  8
0
100
AcDbLine
 10
214.170622
 20
1565.5138405
 30
0.0
 11
217.851622
 21
1566.633840499999
 31
0.0
  0
LINE
  5
43D
330
1E
100
AcDbEntity
  8
0
100
AcDbLine
 10
217.851622
 20
1566.633840499999
 30
0.0
 11
221.187622
 21
1567.0538405
 31
0.0
  0
LINE
  5
440
330
1E
100
AcDbEntity
  8
0
100
AcDbLine
 10
175.7616219999999
 20
1587.043840499999
 30
0.0
 11
185.574622
 21
1593.913840499999
 31
0.0
  0
LINE
  5
441
330
1E
100
AcDbEntity
  8
0
100
AcDbLine
 10
204.199622
 20
1596.943840499999
 30
0.0
 11
216.491622
 21
1594.9438405
 31
0.0
  0
LINE
  5
442
330
1E
100
AcDbEntity
  8
0
100
AcDbLine
 10
230.336622
 20
1592.5138405
 30
0.0
 11
442.3136219999999
 21
1549.8638405
 31
0.0
  0
LINE
  5
443
330
1E
100
AcDbEntity
  8
0
100
AcDbLine
 10
134.465622
 20
1565.103840499999
 30
0.0
 11
134.5176219999999
 21
1565.0938405
 31
0.0
  0
LINE
  5
444
330
1E
100
AcDbEntity
  8
0
100
AcDbLine
 10
134.316622
 20
1565.133840499999
 30
0.0
 11
134.465622
 21
1565.103840499999
 31
0.0
  0
LINE
  5
445
330
1E
100
AcDbEntity
  8
0
100
AcDbLine
 10
105.468622
 20
1543.5538405
 30
0.0
 11
107.9946219999999
 21
1543.1338405
 31
0.0
  0
LINE
  5
44A
330
1E
100
AcDbEntity
  8
0
100
AcDbLine
 10
168.949622
 20
1579.8938405
 30
0.0
 11
155.9426219999999
 21
1560.7138405
 31
0.0
  0
LINE
  5
44B
330
1E
100
AcDbEntity
  8
0
100
AcDbLine
 10
195.876622
 20
1597.133840499999
 30
0.0
 11
204.199622
 21
1596.943840499999
 31
0.0
  0
LINE
  5
44C
330
1E
100
AcDbEntity
  8
0
100
AcDbLine
 10
185.574622
 20
1593.913840499999
 30
0.0
 11
195.876622
 21
1597.133840499999
 31
0.0
  0
LINE
  5
44D
330
1E
100
AcDbEntity
  8
0
100
AcDbLine
 10
216.491622
 20
1594.9438405
 30
0.0
 11
230.336622
 21
1592.5138405
 31
0.0
  0
LINE
  5
44E
330
1E
100
AcDbEntity
  8
0
100
AcDbLine
 10
221.187622
 20
1567.0538405
 30
0.0
 11
440.5386219999999
 21
1523.0738405
 31
0.0
  0
LINE
  5
44F
330
1E
100
AcDbEntity
  8
0
100
AcDbLine
 10
464.889622
 20
1491.3338405
 30
0.0
 11
465.2316219999999
 21
1486.1138405
 31
0.0
  0
LINE
  5
450
330
1E
100
AcDbEntity
  8
0
100
AcDbLine
 10
491.231622
 20
1464.6138405
 30
0.0
 11
491.1118914751341
 21
1494.481329197354
 31
0.0
  0
LINE
  5
451
330
1E
100
AcDbEntity
  8
0
100
AcDbLine
 10
491.1118914751341
 20
1494.481329197354
 30
0.0
 11
488.9826219999999
 21
1503.193840499999
 31
0.0
  0
LINE
  5
452
330
1E
100
AcDbEntity
  8
0
100
AcDbLine
 10
450.4886219999999
 20
1547.0938405
 30
0.0
 11
458.649610315324
 21
1543.713796292157
 31
0.0
  0
LINE
  5
453
330
1E
100
AcDbEntity
  8
0
100
AcDbLine
 10
458.649610315324
 20
1543.713796292157
 30
0.0
 11
465.283212152809
 21
1538.917507697531
 31
0.0
  0
LINE
  5
454
330
1E
100
AcDbEntity
  8
0
100
AcDbLine
 10
465.283212152809
 20
1538.917507697531
 30
0.0
 11
471.9006219999999
 21
1532.7838405
 31
0.0
  0
LINE
  5
455
330
1E
100
AcDbEntity
  8
0
100
AcDbLine
 10
477.5926219999999
 20
1526.2938405
 30
0.0
 11
482.5023292455171
 21
1519.027027547957
 31
0.0
  0
LINE
  5
456
330
1E
100
AcDbEntity
  8
0
100
AcDbLine
 10
482.5023292455171
 20
1519.027027547957
 30
0.0
 11
486.2076219999999
 21
1511.3738405
 31
0.0
  0
LINE
  5
457
330
1E
100
AcDbEntity
  8
0
100
AcDbLine
 10
466.231622
 20
1463.613840499999
 30
0.0
 11
465.2316219999999
 21
1464.6138405
 31
0.0
  0
LINE
  5
458
330
1E
100
AcDbEntity
  8
0
100
AcDbLine
 10
466.231622
 20
1463.613840499999
 30
0.0
 11
465.2316219999999
 21
1462.613840499999
 31
0.0
  0
LINE
  5
459
330
1E
100
AcDbEntity
  8
0
100
AcDbLine
 10
491.231622
 20
1464.6138405
 30
0.0
 11
490.2316219999999
 21
1463.613840499999
 31
0.0
  0
LINE
  5
45A
330
1E
100
AcDbEntity
  8
0
100
AcDbLine
 10
490.2316219999999
 20
1463.613840499999
 30
0.0
 11
491.231622
 21
1462.613840499999
 31
0.0
  0
LINE
  5
45B
330
1E
100
AcDbEntity
  8
0
100
AcDbLine
 10
491.231622
 20
221.1138404999999
 30
0.0
 11
490.2316219999999
 21
220.1138405
 31
0.0
  0
LINE
  5
45C
330
1E
100
AcDbEntity
  8
0
100
AcDbLine
 10
490.2316219999999
 20
220.1138405
 30
0.0
 11
491.231622
 21
219.1138404999999
 31
0.0
  0
LINE
  5
45D
330
1E
100
AcDbEntity
  8
0
100
AcDbLine
 10
491.231622
 20
219.1138404999999
 30
0.0
 11
491.0646352038965
 21
197.4977235688143
 31
0.0
  0
LINE
  5
45E
330
1E
100
AcDbEntity
  8
0
100
AcDbLine
 10
466.231622
 20
220.1138405
 30
0.0
 11
465.2316219999999
 21
221.1138404999999
 31
0.0
  0
ENDSEC
  0
SECTION
  2
OBJECTS
  0
DICTIONARY
  5
C
330
0
100
AcDbDictionary
281
     1
  3
ACAD_GROUP
350
D
  3
ACAD_LAYOUT
350
19
  3
ACAD_MLINESTYLE
350
16
  3
ACAD_PLOTSETTINGS
350
18
  3
ACAD_PLOTSTYLENAME
350
E
  3
AcDbVariableDictionary
350
45F
  0
DICTIONARY
  5
D
102
{ACAD_REACTORS
330
C
102
}
330
C
100
AcDbDictionary
281
     1
  0
DICTIONARY
  5
19
102
{ACAD_REACTORS
330
C
102
}
330
C
100
AcDbDictionary
281
     1
  3
Layout1
350
1D
  3
Model
350
21
  0
DICTIONARY
  5
16
102
{ACAD_REACTORS
330
C
102
}
330
C
100
AcDbDictionary
281
     1
  3
Standard
350
17
  0
DICTIONARY
  5
18
102
{ACAD_REACTORS
330
C
102
}
330
C
100
AcDbDictionary
281
     1
  0
ACDBDICTIONARYWDFLT
  5
E
102
{ACAD_REACTORS
330
C
102
}
330
C
100
AcDbDictionary
281
     1
  3
Normal
350
F
100
AcDbDictionaryWithDefault
340
F
  0
DICTIONARY
  5
45F
102
{ACAD_REACTORS
330
C
102
}
330
C
100
AcDbDictionary
281
     1
  3
DIMASSOC
350
460
  0
LAYOUT
  5
1D
102
{ACAD_REACTORS
330
19
102
}
330
19
100
AcDbPlotSettings
  1

  2
hp deskjet 980c series
  4

  6

 40
0.0
 41
0.0
 42
0.0
 43
0.0
 44
0.0
 45
0.0
 46
0.0
 47
0.0
 48
0.0
 49
0.0
140
0.0
141
0.0
142
1.0
143
1.0
 70
   688
 72
     0
 73
     0
 74
     5
  7

 75
    16
147
1.0
148
0.0
149
0.0
100
AcDbLayout
  1
Layout1
 70
     1
 71
     1
 10
0.0
 20
0.0
 11
12.0
 21
9.0
 12
0.0
 22
0.0
 32
0.0
 14
1.000000000000000E+20
 24
1.000000000000000E+20
 34
1.000000000000000E+20
 15
-1.000000000000000E+20
 25
-1.000000000000000E+20
 35
-1.000000000000000E+20
146
0.0
 13
0.0
 23
0.0
 33
0.0
 16
1.0
 26
0.0
 36
0.0
 17
0.0
 27
1.0
 37
0.0
 76
     0
330
1A
  0
LAYOUT
  5
21
102
{ACAD_REACTORS
330
19
102
}
330
19
100
AcDbPlotSettings
  1

  2
hp deskjet 980c series
  4

  6

 40
0.0
 41
0.0
 42
0.0
 43
0.0
 44
0.0
 45
0.0
 46
0.0
 47
0.0
 48
0.0
 49
0.0
140
0.0
141
0.0
142
1.0
143
1.0
 70
  1712
 72
     0
 73
     0
 74
     0
  7

 75
     0
147
1.0
148
0.0
149
0.0
100
AcDbLayout
  1
Model
 70
     1
 71
     0
 10
0.0
 20
0.0
 11
12.0
 21
9.0
 12
0.0
 22
0.0
 32
0.0
 14
0.0
 24
0.0
 34
0.0
 15
0.0
 25
0.0
 35
0.0
146
0.0
 13
0.0
 23
0.0
 33
0.0
 16
1.0
 26
0.0
 36
0.0
 17
0.0
 27
1.0
 37
0.0
 76
     0
330
1E
  0
MLINESTYLE
  5
17
102
{ACAD_REACTORS
330
16
102
}
330
16
100
AcDbMlineStyle
  2
STANDARD
 70
     0
  3

 62
   256
 51
90.0
 52
90.0
 71
     2
 49
0.5
 62
   256
  6
BYLAYER
 49
-0.5
 62
   256
  6
BYLAYER
  0
ACDBPLACEHOLDER
  5
F
102
{ACAD_REACTORS
330
E
102
}
330
E
  0
DICTIONARYVAR
  5
460
102
{ACAD_REACTORS
330
45F
102
}
330
45F
100
DictionaryVariables
280
     0
  1
1
  0
ENDSEC
  0
EOF
