  0
SECTION
  2
HEADER
  9
$ACADVER
  1
AC1015
  9
$ACADMAINTVER
 70
    13
  9
$DWGCODEPAGE
  3
ANSI_1252
  9
$INSBASE
 10
0.0
 20
0.0
 30
0.0
  9
$EXTMIN
 10
0.0
 20
0.0000000000000024
 30
0.0
  9
$EXTMAX
 10
467.0
 20
80.0
 30
0.0
  9
$LIMMIN
 10
0.0
 20
0.0
  9
$LIMMAX
 10
12.0
 20
9.0
  9
$ORTHOMODE
 70
     0
  9
$REGENMODE
 70
     1
  9
$FILLMODE
 70
     1
  9
$QTEXTMODE
 70
     0
  9
$MIRRTEXT
 70
     1
  9
$LTSCALE
 40
1.0
  9
$ATTMODE
 70
     1
  9
$TEXTSIZE
 40
0.2
  9
$TRACEWID
 40
0.05
  9
$TEXTSTYLE
  7
Standard
  9
$CLAYER
  8
0
  9
$CELTYPE
  6
Continuous
  9
$CECOLOR
 62
   256
  9
$CELTSCALE
 40
1.0
  9
$DISPSILH
 70
     0
  9
$DIMSCALE
 40
1.0
  9
$DIMASZ
 40
0.18
  9
$DIMEXO
 40
0.0625
  9
$DIMDLI
 40
0.38
  9
$DIMRND
 40
0.0
  9
$DIMDLE
 40
0.0
  9
$DIMEXE
 40
0.18
  9
$DIMTP
 40
0.0
  9
$DIMTM
 40
0.0
  9
$DIMTXT
 40
0.18
  9
$DIMCEN
 40
0.09
  9
$DIMTSZ
 40
0.0
  9
$DIMTOL
 70
     0
  9
$DIMLIM
 70
     0
  9
$DIMTIH
 70
     1
  9
$DIMTOH
 70
     1
  9
$DIMSE1
 70
     0
  9
$DIMSE2
 70
     0
  9
$DIMTAD
 70
     0
  9
$DIMZIN
 70
     0
  9
$DIMBLK
  1

  9
$DIMASO
 70
     1
  9
$DIMSHO
 70
     1
  9
$DIMPOST
  1

  9
$DIMAPOST
  1

  9
$DIMALT
 70
     0
  9
$DIMALTD
 70
     2
  9
$DIMALTF
 40
25.4
  9
$DIMLFAC
 40
1.0
  9
$DIMTOFL
 70
     0
  9
$DIMTVP
 40
0.0
  9
$DIMTIX
 70
     0
  9
$DIMSOXD
 70
     0
  9
$DIMSAH
 70
     0
  9
$DIMBLK1
  1

  9
$DIMBLK2
  1

  9
$DIMSTYLE
  2
Standard
  9
$DIMCLRD
 70
     0
  9
$DIMCLRE
 70
     0
  9
$DIMCLRT
 70
     0
  9
$DIMTFAC
 40
1.0
  9
$DIMGAP
 40
0.09
  9
$DIMJUST
 70
     0
  9
$DIMSD1
 70
     0
  9
$DIMSD2
 70
     0
  9
$DIMTOLJ
 70
     1
  9
$DIMTZIN
 70
     0
  9
$DIMALTZ
 70
     0
  9
$DIMALTTZ
 70
     0
  9
$DIMUPT
 70
     0
  9
$DIMDEC
 70
     4
  9
$DIMTDEC
 70
     4
  9
$DIMALTU
 70
     2
  9
$DIMALTTD
 70
     2
  9
$DIMTXSTY
  7
Standard
  9
$DIMAUNIT
 70
     0
  9
$DIMADEC
 70
     0
  9
$DIMALTRND
 40
0.0
  9
$DIMAZIN
 70
     0
  9
$DIMDSEP
 70
    46
  9
$DIMATFIT
 70
     3
  9
$DIMFRAC
 70
     0
  9
$DIMLDRBLK
  1

  9
$DIMLUNIT
 70
     2
  9
$DIMLWD
 70
    -2
  9
$DIMLWE
 70
    -2
  9
$DIMTMOVE
 70
     0
  9
$LUNITS
 70
     2
  9
$LUPREC
 70
     4
  9
$SKETCHINC
 40
0.1
  9
$FILLETRAD
 40
0.0
  9
$AUNITS
 70
     0
  9
$AUPREC
 70
     0
  9
$MENU
  1
.
  9
$ELEVATION
 40
0.0
  9
$PELEVATION
 40
0.0
  9
$THICKNESS
 40
0.0
  9
$LIMCHECK
 70
     0
  9
$CHAMFERA
 40
0.0
  9
$CHAMFERB
 40
0.0
  9
$CHAMFERC
 40
0.0
  9
$CHAMFERD
 40
0.0
  9
$SKPOLY
 70
     0
  9
$TDCREATE
 40
2454906.869880093
  9
$TDUCREATE
 40
2454906.828213426
  9
$TDUPDATE
 40
2454906.871010555
  9
$TDUUPDATE
 40
2454906.829343888
  9
$TDINDWG
 40
0.0011304630
  9
$TDUSRTIMER
 40
0.0011304630
  9
$USRTIMER
 70
     1
  9
$ANGBASE
 50
0.0
  9
$ANGDIR
 70
     0
  9
$PDMODE
 70
     0
  9
$PDSIZE
 40
0.0
  9
$PLINEWID
 40
0.0
  9
$SPLFRAME
 70
     0
  9
$SPLINETYPE
 70
     6
  9
$SPLINESEGS
 70
     8
  9
$HANDSEED
  5
2F4
  9
$SURFTAB1
 70
     6
  9
$SURFTAB2
 70
     6
  9
$SURFTYPE
 70
     6
  9
$SURFU
 70
     6
  9
$SURFV
 70
     6
  9
$UCSBASE
  2

  9
$UCSNAME
  2

  9
$UCSORG
 10
0.0
 20
0.0
 30
0.0
  9
$UCSXDIR
 10
1.0
 20
0.0
 30
0.0
  9
$UCSYDIR
 10
0.0
 20
1.0
 30
0.0
  9
$UCSORTHOREF
  2

  9
$UCSORTHOVIEW
 70
     1
  9
$UCSORGTOP
 10
0.0
 20
0.0
 30
0.0
  9
$UCSORGBOTTOM
 10
0.0
 20
0.0
 30
0.0
  9
$UCSORGLEFT
 10
0.0
 20
0.0
 30
0.0
  9
$UCSORGRIGHT
 10
0.0
 20
0.0
 30
0.0
  9
$UCSORGFRONT
 10
0.0
 20
0.0
 30
0.0
  9
$UCSORGBACK
 10
0.0
 20
0.0
 30
0.0
  9
$PUCSBASE
  2

  9
$PUCSNAME
  2

  9
$PUCSORG
 10
0.0
 20
0.0
 30
0.0
  9
$PUCSXDIR
 10
1.0
 20
0.0
 30
0.0
  9
$PUCSYDIR
 10
0.0
 20
1.0
 30
0.0
  9
$PUCSORTHOREF
  2

  9
$PUCSORTHOVIEW
 70
     0
  9
$PUCSORGTOP
 10
0.0
 20
0.0
 30
0.0
  9
$PUCSORGBOTTOM
 10
0.0
 20
0.0
 30
0.0
  9
$PUCSORGLEFT
 10
0.0
 20
0.0
 30
0.0
  9
$PUCSORGRIGHT
 10
0.0
 20
0.0
 30
0.0
  9
$PUCSORGFRONT
 10
0.0
 20
0.0
 30
0.0
  9
$PUCSORGBACK
 10
0.0
 20
0.0
 30
0.0
  9
$USERI1
 70
     0
  9
$USERI2
 70
     0
  9
$USERI3
 70
     0
  9
$USERI4
 70
     0
  9
$USERI5
 70
     0
  9
$USERR1
 40
0.0
  9
$USERR2
 40
0.0
  9
$USERR3
 40
0.0
  9
$USERR4
 40
0.0
  9
$USERR5
 40
0.0
  9
$WORLDVIEW
 70
     1
  9
$SHADEDGE
 70
     3
  9
$SHADEDIF
 70
    70
  9
$TILEMODE
 70
     1
  9
$MAXACTVP
 70
    64
  9
$PINSBASE
 10
0.0
 20
0.0
 30
0.0
  9
$PLIMCHECK
 70
     0
  9
$PEXTMIN
 10
1.000000000000000E+20
 20
1.000000000000000E+20
 30
1.000000000000000E+20
  9
$PEXTMAX
 10
-1.000000000000000E+20
 20
-1.000000000000000E+20
 30
-1.000000000000000E+20
  9
$PLIMMIN
 10
0.0
 20
0.0
  9
$PLIMMAX
 10
12.0
 20
9.0
  9
$UNITMODE
 70
     0
  9
$VISRETAIN
 70
     1
  9
$PLINEGEN
 70
     0
  9
$PSLTSCALE
 70
     1
  9
$TREEDEPTH
 70
  3020
  9
$CMLSTYLE
  2
Standard
  9
$CMLJUST
 70
     0
  9
$CMLSCALE
 40
1.0
  9
$PROXYGRAPHICS
 70
     1
  9
$MEASUREMENT
 70
     0
  9
$CELWEIGHT
370
    -1
  9
$ENDCAPS
280
     0
  9
$JOINSTYLE
280
     0
  9
$LWDISPLAY
290
     0
  9
$INSUNITS
 70
     0
  9
$HYPERLINKBASE
  1

  9
$STYLESHEET
  1

  9
$XEDIT
290
     1
  9
$CEPSNTYPE
380
     0
  9
$PSTYLEMODE
290
     1
  9
$FINGERPRINTGUID
  2
{490E2488-8B8D-4FAF-AA5B-2AF019B9F8EC}
  9
$VERSIONGUID
  2
{49FC9664-13CA-490E-8A7E-F3A52C38BD04}
  9
$EXTNAMES
290
     1
  9
$PSVPSCALE
 40
0.0
  9
$OLESTARTUP
290
     0
  0
ENDSEC
  0
SECTION
  2
CLASSES
  0
CLASS
  1
ACDBDICTIONARYWDFLT
  2
AcDbDictionaryWithDefault
  3
AutoCAD 2000
 90
        0
280
     0
281
     0
  0
CLASS
  1
ACDBPLACEHOLDER
  2
AcDbPlaceHolder
  3
AutoCAD 2000
 90
        0
280
     0
281
     0
  0
CLASS
  1
LAYOUT
  2
AcDbLayout
  3
AutoCAD 2000
 90
        0
280
     0
281
     0
  0
CLASS
  1
DICTIONARYVAR
  2
AcDbDictionaryVar
  3
AutoCAD 2000
 90
        0
280
     0
281
     0
  0
ENDSEC
  0
SECTION
  2
TABLES
  0
TABLE
  2
VPORT
  5
8
330
0
100
AcDbSymbolTable
 70
     2
  0
VPORT
  5
2F3
330
8
100
AcDbSymbolTableRecord
100
AcDbViewportTableRecord
  2
*Active
 70
     0
 10
0.0
 20
0.0
 11
1.0
 21
1.0
 12
233.4999999999999
 22
40.0
 13
0.0
 23
0.0
 14
1.0
 24
1.0
 15
0.0
 25
0.0
 16
0.0
 26
0.0
 36
1.0
 17
0.0
 27
0.0
 37
0.0
 40
238.0116372391653
 41
1.968387776606954
 42
50.0
 43
0.0
 44
0.0
 50
0.0
 51
0.0
 71
     0
 72
   100
 73
     1
 74
     3
 75
     0
 76
     0
 77
     0
 78
     0
281
     0
 65
     1
110
0.0
120
0.0
130
0.0
111
1.0
121
0.0
131
0.0
112
0.0
122
1.0
132
0.0
 79
     1
146
0.0
  0
ENDTAB
  0
TABLE
  2
LTYPE
  5
5
330
0
100
AcDbSymbolTable
 70
     1
  0
LTYPE
  5
13
330
5
100
AcDbSymbolTableRecord
100
AcDbLinetypeTableRecord
  2
ByBlock
 70
     0
  3

 72
    65
 73
     0
 40
0.0
  0
LTYPE
  5
14
330
5
100
AcDbSymbolTableRecord
100
AcDbLinetypeTableRecord
  2
ByLayer
 70
     0
  3

 72
    65
 73
     0
 40
0.0
  0
LTYPE
  5
15
330
5
100
AcDbSymbolTableRecord
100
AcDbLinetypeTableRecord
  2
Continuous
 70
     0
  3
Solid line
 72
    65
 73
     0
 40
0.0
  0
ENDTAB
  0
TABLE
  2
LAYER
  5
2
330
0
100
AcDbSymbolTable
 70
     1
  0
LAYER
  5
10
330
2
100
AcDbSymbolTableRecord
100
AcDbLayerTableRecord
  2
0
 70
     0
 62
     7
  6
Continuous
370
    -3
390
F
  0
ENDTAB
  0
TABLE
  2
STYLE
  5
3
330
0
100
AcDbSymbolTable
 70
     1
  0
STYLE
  5
11
330
3
100
AcDbSymbolTableRecord
100
AcDbTextStyleTableRecord
  2
Standard
 70
     0
 40
0.0
 41
1.0
 50
0.0
 71
     0
 42
0.2
  3
txt
  4

  0
ENDTAB
  0
TABLE
  2
VIEW
  5
6
330
0
100
AcDbSymbolTable
 70
     0
  0
ENDTAB
  0
TABLE
  2
UCS
  5
7
330
0
100
AcDbSymbolTable
 70
     0
  0
ENDTAB
  0
TABLE
  2
APPID
  5
9
330
0
100
AcDbSymbolTable
 70
     1
  0
APPID
  5
12
330
9
100
AcDbSymbolTableRecord
100
AcDbRegAppTableRecord
  2
ACAD
 70
     0
  0
ENDTAB
  0
TABLE
  2
DIMSTYLE
  5
A
330
0
100
AcDbSymbolTable
 70
     1
100
AcDbDimStyleTable
 71
     0
  0
DIMSTYLE
105
23C
330
A
100
AcDbSymbolTableRecord
100
AcDbDimStyleTableRecord
  2
Standard
 70
     0
340
11
  0
ENDTAB
  0
TABLE
  2
BLOCK_RECORD
  5
1
330
0
100
AcDbSymbolTable
 70
     0
  0
BLOCK_RECORD
  5
1E
330
1
100
AcDbSymbolTableRecord
100
AcDbBlockTableRecord
  2
*Model_Space
340
21
  0
BLOCK_RECORD
  5
1A
330
1
100
AcDbSymbolTableRecord
100
AcDbBlockTableRecord
  2
*Paper_Space
340
1D
  0
ENDTAB
  0
ENDSEC
  0
SECTION
  2
BLOCKS
  0
BLOCK
  5
1F
330
1E
100
AcDbEntity
  8
0
100
AcDbBlockBegin
  2
*Model_Space
 70
     0
 10
0.0
 20
0.0
 30
0.0
  3
*Model_Space
  1

  0
ENDBLK
  5
20
330
1E
100
AcDbEntity
  8
0
100
AcDbBlockEnd
  0
BLOCK
  5
1B
330
1A
100
AcDbEntity
 67
     1
  8
0
100
AcDbBlockBegin
  2
*Paper_Space
 70
     0
 10
0.0
 20
0.0
 30
0.0
  3
*Paper_Space
  1

  0
ENDBLK
  5
1C
330
1A
100
AcDbEntity
 67
     1
  8
0
100
AcDbBlockEnd
  0
ENDSEC
  0
SECTION
  2
ENTITIES
  0
LINE
  5
22
330
1E
100
AcDbEntity
  8
0
100
AcDbLine
 10
0.0
 20
3.822099999999999
 30
0.0
 11
0.0
 21
2.8338
 31
0.0
  0
LINE
  5
23
330
1E
100
AcDbEntity
  8
0
100
AcDbLine
 10
0.0
 20
3.822099999999999
 30
0.0
 11
0.0
 21
5.3971
 31
0.0
  0
LINE
  5
24
330
1E
100
AcDbEntity
  8
0
100
AcDbLine
 10
0.0
 20
2.8338
 30
0.0
 11
0.0
 21
2.4632
 31
0.0
  0
LINE
  5
25
330
1E
100
AcDbEntity
  8
0
100
AcDbLine
 10
0.0
 20
2.8338
 30
0.0
 11
0.0
 21
3.822099999999999
 31
0.0
  0
LINE
  5
26
330
1E
100
AcDbEntity
  8
0
100
AcDbLine
 10
0.0
 20
2.4632
 30
0.0
 11
0.134615
 21
2.154399999999999
 31
0.0
  0
LINE
  5
27
330
1E
100
AcDbEntity
  8
0
100
AcDbLine
 10
0.0
 20
2.4632
 30
0.0
 11
0.0
 21
2.8338
 31
0.0
  0
LINE
  5
28
330
1E
100
AcDbEntity
  8
0
100
AcDbLine
 10
0.0
 20
5.3971
 30
0.0
 11
0.0
 21
7.497099999999999
 31
0.0
  0
LINE
  5
29
330
1E
100
AcDbEntity
  8
0
100
AcDbLine
 10
0.0
 20
5.3971
 30
0.0
 11
0.0
 21
3.822099999999999
 31
0.0
  0
LINE
  5
2A
330
1E
100
AcDbEntity
  8
0
100
AcDbLine
 10
0.0
 20
7.497099999999999
 30
0.0
 11
0.0
 21
5.3971
 31
0.0
  0
LINE
  5
2B
330
1E
100
AcDbEntity
  8
0
100
AcDbLine
 10
0.0
 20
7.497099999999999
 30
0.0
 11
0.0
 21
9.9059
 31
0.0
  0
LINE
  5
2C
330
1E
100
AcDbEntity
  8
0
100
AcDbLine
 10
0.0
 20
9.9059
 30
0.0
 11
0.0
 21
7.497099999999999
 31
0.0
  0
LINE
  5
2D
330
1E
100
AcDbEntity
  8
0
100
AcDbLine
 10
0.0
 20
9.9059
 30
0.0
 11
0.0
 21
12.5
 31
0.0
  0
LINE
  5
2E
330
1E
100
AcDbEntity
  8
0
100
AcDbLine
 10
0.0
 20
12.5
 30
0.0
 11
0.0
 21
15.09409999999999
 31
0.0
  0
LINE
  5
2F
330
1E
100
AcDbEntity
  8
0
100
AcDbLine
 10
0.0
 20
12.5
 30
0.0
 11
0.0
 21
9.9059
 31
0.0
  0
LINE
  5
30
330
1E
100
AcDbEntity
  8
0
100
AcDbLine
 10
0.0
 20
17.5029
 30
0.0
 11
0.0
 21
15.09409999999999
 31
0.0
  0
LINE
  5
31
330
1E
100
AcDbEntity
  8
0
100
AcDbLine
 10
0.0
 20
17.5029
 30
0.0
 11
0.0
 21
19.6029
 31
0.0
  0
LINE
  5
32
330
1E
100
AcDbEntity
  8
0
100
AcDbLine
 10
0.0
 20
15.09409999999999
 30
0.0
 11
0.0
 21
12.5
 31
0.0
  0
LINE
  5
33
330
1E
100
AcDbEntity
  8
0
100
AcDbLine
 10
0.0
 20
15.09409999999999
 30
0.0
 11
0.0
 21
17.5029
 31
0.0
  0
LINE
  5
34
330
1E
100
AcDbEntity
  8
0
100
AcDbLine
 10
0.0
 20
19.6029
 30
0.0
 11
0.0
 21
21.1779
 31
0.0
  0
LINE
  5
35
330
1E
100
AcDbEntity
  8
0
100
AcDbLine
 10
0.0
 20
19.6029
 30
0.0
 11
0.0
 21
17.5029
 31
0.0
  0
LINE
  5
36
330
1E
100
AcDbEntity
  8
0
100
AcDbLine
 10
0.0
 20
21.1779
 30
0.0
 11
0.0
 21
19.6029
 31
0.0
  0
LINE
  5
37
330
1E
100
AcDbEntity
  8
0
100
AcDbLine
 10
0.0
 20
21.1779
 30
0.0
 11
0.0
 21
22.1662
 31
0.0
  0
LINE
  5
38
330
1E
100
AcDbEntity
  8
0
100
AcDbLine
 10
0.0
 20
22.1662
 30
0.0
 11
0.0
 21
21.1779
 31
0.0
  0
LINE
  5
39
330
1E
100
AcDbEntity
  8
0
100
AcDbLine
 10
0.0
 20
22.1662
 30
0.0
 11
0.0
 21
22.5368
 31
0.0
  0
LINE
  5
3A
330
1E
100
AcDbEntity
  8
0
100
AcDbLine
 10
0.134615
 20
3.544099999999999
 30
0.0
 11
0.134615
 21
5.1809
 31
0.0
  0
LINE
  5
3B
330
1E
100
AcDbEntity
  8
0
100
AcDbLine
 10
0.134615
 20
3.544099999999999
 30
0.0
 11
0.134615
 21
2.524999999999999
 31
0.0
  0
LINE
  5
3C
330
1E
100
AcDbEntity
  8
0
100
AcDbLine
 10
0.134615
 20
2.524999999999999
 30
0.0
 11
0.134615
 21
3.544099999999999
 31
0.0
  0
LINE
  5
3D
330
1E
100
AcDbEntity
  8
0
100
AcDbLine
 10
0.134615
 20
2.524999999999999
 30
0.0
 11
0.134615
 21
2.154399999999999
 31
0.0
  0
LINE
  5
3E
330
1E
100
AcDbEntity
  8
0
100
AcDbLine
 10
0.134615
 20
2.154399999999999
 30
0.0
 11
0.403846
 21
2.0
 31
0.0
  0
LINE
  5
3F
330
1E
100
AcDbEntity
  8
0
100
AcDbLine
 10
0.134615
 20
2.154399999999999
 30
0.0
 11
0.403846
 21
2.0
 31
0.0
  0
LINE
  5
40
330
1E
100
AcDbEntity
  8
0
100
AcDbLine
 10
0.134615
 20
2.154399999999999
 30
0.0
 11
0.134615
 21
2.524999999999999
 31
0.0
  0
LINE
  5
41
330
1E
100
AcDbEntity
  8
0
100
AcDbLine
 10
0.134615
 20
5.1809
 30
0.0
 11
0.134615
 21
7.3426
 31
0.0
  0
LINE
  5
42
330
1E
100
AcDbEntity
  8
0
100
AcDbLine
 10
0.134615
 20
5.1809
 30
0.0
 11
0.134615
 21
3.544099999999999
 31
0.0
  0
LINE
  5
43
330
1E
100
AcDbEntity
  8
0
100
AcDbLine
 10
0.134615
 20
19.8191
 30
0.0
 11
0.134615
 21
17.6574
 31
0.0
  0
LINE
  5
44
330
1E
100
AcDbEntity
  8
0
100
AcDbLine
 10
0.134615
 20
19.8191
 30
0.0
 11
0.134615
 21
21.45589999999999
 31
0.0
  0
LINE
  5
45
330
1E
100
AcDbEntity
  8
0
100
AcDbLine
 10
0.134615
 20
17.6574
 30
0.0
 11
0.134615
 21
19.8191
 31
0.0
  0
LINE
  5
46
330
1E
100
AcDbEntity
  8
0
100
AcDbLine
 10
0.134615
 20
17.6574
 30
0.0
 11
0.134615
 21
15.1559
 31
0.0
  0
LINE
  5
47
330
1E
100
AcDbEntity
  8
0
100
AcDbLine
 10
0.134615
 20
15.1559
 30
0.0
 11
0.134615
 21
17.6574
 31
0.0
  0
LINE
  5
48
330
1E
100
AcDbEntity
  8
0
100
AcDbLine
 10
0.134615
 20
15.1559
 30
0.0
 11
0.134615
 21
12.5
 31
0.0
  0
LINE
  5
49
330
1E
100
AcDbEntity
  8
0
100
AcDbLine
 10
0.134615
 20
12.5
 30
0.0
 11
0.134615
 21
9.844099999999999
 31
0.0
  0
LINE
  5
4A
330
1E
100
AcDbEntity
  8
0
100
AcDbLine
 10
0.134615
 20
12.5
 30
0.0
 11
0.134615
 21
15.1559
 31
0.0
  0
LINE
  5
4B
330
1E
100
AcDbEntity
  8
0
100
AcDbLine
 10
0.134615
 20
7.3426
 30
0.0
 11
0.134615
 21
9.844099999999999
 31
0.0
  0
LINE
  5
4C
330
1E
100
AcDbEntity
  8
0
100
AcDbLine
 10
0.134615
 20
7.3426
 30
0.0
 11
0.134615
 21
5.1809
 31
0.0
  0
LINE
  5
4D
330
1E
100
AcDbEntity
  8
0
100
AcDbLine
 10
0.134615
 20
9.844099999999999
 30
0.0
 11
0.134615
 21
12.5
 31
0.0
  0
LINE
  5
4E
330
1E
100
AcDbEntity
  8
0
100
AcDbLine
 10
0.134615
 20
9.844099999999999
 30
0.0
 11
0.134615
 21
7.3426
 31
0.0
  0
LINE
  5
4F
330
1E
100
AcDbEntity
  8
0
100
AcDbLine
 10
0.403846
 20
2.0
 30
0.0
 11
0.5
 21
2.0
 31
0.0
  0
LINE
  5
50
330
1E
100
AcDbEntity
  8
0
100
AcDbLine
 10
0.403846
 20
2.0
 30
0.0
 11
0.5
 21
2.0
 31
0.0
  0
LINE
  5
51
330
1E
100
AcDbEntity
  8
0
100
AcDbLine
 10
0.134615
 20
21.45589999999999
 30
0.0
 11
0.134615
 21
22.475
 31
0.0
  0
LINE
  5
52
330
1E
100
AcDbEntity
  8
0
100
AcDbLine
 10
0.134615
 20
21.45589999999999
 30
0.0
 11
0.134615
 21
19.8191
 31
0.0
  0
LINE
  5
53
330
1E
100
AcDbEntity
  8
0
100
AcDbLine
 10
0.134615
 20
22.8456
 30
0.0
 11
0.403846
 21
23.0
 31
0.0
  0
LINE
  5
54
330
1E
100
AcDbEntity
  8
0
100
AcDbLine
 10
0.134615
 20
22.8456
 30
0.0
 11
0.134615
 21
22.475
 31
0.0
  0
LINE
  5
55
330
1E
100
AcDbEntity
  8
0
100
AcDbLine
 10
0.134615
 20
22.475
 30
0.0
 11
0.134615
 21
22.8456
 31
0.0
  0
LINE
  5
56
330
1E
100
AcDbEntity
  8
0
100
AcDbLine
 10
0.134615
 20
22.475
 30
0.0
 11
0.134615
 21
21.45589999999999
 31
0.0
  0
LINE
  5
57
330
1E
100
AcDbEntity
  8
0
100
AcDbLine
 10
0.0
 20
22.5368
 30
0.0
 11
0.0
 21
22.1662
 31
0.0
  0
LINE
  5
58
330
1E
100
AcDbEntity
  8
0
100
AcDbLine
 10
0.0
 20
22.5368
 30
0.0
 11
0.134615
 21
22.8456
 31
0.0
  0
LINE
  5
59
330
1E
100
AcDbEntity
  8
0
100
AcDbLine
 10
0.403846
 20
23.0
 30
0.0
 11
0.5
 21
23.0
 31
0.0
  0
LINE
  5
5A
330
1E
100
AcDbEntity
  8
0
100
AcDbLine
 10
0.134615
 20
22.8456
 30
0.0
 11
0.403846
 21
23.0
 31
0.0
  0
LINE
  5
5B
330
1E
100
AcDbEntity
  8
0
100
AcDbLine
 10
0.5
 20
0.5515000000000021
 30
0.0
 11
0.5
 21
2.169099999999999
 31
0.0
  0
LINE
  5
5C
330
1E
100
AcDbEntity
  8
0
100
AcDbLine
 10
0.5
 20
0.5515000000000021
 30
0.0
 11
0.6713750000000001
 21
0.183800000000003
 31
0.0
  0
LINE
  5
5D
330
1E
100
AcDbEntity
  8
0
100
AcDbLine
 10
0.5
 20
2.169099999999999
 30
0.0
 11
0.5
 21
0.5515000000000021
 31
0.0
  0
LINE
  5
5E
330
1E
100
AcDbEntity
  8
0
100
AcDbLine
 10
0.5
 20
2.169099999999999
 30
0.0
 11
0.5
 21
4.0441
 31
0.0
  0
LINE
  5
5F
330
1E
100
AcDbEntity
  8
0
100
AcDbLine
 10
0.6713750000000001
 20
1.8382
 30
0.0
 11
0.6713750000000001
 21
0.6250000000000029
 31
0.0
  0
LINE
  5
60
330
1E
100
AcDbEntity
  8
0
100
AcDbLine
 10
0.6713750000000001
 20
1.8382
 30
0.0
 11
0.6713750000000001
 21
3.786799999999999
 31
0.0
  0
LINE
  5
61
330
1E
100
AcDbEntity
  8
0
100
AcDbLine
 10
0.6713750000000001
 20
0.6250000000000029
 30
0.0
 11
0.6713750000000001
 21
0.183800000000002
 31
0.0
  0
LINE
  5
62
330
1E
100
AcDbEntity
  8
0
100
AcDbLine
 10
0.6713750000000001
 20
0.6250000000000029
 30
0.0
 11
0.6713750000000001
 21
1.8382
 31
0.0
  0
LINE
  5
63
330
1E
100
AcDbEntity
  8
0
100
AcDbLine
 10
0.5
 20
4.0441
 30
0.0
 11
0.5
 21
6.5441
 31
0.0
  0
LINE
  5
64
330
1E
100
AcDbEntity
  8
0
100
AcDbLine
 10
0.5
 20
4.0441
 30
0.0
 11
0.5
 21
2.169099999999999
 31
0.0
  0
LINE
  5
65
330
1E
100
AcDbEntity
  8
0
100
AcDbLine
 10
0.5
 20
6.5441
 30
0.0
 11
0.5
 21
4.0441
 31
0.0
  0
LINE
  5
66
330
1E
100
AcDbEntity
  8
0
100
AcDbLine
 10
0.5
 20
6.5441
 30
0.0
 11
0.5
 21
9.411799999999999
 31
0.0
  0
LINE
  5
67
330
1E
100
AcDbEntity
  8
0
100
AcDbLine
 10
0.6713750000000001
 20
3.786799999999999
 30
0.0
 11
0.6713750000000001
 21
6.360299999999999
 31
0.0
  0
LINE
  5
68
330
1E
100
AcDbEntity
  8
0
100
AcDbLine
 10
0.6713750000000001
 20
3.786799999999999
 30
0.0
 11
0.6713750000000001
 21
1.8382
 31
0.0
  0
LINE
  5
69
330
1E
100
AcDbEntity
  8
0
100
AcDbLine
 10
0.6713750000000001
 20
6.360299999999999
 30
0.0
 11
0.6713750000000001
 21
3.786799999999999
 31
0.0
  0
LINE
  5
6A
330
1E
100
AcDbEntity
  8
0
100
AcDbLine
 10
0.6713750000000001
 20
6.360299999999999
 30
0.0
 11
0.6713750000000001
 21
9.3382
 31
0.0
  0
LINE
  5
6B
330
1E
100
AcDbEntity
  8
0
100
AcDbLine
 10
0.5
 20
22.8309
 30
0.0
 11
0.5
 21
20.9559
 31
0.0
  0
LINE
  5
6C
330
1E
100
AcDbEntity
  8
0
100
AcDbLine
 10
0.5
 20
22.8309
 30
0.0
 11
0.5
 21
24.0074
 31
0.0
  0
LINE
  5
6D
330
1E
100
AcDbEntity
  8
0
100
AcDbLine
 10
0.5
 20
24.0074
 30
0.0
 11
0.5
 21
22.8309
 31
0.0
  0
LINE
  5
6E
330
1E
100
AcDbEntity
  8
0
100
AcDbLine
 10
0.5
 20
24.0074
 30
0.0
 11
0.5
 21
24.4485
 31
0.0
  0
LINE
  5
6F
330
1E
100
AcDbEntity
  8
0
100
AcDbLine
 10
0.5
 20
20.9559
 30
0.0
 11
0.5
 21
18.45589999999999
 31
0.0
  0
LINE
  5
70
330
1E
100
AcDbEntity
  8
0
100
AcDbLine
 10
0.5
 20
20.9559
 30
0.0
 11
0.5
 21
22.8309
 31
0.0
  0
LINE
  5
71
330
1E
100
AcDbEntity
  8
0
100
AcDbLine
 10
0.5
 20
18.45589999999999
 30
0.0
 11
0.5
 21
15.5882
 31
0.0
  0
LINE
  5
72
330
1E
100
AcDbEntity
  8
0
100
AcDbLine
 10
0.5
 20
18.45589999999999
 30
0.0
 11
0.5
 21
20.9559
 31
0.0
  0
LINE
  5
73
330
1E
100
AcDbEntity
  8
0
100
AcDbLine
 10
0.5
 20
15.5882
 30
0.0
 11
0.5
 21
12.5
 31
0.0
  0
LINE
  5
74
330
1E
100
AcDbEntity
  8
0
100
AcDbLine
 10
0.5
 20
15.5882
 30
0.0
 11
0.5
 21
18.45589999999999
 31
0.0
  0
LINE
  5
75
330
1E
100
AcDbEntity
  8
0
100
AcDbLine
 10
0.5
 20
9.411799999999999
 30
0.0
 11
0.5
 21
6.5441
 31
0.0
  0
LINE
  5
76
330
1E
100
AcDbEntity
  8
0
100
AcDbLine
 10
0.5
 20
9.411799999999999
 30
0.0
 11
0.5
 21
12.5
 31
0.0
  0
LINE
  5
77
330
1E
100
AcDbEntity
  8
0
100
AcDbLine
 10
0.6713750000000001
 20
23.1618
 30
0.0
 11
0.6713750000000001
 21
21.2132
 31
0.0
  0
LINE
  5
78
330
1E
100
AcDbEntity
  8
0
100
AcDbLine
 10
0.6713750000000001
 20
23.1618
 30
0.0
 11
0.6713750000000001
 21
24.375
 31
0.0
  0
LINE
  5
79
330
1E
100
AcDbEntity
  8
0
100
AcDbLine
 10
0.6713750000000001
 20
24.375
 30
0.0
 11
0.6713750000000001
 21
23.1618
 31
0.0
  0
LINE
  5
7A
330
1E
100
AcDbEntity
  8
0
100
AcDbLine
 10
0.6713750000000001
 20
24.375
 30
0.0
 11
0.6713750000000001
 21
24.81619999999999
 31
0.0
  0
LINE
  5
7B
330
1E
100
AcDbEntity
  8
0
100
AcDbLine
 10
0.6713750000000001
 20
21.2132
 30
0.0
 11
0.6713750000000001
 21
18.6397
 31
0.0
  0
LINE
  5
7C
330
1E
100
AcDbEntity
  8
0
100
AcDbLine
 10
0.6713750000000001
 20
21.2132
 30
0.0
 11
0.6713750000000001
 21
23.1618
 31
0.0
  0
LINE
  5
7D
330
1E
100
AcDbEntity
  8
0
100
AcDbLine
 10
0.6713750000000001
 20
18.6397
 30
0.0
 11
0.6713750000000001
 21
15.6618
 31
0.0
  0
LINE
  5
7E
330
1E
100
AcDbEntity
  8
0
100
AcDbLine
 10
0.6713750000000001
 20
18.6397
 30
0.0
 11
0.6713750000000001
 21
21.2132
 31
0.0
  0
LINE
  5
7F
330
1E
100
AcDbEntity
  8
0
100
AcDbLine
 10
0.6713750000000001
 20
15.6618
 30
0.0
 11
0.6713750000000001
 21
12.5
 31
0.0
  0
LINE
  5
80
330
1E
100
AcDbEntity
  8
0
100
AcDbLine
 10
0.6713750000000001
 20
15.6618
 30
0.0
 11
0.6713750000000001
 21
18.6397
 31
0.0
  0
LINE
  5
81
330
1E
100
AcDbEntity
  8
0
100
AcDbLine
 10
0.5
 20
12.5
 30
0.0
 11
0.5
 21
9.411799999999999
 31
0.0
  0
LINE
  5
82
330
1E
100
AcDbEntity
  8
0
100
AcDbLine
 10
0.5
 20
12.5
 30
0.0
 11
0.5
 21
15.5882
 31
0.0
  0
LINE
  5
83
330
1E
100
AcDbEntity
  8
0
100
AcDbLine
 10
0.6713750000000001
 20
9.3382
 30
0.0
 11
0.6713750000000001
 21
6.360299999999999
 31
0.0
  0
LINE
  5
84
330
1E
100
AcDbEntity
  8
0
100
AcDbLine
 10
0.6713750000000001
 20
9.3382
 30
0.0
 11
0.6713750000000001
 21
12.5
 31
0.0
  0
LINE
  5
85
330
1E
100
AcDbEntity
  8
0
100
AcDbLine
 10
0.6713750000000001
 20
12.5
 30
0.0
 11
0.6713750000000001
 21
9.3382
 31
0.0
  0
LINE
  5
86
330
1E
100
AcDbEntity
  8
0
100
AcDbLine
 10
0.6713750000000001
 20
12.5
 30
0.0
 11
0.6713750000000001
 21
15.6618
 31
0.0
  0
LINE
  5
87
330
1E
100
AcDbEntity
  8
0
100
AcDbLine
 10
0.5
 20
0.5515000000000021
 30
0.0
 11
0.6713750000000001
 21
0.183800000000002
 31
0.0
  0
LINE
  5
88
330
1E
100
AcDbEntity
  8
0
100
AcDbLine
 10
0.6713750000000001
 20
0.183800000000002
 30
0.0
 11
1.01412
 21
0.0000000000000024
 31
0.0
  0
LINE
  5
89
330
1E
100
AcDbEntity
  8
0
100
AcDbLine
 10
0.6713750000000001
 20
0.183800000000002
 30
0.0
 11
1.01412
 21
0.0000000000000024
 31
0.0
  0
LINE
  5
8A
330
1E
100
AcDbEntity
  8
0
100
AcDbLine
 10
0.6713750000000001
 20
0.183800000000002
 30
0.0
 11
0.6713750000000001
 21
0.6250000000000029
 31
0.0
  0
LINE
  5
8B
330
1E
100
AcDbEntity
  8
0
100
AcDbLine
 10
0.5
 20
24.4485
 30
0.0
 11
0.6713750000000001
 21
24.81619999999999
 31
0.0
  0
LINE
  5
8C
330
1E
100
AcDbEntity
  8
0
100
AcDbLine
 10
0.5
 20
24.4485
 30
0.0
 11
0.5
 21
24.0074
 31
0.0
  0
LINE
  5
8D
330
1E
100
AcDbEntity
  8
0
100
AcDbLine
 10
1.01412
 20
0.0000000000000024
 30
0.0
 11
233.4999999999999
 21
0.0000000000000024
 31
0.0
  0
LINE
  5
8E
330
1E
100
AcDbEntity
  8
0
100
AcDbLine
 10
1.01412
 20
25.0
 30
0.0
 11
74.0
 21
25.0
 31
0.0
  0
LINE
  5
8F
330
1E
100
AcDbEntity
  8
0
100
AcDbLine
 10
1.01412
 20
0.0000000000000024
 30
0.0
 11
233.4999999999999
 21
0.0000000000000024
 31
0.0
  0
LINE
  5
90
330
1E
100
AcDbEntity
  8
0
100
AcDbLine
 10
0.6713750000000001
 20
24.81619999999999
 30
0.0
 11
1.01412
 21
25.0
 31
0.0
  0
LINE
  5
91
330
1E
100
AcDbEntity
  8
0
100
AcDbLine
 10
0.6713750000000001
 20
24.81619999999999
 30
0.0
 11
0.6713750000000001
 21
24.375
 31
0.0
  0
LINE
  5
92
330
1E
100
AcDbEntity
  8
0
100
AcDbLine
 10
1.01412
 20
25.0
 30
0.0
 11
74.0
 21
25.0
 31
0.0
  0
LINE
  5
93
330
1E
100
AcDbEntity
  8
0
100
AcDbLine
 10
0.403846
 20
23.0
 30
0.0
 11
0.5
 21
23.0
 31
0.0
  0
LINE
  5
94
330
1E
100
AcDbEntity
  8
0
100
AcDbLine
 10
43.5
 20
80.0
 30
0.0
 11
43.5
 21
65.71429999999999
 31
0.0
  0
LINE
  5
95
330
1E
100
AcDbEntity
  8
0
100
AcDbLine
 10
43.5
 20
80.0
 30
0.0
 11
43.5524
 21
80.0
 31
0.0
  0
LINE
  5
A0
330
1E
100
AcDbEntity
  8
0
100
AcDbLine
 10
74.0
 20
25.0
 30
0.0
 11
74.0
 21
65.0
 31
0.0
  0
LINE
  5
A6
330
1E
100
AcDbEntity
  8
0
100
AcDbLine
 10
74.0
 20
25.0
 30
0.0
 11
233.4999999999999
 21
25.0
 31
0.0
  0
LINE
  5
AB
330
1E
100
AcDbEntity
  8
0
100
AcDbLine
 10
92.0
 20
25.0
 30
0.0
 11
92.0
 21
65.0
 31
0.0
  0
LINE
  5
AC
330
1E
100
AcDbEntity
  8
0
100
AcDbLine
 10
74.0
 20
65.0
 30
0.0
 11
74.0
 21
25.0
 31
0.0
  0
LINE
  5
152
330
1E
100
AcDbEntity
  8
0
100
AcDbLine
 10
121.9899999999999
 20
65.0
 30
0.0
 11
122.347
 21
65.21429999999999
 31
0.0
  0
LINE
  5
15E
330
1E
100
AcDbEntity
  8
0
100
AcDbLine
 10
92.0
 20
65.0
 30
0.0
 11
92.0
 21
25.0
 31
0.0
  0
LINE
  5
16C
330
1E
100
AcDbEntity
  8
0
100
AcDbLine
 10
43.5524
 20
80.0
 30
0.0
 11
43.72349999999999
 21
80.0
 31
0.0
  0
LINE
  5
19F
330
1E
100
AcDbEntity
  8
0
100
AcDbLine
 10
122.347
 20
65.21429999999999
 30
0.0
 11
122.5
 21
65.71429999999999
 31
0.0
  0
LINE
  5
1AB
330
1E
100
AcDbEntity
  8
0
100
AcDbLine
 10
47.6487
 20
80.0
 30
0.0
 11
48.3674
 21
80.0
 31
0.0
  0
LINE
  5
1AC
330
1E
100
AcDbEntity
  8
0
100
AcDbLine
 10
47.0253
 20
80.0
 30
0.0
 11
47.6487
 21
80.0
 31
0.0
  0
LINE
  5
1AD
330
1E
100
AcDbEntity
  8
0
100
AcDbLine
 10
46.5215
 20
80.0
 30
0.0
 11
47.0253
 21
80.0
 31
0.0
  0
LINE
  5
1AE
330
1E
100
AcDbEntity
  8
0
100
AcDbLine
 10
46.0262
 20
80.0
 30
0.0
 11
46.5215
 21
80.0
 31
0.0
  0
LINE
  5
1AF
330
1E
100
AcDbEntity
  8
0
100
AcDbLine
 10
45.6761
 20
80.0
 30
0.0
 11
46.0262
 21
80.0
 31
0.0
  0
LINE
  5
1B0
330
1E
100
AcDbEntity
  8
0
100
AcDbLine
 10
45.35649999999999
 20
80.0
 30
0.0
 11
45.6761
 21
80.0
 31
0.0
  0
LINE
  5
1B1
330
1E
100
AcDbEntity
  8
0
100
AcDbLine
 10
44.9753
 20
80.0
 30
0.0
 11
45.35649999999999
 21
80.0
 31
0.0
  0
LINE
  5
1B2
330
1E
100
AcDbEntity
  8
0
100
AcDbLine
 10
44.5087
 20
80.0
 30
0.0
 11
44.9753
 21
80.0
 31
0.0
  0
LINE
  5
1B3
330
1E
100
AcDbEntity
  8
0
100
AcDbLine
 10
44.08
 20
80.0
 30
0.0
 11
44.5087
 21
80.0
 31
0.0
  0
LINE
  5
1B4
330
1E
100
AcDbEntity
  8
0
100
AcDbLine
 10
43.72349999999999
 20
80.0
 30
0.0
 11
44.08
 21
80.0
 31
0.0
  0
LINE
  5
1B5
330
1E
100
AcDbEntity
  8
0
100
AcDbLine
 10
48.3674
 20
80.0
 30
0.0
 11
49.1809
 21
80.0
 31
0.0
  0
LINE
  5
1B6
330
1E
100
AcDbEntity
  8
0
100
AcDbLine
 10
49.1809
 20
80.0
 30
0.0
 11
50.1197
 21
80.0
 31
0.0
  0
LINE
  5
1B7
330
1E
100
AcDbEntity
  8
0
100
AcDbLine
 10
50.1197
 20
80.0
 30
0.0
 11
50.9988
 21
80.0
 31
0.0
  0
LINE
  5
1B8
330
1E
100
AcDbEntity
  8
0
100
AcDbLine
 10
50.9988
 20
80.0
 30
0.0
 11
52.2278
 21
80.0
 31
0.0
  0
LINE
  5
1B9
330
1E
100
AcDbEntity
  8
0
100
AcDbLine
 10
52.2278
 20
80.0
 30
0.0
 11
53.6531
 21
80.0
 31
0.0
  0
LINE
  5
1BA
330
1E
100
AcDbEntity
  8
0
100
AcDbLine
 10
53.6531
 20
80.0
 30
0.0
 11
55.3842
 21
80.0
 31
0.0
  0
LINE
  5
1BB
330
1E
100
AcDbEntity
  8
0
100
AcDbLine
 10
55.3842
 20
80.0
 30
0.0
 11
58.5848
 21
80.0
 31
0.0
  0
LINE
  5
1BC
330
1E
100
AcDbEntity
  8
0
100
AcDbLine
 10
58.5848
 20
80.0
 30
0.0
 11
62.4971
 21
80.0
 31
0.0
  0
LINE
  5
1BD
330
1E
100
AcDbEntity
  8
0
100
AcDbLine
 10
62.4971
 20
80.0
 30
0.0
 11
68.16759999999999
 21
80.0
 31
0.0
  0
LINE
  5
1BE
330
1E
100
AcDbEntity
  8
0
100
AcDbLine
 10
68.16759999999999
 20
80.0
 30
0.0
 11
74.63689999999999
 21
80.0
 31
0.0
  0
LINE
  5
1BF
330
1E
100
AcDbEntity
  8
0
100
AcDbLine
 10
74.63689999999999
 20
80.0
 30
0.0
 11
79.6314
 21
80.0
 31
0.0
  0
LINE
  5
1C0
330
1E
100
AcDbEntity
  8
0
100
AcDbLine
 10
79.6314
 20
80.0
 30
0.0
 11
83.0
 21
80.0
 31
0.0
  0
LINE
  5
1E7
330
1E
100
AcDbEntity
  8
0
100
AcDbLine
 10
116.819
 20
80.0
 30
0.0
 11
117.6329999999999
 21
80.0
 31
0.0
  0
LINE
  5
1E8
330
1E
100
AcDbEntity
  8
0
100
AcDbLine
 10
115.88
 20
80.0
 30
0.0
 11
116.819
 21
80.0
 31
0.0
  0
LINE
  5
1E9
330
1E
100
AcDbEntity
  8
0
100
AcDbLine
 10
115.0009999999999
 20
80.0
 30
0.0
 11
115.88
 21
80.0
 31
0.0
  0
LINE
  5
1EA
330
1E
100
AcDbEntity
  8
0
100
AcDbLine
 10
113.772
 20
80.0
 30
0.0
 11
115.0009999999999
 21
80.0
 31
0.0
  0
LINE
  5
1EB
330
1E
100
AcDbEntity
  8
0
100
AcDbLine
 10
112.347
 20
80.0
 30
0.0
 11
113.772
 21
80.0
 31
0.0
  0
LINE
  5
1EC
330
1E
100
AcDbEntity
  8
0
100
AcDbLine
 10
110.616
 20
80.0
 30
0.0
 11
112.347
 21
80.0
 31
0.0
  0
LINE
  5
1ED
330
1E
100
AcDbEntity
  8
0
100
AcDbLine
 10
107.415
 20
80.0
 30
0.0
 11
110.616
 21
80.0
 31
0.0
  0
LINE
  5
1EE
330
1E
100
AcDbEntity
  8
0
100
AcDbLine
 10
103.5029999999999
 20
80.0
 30
0.0
 11
107.415
 21
80.0
 31
0.0
  0
LINE
  5
1EF
330
1E
100
AcDbEntity
  8
0
100
AcDbLine
 10
97.83240000000001
 20
80.0
 30
0.0
 11
103.5029999999999
 21
80.0
 31
0.0
  0
LINE
  5
1F0
330
1E
100
AcDbEntity
  8
0
100
AcDbLine
 10
91.36309999999999
 20
80.0
 30
0.0
 11
97.83240000000001
 21
80.0
 31
0.0
  0
LINE
  5
1F1
330
1E
100
AcDbEntity
  8
0
100
AcDbLine
 10
86.3686
 20
80.0
 30
0.0
 11
91.36309999999999
 21
80.0
 31
0.0
  0
LINE
  5
1F2
330
1E
100
AcDbEntity
  8
0
100
AcDbLine
 10
83.0
 20
80.0
 30
0.0
 11
86.3686
 21
80.0
 31
0.0
  0
LINE
  5
1F3
330
1E
100
AcDbEntity
  8
0
100
AcDbLine
 10
117.6329999999999
 20
80.0
 30
0.0
 11
118.351
 21
80.0
 31
0.0
  0
LINE
  5
1F4
330
1E
100
AcDbEntity
  8
0
100
AcDbLine
 10
118.351
 20
80.0
 30
0.0
 11
118.9749999999999
 21
80.0
 31
0.0
  0
LINE
  5
1F5
330
1E
100
AcDbEntity
  8
0
100
AcDbLine
 10
118.9749999999999
 20
80.0
 30
0.0
 11
119.479
 21
80.0
 31
0.0
  0
LINE
  5
1F6
330
1E
100
AcDbEntity
  8
0
100
AcDbLine
 10
119.479
 20
80.0
 30
0.0
 11
119.974
 21
80.0
 31
0.0
  0
LINE
  5
1F7
330
1E
100
AcDbEntity
  8
0
100
AcDbLine
 10
119.974
 20
80.0
 30
0.0
 11
120.324
 21
80.0
 31
0.0
  0
LINE
  5
1F8
330
1E
100
AcDbEntity
  8
0
100
AcDbLine
 10
120.324
 20
80.0
 30
0.0
 11
120.6439999999999
 21
80.0
 31
0.0
  0
LINE
  5
1F9
330
1E
100
AcDbEntity
  8
0
100
AcDbLine
 10
120.6439999999999
 20
80.0
 30
0.0
 11
121.025
 21
80.0
 31
0.0
  0
LINE
  5
1FA
330
1E
100
AcDbEntity
  8
0
100
AcDbLine
 10
121.025
 20
80.0
 30
0.0
 11
121.4909999999999
 21
80.0
 31
0.0
  0
LINE
  5
1FB
330
1E
100
AcDbEntity
  8
0
100
AcDbLine
 10
121.4909999999999
 20
80.0
 30
0.0
 11
121.92
 21
80.0
 31
0.0
  0
LINE
  5
1FC
330
1E
100
AcDbEntity
  8
0
100
AcDbLine
 10
121.92
 20
80.0
 30
0.0
 11
122.276
 21
80.0
 31
0.0
  0
LINE
  5
1FD
330
1E
100
AcDbEntity
  8
0
100
AcDbLine
 10
122.276
 20
80.0
 30
0.0
 11
122.448
 21
80.0
 31
0.0
  0
LINE
  5
1FE
330
1E
100
AcDbEntity
  8
0
100
AcDbLine
 10
122.448
 20
80.0
 30
0.0
 11
122.5
 21
80.0
 31
0.0
  0
LINE
  5
1FF
330
1E
100
AcDbEntity
  8
0
100
AcDbLine
 10
122.5
 20
80.0
 30
0.0
 11
122.5
 21
65.71429999999999
 31
0.0
  0
LINE
  5
235
330
1E
100
AcDbEntity
  8
0
100
AcDbLine
 10
122.5
 20
65.71429999999999
 30
0.0
 11
122.5
 21
80.0
 31
0.0
  0
LINE
  5
238
330
1E
100
AcDbEntity
  8
0
100
AcDbLine
 10
43.6529
 20
65.21429999999999
 30
0.0
 11
44.0097
 21
65.0
 31
0.0
  0
LINE
  5
23A
330
1E
100
AcDbEntity
  8
0
100
AcDbLine
 10
43.5
 20
65.71429999999999
 30
0.0
 11
43.6529
 21
65.21429999999999
 31
0.0
  0
LINE
  5
23B
330
1E
100
AcDbEntity
  8
0
100
AcDbLine
 10
43.5
 20
65.71429999999999
 30
0.0
 11
43.5
 21
80.0
 31
0.0
  0
LINE
  5
240
330
1E
100
AcDbEntity
  8
0
100
AcDbLine
 10
44.0097
 20
65.0
 30
0.0
 11
121.9899999999999
 21
65.0
 31
0.0
  0
LINE
  5
241
330
1E
100
AcDbEntity
  8
0
100
AcDbLine
 10
393.0
 20
25.0
 30
0.0
 11
233.4999999999999
 21
25.0
 31
0.0
  0
LINE
  5
242
330
1E
100
AcDbEntity
  8
0
100
AcDbLine
 10
422.9903
 20
65.0
 30
0.0
 11
345.0099999999999
 21
65.0
 31
0.0
  0
LINE
  5
243
330
1E
100
AcDbEntity
  8
0
100
AcDbLine
 10
351.12
 20
80.0
 30
0.0
 11
350.1809999999999
 21
80.0
 31
0.0
  0
LINE
  5
244
330
1E
100
AcDbEntity
  8
0
100
AcDbLine
 10
465.98588
 20
0.0000000000000024
 30
0.0
 11
233.4999999999999
 21
0.0000000000000024
 31
0.0
  0
LINE
  5
245
330
1E
100
AcDbEntity
  8
0
100
AcDbLine
 10
465.98588
 20
0.0000000000000024
 30
0.0
 11
233.4999999999999
 21
0.0000000000000024
 31
0.0
  0
LINE
  5
246
330
1E
100
AcDbEntity
  8
0
100
AcDbLine
 10
375.0
 20
65.0
 30
0.0
 11
375.0
 21
25.0
 31
0.0
  0
LINE
  5
247
330
1E
100
AcDbEntity
  8
0
100
AcDbLine
 10
393.0
 20
65.0
 30
0.0
 11
393.0
 21
25.0
 31
0.0
  0
LINE
  5
248
330
1E
100
AcDbEntity
  8
0
100
AcDbLine
 10
375.0
 20
25.0
 30
0.0
 11
375.0
 21
65.0
 31
0.0
  0
LINE
  5
249
330
1E
100
AcDbEntity
  8
0
100
AcDbLine
 10
393.0
 20
25.0
 30
0.0
 11
393.0
 21
65.0
 31
0.0
  0
LINE
  5
24A
330
1E
100
AcDbEntity
  8
0
100
AcDbLine
 10
465.98588
 20
25.0
 30
0.0
 11
393.0
 21
25.0
 31
0.0
  0
LINE
  5
24B
330
1E
100
AcDbEntity
  8
0
100
AcDbLine
 10
465.98588
 20
25.0
 30
0.0
 11
393.0
 21
25.0
 31
0.0
  0
LINE
  5
24C
330
1E
100
AcDbEntity
  8
0
100
AcDbLine
 10
466.3286249999999
 20
12.5
 30
0.0
 11
466.3286249999999
 21
15.6618
 31
0.0
  0
LINE
  5
24D
330
1E
100
AcDbEntity
  8
0
100
AcDbLine
 10
466.5
 20
12.5
 30
0.0
 11
466.5
 21
15.5882
 31
0.0
  0
LINE
  5
24E
330
1E
100
AcDbEntity
  8
0
100
AcDbLine
 10
466.3286249999999
 20
15.6618
 30
0.0
 11
466.3286249999999
 21
12.5
 31
0.0
  0
LINE
  5
24F
330
1E
100
AcDbEntity
  8
0
100
AcDbLine
 10
466.5
 20
15.5882
 30
0.0
 11
466.5
 21
12.5
 31
0.0
  0
LINE
  5
250
330
1E
100
AcDbEntity
  8
0
100
AcDbLine
 10
466.865385
 20
12.5
 30
0.0
 11
466.865385
 21
15.1559
 31
0.0
  0
LINE
  5
251
330
1E
100
AcDbEntity
  8
0
100
AcDbLine
 10
466.865385
 20
15.1559
 30
0.0
 11
466.865385
 21
12.5
 31
0.0
  0
LINE
  5
252
330
1E
100
AcDbEntity
  8
0
100
AcDbLine
 10
467.0
 20
15.09409999999999
 30
0.0
 11
467.0
 21
12.5
 31
0.0
  0
LINE
  5
253
330
1E
100
AcDbEntity
  8
0
100
AcDbLine
 10
467.0
 20
12.5
 30
0.0
 11
467.0
 21
15.09409999999999
 31
0.0
  0
LINE
  5
254
330
1E
100
AcDbEntity
  8
0
100
AcDbLine
 10
466.3286249999999
 20
3.786799999999999
 30
0.0
 11
466.3286249999999
 21
1.8382
 31
0.0
  0
LINE
  5
255
330
1E
100
AcDbEntity
  8
0
100
AcDbLine
 10
466.5
 20
4.0441
 30
0.0
 11
466.5
 21
2.169099999999999
 31
0.0
  0
LINE
  5
256
330
1E
100
AcDbEntity
  8
0
100
AcDbLine
 10
466.3286249999999
 20
1.8382
 30
0.0
 11
466.3286249999999
 21
3.786799999999999
 31
0.0
  0
LINE
  5
257
330
1E
100
AcDbEntity
  8
0
100
AcDbLine
 10
466.5
 20
2.169099999999999
 30
0.0
 11
466.5
 21
4.0441
 31
0.0
  0
LINE
  5
258
330
1E
100
AcDbEntity
  8
0
100
AcDbLine
 10
467.0
 20
2.4632
 30
0.0
 11
467.0
 21
2.8338
 31
0.0
  0
LINE
  5
259
330
1E
100
AcDbEntity
  8
0
100
AcDbLine
 10
467.0
 20
2.8338
 30
0.0
 11
467.0
 21
2.4632
 31
0.0
  0
LINE
  5
25A
330
1E
100
AcDbEntity
  8
0
100
AcDbLine
 10
466.865385
 20
2.154399999999999
 30
0.0
 11
466.865385
 21
2.524999999999999
 31
0.0
  0
LINE
  5
25B
330
1E
100
AcDbEntity
  8
0
100
AcDbLine
 10
466.865385
 20
2.524999999999999
 30
0.0
 11
466.865385
 21
2.154399999999999
 31
0.0
  0
LINE
  5
25C
330
1E
100
AcDbEntity
  8
0
100
AcDbLine
 10
466.5
 20
2.169099999999999
 30
0.0
 11
466.5
 21
0.5515000000000021
 31
0.0
  0
LINE
  5
25D
330
1E
100
AcDbEntity
  8
0
100
AcDbLine
 10
466.5
 20
0.5515000000000021
 30
0.0
 11
466.5
 21
2.169099999999999
 31
0.0
  0
LINE
  5
25E
330
1E
100
AcDbEntity
  8
0
100
AcDbLine
 10
466.3286249999999
 20
0.6250000000000029
 30
0.0
 11
466.3286249999999
 21
1.8382
 31
0.0
  0
LINE
  5
25F
330
1E
100
AcDbEntity
  8
0
100
AcDbLine
 10
466.3286249999999
 20
1.8382
 30
0.0
 11
466.3286249999999
 21
0.6250000000000029
 31
0.0
  0
LINE
  5
260
330
1E
100
AcDbEntity
  8
0
100
AcDbLine
 10
466.3286249999999
 20
0.183800000000002
 30
0.0
 11
466.3286249999999
 21
0.6250000000000029
 31
0.0
  0
LINE
  5
261
330
1E
100
AcDbEntity
  8
0
100
AcDbLine
 10
466.5
 20
0.5515000000000021
 30
0.0
 11
466.3286249999999
 21
0.183800000000002
 31
0.0
  0
LINE
  5
262
330
1E
100
AcDbEntity
  8
0
100
AcDbLine
 10
466.3286249999999
 20
0.6250000000000029
 30
0.0
 11
466.3286249999999
 21
0.183800000000002
 31
0.0
  0
LINE
  5
263
330
1E
100
AcDbEntity
  8
0
100
AcDbLine
 10
466.5
 20
0.5515000000000021
 30
0.0
 11
466.3286249999999
 21
0.183800000000003
 31
0.0
  0
LINE
  5
264
330
1E
100
AcDbEntity
  8
0
100
AcDbLine
 10
466.3286249999999
 20
0.183800000000002
 30
0.0
 11
465.98588
 21
0.0000000000000024
 31
0.0
  0
LINE
  5
265
330
1E
100
AcDbEntity
  8
0
100
AcDbLine
 10
466.3286249999999
 20
0.183800000000002
 30
0.0
 11
465.98588
 21
0.0000000000000024
 31
0.0
  0
LINE
  5
266
330
1E
100
AcDbEntity
  8
0
100
AcDbLine
 10
466.596154
 20
2.0
 30
0.0
 11
466.5
 21
2.0
 31
0.0
  0
LINE
  5
267
330
1E
100
AcDbEntity
  8
0
100
AcDbLine
 10
466.596154
 20
2.0
 30
0.0
 11
466.5
 21
2.0
 31
0.0
  0
LINE
  5
268
330
1E
100
AcDbEntity
  8
0
100
AcDbLine
 10
467.0
 20
2.4632
 30
0.0
 11
466.865385
 21
2.154399999999999
 31
0.0
  0
LINE
  5
269
330
1E
100
AcDbEntity
  8
0
100
AcDbLine
 10
466.865385
 20
2.154399999999999
 30
0.0
 11
466.596154
 21
2.0
 31
0.0
  0
LINE
  5
26A
330
1E
100
AcDbEntity
  8
0
100
AcDbLine
 10
466.865385
 20
2.154399999999999
 30
0.0
 11
466.596154
 21
2.0
 31
0.0
  0
LINE
  5
26B
330
1E
100
AcDbEntity
  8
0
100
AcDbLine
 10
466.865385
 20
9.844099999999999
 30
0.0
 11
466.865385
 21
7.3426
 31
0.0
  0
LINE
  5
26C
330
1E
100
AcDbEntity
  8
0
100
AcDbLine
 10
466.865385
 20
7.3426
 30
0.0
 11
466.865385
 21
9.844099999999999
 31
0.0
  0
LINE
  5
26D
330
1E
100
AcDbEntity
  8
0
100
AcDbLine
 10
467.0
 20
9.9059
 30
0.0
 11
467.0
 21
7.497099999999999
 31
0.0
  0
LINE
  5
26E
330
1E
100
AcDbEntity
  8
0
100
AcDbLine
 10
467.0
 20
7.497099999999999
 30
0.0
 11
467.0
 21
9.9059
 31
0.0
  0
LINE
  5
26F
330
1E
100
AcDbEntity
  8
0
100
AcDbLine
 10
466.3286249999999
 20
9.3382
 30
0.0
 11
466.3286249999999
 21
6.360299999999999
 31
0.0
  0
LINE
  5
270
330
1E
100
AcDbEntity
  8
0
100
AcDbLine
 10
466.5
 20
9.411799999999999
 30
0.0
 11
466.5
 21
6.5441
 31
0.0
  0
LINE
  5
271
330
1E
100
AcDbEntity
  8
0
100
AcDbLine
 10
466.3286249999999
 20
6.360299999999999
 30
0.0
 11
466.3286249999999
 21
9.3382
 31
0.0
  0
LINE
  5
272
330
1E
100
AcDbEntity
  8
0
100
AcDbLine
 10
466.5
 20
6.5441
 30
0.0
 11
466.5
 21
9.411799999999999
 31
0.0
  0
LINE
  5
273
330
1E
100
AcDbEntity
  8
0
100
AcDbLine
 10
466.865385
 20
7.3426
 30
0.0
 11
466.865385
 21
5.1809
 31
0.0
  0
LINE
  5
274
330
1E
100
AcDbEntity
  8
0
100
AcDbLine
 10
466.865385
 20
5.1809
 30
0.0
 11
466.865385
 21
7.3426
 31
0.0
  0
LINE
  5
275
330
1E
100
AcDbEntity
  8
0
100
AcDbLine
 10
467.0
 20
7.497099999999999
 30
0.0
 11
467.0
 21
5.3971
 31
0.0
  0
LINE
  5
276
330
1E
100
AcDbEntity
  8
0
100
AcDbLine
 10
467.0
 20
5.3971
 30
0.0
 11
467.0
 21
7.497099999999999
 31
0.0
  0
LINE
  5
277
330
1E
100
AcDbEntity
  8
0
100
AcDbLine
 10
466.3286249999999
 20
6.360299999999999
 30
0.0
 11
466.3286249999999
 21
3.786799999999999
 31
0.0
  0
LINE
  5
278
330
1E
100
AcDbEntity
  8
0
100
AcDbLine
 10
466.3286249999999
 20
3.786799999999999
 30
0.0
 11
466.3286249999999
 21
6.360299999999999
 31
0.0
  0
LINE
  5
279
330
1E
100
AcDbEntity
  8
0
100
AcDbLine
 10
466.5
 20
6.5441
 30
0.0
 11
466.5
 21
4.0441
 31
0.0
  0
LINE
  5
27A
330
1E
100
AcDbEntity
  8
0
100
AcDbLine
 10
466.5
 20
4.0441
 30
0.0
 11
466.5
 21
6.5441
 31
0.0
  0
LINE
  5
27B
330
1E
100
AcDbEntity
  8
0
100
AcDbLine
 10
466.865385
 20
5.1809
 30
0.0
 11
466.865385
 21
3.544099999999999
 31
0.0
  0
LINE
  5
27C
330
1E
100
AcDbEntity
  8
0
100
AcDbLine
 10
466.865385
 20
3.544099999999999
 30
0.0
 11
466.865385
 21
5.1809
 31
0.0
  0
LINE
  5
27D
330
1E
100
AcDbEntity
  8
0
100
AcDbLine
 10
467.0
 20
5.3971
 30
0.0
 11
467.0
 21
3.822099999999999
 31
0.0
  0
LINE
  5
27E
330
1E
100
AcDbEntity
  8
0
100
AcDbLine
 10
467.0
 20
3.822099999999999
 30
0.0
 11
467.0
 21
5.3971
 31
0.0
  0
LINE
  5
27F
330
1E
100
AcDbEntity
  8
0
100
AcDbLine
 10
466.865385
 20
2.524999999999999
 30
0.0
 11
466.865385
 21
3.544099999999999
 31
0.0
  0
LINE
  5
280
330
1E
100
AcDbEntity
  8
0
100
AcDbLine
 10
466.865385
 20
3.544099999999999
 30
0.0
 11
466.865385
 21
2.524999999999999
 31
0.0
  0
LINE
  5
281
330
1E
100
AcDbEntity
  8
0
100
AcDbLine
 10
467.0
 20
2.8338
 30
0.0
 11
467.0
 21
3.822099999999999
 31
0.0
  0
LINE
  5
282
330
1E
100
AcDbEntity
  8
0
100
AcDbLine
 10
467.0
 20
3.822099999999999
 30
0.0
 11
467.0
 21
2.8338
 31
0.0
  0
LINE
  5
283
330
1E
100
AcDbEntity
  8
0
100
AcDbLine
 10
466.3286249999999
 20
12.5
 30
0.0
 11
466.3286249999999
 21
9.3382
 31
0.0
  0
LINE
  5
284
330
1E
100
AcDbEntity
  8
0
100
AcDbLine
 10
466.3286249999999
 20
9.3382
 30
0.0
 11
466.3286249999999
 21
12.5
 31
0.0
  0
LINE
  5
285
330
1E
100
AcDbEntity
  8
0
100
AcDbLine
 10
466.5
 20
12.5
 30
0.0
 11
466.5
 21
9.411799999999999
 31
0.0
  0
LINE
  5
286
330
1E
100
AcDbEntity
  8
0
100
AcDbLine
 10
466.5
 20
9.411799999999999
 30
0.0
 11
466.5
 21
12.5
 31
0.0
  0
LINE
  5
287
330
1E
100
AcDbEntity
  8
0
100
AcDbLine
 10
466.865385
 20
9.844099999999999
 30
0.0
 11
466.865385
 21
12.5
 31
0.0
  0
LINE
  5
288
330
1E
100
AcDbEntity
  8
0
100
AcDbLine
 10
466.865385
 20
12.5
 30
0.0
 11
466.865385
 21
9.844099999999999
 31
0.0
  0
LINE
  5
289
330
1E
100
AcDbEntity
  8
0
100
AcDbLine
 10
467.0
 20
12.5
 30
0.0
 11
467.0
 21
9.9059
 31
0.0
  0
LINE
  5
28A
330
1E
100
AcDbEntity
  8
0
100
AcDbLine
 10
467.0
 20
9.9059
 30
0.0
 11
467.0
 21
12.5
 31
0.0
  0
LINE
  5
28B
330
1E
100
AcDbEntity
  8
0
100
AcDbLine
 10
466.3286249999999
 20
21.2132
 30
0.0
 11
466.3286249999999
 21
23.1618
 31
0.0
  0
LINE
  5
28C
330
1E
100
AcDbEntity
  8
0
100
AcDbLine
 10
466.3286249999999
 20
23.1618
 30
0.0
 11
466.3286249999999
 21
21.2132
 31
0.0
  0
LINE
  5
28D
330
1E
100
AcDbEntity
  8
0
100
AcDbLine
 10
466.5
 20
20.9559
 30
0.0
 11
466.5
 21
22.8309
 31
0.0
  0
LINE
  5
28E
330
1E
100
AcDbEntity
  8
0
100
AcDbLine
 10
466.5
 20
22.8309
 30
0.0
 11
466.5
 21
20.9559
 31
0.0
  0
LINE
  5
28F
330
1E
100
AcDbEntity
  8
0
100
AcDbLine
 10
466.865385
 20
21.45589999999999
 30
0.0
 11
466.865385
 21
19.8191
 31
0.0
  0
LINE
  5
290
330
1E
100
AcDbEntity
  8
0
100
AcDbLine
 10
466.865385
 20
19.8191
 30
0.0
 11
466.865385
 21
21.45589999999999
 31
0.0
  0
LINE
  5
291
330
1E
100
AcDbEntity
  8
0
100
AcDbLine
 10
467.0
 20
22.1662
 30
0.0
 11
467.0
 21
21.1779
 31
0.0
  0
LINE
  5
292
330
1E
100
AcDbEntity
  8
0
100
AcDbLine
 10
467.0
 20
21.1779
 30
0.0
 11
467.0
 21
22.1662
 31
0.0
  0
LINE
  5
293
330
1E
100
AcDbEntity
  8
0
100
AcDbLine
 10
466.865385
 20
17.6574
 30
0.0
 11
466.865385
 21
19.8191
 31
0.0
  0
LINE
  5
294
330
1E
100
AcDbEntity
  8
0
100
AcDbLine
 10
466.865385
 20
19.8191
 30
0.0
 11
466.865385
 21
17.6574
 31
0.0
  0
LINE
  5
295
330
1E
100
AcDbEntity
  8
0
100
AcDbLine
 10
467.0
 20
19.6029
 30
0.0
 11
467.0
 21
17.5029
 31
0.0
  0
LINE
  5
296
330
1E
100
AcDbEntity
  8
0
100
AcDbLine
 10
467.0
 20
17.5029
 30
0.0
 11
467.0
 21
19.6029
 31
0.0
  0
LINE
  5
297
330
1E
100
AcDbEntity
  8
0
100
AcDbLine
 10
466.3286249999999
 20
15.6618
 30
0.0
 11
466.3286249999999
 21
18.6397
 31
0.0
  0
LINE
  5
298
330
1E
100
AcDbEntity
  8
0
100
AcDbLine
 10
466.3286249999999
 20
18.6397
 30
0.0
 11
466.3286249999999
 21
15.6618
 31
0.0
  0
LINE
  5
299
330
1E
100
AcDbEntity
  8
0
100
AcDbLine
 10
466.5
 20
15.5882
 30
0.0
 11
466.5
 21
18.45589999999999
 31
0.0
  0
LINE
  5
29A
330
1E
100
AcDbEntity
  8
0
100
AcDbLine
 10
466.5
 20
18.45589999999999
 30
0.0
 11
466.5
 21
15.5882
 31
0.0
  0
LINE
  5
29B
330
1E
100
AcDbEntity
  8
0
100
AcDbLine
 10
466.865385
 20
15.1559
 30
0.0
 11
466.865385
 21
17.6574
 31
0.0
  0
LINE
  5
29C
330
1E
100
AcDbEntity
  8
0
100
AcDbLine
 10
466.865385
 20
17.6574
 30
0.0
 11
466.865385
 21
15.1559
 31
0.0
  0
LINE
  5
29D
330
1E
100
AcDbEntity
  8
0
100
AcDbLine
 10
467.0
 20
15.09409999999999
 30
0.0
 11
467.0
 21
17.5029
 31
0.0
  0
LINE
  5
29E
330
1E
100
AcDbEntity
  8
0
100
AcDbLine
 10
467.0
 20
17.5029
 30
0.0
 11
467.0
 21
15.09409999999999
 31
0.0
  0
LINE
  5
29F
330
1E
100
AcDbEntity
  8
0
100
AcDbLine
 10
466.3286249999999
 20
18.6397
 30
0.0
 11
466.3286249999999
 21
21.2132
 31
0.0
  0
LINE
  5
2A0
330
1E
100
AcDbEntity
  8
0
100
AcDbLine
 10
466.3286249999999
 20
21.2132
 30
0.0
 11
466.3286249999999
 21
18.6397
 31
0.0
  0
LINE
  5
2A1
330
1E
100
AcDbEntity
  8
0
100
AcDbLine
 10
467.0
 20
21.1779
 30
0.0
 11
467.0
 21
19.6029
 31
0.0
  0
LINE
  5
2A2
330
1E
100
AcDbEntity
  8
0
100
AcDbLine
 10
467.0
 20
19.6029
 30
0.0
 11
467.0
 21
21.1779
 31
0.0
  0
LINE
  5
2A3
330
1E
100
AcDbEntity
  8
0
100
AcDbLine
 10
466.5
 20
18.45589999999999
 30
0.0
 11
466.5
 21
20.9559
 31
0.0
  0
LINE
  5
2A4
330
1E
100
AcDbEntity
  8
0
100
AcDbLine
 10
466.5
 20
20.9559
 30
0.0
 11
466.5
 21
18.45589999999999
 31
0.0
  0
LINE
  5
2A5
330
1E
100
AcDbEntity
  8
0
100
AcDbLine
 10
466.3286249999999
 20
24.81619999999999
 30
0.0
 11
466.3286249999999
 21
24.375
 31
0.0
  0
LINE
  5
2A6
330
1E
100
AcDbEntity
  8
0
100
AcDbLine
 10
466.3286249999999
 20
24.375
 30
0.0
 11
466.3286249999999
 21
24.81619999999999
 31
0.0
  0
LINE
  5
2A7
330
1E
100
AcDbEntity
  8
0
100
AcDbLine
 10
466.5
 20
24.4485
 30
0.0
 11
466.5
 21
24.0074
 31
0.0
  0
LINE
  5
2A8
330
1E
100
AcDbEntity
  8
0
100
AcDbLine
 10
466.5
 20
24.0074
 30
0.0
 11
466.5
 21
24.4485
 31
0.0
  0
LINE
  5
2A9
330
1E
100
AcDbEntity
  8
0
100
AcDbLine
 10
467.0
 20
22.5368
 30
0.0
 11
466.865385
 21
22.8456
 31
0.0
  0
LINE
  5
2AA
330
1E
100
AcDbEntity
  8
0
100
AcDbLine
 10
466.865385
 20
22.475
 30
0.0
 11
466.865385
 21
22.8456
 31
0.0
  0
LINE
  5
2AB
330
1E
100
AcDbEntity
  8
0
100
AcDbLine
 10
466.865385
 20
22.8456
 30
0.0
 11
466.865385
 21
22.475
 31
0.0
  0
LINE
  5
2AC
330
1E
100
AcDbEntity
  8
0
100
AcDbLine
 10
467.0
 20
22.5368
 30
0.0
 11
467.0
 21
22.1662
 31
0.0
  0
LINE
  5
2AD
330
1E
100
AcDbEntity
  8
0
100
AcDbLine
 10
467.0
 20
22.1662
 30
0.0
 11
467.0
 21
22.5368
 31
0.0
  0
LINE
  5
2AE
330
1E
100
AcDbEntity
  8
0
100
AcDbLine
 10
466.865385
 20
22.475
 30
0.0
 11
466.865385
 21
21.45589999999999
 31
0.0
  0
LINE
  5
2AF
330
1E
100
AcDbEntity
  8
0
100
AcDbLine
 10
466.865385
 20
21.45589999999999
 30
0.0
 11
466.865385
 21
22.475
 31
0.0
  0
LINE
  5
2B0
330
1E
100
AcDbEntity
  8
0
100
AcDbLine
 10
466.596154
 20
23.0
 30
0.0
 11
466.5
 21
23.0
 31
0.0
  0
LINE
  5
2B1
330
1E
100
AcDbEntity
  8
0
100
AcDbLine
 10
466.596154
 20
23.0
 30
0.0
 11
466.5
 21
23.0
 31
0.0
  0
LINE
  5
2B2
330
1E
100
AcDbEntity
  8
0
100
AcDbLine
 10
466.865385
 20
22.8456
 30
0.0
 11
466.596154
 21
23.0
 31
0.0
  0
LINE
  5
2B3
330
1E
100
AcDbEntity
  8
0
100
AcDbLine
 10
466.865385
 20
22.8456
 30
0.0
 11
466.596154
 21
23.0
 31
0.0
  0
LINE
  5
2B4
330
1E
100
AcDbEntity
  8
0
100
AcDbLine
 10
466.5
 20
24.0074
 30
0.0
 11
466.5
 21
22.8309
 31
0.0
  0
LINE
  5
2B5
330
1E
100
AcDbEntity
  8
0
100
AcDbLine
 10
466.5
 20
22.8309
 30
0.0
 11
466.5
 21
24.0074
 31
0.0
  0
LINE
  5
2B6
330
1E
100
AcDbEntity
  8
0
100
AcDbLine
 10
466.3286249999999
 20
24.375
 30
0.0
 11
466.3286249999999
 21
23.1618
 31
0.0
  0
LINE
  5
2B7
330
1E
100
AcDbEntity
  8
0
100
AcDbLine
 10
466.3286249999999
 20
23.1618
 30
0.0
 11
466.3286249999999
 21
24.375
 31
0.0
  0
LINE
  5
2B8
330
1E
100
AcDbEntity
  8
0
100
AcDbLine
 10
466.5
 20
24.4485
 30
0.0
 11
466.3286249999999
 21
24.81619999999999
 31
0.0
  0
LINE
  5
2B9
330
1E
100
AcDbEntity
  8
0
100
AcDbLine
 10
466.3286249999999
 20
24.81619999999999
 30
0.0
 11
465.98588
 21
25.0
 31
0.0
  0
LINE
  5
2BA
330
1E
100
AcDbEntity
  8
0
100
AcDbLine
 10
423.2764999999999
 20
80.0
 30
0.0
 11
422.92
 21
80.0
 31
0.0
  0
LINE
  5
2BB
330
1E
100
AcDbEntity
  8
0
100
AcDbLine
 10
423.3470999999999
 20
65.21429999999999
 30
0.0
 11
422.9903
 21
65.0
 31
0.0
  0
LINE
  5
2BC
330
1E
100
AcDbEntity
  8
0
100
AcDbLine
 10
423.5
 20
65.71429999999999
 30
0.0
 11
423.5
 21
80.0
 31
0.0
  0
LINE
  5
2BD
330
1E
100
AcDbEntity
  8
0
100
AcDbLine
 10
423.5
 20
80.0
 30
0.0
 11
423.5
 21
65.71429999999999
 31
0.0
  0
LINE
  5
2BE
330
1E
100
AcDbEntity
  8
0
100
AcDbLine
 10
423.5
 20
65.71429999999999
 30
0.0
 11
423.3470999999999
 21
65.21429999999999
 31
0.0
  0
LINE
  5
2BF
330
1E
100
AcDbEntity
  8
0
100
AcDbLine
 10
423.4475999999999
 20
80.0
 30
0.0
 11
423.2764999999999
 21
80.0
 31
0.0
  0
LINE
  5
2C0
330
1E
100
AcDbEntity
  8
0
100
AcDbLine
 10
423.5
 20
80.0
 30
0.0
 11
423.4475999999999
 21
80.0
 31
0.0
  0
LINE
  5
2C1
330
1E
100
AcDbEntity
  8
0
100
AcDbLine
 10
387.3686
 20
80.0
 30
0.0
 11
384.0
 21
80.0
 31
0.0
  0
LINE
  5
2C2
330
1E
100
AcDbEntity
  8
0
100
AcDbLine
 10
408.4152
 20
80.0
 30
0.0
 11
404.5029
 21
80.0
 31
0.0
  0
LINE
  5
2C3
330
1E
100
AcDbEntity
  8
0
100
AcDbLine
 10
414.7721999999999
 20
80.0
 30
0.0
 11
413.3468999999999
 21
80.0
 31
0.0
  0
LINE
  5
2C4
330
1E
100
AcDbEntity
  8
0
100
AcDbLine
 10
419.3513
 20
80.0
 30
0.0
 11
418.6326
 21
80.0
 31
0.0
  0
LINE
  5
2C5
330
1E
100
AcDbEntity
  8
0
100
AcDbLine
 10
420.9737999999999
 20
80.0
 30
0.0
 11
420.4785
 21
80.0
 31
0.0
  0
LINE
  5
2C6
330
1E
100
AcDbEntity
  8
0
100
AcDbLine
 10
422.92
 20
80.0
 30
0.0
 11
422.4912999999999
 21
80.0
 31
0.0
  0
LINE
  5
2C7
330
1E
100
AcDbEntity
  8
0
100
AcDbLine
 10
422.4912999999999
 20
80.0
 30
0.0
 11
422.0246999999999
 21
80.0
 31
0.0
  0
LINE
  5
2C8
330
1E
100
AcDbEntity
  8
0
100
AcDbLine
 10
422.0246999999999
 20
80.0
 30
0.0
 11
421.6435
 21
80.0
 31
0.0
  0
LINE
  5
2C9
330
1E
100
AcDbEntity
  8
0
100
AcDbLine
 10
421.6435
 20
80.0
 30
0.0
 11
421.3238999999999
 21
80.0
 31
0.0
  0
LINE
  5
2CA
330
1E
100
AcDbEntity
  8
0
100
AcDbLine
 10
421.3238999999999
 20
80.0
 30
0.0
 11
420.9737999999999
 21
80.0
 31
0.0
  0
LINE
  5
2CB
330
1E
100
AcDbEntity
  8
0
100
AcDbLine
 10
420.4785
 20
80.0
 30
0.0
 11
419.9747
 21
80.0
 31
0.0
  0
LINE
  5
2CC
330
1E
100
AcDbEntity
  8
0
100
AcDbLine
 10
419.9747
 20
80.0
 30
0.0
 11
419.3513
 21
80.0
 31
0.0
  0
LINE
  5
2CD
330
1E
100
AcDbEntity
  8
0
100
AcDbLine
 10
416.8802999999999
 20
80.0
 30
0.0
 11
416.0012
 21
80.0
 31
0.0
  0
LINE
  5
2CE
330
1E
100
AcDbEntity
  8
0
100
AcDbLine
 10
417.8190999999999
 20
80.0
 30
0.0
 11
416.8802999999999
 21
80.0
 31
0.0
  0
LINE
  5
2CF
330
1E
100
AcDbEntity
  8
0
100
AcDbLine
 10
418.6326
 20
80.0
 30
0.0
 11
417.8190999999999
 21
80.0
 31
0.0
  0
LINE
  5
2D0
330
1E
100
AcDbEntity
  8
0
100
AcDbLine
 10
416.0012
 20
80.0
 30
0.0
 11
414.7721999999999
 21
80.0
 31
0.0
  0
LINE
  5
2D1
330
1E
100
AcDbEntity
  8
0
100
AcDbLine
 10
411.6157999999999
 20
80.0
 30
0.0
 11
408.4152
 21
80.0
 31
0.0
  0
LINE
  5
2D2
330
1E
100
AcDbEntity
  8
0
100
AcDbLine
 10
413.3468999999999
 20
80.0
 30
0.0
 11
411.6157999999999
 21
80.0
 31
0.0
  0
LINE
  5
2D3
330
1E
100
AcDbEntity
  8
0
100
AcDbLine
 10
398.8324
 20
80.0
 30
0.0
 11
392.3631
 21
80.0
 31
0.0
  0
LINE
  5
2D4
330
1E
100
AcDbEntity
  8
0
100
AcDbLine
 10
404.5029
 20
80.0
 30
0.0
 11
398.8324
 21
80.0
 31
0.0
  0
LINE
  5
2D5
330
1E
100
AcDbEntity
  8
0
100
AcDbLine
 10
392.3631
 20
80.0
 30
0.0
 11
387.3686
 21
80.0
 31
0.0
  0
LINE
  5
2D6
330
1E
100
AcDbEntity
  8
0
100
AcDbLine
 10
369.1676
 20
80.0
 30
0.0
 11
363.497
 21
80.0
 31
0.0
  0
LINE
  5
2D7
330
1E
100
AcDbEntity
  8
0
100
AcDbLine
 10
380.6314
 20
80.0
 30
0.0
 11
375.6368999999999
 21
80.0
 31
0.0
  0
LINE
  5
2D8
330
1E
100
AcDbEntity
  8
0
100
AcDbLine
 10
384.0
 20
80.0
 30
0.0
 11
380.6314
 21
80.0
 31
0.0
  0
LINE
  5
2D9
330
1E
100
AcDbEntity
  8
0
100
AcDbLine
 10
375.6368999999999
 20
80.0
 30
0.0
 11
369.1676
 21
80.0
 31
0.0
  0
LINE
  5
2DA
330
1E
100
AcDbEntity
  8
0
100
AcDbLine
 10
359.5849999999999
 20
80.0
 30
0.0
 11
356.384
 21
80.0
 31
0.0
  0
LINE
  5
2DB
330
1E
100
AcDbEntity
  8
0
100
AcDbLine
 10
363.497
 20
80.0
 30
0.0
 11
359.5849999999999
 21
80.0
 31
0.0
  0
LINE
  5
2DC
330
1E
100
AcDbEntity
  8
0
100
AcDbLine
 10
356.384
 20
80.0
 30
0.0
 11
354.653
 21
80.0
 31
0.0
  0
LINE
  5
2DD
330
1E
100
AcDbEntity
  8
0
100
AcDbLine
 10
353.228
 20
80.0
 30
0.0
 11
351.999
 21
80.0
 31
0.0
  0
LINE
  5
2DE
330
1E
100
AcDbEntity
  8
0
100
AcDbLine
 10
354.653
 20
80.0
 30
0.0
 11
353.228
 21
80.0
 31
0.0
  0
LINE
  5
2DF
330
1E
100
AcDbEntity
  8
0
100
AcDbLine
 10
351.999
 20
80.0
 30
0.0
 11
351.12
 21
80.0
 31
0.0
  0
LINE
  5
2E0
330
1E
100
AcDbEntity
  8
0
100
AcDbLine
 10
345.0099999999999
 20
65.0
 30
0.0
 11
344.653
 21
65.21429999999999
 31
0.0
  0
LINE
  5
2E1
330
1E
100
AcDbEntity
  8
0
100
AcDbLine
 10
344.5
 20
65.71429999999999
 30
0.0
 11
344.5
 21
80.0
 31
0.0
  0
LINE
  5
2E2
330
1E
100
AcDbEntity
  8
0
100
AcDbLine
 10
344.5
 20
80.0
 30
0.0
 11
344.5
 21
65.71429999999999
 31
0.0
  0
LINE
  5
2E3
330
1E
100
AcDbEntity
  8
0
100
AcDbLine
 10
344.653
 20
65.21429999999999
 30
0.0
 11
344.5
 21
65.71429999999999
 31
0.0
  0
LINE
  5
2E4
330
1E
100
AcDbEntity
  8
0
100
AcDbLine
 10
345.975
 20
80.0
 30
0.0
 11
345.509
 21
80.0
 31
0.0
  0
LINE
  5
2E5
330
1E
100
AcDbEntity
  8
0
100
AcDbLine
 10
348.0249999999999
 20
80.0
 30
0.0
 11
347.521
 21
80.0
 31
0.0
  0
LINE
  5
2E6
330
1E
100
AcDbEntity
  8
0
100
AcDbLine
 10
348.6489999999999
 20
80.0
 30
0.0
 11
348.0249999999999
 21
80.0
 31
0.0
  0
LINE
  5
2E7
330
1E
100
AcDbEntity
  8
0
100
AcDbLine
 10
349.367
 20
80.0
 30
0.0
 11
348.6489999999999
 21
80.0
 31
0.0
  0
LINE
  5
2E8
330
1E
100
AcDbEntity
  8
0
100
AcDbLine
 10
350.1809999999999
 20
80.0
 30
0.0
 11
349.367
 21
80.0
 31
0.0
  0
LINE
  5
2E9
330
1E
100
AcDbEntity
  8
0
100
AcDbLine
 10
346.356
 20
80.0
 30
0.0
 11
345.975
 21
80.0
 31
0.0
  0
LINE
  5
2EA
330
1E
100
AcDbEntity
  8
0
100
AcDbLine
 10
346.6759999999999
 20
80.0
 30
0.0
 11
346.356
 21
80.0
 31
0.0
  0
LINE
  5
2EB
330
1E
100
AcDbEntity
  8
0
100
AcDbLine
 10
347.026
 20
80.0
 30
0.0
 11
346.6759999999999
 21
80.0
 31
0.0
  0
LINE
  5
2EC
330
1E
100
AcDbEntity
  8
0
100
AcDbLine
 10
347.521
 20
80.0
 30
0.0
 11
347.026
 21
80.0
 31
0.0
  0
LINE
  5
2ED
330
1E
100
AcDbEntity
  8
0
100
AcDbLine
 10
344.552
 20
80.0
 30
0.0
 11
344.5
 21
80.0
 31
0.0
  0
LINE
  5
2EE
330
1E
100
AcDbEntity
  8
0
100
AcDbLine
 10
344.7239999999999
 20
80.0
 30
0.0
 11
344.552
 21
80.0
 31
0.0
  0
LINE
  5
2EF
330
1E
100
AcDbEntity
  8
0
100
AcDbLine
 10
345.08
 20
80.0
 30
0.0
 11
344.7239999999999
 21
80.0
 31
0.0
  0
LINE
  5
2F0
330
1E
100
AcDbEntity
  8
0
100
AcDbLine
 10
345.509
 20
80.0
 30
0.0
 11
345.08
 21
80.0
 31
0.0
  0
ENDSEC
  0
SECTION
  2
OBJECTS
  0
DICTIONARY
  5
C
330
0
100
AcDbDictionary
281
     1
  3
ACAD_GROUP
350
D
  3
ACAD_LAYOUT
350
19
  3
ACAD_MLINESTYLE
350
16
  3
ACAD_PLOTSETTINGS
350
18
  3
ACAD_PLOTSTYLENAME
350
E
  3
AcDbVariableDictionary
350
2F1
  0
DICTIONARY
  5
D
102
{ACAD_REACTORS
330
C
102
}
330
C
100
AcDbDictionary
281
     1
  0
DICTIONARY
  5
19
102
{ACAD_REACTORS
330
C
102
}
330
C
100
AcDbDictionary
281
     1
  3
Layout1
350
1D
  3
Model
350
21
  0
DICTIONARY
  5
16
102
{ACAD_REACTORS
330
C
102
}
330
C
100
AcDbDictionary
281
     1
  3
Standard
350
17
  0
DICTIONARY
  5
18
102
{ACAD_REACTORS
330
C
102
}
330
C
100
AcDbDictionary
281
     1
  0
ACDBDICTIONARYWDFLT
  5
E
102
{ACAD_REACTORS
330
C
102
}
330
C
100
AcDbDictionary
281
     1
  3
Normal
350
F
100
AcDbDictionaryWithDefault
340
F
  0
DICTIONARY
  5
2F1
102
{ACAD_REACTORS
330
C
102
}
330
C
100
AcDbDictionary
281
     1
  3
DIMASSOC
350
2F2
  0
LAYOUT
  5
1D
102
{ACAD_REACTORS
330
19
102
}
330
19
100
AcDbPlotSettings
  1

  2
hp deskjet 980c series
  4

  6

 40
0.0
 41
0.0
 42
0.0
 43
0.0
 44
0.0
 45
0.0
 46
0.0
 47
0.0
 48
0.0
 49
0.0
140
0.0
141
0.0
142
1.0
143
1.0
 70
   688
 72
     0
 73
     0
 74
     5
  7

 75
    16
147
1.0
148
0.0
149
0.0
100
AcDbLayout
  1
Layout1
 70
     1
 71
     1
 10
0.0
 20
0.0
 11
12.0
 21
9.0
 12
0.0
 22
0.0
 32
0.0
 14
1.000000000000000E+20
 24
1.000000000000000E+20
 34
1.000000000000000E+20
 15
-1.000000000000000E+20
 25
-1.000000000000000E+20
 35
-1.000000000000000E+20
146
0.0
 13
0.0
 23
0.0
 33
0.0
 16
1.0
 26
0.0
 36
0.0
 17
0.0
 27
1.0
 37
0.0
 76
     0
330
1A
  0
LAYOUT
  5
21
102
{ACAD_REACTORS
330
19
102
}
330
19
100
AcDbPlotSettings
  1

  2
hp deskjet 980c series
  4

  6

 40
0.0
 41
0.0
 42
0.0
 43
0.0
 44
0.0
 45
0.0
 46
0.0
 47
0.0
 48
0.0
 49
0.0
140
0.0
141
0.0
142
1.0
143
1.0
 70
  1712
 72
     0
 73
     0
 74
     0
  7

 75
     0
147
1.0
148
0.0
149
0.0
100
AcDbLayout
  1
Model
 70
     1
 71
     0
 10
0.0
 20
0.0
 11
12.0
 21
9.0
 12
0.0
 22
0.0
 32
0.0
 14
0.0
 24
0.0
 34
0.0
 15
0.0
 25
0.0
 35
0.0
146
0.0
 13
0.0
 23
0.0
 33
0.0
 16
1.0
 26
0.0
 36
0.0
 17
0.0
 27
1.0
 37
0.0
 76
     0
330
1E
  0
MLINESTYLE
  5
17
102
{ACAD_REACTORS
330
16
102
}
330
16
100
AcDbMlineStyle
  2
STANDARD
 70
     0
  3

 62
   256
 51
90.0
 52
90.0
 71
     2
 49
0.5
 62
   256
  6
BYLAYER
 49
-0.5
 62
   256
  6
BYLAYER
  0
ACDBPLACEHOLDER
  5
F
102
{ACAD_REACTORS
330
E
102
}
330
E
  0
DICTIONARYVAR
  5
2F2
102
{ACAD_REACTORS
330
2F1
102
}
330
2F1
100
DictionaryVariables
280
     0
  1
1
  0
ENDSEC
  0
EOF
