  0
SECTION
  2
HEADER
  9
$ACADVER
  1
AC1015
  9
$ACADMAINTVER
 70
    13
  9
$DWGCODEPAGE
  3
ANSI_1252
  9
$INSBASE
 10
0.0
 20
0.0
 30
0.0
  9
$EXTMIN
 10
0.0
 20
0.0000000000000096
 30
0.0
  9
$EXTMAX
 10
157.0
 20
173.0
 30
0.0
  9
$LIMMIN
 10
0.0
 20
0.0
  9
$LIMMAX
 10
12.0
 20
9.0
  9
$ORTHOMODE
 70
     0
  9
$REGENMODE
 70
     1
  9
$FILLMODE
 70
     1
  9
$QTEXTMODE
 70
     0
  9
$MIRRTEXT
 70
     1
  9
$LTSCALE
 40
1.0
  9
$ATTMODE
 70
     1
  9
$TEXTSIZE
 40
0.2
  9
$TRACEWID
 40
0.05
  9
$TEXTSTYLE
  7
Standard
  9
$CLAYER
  8
0
  9
$CELTYPE
  6
Continuous
  9
$CECOLOR
 62
   256
  9
$CELTSCALE
 40
1.0
  9
$DISPSILH
 70
     0
  9
$DIMSCALE
 40
1.0
  9
$DIMASZ
 40
0.18
  9
$DIMEXO
 40
0.0625
  9
$DIMDLI
 40
0.38
  9
$DIMRND
 40
0.0
  9
$DIMDLE
 40
0.0
  9
$DIMEXE
 40
0.18
  9
$DIMTP
 40
0.0
  9
$DIMTM
 40
0.0
  9
$DIMTXT
 40
0.18
  9
$DIMCEN
 40
0.09
  9
$DIMTSZ
 40
0.0
  9
$DIMTOL
 70
     0
  9
$DIMLIM
 70
     0
  9
$DIMTIH
 70
     1
  9
$DIMTOH
 70
     1
  9
$DIMSE1
 70
     0
  9
$DIMSE2
 70
     0
  9
$DIMTAD
 70
     0
  9
$DIMZIN
 70
     0
  9
$DIMBLK
  1

  9
$DIMASO
 70
     1
  9
$DIMSHO
 70
     1
  9
$DIMPOST
  1

  9
$DIMAPOST
  1

  9
$DIMALT
 70
     0
  9
$DIMALTD
 70
     2
  9
$DIMALTF
 40
25.4
  9
$DIMLFAC
 40
1.0
  9
$DIMTOFL
 70
     0
  9
$DIMTVP
 40
0.0
  9
$DIMTIX
 70
     0
  9
$DIMSOXD
 70
     0
  9
$DIMSAH
 70
     0
  9
$DIMBLK1
  1

  9
$DIMBLK2
  1

  9
$DIMSTYLE
  2
Standard
  9
$DIMCLRD
 70
     0
  9
$DIMCLRE
 70
     0
  9
$DIMCLRT
 70
     0
  9
$DIMTFAC
 40
1.0
  9
$DIMGAP
 40
0.09
  9
$DIMJUST
 70
     0
  9
$DIMSD1
 70
     0
  9
$DIMSD2
 70
     0
  9
$DIMTOLJ
 70
     1
  9
$DIMTZIN
 70
     0
  9
$DIMALTZ
 70
     0
  9
$DIMALTTZ
 70
     0
  9
$DIMUPT
 70
     0
  9
$DIMDEC
 70
     4
  9
$DIMTDEC
 70
     4
  9
$DIMALTU
 70
     2
  9
$DIMALTTD
 70
     2
  9
$DIMTXSTY
  7
Standard
  9
$DIMAUNIT
 70
     0
  9
$DIMADEC
 70
     0
  9
$DIMALTRND
 40
0.0
  9
$DIMAZIN
 70
     0
  9
$DIMDSEP
 70
    46
  9
$DIMATFIT
 70
     3
  9
$DIMFRAC
 70
     0
  9
$DIMLDRBLK
  1

  9
$DIMLUNIT
 70
     2
  9
$DIMLWD
 70
    -2
  9
$DIMLWE
 70
    -2
  9
$DIMTMOVE
 70
     0
  9
$LUNITS
 70
     2
  9
$LUPREC
 70
     4
  9
$SKETCHINC
 40
0.1
  9
$FILLETRAD
 40
0.0
  9
$AUNITS
 70
     0
  9
$AUPREC
 70
     0
  9
$MENU
  1
.
  9
$ELEVATION
 40
0.0
  9
$PELEVATION
 40
0.0
  9
$THICKNESS
 40
0.0
  9
$LIMCHECK
 70
     0
  9
$CHAMFERA
 40
0.0
  9
$CHAMFERB
 40
0.0
  9
$CHAMFERC
 40
0.0
  9
$CHAMFERD
 40
0.0
  9
$SKPOLY
 70
     0
  9
$TDCREATE
 40
2454906.875525173
  9
$TDUCREATE
 40
2454906.833858506
  9
$TDUPDATE
 40
2454906.882322222
  9
$TDUUPDATE
 40
2454906.840655555
  9
$TDINDWG
 40
0.0067970486
  9
$TDUSRTIMER
 40
0.0067970486
  9
$USRTIMER
 70
     1
  9
$ANGBASE
 50
0.0
  9
$ANGDIR
 70
     0
  9
$PDMODE
 70
     0
  9
$PDSIZE
 40
0.0
  9
$PLINEWID
 40
0.0
  9
$SPLFRAME
 70
     0
  9
$SPLINETYPE
 70
     6
  9
$SPLINESEGS
 70
     8
  9
$HANDSEED
  5
21A
  9
$SURFTAB1
 70
     6
  9
$SURFTAB2
 70
     6
  9
$SURFTYPE
 70
     6
  9
$SURFU
 70
     6
  9
$SURFV
 70
     6
  9
$UCSBASE
  2

  9
$UCSNAME
  2

  9
$UCSORG
 10
0.0
 20
0.0
 30
0.0
  9
$UCSXDIR
 10
1.0
 20
0.0
 30
0.0
  9
$UCSYDIR
 10
0.0
 20
1.0
 30
0.0
  9
$UCSORTHOREF
  2

  9
$UCSORTHOVIEW
 70
     1
  9
$UCSORGTOP
 10
0.0
 20
0.0
 30
0.0
  9
$UCSORGBOTTOM
 10
0.0
 20
0.0
 30
0.0
  9
$UCSORGLEFT
 10
0.0
 20
0.0
 30
0.0
  9
$UCSORGRIGHT
 10
0.0
 20
0.0
 30
0.0
  9
$UCSORGFRONT
 10
0.0
 20
0.0
 30
0.0
  9
$UCSORGBACK
 10
0.0
 20
0.0
 30
0.0
  9
$PUCSBASE
  2

  9
$PUCSNAME
  2

  9
$PUCSORG
 10
0.0
 20
0.0
 30
0.0
  9
$PUCSXDIR
 10
1.0
 20
0.0
 30
0.0
  9
$PUCSYDIR
 10
0.0
 20
1.0
 30
0.0
  9
$PUCSORTHOREF
  2

  9
$PUCSORTHOVIEW
 70
     0
  9
$PUCSORGTOP
 10
0.0
 20
0.0
 30
0.0
  9
$PUCSORGBOTTOM
 10
0.0
 20
0.0
 30
0.0
  9
$PUCSORGLEFT
 10
0.0
 20
0.0
 30
0.0
  9
$PUCSORGRIGHT
 10
0.0
 20
0.0
 30
0.0
  9
$PUCSORGFRONT
 10
0.0
 20
0.0
 30
0.0
  9
$PUCSORGBACK
 10
0.0
 20
0.0
 30
0.0
  9
$USERI1
 70
     0
  9
$USERI2
 70
     0
  9
$USERI3
 70
     0
  9
$USERI4
 70
     0
  9
$USERI5
 70
     0
  9
$USERR1
 40
0.0
  9
$USERR2
 40
0.0
  9
$USERR3
 40
0.0
  9
$USERR4
 40
0.0
  9
$USERR5
 40
0.0
  9
$WORLDVIEW
 70
     1
  9
$SHADEDGE
 70
     3
  9
$SHADEDIF
 70
    70
  9
$TILEMODE
 70
     1
  9
$MAXACTVP
 70
    64
  9
$PINSBASE
 10
0.0
 20
0.0
 30
0.0
  9
$PLIMCHECK
 70
     0
  9
$PEXTMIN
 10
1.000000000000000E+20
 20
1.000000000000000E+20
 30
1.000000000000000E+20
  9
$PEXTMAX
 10
-1.000000000000000E+20
 20
-1.000000000000000E+20
 30
-1.000000000000000E+20
  9
$PLIMMIN
 10
0.0
 20
0.0
  9
$PLIMMAX
 10
12.0
 20
9.0
  9
$UNITMODE
 70
     0
  9
$VISRETAIN
 70
     1
  9
$PLINEGEN
 70
     0
  9
$PSLTSCALE
 70
     1
  9
$TREEDEPTH
 70
  3020
  9
$CMLSTYLE
  2
Standard
  9
$CMLJUST
 70
     0
  9
$CMLSCALE
 40
1.0
  9
$PROXYGRAPHICS
 70
     1
  9
$MEASUREMENT
 70
     0
  9
$CELWEIGHT
370
    -1
  9
$ENDCAPS
280
     0
  9
$JOINSTYLE
280
     0
  9
$LWDISPLAY
290
     0
  9
$INSUNITS
 70
     0
  9
$HYPERLINKBASE
  1

  9
$STYLESHEET
  1

  9
$XEDIT
290
     1
  9
$CEPSNTYPE
380
     0
  9
$PSTYLEMODE
290
     1
  9
$FINGERPRINTGUID
  2
{5E359D57-67B7-45D3-A8D3-FD85C9C014E2}
  9
$VERSIONGUID
  2
{5DA8A468-176C-429F-9EF8-BB6CF303678C}
  9
$EXTNAMES
290
     1
  9
$PSVPSCALE
 40
0.0
  9
$OLESTARTUP
290
     0
  0
ENDSEC
  0
SECTION
  2
CLASSES
  0
CLASS
  1
ACDBDICTIONARYWDFLT
  2
AcDbDictionaryWithDefault
  3
AutoCAD 2000
 90
        0
280
     0
281
     0
  0
CLASS
  1
ACDBPLACEHOLDER
  2
AcDbPlaceHolder
  3
AutoCAD 2000
 90
        0
280
     0
281
     0
  0
CLASS
  1
LAYOUT
  2
AcDbLayout
  3
AutoCAD 2000
 90
        0
280
     0
281
     0
  0
CLASS
  1
DICTIONARYVAR
  2
AcDbDictionaryVar
  3
AutoCAD 2000
 90
        0
280
     0
281
     0
  0
ENDSEC
  0
SECTION
  2
TABLES
  0
TABLE
  2
VPORT
  5
8
330
0
100
AcDbSymbolTable
 70
     2
  0
VPORT
  5
219
330
8
100
AcDbSymbolTableRecord
100
AcDbViewportTableRecord
  2
*Active
 70
     0
 10
0.0
 20
0.0
 11
1.0
 21
1.0
 12
78.5
 22
86.50000000000002
 13
0.0
 23
0.0
 14
1.0
 24
1.0
 15
0.0
 25
0.0
 16
0.0
 26
0.0
 36
1.0
 17
0.0
 27
0.0
 37
0.0
 40
174.0926315789473
 41
1.968387776606954
 42
50.0
 43
0.0
 44
0.0
 50
0.0
 51
0.0
 71
     0
 72
   100
 73
     1
 74
     3
 75
     0
 76
     0
 77
     0
 78
     0
281
     0
 65
     1
110
0.0
120
0.0
130
0.0
111
1.0
121
0.0
131
0.0
112
0.0
122
1.0
132
0.0
 79
     1
146
0.0
  0
ENDTAB
  0
TABLE
  2
LTYPE
  5
5
330
0
100
AcDbSymbolTable
 70
     1
  0
LTYPE
  5
13
330
5
100
AcDbSymbolTableRecord
100
AcDbLinetypeTableRecord
  2
ByBlock
 70
     0
  3

 72
    65
 73
     0
 40
0.0
  0
LTYPE
  5
14
330
5
100
AcDbSymbolTableRecord
100
AcDbLinetypeTableRecord
  2
ByLayer
 70
     0
  3

 72
    65
 73
     0
 40
0.0
  0
LTYPE
  5
15
330
5
100
AcDbSymbolTableRecord
100
AcDbLinetypeTableRecord
  2
Continuous
 70
     0
  3
Solid line
 72
    65
 73
     0
 40
0.0
  0
ENDTAB
  0
TABLE
  2
LAYER
  5
2
330
0
100
AcDbSymbolTable
 70
     1
  0
LAYER
  5
10
330
2
100
AcDbSymbolTableRecord
100
AcDbLayerTableRecord
  2
0
 70
     0
 62
     7
  6
Continuous
370
    -3
390
F
  0
ENDTAB
  0
TABLE
  2
STYLE
  5
3
330
0
100
AcDbSymbolTable
 70
     1
  0
STYLE
  5
11
330
3
100
AcDbSymbolTableRecord
100
AcDbTextStyleTableRecord
  2
Standard
 70
     0
 40
0.0
 41
1.0
 50
0.0
 71
     0
 42
0.2
  3
txt
  4

  0
ENDTAB
  0
TABLE
  2
VIEW
  5
6
330
0
100
AcDbSymbolTable
 70
     0
  0
ENDTAB
  0
TABLE
  2
UCS
  5
7
330
0
100
AcDbSymbolTable
 70
     0
  0
ENDTAB
  0
TABLE
  2
APPID
  5
9
330
0
100
AcDbSymbolTable
 70
     1
  0
APPID
  5
12
330
9
100
AcDbSymbolTableRecord
100
AcDbRegAppTableRecord
  2
ACAD
 70
     0
  0
ENDTAB
  0
TABLE
  2
DIMSTYLE
  5
A
330
0
100
AcDbSymbolTable
 70
     1
100
AcDbDimStyleTable
 71
     0
  0
DIMSTYLE
105
213
330
A
100
AcDbSymbolTableRecord
100
AcDbDimStyleTableRecord
  2
Standard
 70
     0
340
11
  0
ENDTAB
  0
TABLE
  2
BLOCK_RECORD
  5
1
330
0
100
AcDbSymbolTable
 70
     0
  0
BLOCK_RECORD
  5
1E
330
1
100
AcDbSymbolTableRecord
100
AcDbBlockTableRecord
  2
*Model_Space
340
21
  0
BLOCK_RECORD
  5
1A
330
1
100
AcDbSymbolTableRecord
100
AcDbBlockTableRecord
  2
*Paper_Space
340
1D
  0
ENDTAB
  0
ENDSEC
  0
SECTION
  2
BLOCKS
  0
BLOCK
  5
1F
330
1E
100
AcDbEntity
  8
0
100
AcDbBlockBegin
  2
*Model_Space
 70
     0
 10
0.0
 20
0.0
 30
0.0
  3
*Model_Space
  1

  0
ENDBLK
  5
20
330
1E
100
AcDbEntity
  8
0
100
AcDbBlockEnd
  0
BLOCK
  5
1B
330
1A
100
AcDbEntity
 67
     1
  8
0
100
AcDbBlockBegin
  2
*Paper_Space
 70
     0
 10
0.0
 20
0.0
 30
0.0
  3
*Paper_Space
  1

  0
ENDBLK
  5
1C
330
1A
100
AcDbEntity
 67
     1
  8
0
100
AcDbBlockEnd
  0
ENDSEC
  0
SECTION
  2
ENTITIES
  0
LINE
  5
22
330
1E
100
AcDbEntity
  8
0
100
AcDbLine
 10
0.4770380000000001
 20
70.1126
 30
0.0
 11
1.87564
 21
66.85112
 31
0.0
  0
LINE
  5
23
330
1E
100
AcDbEntity
  8
0
100
AcDbLine
 10
7.072
 20
61.756798
 30
0.0
 11
10.41379999999999
 21
60.41974
 31
0.0
  0
LINE
  5
24
330
1E
100
AcDbEntity
  8
0
100
AcDbLine
 10
4.202329999999999
 20
63.88374
 30
0.0
 11
7.072
 21
61.756798
 31
0.0
  0
LINE
  5
25
330
1E
100
AcDbEntity
  8
0
100
AcDbLine
 10
2.00035
 20
66.65563
 30
0.0
 11
4.202329999999999
 21
63.88374
 31
0.0
  0
LINE
  5
26
330
1E
100
AcDbEntity
  8
0
100
AcDbLine
 10
1.87564
 20
66.85112
 30
0.0
 11
2.00035
 21
66.65563
 31
0.0
  0
LINE
  5
27
330
1E
100
AcDbEntity
  8
0
100
AcDbLine
 10
8.67914
 20
70.91031
 30
0.0
 11
9.65554
 21
69.6812
 31
0.0
  0
LINE
  5
28
330
1E
100
AcDbEntity
  8
0
100
AcDbLine
 10
0.4770380000000001
 20
70.1126
 30
0.0
 11
1.87564
 21
66.85112
 31
0.0
  0
LINE
  5
29
330
1E
100
AcDbEntity
  8
0
100
AcDbLine
 10
8.204439999999999
 20
72.1126
 30
0.0
 11
8.767970308917039
 21
70.79848879865529
 31
0.0
  0
LINE
  5
2A
330
1E
100
AcDbEntity
  8
0
100
AcDbLine
 10
0.0
 20
73.6126
 30
0.0
 11
0.4770380000000001
 21
70.1126
 31
0.0
  0
LINE
  5
2B
330
1E
100
AcDbEntity
  8
0
100
AcDbLine
 10
0.0
 20
73.6126
 30
0.0
 11
0.0
 21
81.34
 31
0.0
  0
LINE
  5
2C
330
1E
100
AcDbEntity
  8
0
100
AcDbLine
 10
0.144
 20
81.605
 30
0.0
 11
0.5280000000000001
 21
81.85349999999999
 31
0.0
  0
LINE
  5
2D
330
1E
100
AcDbEntity
  8
0
100
AcDbLine
 10
0.5280000000000001
 20
81.85349999999999
 30
0.0
 11
1.167999999999999
 21
82.073
 31
0.0
  0
LINE
  5
2E
330
1E
100
AcDbEntity
  8
0
100
AcDbLine
 10
0.144
 20
81.605
 30
0.0
 11
0.5280000000000001
 21
81.85349999999999
 31
0.0
  0
LINE
  5
2F
330
1E
100
AcDbEntity
  8
0
100
AcDbLine
 10
0.0
 20
81.34
 30
0.0
 11
0.0
 21
73.6126
 31
0.0
  0
LINE
  5
30
330
1E
100
AcDbEntity
  8
0
100
AcDbLine
 10
0.0
 20
81.34
 30
0.0
 11
0.144
 21
81.605
 31
0.0
  0
LINE
  5
31
330
1E
100
AcDbEntity
  8
0
100
AcDbLine
 10
2.016
 20
82.2386
 30
0.0
 11
2.976
 21
82.338
 31
0.0
  0
LINE
  5
32
330
1E
100
AcDbEntity
  8
0
100
AcDbLine
 10
1.167999999999999
 20
82.073
 30
0.0
 11
2.016
 21
82.2386
 31
0.0
  0
LINE
  5
33
330
1E
100
AcDbEntity
  8
0
100
AcDbLine
 10
2.976
 20
82.338
 30
0.0
 11
4.0
 21
82.37529999999999
 31
0.0
  0
LINE
  5
34
330
1E
100
AcDbEntity
  8
0
100
AcDbLine
 10
4.0
 20
82.37529999999999
 30
0.0
 11
5.024
 21
82.338
 31
0.0
  0
LINE
  5
35
330
1E
100
AcDbEntity
  8
0
100
AcDbLine
 10
5.024
 20
82.338
 30
0.0
 11
5.983999999999999
 21
82.2386
 31
0.0
  0
LINE
  5
36
330
1E
100
AcDbEntity
  8
0
100
AcDbLine
 10
5.983999999999999
 20
82.2386
 30
0.0
 11
6.832
 21
82.073
 31
0.0
  0
LINE
  5
37
330
1E
100
AcDbEntity
  8
0
100
AcDbLine
 10
6.832
 20
82.073
 30
0.0
 11
7.472
 21
81.85349999999999
 31
0.0
  0
LINE
  5
38
330
1E
100
AcDbEntity
  8
0
100
AcDbLine
 10
7.472
 20
81.85349999999999
 30
0.0
 11
7.855999999999999
 21
81.605
 31
0.0
  0
LINE
  5
39
330
1E
100
AcDbEntity
  8
0
100
AcDbLine
 10
8.0
 20
81.34
 30
0.0
 11
8.0
 21
73.6126
 31
0.0
  0
LINE
  5
3A
330
1E
100
AcDbEntity
  8
0
100
AcDbLine
 10
7.855999999999999
 20
81.605
 30
0.0
 11
8.0
 21
81.34
 31
0.0
  0
LINE
  5
3B
330
1E
100
AcDbEntity
  8
0
100
AcDbLine
 10
8.0
 20
73.6126
 30
0.0
 11
8.204439999999999
 21
72.1126
 31
0.0
  0
LINE
  5
3C
330
1E
100
AcDbEntity
  8
0
100
AcDbLine
 10
8.0
 20
73.6126
 30
0.0
 11
8.0
 21
81.34
 31
0.0
  0
LINE
  5
3D
330
1E
100
AcDbEntity
  8
0
100
AcDbLine
 10
10.41379999999999
 20
60.41974
 30
0.0
 11
14.0
 21
59.9637
 31
0.0
  0
LINE
  5
3E
330
1E
100
AcDbEntity
  8
0
100
AcDbLine
 10
14.0
 20
59.9637
 30
0.0
 11
18.5
 21
59.9637
 31
0.0
  0
LINE
  5
3F
330
1E
100
AcDbEntity
  8
0
100
AcDbLine
 10
18.5
 20
45.997
 30
0.0
 11
18.5
 21
50.8464
 31
0.0
  0
LINE
  5
40
330
1E
100
AcDbEntity
  8
0
100
AcDbLine
 10
18.5
 20
45.997
 30
0.0
 11
18.5
 21
40.2003
 31
0.0
  0
LINE
  5
41
330
1E
100
AcDbEntity
  8
0
100
AcDbLine
 10
18.5
 20
40.2003
 30
0.0
 11
18.5
 21
45.997
 31
0.0
  0
LINE
  5
42
330
1E
100
AcDbEntity
  8
0
100
AcDbLine
 10
18.5
 20
45.8525
 30
0.0
 11
18.5
 21
39.91579999999999
 31
0.0
  0
LINE
  5
43
330
1E
100
AcDbEntity
  8
0
100
AcDbLine
 10
18.5
 20
45.8525
 30
0.0
 11
18.5
 21
50.8947
 31
0.0
  0
LINE
  5
44
330
1E
100
AcDbEntity
  8
0
100
AcDbLine
 10
18.5
 20
50.8464
 30
0.0
 11
18.5
 21
55.10399
 31
0.0
  0
LINE
  5
45
330
1E
100
AcDbEntity
  8
0
100
AcDbLine
 10
18.5
 20
50.8464
 30
0.0
 11
18.5
 21
45.997
 31
0.0
  0
LINE
  5
46
330
1E
100
AcDbEntity
  8
0
100
AcDbLine
 10
18.5
 20
50.8947
 30
0.0
 11
18.5
 21
55.34336999999999
 31
0.0
  0
LINE
  5
47
330
1E
100
AcDbEntity
  8
0
100
AcDbLine
 10
18.5
 20
50.8947
 30
0.0
 11
18.5
 21
45.8525
 31
0.0
  0
LINE
  5
48
330
1E
100
AcDbEntity
  8
0
100
AcDbLine
 10
18.5
 20
55.34336999999999
 30
0.0
 11
18.5
 21
60.51393199999999
 31
0.0
  0
LINE
  5
49
330
1E
100
AcDbEntity
  8
0
100
AcDbLine
 10
18.5
 20
55.34336999999999
 30
0.0
 11
18.5
 21
50.8947
 31
0.0
  0
LINE
  5
4A
330
1E
100
AcDbEntity
  8
0
100
AcDbLine
 10
18.5
 20
55.10399
 30
0.0
 11
18.5
 21
50.8464
 31
0.0
  0
LINE
  5
4B
330
1E
100
AcDbEntity
  8
0
100
AcDbLine
 10
18.5
 20
55.10399
 30
0.0
 11
18.5
 21
60.29849
 31
0.0
  0
LINE
  5
4C
330
1E
100
AcDbEntity
  8
0
100
AcDbLine
 10
28.5
 20
0.0000000000000096
 30
0.0
 11
128.4999999999999
 21
0.0000000000000096
 31
0.0
  0
LINE
  5
4D
330
1E
100
AcDbEntity
  8
0
100
AcDbLine
 10
28.5
 20
6.2644
 30
0.0
 11
28.5
 21
1.5746
 31
0.0
  0
LINE
  5
4E
330
1E
100
AcDbEntity
  8
0
100
AcDbLine
 10
28.5
 20
6.2644
 30
0.0
 11
28.5
 21
14.0817
 31
0.0
  0
LINE
  5
4F
330
1E
100
AcDbEntity
  8
0
100
AcDbLine
 10
28.5
 20
1.5746
 30
0.0
 11
28.5
 21
0.0000000000000096
 31
0.0
  0
LINE
  5
50
330
1E
100
AcDbEntity
  8
0
100
AcDbLine
 10
28.5
 20
1.5746
 30
0.0
 11
28.5
 21
6.2644
 31
0.0
  0
LINE
  5
51
330
1E
100
AcDbEntity
  8
0
100
AcDbLine
 10
28.5
 20
24.3405
 30
0.0
 11
28.5
 21
14.0817
 31
0.0
  0
LINE
  5
52
330
1E
100
AcDbEntity
  8
0
100
AcDbLine
 10
28.5
 20
24.3405
 30
0.0
 11
28.5
 21
35.00659999999999
 31
0.0
  0
LINE
  5
53
330
1E
100
AcDbEntity
  8
0
100
AcDbLine
 10
28.5
 20
14.0817
 30
0.0
 11
28.5
 21
6.2644
 31
0.0
  0
LINE
  5
54
330
1E
100
AcDbEntity
  8
0
100
AcDbLine
 10
28.5
 20
14.0817
 30
0.0
 11
28.5
 21
24.3405
 31
0.0
  0
LINE
  5
55
330
1E
100
AcDbEntity
  8
0
100
AcDbLine
 10
28.5
 20
30.6063
 30
0.0
 11
28.5
 21
32.5205
 31
0.0
  0
LINE
  5
56
330
1E
100
AcDbEntity
  8
0
100
AcDbLine
 10
28.5
 20
30.6063
 30
0.0
 11
28.5
 21
29.9954
 31
0.0
  0
LINE
  5
57
330
1E
100
AcDbEntity
  8
0
100
AcDbLine
 10
28.5
 20
29.9954
 30
0.0
 11
28.5
 21
30.7843
 31
0.0
  0
LINE
  5
58
330
1E
100
AcDbEntity
  8
0
100
AcDbLine
 10
28.5
 20
29.9954
 30
0.0
 11
28.5
 21
30.6063
 31
0.0
  0
LINE
  5
59
330
1E
100
AcDbEntity
  8
0
100
AcDbLine
 10
28.5
 20
25.8519
 30
0.0
 11
28.5
 21
35.00659999999999
 31
0.0
  0
LINE
  5
5A
330
1E
100
AcDbEntity
  8
0
100
AcDbLine
 10
28.5
 20
25.8519
 30
0.0
 11
28.5
 21
15.3138
 31
0.0
  0
LINE
  5
5B
330
1E
100
AcDbEntity
  8
0
100
AcDbLine
 10
28.5
 20
15.3138
 30
0.0
 11
28.5
 21
25.8519
 31
0.0
  0
LINE
  5
5C
330
1E
100
AcDbEntity
  8
0
100
AcDbLine
 10
28.5
 20
15.3138
 30
0.0
 11
28.5
 21
7.133499999999999
 31
0.0
  0
LINE
  5
5D
330
1E
100
AcDbEntity
  8
0
100
AcDbLine
 10
28.5
 20
7.133499999999999
 30
0.0
 11
28.5
 21
15.3138
 31
0.0
  0
LINE
  5
5E
330
1E
100
AcDbEntity
  8
0
100
AcDbLine
 10
28.5
 20
7.133499999999999
 30
0.0
 11
28.5
 21
2.0249
 31
0.0
  0
LINE
  5
5F
330
1E
100
AcDbEntity
  8
0
100
AcDbLine
 10
28.5
 20
2.0249
 30
0.0
 11
28.5
 21
7.133499999999999
 31
0.0
  0
LINE
  5
60
330
1E
100
AcDbEntity
  8
0
100
AcDbLine
 10
28.5
 20
2.0249
 30
0.0
 11
28.5
 21
0.0000000000000096
 31
0.0
  0
LINE
  5
61
330
1E
100
AcDbEntity
  8
0
100
AcDbLine
 10
28.5
 20
32.5205
 30
0.0
 11
28.5
 21
35.00659999999999
 31
0.0
  0
LINE
  5
62
330
1E
100
AcDbEntity
  8
0
100
AcDbLine
 10
28.5
 20
32.5205
 30
0.0
 11
28.5
 21
30.6063
 31
0.0
  0
LINE
  5
63
330
1E
100
AcDbEntity
  8
0
100
AcDbLine
 10
28.5
 20
35.00659999999999
 30
0.0
 11
28.5
 21
32.8695
 31
0.0
  0
LINE
  5
64
330
1E
100
AcDbEntity
  8
0
100
AcDbLine
 10
28.5
 20
35.00659999999999
 30
0.0
 11
28.5
 21
25.8519
 31
0.0
  0
LINE
  5
65
330
1E
100
AcDbEntity
  8
0
100
AcDbLine
 10
28.5
 20
35.00659999999999
 30
0.0
 11
28.5
 21
24.3405
 31
0.0
  0
LINE
  5
66
330
1E
100
AcDbEntity
  8
0
100
AcDbLine
 10
28.5
 20
35.00659999999999
 30
0.0
 11
28.5
 21
32.5205
 31
0.0
  0
LINE
  5
67
330
1E
100
AcDbEntity
  8
0
100
AcDbLine
 10
28.5
 20
32.8695
 30
0.0
 11
28.5
 21
30.7843
 31
0.0
  0
LINE
  5
68
330
1E
100
AcDbEntity
  8
0
100
AcDbLine
 10
28.5
 20
32.8695
 30
0.0
 11
28.5
 21
35.00659999999999
 31
0.0
  0
LINE
  5
69
330
1E
100
AcDbEntity
  8
0
100
AcDbLine
 10
28.5
 20
30.7843
 30
0.0
 11
28.5
 21
29.9954
 31
0.0
  0
LINE
  5
6A
330
1E
100
AcDbEntity
  8
0
100
AcDbLine
 10
28.5
 20
30.7843
 30
0.0
 11
28.5
 21
32.8695
 31
0.0
  0
LINE
  5
6B
330
1E
100
AcDbEntity
  8
0
100
AcDbLine
 10
28.5
 20
0.0000000000000096
 30
0.0
 11
28.5
 21
2.0249
 31
0.0
  0
LINE
  5
6C
330
1E
100
AcDbEntity
  8
0
100
AcDbLine
 10
28.5
 20
0.0000000000000096
 30
0.0
 11
128.4999999999999
 21
0.0000000000000096
 31
0.0
  0
LINE
  5
6D
330
1E
100
AcDbEntity
  8
0
100
AcDbLine
 10
28.5
 20
0.0000000000000096
 30
0.0
 11
28.5
 21
1.5746
 31
0.0
  0
LINE
  5
6E
330
1E
100
AcDbEntity
  8
0
100
AcDbLine
 10
78.5
 20
35.00659999999999
 30
0.0
 11
133.4999999999999
 21
35.00659999999999
 31
0.0
  0
LINE
  5
6F
330
1E
100
AcDbEntity
  8
0
100
AcDbLine
 10
23.5
 20
35.00659999999999
 30
0.0
 11
78.5
 21
35.00659999999999
 31
0.0
  0
LINE
  5
70
330
1E
100
AcDbEntity
  8
0
100
AcDbLine
 10
23.5
 20
35.00659999999999
 30
0.0
 11
78.5
 21
35.00659999999999
 31
0.0
  0
LINE
  5
71
330
1E
100
AcDbEntity
  8
0
100
AcDbLine
 10
21.0116
 20
35.4941
 30
0.0
 11
23.5
 21
35.00659999999999
 31
0.0
  0
LINE
  5
72
330
1E
100
AcDbEntity
  8
0
100
AcDbLine
 10
19.3365
 20
37.0691
 30
0.0
 11
21.0116
 21
35.4941
 31
0.0
  0
LINE
  5
73
330
1E
100
AcDbEntity
  8
0
100
AcDbLine
 10
18.5
 20
39.91579999999999
 30
0.0
 11
19.3365
 21
37.0691
 31
0.0
  0
LINE
  5
74
330
1E
100
AcDbEntity
  8
0
100
AcDbLine
 10
18.5
 20
39.91579999999999
 30
0.0
 11
18.5
 21
45.8525
 31
0.0
  0
LINE
  5
75
330
1E
100
AcDbEntity
  8
0
100
AcDbLine
 10
18.5
 20
60.51393199999999
 30
0.0
 11
18.5
 21
65.67116999999999
 31
0.0
  0
LINE
  5
76
330
1E
100
AcDbEntity
  8
0
100
AcDbLine
 10
18.5
 20
60.51393199999999
 30
0.0
 11
18.5
 21
55.34336999999999
 31
0.0
  0
LINE
  5
77
330
1E
100
AcDbEntity
  8
0
100
AcDbLine
 10
18.5
 20
60.29849
 30
0.0
 11
18.5
 21
55.10399
 31
0.0
  0
LINE
  5
78
330
1E
100
AcDbEntity
  8
0
100
AcDbLine
 10
18.5
 20
60.29849
 30
0.0
 11
18.5
 21
65.38311
 31
0.0
  0
LINE
  5
79
330
1E
100
AcDbEntity
  8
0
100
AcDbLine
 10
18.5
 20
65.38311
 30
0.0
 11
18.5
 21
71.23758999999999
 31
0.0
  0
LINE
  5
7A
330
1E
100
AcDbEntity
  8
0
100
AcDbLine
 10
18.5
 20
65.38311
 30
0.0
 11
18.5
 21
60.29849
 31
0.0
  0
LINE
  5
7B
330
1E
100
AcDbEntity
  8
0
100
AcDbLine
 10
18.5
 20
65.67116999999999
 30
0.0
 11
18.5
 21
71.5764
 31
0.0
  0
LINE
  5
7C
330
1E
100
AcDbEntity
  8
0
100
AcDbLine
 10
18.5
 20
65.67116999999999
 30
0.0
 11
18.5
 21
60.51393199999999
 31
0.0
  0
LINE
  5
7D
330
1E
100
AcDbEntity
  8
0
100
AcDbLine
 10
14.0
 20
59.9637
 30
0.0
 11
18.5
 21
59.9637
 31
0.0
  0
LINE
  5
7E
330
1E
100
AcDbEntity
  8
0
100
AcDbLine
 10
14.0
 20
67.94298000000001
 30
0.0
 11
18.5
 21
67.94298000000001
 31
0.0
  0
LINE
  5
7F
330
1E
100
AcDbEntity
  8
0
100
AcDbLine
 10
14.0
 20
129.5104
 30
0.0
 11
18.5
 21
129.5104
 31
0.0
  0
LINE
  5
80
330
1E
100
AcDbEntity
  8
0
100
AcDbLine
 10
14.0
 20
130.0314999999999
 30
0.0
 11
14.0
 21
130.685
 31
0.0
  0
LINE
  5
81
330
1E
100
AcDbEntity
  8
0
100
AcDbLine
 10
14.0
 20
130.0314999999999
 30
0.0
 11
14.0
 21
129.6328
 31
0.0
  0
LINE
  5
82
330
1E
100
AcDbEntity
  8
0
100
AcDbLine
 10
14.0
 20
129.6328
 30
0.0
 11
14.0
 21
130.0314999999999
 31
0.0
  0
LINE
  5
83
330
1E
100
AcDbEntity
  8
0
100
AcDbLine
 10
14.0
 20
129.6328
 30
0.0
 11
14.0
 21
129.5104
 31
0.0
  0
LINE
  5
84
330
1E
100
AcDbEntity
  8
0
100
AcDbLine
 10
14.0
 20
129.5104
 30
0.0
 11
18.5
 21
129.5104
 31
0.0
  0
LINE
  5
85
330
1E
100
AcDbEntity
  8
0
100
AcDbLine
 10
14.0
 20
129.5104
 30
0.0
 11
14.0
 21
129.6328
 31
0.0
  0
LINE
  5
86
330
1E
100
AcDbEntity
  8
0
100
AcDbLine
 10
14.0
 20
129.5104
 30
0.0
 11
14.0
 21
129.6363
 31
0.0
  0
LINE
  5
87
330
1E
100
AcDbEntity
  8
0
100
AcDbLine
 10
14.0
 20
129.6363
 30
0.0
 11
14.0
 21
130.0404
 31
0.0
  0
LINE
  5
88
330
1E
100
AcDbEntity
  8
0
100
AcDbLine
 10
14.0
 20
129.6363
 30
0.0
 11
14.0
 21
129.5104
 31
0.0
  0
LINE
  5
89
330
1E
100
AcDbEntity
  8
0
100
AcDbLine
 10
14.0
 20
132.4646999999999
 30
0.0
 11
14.0
 21
133.4910999999999
 31
0.0
  0
LINE
  5
8A
330
1E
100
AcDbEntity
  8
0
100
AcDbLine
 10
14.0
 20
132.4646999999999
 30
0.0
 11
14.0
 21
131.5128999999999
 31
0.0
  0
LINE
  5
8B
330
1E
100
AcDbEntity
  8
0
100
AcDbLine
 10
14.0
 20
131.5128999999999
 30
0.0
 11
14.0
 21
132.4646999999999
 31
0.0
  0
LINE
  5
8C
330
1E
100
AcDbEntity
  8
0
100
AcDbLine
 10
14.0
 20
131.5128999999999
 30
0.0
 11
14.0
 21
130.685
 31
0.0
  0
LINE
  5
8D
330
1E
100
AcDbEntity
  8
0
100
AcDbLine
 10
14.0
 20
130.685
 30
0.0
 11
14.0
 21
131.5128999999999
 31
0.0
  0
LINE
  5
8E
330
1E
100
AcDbEntity
  8
0
100
AcDbLine
 10
14.0
 20
130.685
 30
0.0
 11
14.0
 21
130.0314999999999
 31
0.0
  0
LINE
  5
8F
330
1E
100
AcDbEntity
  8
0
100
AcDbLine
 10
14.0
 20
132.4822
 30
0.0
 11
14.0
 21
131.4975
 31
0.0
  0
LINE
  5
90
330
1E
100
AcDbEntity
  8
0
100
AcDbLine
 10
14.0
 20
132.4822
 30
0.0
 11
14.0
 21
133.5089
 31
0.0
  0
LINE
  5
91
330
1E
100
AcDbEntity
  8
0
100
AcDbLine
 10
14.0
 20
131.4975
 30
0.0
 11
14.0
 21
130.6597999999999
 31
0.0
  0
LINE
  5
92
330
1E
100
AcDbEntity
  8
0
100
AcDbLine
 10
14.0
 20
131.4975
 30
0.0
 11
14.0
 21
132.4822
 31
0.0
  0
LINE
  5
93
330
1E
100
AcDbEntity
  8
0
100
AcDbLine
 10
14.0
 20
130.6597999999999
 30
0.0
 11
14.0
 21
130.0404
 31
0.0
  0
LINE
  5
94
330
1E
100
AcDbEntity
  8
0
100
AcDbLine
 10
14.0
 20
130.6597999999999
 30
0.0
 11
14.0
 21
131.4975
 31
0.0
  0
LINE
  5
95
330
1E
100
AcDbEntity
  8
0
100
AcDbLine
 10
18.5
 20
71.5764
 30
0.0
 11
18.5
 21
79.2167
 31
0.0
  0
LINE
  5
96
330
1E
100
AcDbEntity
  8
0
100
AcDbLine
 10
18.5
 20
71.5764
 30
0.0
 11
18.5
 21
65.67116999999999
 31
0.0
  0
LINE
  5
97
330
1E
100
AcDbEntity
  8
0
100
AcDbLine
 10
18.5
 20
127.2512
 30
0.0
 11
18.5
 21
132.0170999999999
 31
0.0
  0
LINE
  5
98
330
1E
100
AcDbEntity
  8
0
100
AcDbLine
 10
18.5
 20
127.2512
 30
0.0
 11
18.5
 21
119.8765999999999
 31
0.0
  0
LINE
  5
99
330
1E
100
AcDbEntity
  8
0
100
AcDbLine
 10
18.5
 20
119.8765999999999
 30
0.0
 11
18.5
 21
127.2512
 31
0.0
  0
LINE
  5
9A
330
1E
100
AcDbEntity
  8
0
100
AcDbLine
 10
18.5
 20
119.8765999999999
 30
0.0
 11
18.5
 21
111.3061999999999
 31
0.0
  0
LINE
  5
9B
330
1E
100
AcDbEntity
  8
0
100
AcDbLine
 10
18.5
 20
125.9889
 30
0.0
 11
18.5
 21
118.5478999999999
 31
0.0
  0
LINE
  5
9C
330
1E
100
AcDbEntity
  8
0
100
AcDbLine
 10
18.5
 20
125.9889
 30
0.0
 11
18.5
 21
130.8023
 31
0.0
  0
LINE
  5
9D
330
1E
100
AcDbEntity
  8
0
100
AcDbLine
 10
18.5
 20
111.3061999999999
 30
0.0
 11
18.5
 21
119.8765999999999
 31
0.0
  0
LINE
  5
9E
330
1E
100
AcDbEntity
  8
0
100
AcDbLine
 10
18.5
 20
111.3061999999999
 30
0.0
 11
18.5
 21
102.0048999999999
 31
0.0
  0
LINE
  5
9F
330
1E
100
AcDbEntity
  8
0
100
AcDbLine
 10
18.5
 20
118.5478999999999
 30
0.0
 11
18.5
 21
110.0371999999999
 31
0.0
  0
LINE
  5
A0
330
1E
100
AcDbEntity
  8
0
100
AcDbLine
 10
18.5
 20
118.5478999999999
 30
0.0
 11
18.5
 21
125.9889
 31
0.0
  0
LINE
  5
A1
330
1E
100
AcDbEntity
  8
0
100
AcDbLine
 10
18.5
 20
102.0048999999999
 30
0.0
 11
18.5
 21
111.3061999999999
 31
0.0
  0
LINE
  5
A2
330
1E
100
AcDbEntity
  8
0
100
AcDbLine
 10
18.5
 20
102.0048999999999
 30
0.0
 11
18.5
 21
94.4974
 31
0.0
  0
LINE
  5
A3
330
1E
100
AcDbEntity
  8
0
100
AcDbLine
 10
18.5
 20
110.0371999999999
 30
0.0
 11
18.5
 21
101.0680999999999
 31
0.0
  0
LINE
  5
A4
330
1E
100
AcDbEntity
  8
0
100
AcDbLine
 10
18.5
 20
110.0371999999999
 30
0.0
 11
18.5
 21
118.5478999999999
 31
0.0
  0
LINE
  5
A5
330
1E
100
AcDbEntity
  8
0
100
AcDbLine
 10
18.5
 20
94.4974
 30
0.0
 11
18.5
 21
102.0048999999999
 31
0.0
  0
LINE
  5
A6
330
1E
100
AcDbEntity
  8
0
100
AcDbLine
 10
18.5
 20
94.4974
 30
0.0
 11
18.5
 21
87.25570000000001
 31
0.0
  0
LINE
  5
A7
330
1E
100
AcDbEntity
  8
0
100
AcDbLine
 10
18.5
 20
101.0680999999999
 30
0.0
 11
18.5
 21
93.5607
 31
0.0
  0
LINE
  5
A8
330
1E
100
AcDbEntity
  8
0
100
AcDbLine
 10
18.5
 20
101.0680999999999
 30
0.0
 11
18.5
 21
110.0371999999999
 31
0.0
  0
LINE
  5
A9
330
1E
100
AcDbEntity
  8
0
100
AcDbLine
 10
18.5
 20
87.25570000000001
 30
0.0
 11
18.5
 21
94.4974
 31
0.0
  0
LINE
  5
AA
330
1E
100
AcDbEntity
  8
0
100
AcDbLine
 10
18.5
 20
87.25570000000001
 30
0.0
 11
18.5
 21
79.2167
 31
0.0
  0
LINE
  5
AB
330
1E
100
AcDbEntity
  8
0
100
AcDbLine
 10
18.5
 20
93.5607
 30
0.0
 11
18.5
 21
86.58469999999999
 31
0.0
  0
LINE
  5
AC
330
1E
100
AcDbEntity
  8
0
100
AcDbLine
 10
18.5
 20
93.5607
 30
0.0
 11
18.5
 21
101.0680999999999
 31
0.0
  0
LINE
  5
AD
330
1E
100
AcDbEntity
  8
0
100
AcDbLine
 10
18.5
 20
79.2167
 30
0.0
 11
18.5
 21
87.25570000000001
 31
0.0
  0
LINE
  5
AE
330
1E
100
AcDbEntity
  8
0
100
AcDbLine
 10
18.5
 20
79.2167
 30
0.0
 11
18.5
 21
71.5764
 31
0.0
  0
LINE
  5
AF
330
1E
100
AcDbEntity
  8
0
100
AcDbLine
 10
18.5
 20
86.58469999999999
 30
0.0
 11
18.5
 21
78.47929999999999
 31
0.0
  0
LINE
  5
B0
330
1E
100
AcDbEntity
  8
0
100
AcDbLine
 10
18.5
 20
86.58469999999999
 30
0.0
 11
18.5
 21
93.5607
 31
0.0
  0
LINE
  5
B1
330
1E
100
AcDbEntity
  8
0
100
AcDbLine
 10
18.5
 20
78.47929999999999
 30
0.0
 11
18.5
 21
71.23758999999999
 31
0.0
  0
LINE
  5
B2
330
1E
100
AcDbEntity
  8
0
100
AcDbLine
 10
18.5
 20
78.47929999999999
 30
0.0
 11
18.5
 21
86.58469999999999
 31
0.0
  0
LINE
  5
B3
330
1E
100
AcDbEntity
  8
0
100
AcDbLine
 10
18.5
 20
71.23758999999999
 30
0.0
 11
18.5
 21
65.38311
 31
0.0
  0
LINE
  5
B4
330
1E
100
AcDbEntity
  8
0
100
AcDbLine
 10
18.5
 20
71.23758999999999
 30
0.0
 11
18.5
 21
78.47929999999999
 31
0.0
  0
LINE
  5
B5
330
1E
100
AcDbEntity
  8
0
100
AcDbLine
 10
18.5
 20
127.5408
 30
0.0
 11
18.5
 21
127.058
 31
0.0
  0
LINE
  5
B6
330
1E
100
AcDbEntity
  8
0
100
AcDbLine
 10
18.5
 20
127.5408
 30
0.0
 11
18.5
 21
129.6866
 31
0.0
  0
LINE
  5
B7
330
1E
100
AcDbEntity
  8
0
100
AcDbLine
 10
18.5
 20
127.058
 30
0.0
 11
18.5
 21
128.2362
 31
0.0
  0
LINE
  5
B8
330
1E
100
AcDbEntity
  8
0
100
AcDbLine
 10
18.5
 20
127.058
 30
0.0
 11
18.5
 21
127.5408
 31
0.0
  0
LINE
  5
B9
330
1E
100
AcDbEntity
  8
0
100
AcDbLine
 10
18.5
 20
128.8257999999999
 30
0.0
 11
18.5
 21
128.5050999999999
 31
0.0
  0
LINE
  5
BA
330
1E
100
AcDbEntity
  8
0
100
AcDbLine
 10
18.5
 20
128.8257999999999
 30
0.0
 11
18.5
 21
130.5665999999999
 31
0.0
  0
LINE
  5
BB
330
1E
100
AcDbEntity
  8
0
100
AcDbLine
 10
18.5
 20
128.5050999999999
 30
0.0
 11
18.5
 21
128.8257999999999
 31
0.0
  0
LINE
  5
BC
330
1E
100
AcDbEntity
  8
0
100
AcDbLine
 10
18.5
 20
128.5050999999999
 30
0.0
 11
18.5
 21
129.4508999999999
 31
0.0
  0
LINE
  5
BD
330
1E
100
AcDbEntity
  8
0
100
AcDbLine
 10
18.5
 20
128.2362
 30
0.0
 11
18.5
 21
129.5104
 31
0.0
  0
LINE
  5
BE
330
1E
100
AcDbEntity
  8
0
100
AcDbLine
 10
18.5
 20
128.2362
 30
0.0
 11
18.5
 21
127.058
 31
0.0
  0
LINE
  5
BF
330
1E
100
AcDbEntity
  8
0
100
AcDbLine
 10
18.5
 20
129.4508999999999
 30
0.0
 11
18.5
 21
129.5104
 31
0.0
  0
LINE
  5
C0
330
1E
100
AcDbEntity
  8
0
100
AcDbLine
 10
18.5
 20
129.4508999999999
 30
0.0
 11
18.5
 21
128.5050999999999
 31
0.0
  0
LINE
  5
C1
330
1E
100
AcDbEntity
  8
0
100
AcDbLine
 10
18.5
 20
132.0170999999999
 30
0.0
 11
18.5
 21
135.9315
 31
0.0
  0
LINE
  5
C2
330
1E
100
AcDbEntity
  8
0
100
AcDbLine
 10
18.5
 20
132.0170999999999
 30
0.0
 11
18.5
 21
127.2512
 31
0.0
  0
LINE
  5
C3
330
1E
100
AcDbEntity
  8
0
100
AcDbLine
 10
18.5
 20
130.8023
 30
0.0
 11
18.5
 21
134.7168
 31
0.0
  0
LINE
  5
C4
330
1E
100
AcDbEntity
  8
0
100
AcDbLine
 10
18.5
 20
130.8023
 30
0.0
 11
18.5
 21
125.9889
 31
0.0
  0
LINE
  5
C5
330
1E
100
AcDbEntity
  8
0
100
AcDbLine
 10
18.5
 20
132.8859999999999
 30
0.0
 11
18.5
 21
129.6866
 31
0.0
  0
LINE
  5
C6
330
1E
100
AcDbEntity
  8
0
100
AcDbLine
 10
18.5
 20
132.8859999999999
 30
0.0
 11
18.5
 21
133.1986
 31
0.0
  0
LINE
  5
C7
330
1E
100
AcDbEntity
  8
0
100
AcDbLine
 10
18.5
 20
133.1986
 30
0.0
 11
18.5
 21
132.8859999999999
 31
0.0
  0
LINE
  5
C8
330
1E
100
AcDbEntity
  8
0
100
AcDbLine
 10
18.5
 20
133.1986
 30
0.0
 11
18.5
 21
130.5665999999999
 31
0.0
  0
LINE
  5
C9
330
1E
100
AcDbEntity
  8
0
100
AcDbLine
 10
18.5
 20
130.5665999999999
 30
0.0
 11
18.5
 21
128.8257999999999
 31
0.0
  0
LINE
  5
CA
330
1E
100
AcDbEntity
  8
0
100
AcDbLine
 10
18.5
 20
130.5665999999999
 30
0.0
 11
18.5
 21
133.1986
 31
0.0
  0
LINE
  5
CB
330
1E
100
AcDbEntity
  8
0
100
AcDbLine
 10
78.5
 20
132.0170999999999
 30
0.0
 11
82.2283
 21
132.3804
 31
0.0
  0
LINE
  5
CC
330
1E
100
AcDbEntity
  8
0
100
AcDbLine
 10
82.2283
 20
132.3804
 30
0.0
 11
85.87290000000001
 21
133.7647
 31
0.0
  0
LINE
  5
CD
330
1E
100
AcDbEntity
  8
0
100
AcDbLine
 10
74.7717
 20
132.3804
 30
0.0
 11
78.5
 21
132.0170999999999
 31
0.0
  0
LINE
  5
CE
330
1E
100
AcDbEntity
  8
0
100
AcDbLine
 10
18.5
 20
129.6866
 30
0.0
 11
18.5
 21
127.5408
 31
0.0
  0
LINE
  5
CF
330
1E
100
AcDbEntity
  8
0
100
AcDbLine
 10
18.5
 20
129.6866
 30
0.0
 11
18.5
 21
132.8859999999999
 31
0.0
  0
LINE
  5
D0
330
1E
100
AcDbEntity
  8
0
100
AcDbLine
 10
18.5
 20
129.5104
 30
0.0
 11
18.5
 21
128.2362
 31
0.0
  0
LINE
  5
D1
330
1E
100
AcDbEntity
  8
0
100
AcDbLine
 10
18.5
 20
129.5104
 30
0.0
 11
18.5
 21
129.4508999999999
 31
0.0
  0
LINE
  5
D2
330
1E
100
AcDbEntity
  8
0
100
AcDbLine
 10
14.0
 20
130.0404
 30
0.0
 11
14.0
 21
129.6363
 31
0.0
  0
LINE
  5
D3
330
1E
100
AcDbEntity
  8
0
100
AcDbLine
 10
14.0
 20
130.0404
 30
0.0
 11
14.0
 21
130.6597999999999
 31
0.0
  0
LINE
  5
D4
330
1E
100
AcDbEntity
  8
0
100
AcDbLine
 10
12.4098
 20
68.1452
 30
0.0
 11
14.0
 21
67.94298000000001
 31
0.0
  0
LINE
  5
D5
330
1E
100
AcDbEntity
  8
0
100
AcDbLine
 10
10.92799999999999
 20
68.73806999999999
 30
0.0
 11
12.4098
 21
68.1452
 31
0.0
  0
LINE
  5
D6
330
1E
100
AcDbEntity
  8
0
100
AcDbLine
 10
14.0
 20
67.94298000000001
 30
0.0
 11
18.5
 21
67.94298000000001
 31
0.0
  0
LINE
  5
D7
330
1E
100
AcDbEntity
  8
0
100
AcDbLine
 10
9.65554
 20
69.6812
 30
0.0
 11
10.92799999999999
 21
68.73806999999999
 31
0.0
  0
LINE
  5
D8
330
1E
100
AcDbEntity
  8
0
100
AcDbLine
 10
14.0
 20
133.4910999999999
 30
0.0
 11
14.0
 21
134.5177999999999
 31
0.0
  0
LINE
  5
D9
330
1E
100
AcDbEntity
  8
0
100
AcDbLine
 10
14.0
 20
133.4910999999999
 30
0.0
 11
14.0
 21
132.4646999999999
 31
0.0
  0
LINE
  5
DA
330
1E
100
AcDbEntity
  8
0
100
AcDbLine
 10
14.0
 20
134.5177999999999
 30
0.0
 11
14.0
 21
135.5024999999999
 31
0.0
  0
LINE
  5
DB
330
1E
100
AcDbEntity
  8
0
100
AcDbLine
 10
14.0
 20
134.5177999999999
 30
0.0
 11
14.0
 21
133.4910999999999
 31
0.0
  0
LINE
  5
DC
330
1E
100
AcDbEntity
  8
0
100
AcDbLine
 10
14.0
 20
135.5024999999999
 30
0.0
 11
14.0
 21
136.3402
 31
0.0
  0
LINE
  5
DD
330
1E
100
AcDbEntity
  8
0
100
AcDbLine
 10
14.0
 20
135.5024999999999
 30
0.0
 11
14.0
 21
134.5177999999999
 31
0.0
  0
LINE
  5
DE
330
1E
100
AcDbEntity
  8
0
100
AcDbLine
 10
14.0
 20
135.4870999999999
 30
0.0
 11
14.0
 21
134.5353
 31
0.0
  0
LINE
  5
DF
330
1E
100
AcDbEntity
  8
0
100
AcDbLine
 10
14.0
 20
135.4870999999999
 30
0.0
 11
14.0
 21
136.315
 31
0.0
  0
LINE
  5
E0
330
1E
100
AcDbEntity
  8
0
100
AcDbLine
 10
18.5
 20
134.7168
 30
0.0
 11
18.5
 21
136.9623999999999
 31
0.0
  0
LINE
  5
E1
330
1E
100
AcDbEntity
  8
0
100
AcDbLine
 10
18.5
 20
134.7168
 30
0.0
 11
18.5
 21
130.8023
 31
0.0
  0
LINE
  5
E2
330
1E
100
AcDbEntity
  8
0
100
AcDbLine
 10
14.0
 20
134.5353
 30
0.0
 11
14.0
 21
133.5089
 31
0.0
  0
LINE
  5
E3
330
1E
100
AcDbEntity
  8
0
100
AcDbLine
 10
14.0
 20
134.5353
 30
0.0
 11
14.0
 21
135.4870999999999
 31
0.0
  0
LINE
  5
E4
330
1E
100
AcDbEntity
  8
0
100
AcDbLine
 10
14.0
 20
133.5089
 30
0.0
 11
14.0
 21
132.4822
 31
0.0
  0
LINE
  5
E5
330
1E
100
AcDbEntity
  8
0
100
AcDbLine
 10
14.0
 20
133.5089
 30
0.0
 11
14.0
 21
134.5353
 31
0.0
  0
LINE
  5
E6
330
1E
100
AcDbEntity
  8
0
100
AcDbLine
 10
71.12709999999999
 20
133.7647
 30
0.0
 11
74.7717
 21
132.3804
 31
0.0
  0
LINE
  5
E7
330
1E
100
AcDbEntity
  8
0
100
AcDbLine
 10
70.77499081081079
 20
134.080935675676
 30
0.0
 11
70.98
 21
135.5159999999999
 31
0.0
  0
LINE
  5
E8
330
1E
100
AcDbEntity
  8
0
100
AcDbLine
 10
70.98
 20
135.5159999999999
 30
0.0
 11
71.74800000000001
 21
137.372
 31
0.0
  0
LINE
  5
E9
330
1E
100
AcDbEntity
  8
0
100
AcDbLine
 10
70.60336948759
 20
134.2350719117509
 30
0.0
 11
70.788
 21
135.548
 31
0.0
  0
LINE
  5
EA
330
1E
100
AcDbEntity
  8
0
100
AcDbLine
 10
14.0
 20
136.3402
 30
0.0
 11
14.0
 21
136.9596
 31
0.0
  0
LINE
  5
EB
330
1E
100
AcDbEntity
  8
0
100
AcDbLine
 10
14.0
 20
136.3402
 30
0.0
 11
14.0
 21
135.5024999999999
 31
0.0
  0
LINE
  5
EC
330
1E
100
AcDbEntity
  8
0
100
AcDbLine
 10
18.5
 20
135.9315
 30
0.0
 11
18.5
 21
132.0170999999999
 31
0.0
  0
LINE
  5
ED
330
1E
100
AcDbEntity
  8
0
100
AcDbLine
 10
18.5
 20
135.9315
 30
0.0
 11
18.5
 21
138.1771999999999
 31
0.0
  0
LINE
  5
EE
330
1E
100
AcDbEntity
  8
0
100
AcDbLine
 10
68.7145
 20
135.9315
 30
0.0
 11
71.12709999999999
 21
133.7647
 31
0.0
  0
LINE
  5
EF
330
1E
100
AcDbEntity
  8
0
100
AcDbLine
 10
14.0
 20
136.315
 30
0.0
 11
14.0
 21
135.4870999999999
 31
0.0
  0
LINE
  5
F0
330
1E
100
AcDbEntity
  8
0
100
AcDbLine
 10
14.0
 20
136.315
 30
0.0
 11
14.0
 21
136.9685
 31
0.0
  0
LINE
  5
F1
330
1E
100
AcDbEntity
  8
0
100
AcDbLine
 10
70.788
 20
135.548
 30
0.0
 11
71.55599999999999
 21
137.4679999999999
 31
0.0
  0
LINE
  5
F2
330
1E
100
AcDbEntity
  8
0
100
AcDbLine
 10
73.014
 20
136.646
 30
0.0
 11
74.028
 21
137.972
 31
0.0
  0
LINE
  5
F3
330
1E
100
AcDbEntity
  8
0
100
AcDbLine
 10
72.39
 20
135.138
 30
0.0
 11
73.014
 21
136.646
 31
0.0
  0
LINE
  5
F4
330
1E
100
AcDbEntity
  8
0
100
AcDbLine
 10
72.23399999999999
 20
135.1639999999999
 30
0.0
 11
72.858
 21
136.724
 31
0.0
  0
LINE
  5
F5
330
1E
100
AcDbEntity
  8
0
100
AcDbLine
 10
72.15600000000001
 20
133.4999999999999
 30
0.0
 11
72.17504768545959
 21
133.366666201783
 31
0.0
  0
LINE
  5
F6
330
1E
100
AcDbEntity
  8
0
100
AcDbLine
 10
72.15600000000001
 20
133.4999999999999
 30
0.0
 11
72.39
 21
135.138
 31
0.0
  0
LINE
  5
F7
330
1E
100
AcDbEntity
  8
0
100
AcDbLine
 10
72.0
 20
133.4999999999999
 30
0.0
 11
72.00993075793601
 21
133.4293812769
 31
0.0
  0
LINE
  5
F8
330
1E
100
AcDbEntity
  8
0
100
AcDbLine
 10
72.0
 20
133.4999999999999
 30
0.0
 11
72.23399999999999
 21
135.1639999999999
 31
0.0
  0
LINE
  5
F9
330
1E
100
AcDbEntity
  8
0
100
AcDbLine
 10
72.858
 20
136.724
 30
0.0
 11
73.898
 21
138.102
 31
0.0
  0
LINE
  5
FA
330
1E
100
AcDbEntity
  8
0
100
AcDbLine
 10
83.986
 20
136.646
 30
0.0
 11
84.61
 21
135.138
 31
0.0
  0
LINE
  5
FB
330
1E
100
AcDbEntity
  8
0
100
AcDbLine
 10
84.61
 20
135.138
 30
0.0
 11
84.84399999999999
 21
133.4999999999999
 31
0.0
  0
LINE
  5
FC
330
1E
100
AcDbEntity
  8
0
100
AcDbLine
 10
14.0
 20
136.9596
 30
0.0
 11
14.0
 21
137.3636999999999
 31
0.0
  0
LINE
  5
FD
330
1E
100
AcDbEntity
  8
0
100
AcDbLine
 10
14.0
 20
136.9596
 30
0.0
 11
14.0
 21
136.3402
 31
0.0
  0
LINE
  5
FE
330
1E
100
AcDbEntity
  8
0
100
AcDbLine
 10
18.5
 20
136.9623999999999
 30
0.0
 11
18.5
 21
137.5491
 31
0.0
  0
LINE
  5
FF
330
1E
100
AcDbEntity
  8
0
100
AcDbLine
 10
18.5
 20
136.9623999999999
 30
0.0
 11
18.5
 21
134.7168
 31
0.0
  0
LINE
  5
100
330
1E
100
AcDbEntity
  8
0
100
AcDbLine
 10
14.0
 20
136.9685
 30
0.0
 11
14.0
 21
136.315
 31
0.0
  0
LINE
  5
101
330
1E
100
AcDbEntity
  8
0
100
AcDbLine
 10
14.0
 20
136.9685
 30
0.0
 11
14.0
 21
137.3672
 31
0.0
  0
LINE
  5
102
330
1E
100
AcDbEntity
  8
0
100
AcDbLine
 10
14.0
 20
137.3672
 30
0.0
 11
14.0
 21
136.9685
 31
0.0
  0
LINE
  5
103
330
1E
100
AcDbEntity
  8
0
100
AcDbLine
 10
14.0
 20
137.3672
 30
0.0
 11
14.0
 21
137.4895999999999
 31
0.0
  0
LINE
  5
104
330
1E
100
AcDbEntity
  8
0
100
AcDbLine
 10
14.0
 20
137.3636999999999
 30
0.0
 11
14.0
 21
137.4895999999999
 31
0.0
  0
LINE
  5
105
330
1E
100
AcDbEntity
  8
0
100
AcDbLine
 10
14.0
 20
137.3636999999999
 30
0.0
 11
14.0
 21
136.9596
 31
0.0
  0
LINE
  5
106
330
1E
100
AcDbEntity
  8
0
100
AcDbLine
 10
71.74800000000001
 20
137.372
 30
0.0
 11
72.99600000000001
 21
139.0039999999999
 31
0.0
  0
LINE
  5
107
330
1E
100
AcDbEntity
  8
0
100
AcDbLine
 10
14.0
 20
137.4895999999999
 30
0.0
 11
18.5
 21
137.4895999999999
 31
0.0
  0
LINE
  5
108
330
1E
100
AcDbEntity
  8
0
100
AcDbLine
 10
18.5
 20
137.4895999999999
 30
0.0
 11
18.5
 21
138.1742
 31
0.0
  0
LINE
  5
109
330
1E
100
AcDbEntity
  8
0
100
AcDbLine
 10
18.5
 20
137.4895999999999
 30
0.0
 11
18.5
 21
139.4592
 31
0.0
  0
LINE
  5
10A
330
1E
100
AcDbEntity
  8
0
100
AcDbLine
 10
18.5
 20
138.1771999999999
 30
0.0
 11
18.5
 21
135.9315
 31
0.0
  0
LINE
  5
10B
330
1E
100
AcDbEntity
  8
0
100
AcDbLine
 10
18.5
 20
138.1771999999999
 30
0.0
 11
18.5
 21
138.7638
 31
0.0
  0
LINE
  5
10C
330
1E
100
AcDbEntity
  8
0
100
AcDbLine
 10
18.5
 20
137.5491
 30
0.0
 11
18.5
 21
138.4948999999999
 31
0.0
  0
LINE
  5
10D
330
1E
100
AcDbEntity
  8
0
100
AcDbLine
 10
18.5
 20
137.5491
 30
0.0
 11
18.5
 21
136.9623999999999
 31
0.0
  0
LINE
  5
10E
330
1E
100
AcDbEntity
  8
0
100
AcDbLine
 10
18.5
 20
138.7638
 30
0.0
 11
18.5
 21
139.942
 31
0.0
  0
LINE
  5
10F
330
1E
100
AcDbEntity
  8
0
100
AcDbLine
 10
18.5
 20
138.7638
 30
0.0
 11
18.5
 21
138.1771999999999
 31
0.0
  0
LINE
  5
110
330
1E
100
AcDbEntity
  8
0
100
AcDbLine
 10
18.5
 20
138.4948999999999
 30
0.0
 11
18.5
 21
137.5491
 31
0.0
  0
LINE
  5
111
330
1E
100
AcDbEntity
  8
0
100
AcDbLine
 10
18.5
 20
138.4948999999999
 30
0.0
 11
18.5
 21
138.1742
 31
0.0
  0
LINE
  5
112
330
1E
100
AcDbEntity
  8
0
100
AcDbLine
 10
68.0
 20
138.1771999999999
 30
0.0
 11
68.7145
 21
135.9315
 31
0.0
  0
LINE
  5
113
330
1E
100
AcDbEntity
  8
0
100
AcDbLine
 10
68.0
 20
138.1771999999999
 30
0.0
 11
68.0
 21
138.7638
 31
0.0
  0
LINE
  5
114
330
1E
100
AcDbEntity
  8
0
100
AcDbLine
 10
68.0
 20
138.7638
 30
0.0
 11
68.0
 21
139.942
 31
0.0
  0
LINE
  5
115
330
1E
100
AcDbEntity
  8
0
100
AcDbLine
 10
68.0
 20
138.7638
 30
0.0
 11
68.0
 21
138.1771999999999
 31
0.0
  0
LINE
  5
116
330
1E
100
AcDbEntity
  8
0
100
AcDbLine
 10
18.5
 20
138.1742
 30
0.0
 11
18.5
 21
138.4948999999999
 31
0.0
  0
LINE
  5
117
330
1E
100
AcDbEntity
  8
0
100
AcDbLine
 10
18.5
 20
138.1742
 30
0.0
 11
18.5
 21
137.4895999999999
 31
0.0
  0
LINE
  5
118
330
1E
100
AcDbEntity
  8
0
100
AcDbLine
 10
68.2187692924255
 20
137.4895999999999
 30
0.0
 11
71.5723018867925
 21
137.4895999999999
 31
0.0
  0
LINE
  5
119
330
1E
100
AcDbEntity
  8
0
100
AcDbLine
 10
68.2187692924255
 20
137.4895999999999
 30
0.0
 11
71.5723018867925
 21
137.4895999999999
 31
0.0
  0
LINE
  5
11A
330
1E
100
AcDbEntity
  8
0
100
AcDbLine
 10
14.0
 20
137.4895999999999
 30
0.0
 11
18.5
 21
137.4895999999999
 31
0.0
  0
LINE
  5
11B
330
1E
100
AcDbEntity
  8
0
100
AcDbLine
 10
14.0
 20
137.4895999999999
 30
0.0
 11
14.0
 21
137.3672
 31
0.0
  0
LINE
  5
11C
330
1E
100
AcDbEntity
  8
0
100
AcDbLine
 10
14.0
 20
137.4895999999999
 30
0.0
 11
14.0
 21
137.3636999999999
 31
0.0
  0
LINE
  5
11D
330
1E
100
AcDbEntity
  8
0
100
AcDbLine
 10
71.55599999999999
 20
137.4679999999999
 30
0.0
 11
72.83599999999999
 21
139.1639999999999
 31
0.0
  0
LINE
  5
11E
330
1E
100
AcDbEntity
  8
0
100
AcDbLine
 10
75.354
 20
138.9859999999999
 30
0.0
 11
76.86199999999999
 21
139.61
 31
0.0
  0
LINE
  5
11F
330
1E
100
AcDbEntity
  8
0
100
AcDbLine
 10
74.028
 20
137.972
 30
0.0
 11
75.354
 21
138.9859999999999
 31
0.0
  0
LINE
  5
120
330
1E
100
AcDbEntity
  8
0
100
AcDbLine
 10
73.898
 20
138.102
 30
0.0
 11
75.27600000000001
 21
139.1419999999999
 31
0.0
  0
LINE
  5
121
330
1E
100
AcDbEntity
  8
0
100
AcDbLine
 10
72.99600000000001
 20
139.0039999999999
 30
0.0
 11
74.628
 21
140.252
 31
0.0
  0
LINE
  5
122
330
1E
100
AcDbEntity
  8
0
100
AcDbLine
 10
75.27600000000001
 20
139.1419999999999
 30
0.0
 11
76.836
 21
139.7659999999999
 31
0.0
  0
LINE
  5
123
330
1E
100
AcDbEntity
  8
0
100
AcDbLine
 10
81.646
 20
138.9859999999999
 30
0.0
 11
82.97200000000001
 21
137.972
 31
0.0
  0
LINE
  5
124
330
1E
100
AcDbEntity
  8
0
100
AcDbLine
 10
82.97200000000001
 20
137.972
 30
0.0
 11
83.986
 21
136.646
 31
0.0
  0
LINE
  5
125
330
1E
100
AcDbEntity
  8
0
100
AcDbLine
 10
18.5
 20
139.4592
 30
0.0
 11
18.5
 21
137.4895999999999
 31
0.0
  0
LINE
  5
126
330
1E
100
AcDbEntity
  8
0
100
AcDbLine
 10
18.5
 20
139.4592
 30
0.0
 11
18.5
 21
139.942
 31
0.0
  0
LINE
  5
127
330
1E
100
AcDbEntity
  8
0
100
AcDbLine
 10
72.83599999999999
 20
139.1639999999999
 30
0.0
 11
74.53199999999999
 21
140.4439999999999
 31
0.0
  0
LINE
  5
128
330
1E
100
AcDbEntity
  8
0
100
AcDbLine
 10
76.86199999999999
 20
139.61
 30
0.0
 11
78.5
 21
139.8439999999999
 31
0.0
  0
LINE
  5
129
330
1E
100
AcDbEntity
  8
0
100
AcDbLine
 10
76.836
 20
139.7659999999999
 30
0.0
 11
78.5
 21
140.0
 31
0.0
  0
LINE
  5
12A
330
1E
100
AcDbEntity
  8
0
100
AcDbLine
 10
39.15768756432079
 20
139.942
 30
0.0
 11
39.2235
 21
141.8630999999999
 31
0.0
  0
LINE
  5
12C
330
1E
100
AcDbEntity
  8
0
100
AcDbLine
 10
18.5
 20
139.942
 30
0.0
 11
68.0
 21
139.942
 31
0.0
  0
LINE
  5
12D
330
1E
100
AcDbEntity
  8
0
100
AcDbLine
 10
18.5
 20
139.942
 30
0.0
 11
18.5
 21
139.4592
 31
0.0
  0
LINE
  5
12E
330
1E
100
AcDbEntity
  8
0
100
AcDbLine
 10
18.5
 20
139.942
 30
0.0
 11
18.5
 21
138.7638
 31
0.0
  0
LINE
  5
12F
330
1E
100
AcDbEntity
  8
0
100
AcDbLine
 10
18.5
 20
139.942
 30
0.0
 11
68.0
 21
139.942
 31
0.0
  0
LINE
  5
130
330
1E
100
AcDbEntity
  8
0
100
AcDbLine
 10
68.0
 20
139.942
 30
0.0
 11
68.0
 21
138.7638
 31
0.0
  0
LINE
  5
131
330
1E
100
AcDbEntity
  8
0
100
AcDbLine
 10
78.5
 20
139.8439999999999
 30
0.0
 11
80.13800000000001
 21
139.61
 31
0.0
  0
LINE
  5
132
330
1E
100
AcDbEntity
  8
0
100
AcDbLine
 10
80.13800000000001
 20
139.61
 30
0.0
 11
81.646
 21
138.9859999999999
 31
0.0
  0
LINE
  5
133
330
1E
100
AcDbEntity
  8
0
100
AcDbLine
 10
74.628
 20
140.252
 30
0.0
 11
76.48399999999999
 21
141.02
 31
0.0
  0
LINE
  5
134
330
1E
100
AcDbEntity
  8
0
100
AcDbLine
 10
74.53199999999999
 20
140.4439999999999
 30
0.0
 11
76.45199999999999
 21
141.212
 31
0.0
  0
LINE
  5
135
330
1E
100
AcDbEntity
  8
0
100
AcDbLine
 10
76.48399999999999
 20
141.02
 30
0.0
 11
78.5
 21
141.3079999999999
 31
0.0
  0
LINE
  5
136
330
1E
100
AcDbEntity
  8
0
100
AcDbLine
 10
76.45199999999999
 20
141.212
 30
0.0
 11
78.5
 21
141.5
 31
0.0
  0
LINE
  5
137
330
1E
100
AcDbEntity
  8
0
100
AcDbLine
 10
39.58
 20
148.3324
 30
0.0
 11
40.00869999999999
 21
154.0029
 31
0.0
  0
LINE
  5
138
330
1E
100
AcDbEntity
  8
0
100
AcDbLine
 10
39.2235
 20
141.8630999999999
 30
0.0
 11
39.58
 21
148.3324
 31
0.0
  0
LINE
  5
139
330
1E
100
AcDbEntity
  8
0
100
AcDbLine
 10
40.00869999999999
 20
154.0029
 30
0.0
 11
40.4753
 21
157.9152
 31
0.0
  0
LINE
  5
13C
330
1E
100
AcDbEntity
  8
0
100
AcDbLine
 10
40.8565
 20
161.1159
 30
0.0
 11
41.17609999999999
 21
162.847
 31
0.0
  0
LINE
  5
13D
330
1E
100
AcDbEntity
  8
0
100
AcDbLine
 10
40.4753
 20
157.9152
 30
0.0
 11
40.8565
 21
161.1159
 31
0.0
  0
LINE
  5
13F
330
1E
100
AcDbEntity
  8
0
100
AcDbLine
 10
41.17609999999999
 20
162.847
 30
0.0
 11
41.5262
 21
164.272
 31
0.0
  0
LINE
  5
140
330
1E
100
AcDbEntity
  8
0
100
AcDbLine
 10
42.0215
 20
165.5009999999999
 30
0.0
 11
42.5253
 21
166.3799999999999
 31
0.0
  0
LINE
  5
141
330
1E
100
AcDbEntity
  8
0
100
AcDbLine
 10
41.5262
 20
164.272
 30
0.0
 11
42.0215
 21
165.5009999999999
 31
0.0
  0
LINE
  5
142
330
1E
100
AcDbEntity
  8
0
100
AcDbLine
 10
43.14869999999999
 20
167.319
 30
0.0
 11
43.8674
 21
168.1329999999999
 31
0.0
  0
LINE
  5
143
330
1E
100
AcDbEntity
  8
0
100
AcDbLine
 10
42.5253
 20
166.3799999999999
 30
0.0
 11
43.14869999999999
 21
167.319
 31
0.0
  0
LINE
  5
14D
330
1E
100
AcDbEntity
  8
0
100
AcDbLine
 10
43.8674
 20
168.1329999999999
 30
0.0
 11
44.6809
 21
168.8509999999999
 31
0.0
  0
LINE
  5
14F
330
1E
100
AcDbEntity
  8
0
100
AcDbLine
 10
44.6809
 20
168.8509999999999
 30
0.0
 11
45.6197
 21
169.4749999999999
 31
0.0
  0
LINE
  5
151
330
1E
100
AcDbEntity
  8
0
100
AcDbLine
 10
45.6197
 20
169.4749999999999
 30
0.0
 11
46.4988
 21
169.979
 31
0.0
  0
LINE
  5
153
330
1E
100
AcDbEntity
  8
0
100
AcDbLine
 10
46.4988
 20
169.979
 30
0.0
 11
47.7278
 21
170.474
 31
0.0
  0
LINE
  5
155
330
1E
100
AcDbEntity
  8
0
100
AcDbLine
 10
49.1531000000001
 20
170.824
 30
0.0
 11
50.8842
 21
171.144
 31
0.0
  0
LINE
  5
156
330
1E
100
AcDbEntity
  8
0
100
AcDbLine
 10
49.1531
 20
170.824
 30
0.0
 11
50.8842
 21
171.144
 31
0.0
  0
LINE
  5
157
330
1E
100
AcDbEntity
  8
0
100
AcDbLine
 10
47.7278
 20
170.474
 30
0.0
 11
49.1531
 21
170.824
 31
0.0
  0
LINE
  5
15B
330
1E
100
AcDbEntity
  8
0
100
AcDbLine
 10
50.8842
 20
171.144
 30
0.0
 11
54.0848
 21
171.525
 31
0.0
  0
LINE
  5
15C
330
1E
100
AcDbEntity
  8
0
100
AcDbLine
 10
54.0848
 20
171.525
 30
0.0
 11
57.99710000000001
 21
171.9909999999999
 31
0.0
  0
LINE
  5
15D
330
1E
100
AcDbEntity
  8
0
100
AcDbLine
 10
57.99710000000001
 20
171.9909999999999
 30
0.0
 11
63.6676
 21
172.4199999999999
 31
0.0
  0
LINE
  5
162
330
1E
100
AcDbEntity
  8
0
100
AcDbLine
 10
63.6676
 20
172.4199999999999
 30
0.0
 11
70.1369
 21
172.7759999999999
 31
0.0
  0
LINE
  5
164
330
1E
100
AcDbEntity
  8
0
100
AcDbLine
 10
70.1369
 20
172.7759999999999
 30
0.0
 11
75.13139999999999
 21
172.9479999999999
 31
0.0
  0
LINE
  5
166
330
1E
100
AcDbEntity
  8
0
100
AcDbLine
 10
75.13139999999999
 20
172.9479999999999
 30
0.0
 11
78.5
 21
173.0
 31
0.0
  0
LINE
  5
167
330
1E
100
AcDbEntity
  8
0
100
AcDbLine
 10
78.5
 20
173.0
 30
0.0
 11
81.86860000000001
 21
172.9479999999999
 31
0.0
  0
LINE
  5
16A
330
1E
100
AcDbEntity
  8
0
100
AcDbLine
 10
78.5
 20
141.3079999999999
 30
0.0
 11
80.516
 21
141.02
 31
0.0
  0
LINE
  5
16B
330
1E
100
AcDbEntity
  8
0
100
AcDbLine
 10
78.5
 20
141.5
 30
0.0
 11
80.548
 21
141.212
 31
0.0
  0
LINE
  5
16C
330
1E
100
AcDbEntity
  8
0
100
AcDbLine
 10
78.5
 20
140.0
 30
0.0
 11
80.164
 21
139.7659999999999
 31
0.0
  0
LINE
  5
16D
330
1E
100
AcDbEntity
  8
0
100
AcDbLine
 10
82.37200000000001
 20
140.252
 30
0.0
 11
84.00399999999999
 21
139.0039999999999
 31
0.0
  0
LINE
  5
16E
330
1E
100
AcDbEntity
  8
0
100
AcDbLine
 10
80.516
 20
141.02
 30
0.0
 11
82.37200000000001
 21
140.252
 31
0.0
  0
LINE
  5
16F
330
1E
100
AcDbEntity
  8
0
100
AcDbLine
 10
82.46799999999998
 20
140.4439999999999
 30
0.0
 11
84.16400000000001
 21
139.1639999999999
 31
0.0
  0
LINE
  5
170
330
1E
100
AcDbEntity
  8
0
100
AcDbLine
 10
81.86860000000001
 20
172.9479999999999
 30
0.0
 11
86.8631
 21
172.7759999999999
 31
0.0
  0
LINE
  5
172
330
1E
100
AcDbEntity
  8
0
100
AcDbLine
 10
80.548
 20
141.212
 30
0.0
 11
82.46799999999998
 21
140.4439999999999
 31
0.0
  0
LINE
  5
173
330
1E
100
AcDbEntity
  8
0
100
AcDbLine
 10
80.164
 20
139.7659999999999
 30
0.0
 11
81.72399999999999
 21
139.1419999999999
 31
0.0
  0
LINE
  5
174
330
1E
100
AcDbEntity
  8
0
100
AcDbLine
 10
81.72399999999999
 20
139.1419999999999
 30
0.0
 11
83.102
 21
138.102
 31
0.0
  0
LINE
  5
175
330
1E
100
AcDbEntity
  8
0
100
AcDbLine
 10
84.00399999999999
 20
139.0039999999999
 30
0.0
 11
85.25200000000001
 21
137.372
 31
0.0
  0
LINE
  5
176
330
1E
100
AcDbEntity
  8
0
100
AcDbLine
 10
84.16400000000001
 20
139.1639999999999
 30
0.0
 11
85.44400000000001
 21
137.4679999999999
 31
0.0
  0
LINE
  5
177
330
1E
100
AcDbEntity
  8
0
100
AcDbLine
 10
83.102
 20
138.102
 30
0.0
 11
84.14200000000001
 21
136.724
 31
0.0
  0
LINE
  5
178
330
1E
100
AcDbEntity
  8
0
100
AcDbLine
 10
84.14200000000001
 20
136.724
 30
0.0
 11
84.76600000000001
 21
135.1639999999999
 31
0.0
  0
LINE
  5
179
330
1E
100
AcDbEntity
  8
0
100
AcDbLine
 10
84.76600000000001
 20
135.1639999999999
 30
0.0
 11
85.0
 21
133.4999999999999
 31
0.0
  0
LINE
  5
17A
330
1E
100
AcDbEntity
  8
0
100
AcDbLine
 10
84.82495231454041
 20
133.366666201783
 30
0.0
 11
84.84399999999999
 21
133.4999999999999
 31
0.0
  0
LINE
  5
17B
330
1E
100
AcDbEntity
  8
0
100
AcDbLine
 10
85.87290000000001
 20
133.7647
 30
0.0
 11
88.28549999999999
 21
135.9315
 31
0.0
  0
LINE
  5
17C
330
1E
100
AcDbEntity
  8
0
100
AcDbLine
 10
86.02
 20
135.5159999999999
 30
0.0
 11
86.22500918918921
 21
134.080935675676
 31
0.0
  0
LINE
  5
17D
330
1E
100
AcDbEntity
  8
0
100
AcDbLine
 10
85.25200000000001
 20
137.372
 30
0.0
 11
86.02
 21
135.5159999999999
 31
0.0
  0
LINE
  5
17E
330
1E
100
AcDbEntity
  8
0
100
AcDbLine
 10
128.4999999999999
 20
35.00659999999999
 30
0.0
 11
128.4999999999999
 21
25.8519
 31
0.0
  0
LINE
  5
17F
330
1E
100
AcDbEntity
  8
0
100
AcDbLine
 10
128.4999999999999
 20
25.8519
 30
0.0
 11
128.4999999999999
 21
35.00659999999999
 31
0.0
  0
LINE
  5
180
330
1E
100
AcDbEntity
  8
0
100
AcDbLine
 10
128.4999999999999
 20
25.8519
 30
0.0
 11
128.4999999999999
 21
15.3138
 31
0.0
  0
LINE
  5
181
330
1E
100
AcDbEntity
  8
0
100
AcDbLine
 10
128.4999999999999
 20
15.3138
 30
0.0
 11
128.4999999999999
 21
25.8519
 31
0.0
  0
LINE
  5
182
330
1E
100
AcDbEntity
  8
0
100
AcDbLine
 10
128.4999999999999
 20
15.3138
 30
0.0
 11
128.4999999999999
 21
7.133499999999999
 31
0.0
  0
LINE
  5
183
330
1E
100
AcDbEntity
  8
0
100
AcDbLine
 10
128.4999999999999
 20
7.133499999999999
 30
0.0
 11
128.4999999999999
 21
15.3138
 31
0.0
  0
LINE
  5
184
330
1E
100
AcDbEntity
  8
0
100
AcDbLine
 10
128.4999999999999
 20
7.133499999999999
 30
0.0
 11
128.4999999999999
 21
2.0249
 31
0.0
  0
LINE
  5
185
330
1E
100
AcDbEntity
  8
0
100
AcDbLine
 10
128.4999999999999
 20
2.0249
 30
0.0
 11
128.4999999999999
 21
7.133499999999999
 31
0.0
  0
LINE
  5
186
330
1E
100
AcDbEntity
  8
0
100
AcDbLine
 10
128.4999999999999
 20
2.0249
 30
0.0
 11
128.4999999999999
 21
0.0000000000000096
 31
0.0
  0
LINE
  5
187
330
1E
100
AcDbEntity
  8
0
100
AcDbLine
 10
128.4999999999999
 20
0.0000000000000096
 30
0.0
 11
128.4999999999999
 21
2.0249
 31
0.0
  0
LINE
  5
188
330
1E
100
AcDbEntity
  8
0
100
AcDbLine
 10
133.4999999999999
 20
35.00659999999999
 30
0.0
 11
135.9879999999999
 21
35.4941
 31
0.0
  0
LINE
  5
189
330
1E
100
AcDbEntity
  8
0
100
AcDbLine
 10
135.9879999999999
 20
35.4941
 30
0.0
 11
137.6629999999999
 21
37.0691
 31
0.0
  0
LINE
  5
18A
330
1E
100
AcDbEntity
  8
0
100
AcDbLine
 10
137.6629999999999
 20
37.0691
 30
0.0
 11
138.5
 21
39.91579999999999
 31
0.0
  0
LINE
  5
18B
330
1E
100
AcDbEntity
  8
0
100
AcDbLine
 10
138.5
 20
55.34336999999999
 30
0.0
 11
138.5
 21
60.51393199999999
 31
0.0
  0
LINE
  5
18C
330
1E
100
AcDbEntity
  8
0
100
AcDbLine
 10
138.5
 20
55.34336999999999
 30
0.0
 11
138.5
 21
50.8947
 31
0.0
  0
LINE
  5
18D
330
1E
100
AcDbEntity
  8
0
100
AcDbLine
 10
138.5
 20
50.8947
 30
0.0
 11
138.5
 21
55.34336999999999
 31
0.0
  0
LINE
  5
18E
330
1E
100
AcDbEntity
  8
0
100
AcDbLine
 10
138.5
 20
50.8947
 30
0.0
 11
138.5
 21
45.8525
 31
0.0
  0
LINE
  5
18F
330
1E
100
AcDbEntity
  8
0
100
AcDbLine
 10
138.5
 20
45.8525
 30
0.0
 11
138.5
 21
50.8947
 31
0.0
  0
LINE
  5
190
330
1E
100
AcDbEntity
  8
0
100
AcDbLine
 10
138.5
 20
45.8525
 30
0.0
 11
138.5
 21
39.91579999999999
 31
0.0
  0
LINE
  5
191
330
1E
100
AcDbEntity
  8
0
100
AcDbLine
 10
138.5
 20
39.91579999999999
 30
0.0
 11
138.5
 21
45.8525
 31
0.0
  0
LINE
  5
192
330
1E
100
AcDbEntity
  8
0
100
AcDbLine
 10
138.5
 20
65.67116999999999
 30
0.0
 11
138.5
 21
71.5764
 31
0.0
  0
LINE
  5
193
330
1E
100
AcDbEntity
  8
0
100
AcDbLine
 10
138.5
 20
65.67116999999999
 30
0.0
 11
138.5
 21
60.51393199999999
 31
0.0
  0
LINE
  5
194
330
1E
100
AcDbEntity
  8
0
100
AcDbLine
 10
138.5
 20
60.51393199999999
 30
0.0
 11
138.5
 21
65.67116999999999
 31
0.0
  0
LINE
  5
195
330
1E
100
AcDbEntity
  8
0
100
AcDbLine
 10
138.5
 20
60.51393199999999
 30
0.0
 11
138.5
 21
55.34336999999999
 31
0.0
  0
LINE
  5
196
330
1E
100
AcDbEntity
  8
0
100
AcDbLine
 10
138.5
 20
59.9637
 30
0.0
 11
143.0
 21
59.9637
 31
0.0
  0
LINE
  5
197
330
1E
100
AcDbEntity
  8
0
100
AcDbLine
 10
146.586
 20
60.41974
 30
0.0
 11
149.9279999999999
 21
61.756798
 31
0.0
  0
LINE
  5
198
330
1E
100
AcDbEntity
  8
0
100
AcDbLine
 10
143.0
 20
59.9637
 30
0.0
 11
146.586
 21
60.41974
 31
0.0
  0
LINE
  5
199
330
1E
100
AcDbEntity
  8
0
100
AcDbLine
 10
149.9279999999999
 20
61.756798
 30
0.0
 11
152.798
 21
63.88374
 31
0.0
  0
LINE
  5
19A
330
1E
100
AcDbEntity
  8
0
100
AcDbLine
 10
152.798
 20
63.88374
 30
0.0
 11
155.0
 21
66.65563
 31
0.0
  0
LINE
  5
19B
330
1E
100
AcDbEntity
  8
0
100
AcDbLine
 10
155.0
 20
66.65563
 30
0.0
 11
155.1239999999999
 21
66.85112
 31
0.0
  0
LINE
  5
19C
330
1E
100
AcDbEntity
  8
0
100
AcDbLine
 10
155.1239999999999
 20
66.85112
 30
0.0
 11
156.5229999999999
 21
70.1126
 31
0.0
  0
LINE
  5
19D
330
1E
100
AcDbEntity
  8
0
100
AcDbLine
 10
143.0
 20
67.94298000000001
 30
0.0
 11
144.5899999999999
 21
68.1452
 31
0.0
  0
LINE
  5
19E
330
1E
100
AcDbEntity
  8
0
100
AcDbLine
 10
138.5
 20
67.94298000000001
 30
0.0
 11
143.0
 21
67.94298000000001
 31
0.0
  0
LINE
  5
19F
330
1E
100
AcDbEntity
  8
0
100
AcDbLine
 10
138.5
 20
71.5764
 30
0.0
 11
138.5
 21
79.2167
 31
0.0
  0
LINE
  5
1A0
330
1E
100
AcDbEntity
  8
0
100
AcDbLine
 10
138.5
 20
71.5764
 30
0.0
 11
138.5
 21
65.67116999999999
 31
0.0
  0
LINE
  5
1A1
330
1E
100
AcDbEntity
  8
0
100
AcDbLine
 10
138.5
 20
79.2167
 30
0.0
 11
138.5
 21
87.25570000000001
 31
0.0
  0
LINE
  5
1A2
330
1E
100
AcDbEntity
  8
0
100
AcDbLine
 10
138.5
 20
79.2167
 30
0.0
 11
138.5
 21
71.5764
 31
0.0
  0
LINE
  5
1A3
330
1E
100
AcDbEntity
  8
0
100
AcDbLine
 10
138.5
 20
87.25570000000001
 30
0.0
 11
138.5
 21
94.4974
 31
0.0
  0
LINE
  5
1A4
330
1E
100
AcDbEntity
  8
0
100
AcDbLine
 10
138.5
 20
87.25570000000001
 30
0.0
 11
138.5
 21
79.2167
 31
0.0
  0
LINE
  5
1A5
330
1E
100
AcDbEntity
  8
0
100
AcDbLine
 10
138.5
 20
94.4974
 30
0.0
 11
138.5
 21
102.0048999999999
 31
0.0
  0
LINE
  5
1A6
330
1E
100
AcDbEntity
  8
0
100
AcDbLine
 10
138.5
 20
94.4974
 30
0.0
 11
138.5
 21
87.25570000000001
 31
0.0
  0
LINE
  5
1A7
330
1E
100
AcDbEntity
  8
0
100
AcDbLine
 10
138.5
 20
102.0048999999999
 30
0.0
 11
138.5
 21
111.3061999999999
 31
0.0
  0
LINE
  5
1A8
330
1E
100
AcDbEntity
  8
0
100
AcDbLine
 10
138.5
 20
102.0048999999999
 30
0.0
 11
138.5
 21
94.4974
 31
0.0
  0
LINE
  5
1A9
330
1E
100
AcDbEntity
  8
0
100
AcDbLine
 10
138.5
 20
111.3061999999999
 30
0.0
 11
138.5
 21
119.8765999999999
 31
0.0
  0
LINE
  5
1AA
330
1E
100
AcDbEntity
  8
0
100
AcDbLine
 10
138.5
 20
111.3061999999999
 30
0.0
 11
138.5
 21
102.0048999999999
 31
0.0
  0
LINE
  5
1AB
330
1E
100
AcDbEntity
  8
0
100
AcDbLine
 10
138.5
 20
119.8765999999999
 30
0.0
 11
138.5
 21
127.2512
 31
0.0
  0
LINE
  5
1AC
330
1E
100
AcDbEntity
  8
0
100
AcDbLine
 10
138.5
 20
119.8765999999999
 30
0.0
 11
138.5
 21
111.3061999999999
 31
0.0
  0
LINE
  5
1AD
330
1E
100
AcDbEntity
  8
0
100
AcDbLine
 10
138.5
 20
127.2512
 30
0.0
 11
138.5
 21
132.0170999999999
 31
0.0
  0
LINE
  5
1AE
330
1E
100
AcDbEntity
  8
0
100
AcDbLine
 10
138.5
 20
127.2512
 30
0.0
 11
138.5
 21
119.8765999999999
 31
0.0
  0
LINE
  5
1AF
330
1E
100
AcDbEntity
  8
0
100
AcDbLine
 10
144.5899999999999
 20
129.3080999999999
 30
0.0
 11
146.072
 21
128.7153
 31
0.0
  0
LINE
  5
1B0
330
1E
100
AcDbEntity
  8
0
100
AcDbLine
 10
143.0
 20
129.5104
 30
0.0
 11
144.5899999999999
 21
129.3080999999999
 31
0.0
  0
LINE
  5
1B1
330
1E
100
AcDbEntity
  8
0
100
AcDbLine
 10
138.5
 20
132.0170999999999
 30
0.0
 11
138.5
 21
135.9315
 31
0.0
  0
LINE
  5
1B2
330
1E
100
AcDbEntity
  8
0
100
AcDbLine
 10
138.5
 20
132.0170999999999
 30
0.0
 11
138.5
 21
127.2512
 31
0.0
  0
LINE
  5
1B3
330
1E
100
AcDbEntity
  8
0
100
AcDbLine
 10
88.28549999999999
 20
135.9315
 30
0.0
 11
89.0
 21
138.1771999999999
 31
0.0
  0
LINE
  5
1B4
330
1E
100
AcDbEntity
  8
0
100
AcDbLine
 10
138.5
 20
135.9315
 30
0.0
 11
138.5
 21
138.1771999999999
 31
0.0
  0
LINE
  5
1B5
330
1E
100
AcDbEntity
  8
0
100
AcDbLine
 10
138.5
 20
135.9315
 30
0.0
 11
138.5
 21
132.0170999999999
 31
0.0
  0
LINE
  5
1B6
330
1E
100
AcDbEntity
  8
0
100
AcDbLine
 10
138.5
 20
129.5104
 30
0.0
 11
143.0
 21
129.5104
 31
0.0
  0
LINE
  5
1B7
330
1E
100
AcDbEntity
  8
0
100
AcDbLine
 10
147.3439999999999
 20
127.7720999999999
 30
0.0
 11
148.231689168224
 21
126.6553561344279
 31
0.0
  0
LINE
  5
1B8
330
1E
100
AcDbEntity
  8
0
100
AcDbLine
 10
146.072
 20
128.7153
 30
0.0
 11
147.3439999999999
 21
127.7720999999999
 31
0.0
  0
LINE
  5
1B9
330
1E
100
AcDbEntity
  8
0
100
AcDbLine
 10
146.586
 20
137.0335999999999
 30
0.0
 11
149.9279999999999
 21
135.6964999999999
 31
0.0
  0
LINE
  5
1BA
330
1E
100
AcDbEntity
  8
0
100
AcDbLine
 10
156.5229999999999
 20
70.1126
 30
0.0
 11
157.0
 21
73.6126
 31
0.0
  0
LINE
  5
1BB
330
1E
100
AcDbEntity
  8
0
100
AcDbLine
 10
148.1959999999999
 20
126.7384999999999
 30
0.0
 11
148.7959999999999
 21
125.3406999999999
 31
0.0
  0
LINE
  5
1BC
330
1E
100
AcDbEntity
  8
0
100
AcDbLine
 10
148.7959999999999
 20
125.3406999999999
 30
0.0
 11
149.0
 21
123.8407
 31
0.0
  0
LINE
  5
1BD
330
1E
100
AcDbEntity
  8
0
100
AcDbLine
 10
157.0
 20
123.8407
 30
0.0
 11
157.0
 21
73.6126
 31
0.0
  0
LINE
  5
1BE
330
1E
100
AcDbEntity
  8
0
100
AcDbLine
 10
149.0
 20
73.6126
 30
0.0
 11
149.0
 21
123.8407
 31
0.0
  0
LINE
  5
1BF
330
1E
100
AcDbEntity
  8
0
100
AcDbLine
 10
157.0
 20
73.6126
 30
0.0
 11
157.0
 21
123.8407
 31
0.0
  0
LINE
  5
1C0
330
1E
100
AcDbEntity
  8
0
100
AcDbLine
 10
149.9279999999999
 20
135.6964999999999
 30
0.0
 11
152.798
 21
133.5696
 31
0.0
  0
LINE
  5
1C1
330
1E
100
AcDbEntity
  8
0
100
AcDbLine
 10
152.798
 20
133.5696
 30
0.0
 11
155.0
 21
130.7976999999999
 31
0.0
  0
LINE
  5
1C2
330
1E
100
AcDbEntity
  8
0
100
AcDbLine
 10
155.0
 20
130.7976999999999
 30
0.0
 11
155.1239999999999
 21
130.6022
 31
0.0
  0
LINE
  5
1C3
330
1E
100
AcDbEntity
  8
0
100
AcDbLine
 10
155.1239999999999
 20
130.6022
 30
0.0
 11
156.5229999999999
 21
127.3406999999999
 31
0.0
  0
LINE
  5
1C4
330
1E
100
AcDbEntity
  8
0
100
AcDbLine
 10
156.5229999999999
 20
127.3406999999999
 30
0.0
 11
157.0
 21
123.8407
 31
0.0
  0
LINE
  5
1C5
330
1E
100
AcDbEntity
  8
0
100
AcDbLine
 10
149.0
 20
123.8407
 30
0.0
 11
149.0
 21
73.6126
 31
0.0
  0
LINE
  5
1C6
330
1E
100
AcDbEntity
  8
0
100
AcDbLine
 10
148.7959999999999
 20
72.1126
 30
0.0
 11
149.0
 21
73.6126
 31
0.0
  0
LINE
  5
1C7
330
1E
100
AcDbEntity
  8
0
100
AcDbLine
 10
148.2316800933819
 20
70.79794153487871
 30
0.0
 11
148.7959999999999
 21
72.1126
 31
0.0
  0
LINE
  5
1C8
330
1E
100
AcDbEntity
  8
0
100
AcDbLine
 10
147.3439999999999
 20
69.6812
 30
0.0
 11
148.3209999999999
 21
70.91031
 31
0.0
  0
LINE
  5
1C9
330
1E
100
AcDbEntity
  8
0
100
AcDbLine
 10
146.072
 20
68.73806999999999
 30
0.0
 11
147.3439999999999
 21
69.6812
 31
0.0
  0
LINE
  5
1CA
330
1E
100
AcDbEntity
  8
0
100
AcDbLine
 10
144.5899999999999
 20
68.1452
 30
0.0
 11
146.072
 21
68.73806999999999
 31
0.0
  0
LINE
  5
1CB
330
1E
100
AcDbEntity
  8
0
100
AcDbLine
 10
138.5
 20
67.94298000000001
 30
0.0
 11
143.0
 21
67.94298000000001
 31
0.0
  0
LINE
  5
1CC
330
1E
100
AcDbEntity
  8
0
100
AcDbLine
 10
86.21199999999999
 20
135.548
 30
0.0
 11
86.39663051240999
 21
134.2350719117509
 31
0.0
  0
LINE
  5
1CD
330
1E
100
AcDbEntity
  8
0
100
AcDbLine
 10
138.5
 20
137.4895999999999
 30
0.0
 11
143.0
 21
137.4895999999999
 31
0.0
  0
LINE
  5
1CE
330
1E
100
AcDbEntity
  8
0
100
AcDbLine
 10
138.5
 20
137.4895999999999
 30
0.0
 11
143.0
 21
137.4895999999999
 31
0.0
  0
LINE
  5
1CF
330
1E
100
AcDbEntity
  8
0
100
AcDbLine
 10
89.0
 20
138.7638
 30
0.0
 11
89.0
 21
138.1771999999999
 31
0.0
  0
LINE
  5
1D0
330
1E
100
AcDbEntity
  8
0
100
AcDbLine
 10
89.0
 20
138.7638
 30
0.0
 11
89.0
 21
139.942
 31
0.0
  0
LINE
  5
1D1
330
1E
100
AcDbEntity
  8
0
100
AcDbLine
 10
86.8631
 20
172.7759999999999
 30
0.0
 11
93.33240000000001
 21
172.4199999999999
 31
0.0
  0
LINE
  5
1D3
330
1E
100
AcDbEntity
  8
0
100
AcDbLine
 10
89.0
 20
139.4592
 30
0.0
 11
89.0
 21
139.942
 31
0.0
  0
LINE
  5
1D4
330
1E
100
AcDbEntity
  8
0
100
AcDbLine
 10
89.0
 20
139.4592
 30
0.0
 11
89.0
 21
138.1771999999999
 31
0.0
  0
LINE
  5
1D5
330
1E
100
AcDbEntity
  8
0
100
AcDbLine
 10
89.0
 20
139.942
 30
0.0
 11
89.0
 21
138.7638
 31
0.0
  0
LINE
  5
1D6
330
1E
100
AcDbEntity
  8
0
100
AcDbLine
 10
89.0
 20
139.942
 30
0.0
 11
138.5
 21
139.942
 31
0.0
  0
LINE
  5
1D7
330
1E
100
AcDbEntity
  8
0
100
AcDbLine
 10
89.0
 20
139.942
 30
0.0
 11
89.0
 21
139.4592
 31
0.0
  0
LINE
  5
1D8
330
1E
100
AcDbEntity
  8
0
100
AcDbLine
 10
89.0
 20
138.4948999999999
 30
0.0
 11
89.0
 21
138.1771999999999
 31
0.0
  0
LINE
  5
1D9
330
1E
100
AcDbEntity
  8
0
100
AcDbLine
 10
138.5
 20
138.1771999999999
 30
0.0
 11
138.5
 21
138.7638
 31
0.0
  0
LINE
  5
1DA
330
1E
100
AcDbEntity
  8
0
100
AcDbLine
 10
138.5
 20
138.1771999999999
 30
0.0
 11
138.5
 21
135.9315
 31
0.0
  0
LINE
  5
1DD
330
1E
100
AcDbEntity
  8
0
100
AcDbLine
 10
112.319
 20
168.8509999999999
 30
0.0
 11
113.1329999999999
 21
168.1329999999999
 31
0.0
  0
LINE
  5
1DE
330
1E
100
AcDbEntity
  8
0
100
AcDbLine
 10
111.3799999999999
 20
169.4749999999999
 30
0.0
 11
112.319
 21
168.8509999999999
 31
0.0
  0
LINE
  5
1E1
330
1E
100
AcDbEntity
  8
0
100
AcDbLine
 10
110.501
 20
169.979
 30
0.0
 11
111.3799999999999
 21
169.4749999999999
 31
0.0
  0
LINE
  5
1E2
330
1E
100
AcDbEntity
  8
0
100
AcDbLine
 10
109.272
 20
170.474
 30
0.0
 11
110.501
 21
169.979
 31
0.0
  0
LINE
  5
1E5
330
1E
100
AcDbEntity
  8
0
100
AcDbLine
 10
107.847
 20
170.824
 30
0.0
 11
109.272
 21
170.474
 31
0.0
  0
LINE
  5
1E8
330
1E
100
AcDbEntity
  8
0
100
AcDbLine
 10
106.116
 20
171.144
 30
0.0
 11
107.847
 21
170.824
 31
0.0
  0
LINE
  5
1E9
330
1E
100
AcDbEntity
  8
0
100
AcDbLine
 10
102.915
 20
171.525
 30
0.0
 11
106.116
 21
171.144
 31
0.0
  0
LINE
  5
1ED
330
1E
100
AcDbEntity
  8
0
100
AcDbLine
 10
93.3324000000074
 20
172.419999999999
 30
0.0
 11
99.0029
 21
171.9909999999999
 31
0.0
  0
LINE
  5
1EE
330
1E
100
AcDbEntity
  8
0
100
AcDbLine
 10
99.0029
 20
171.9909999999999
 30
0.0
 11
102.915
 21
171.525
 31
0.0
  0
LINE
  5
1EF
330
1E
100
AcDbEntity
  8
0
100
AcDbLine
 10
93.33240000000001
 20
172.4199999999999
 30
0.0
 11
99.0029
 21
171.9909999999999
 31
0.0
  0
LINE
  5
1F2
330
1E
100
AcDbEntity
  8
0
100
AcDbLine
 10
113.1329999999999
 20
168.1329999999999
 30
0.0
 11
113.8509999999999
 21
167.319
 31
0.0
  0
LINE
  5
1F4
330
1E
100
AcDbEntity
  8
0
100
AcDbLine
 10
113.8509999999999
 20
167.319
 30
0.0
 11
114.4749999999999
 21
166.3799999999999
 31
0.0
  0
LINE
  5
1F6
330
1E
100
AcDbEntity
  8
0
100
AcDbLine
 10
114.4749999999999
 20
166.3799999999999
 30
0.0
 11
114.979
 21
165.5009999999999
 31
0.0
  0
LINE
  5
1F8
330
1E
100
AcDbEntity
  8
0
100
AcDbLine
 10
114.979
 20
165.5009999999999
 30
0.0
 11
115.4739999999999
 21
164.272
 31
0.0
  0
LINE
  5
1FA
330
1E
100
AcDbEntity
  8
0
100
AcDbLine
 10
115.8239999999999
 20
162.847
 30
0.0
 11
116.144
 21
161.1158
 31
0.0
  0
LINE
  5
1FB
330
1E
100
AcDbEntity
  8
0
100
AcDbLine
 10
115.4739999999999
 20
164.272
 30
0.0
 11
115.8239999999999
 21
162.847
 31
0.0
  0
LINE
  5
1FE
330
1E
100
AcDbEntity
  8
0
100
AcDbLine
 10
116.991
 20
154.0029
 30
0.0
 11
117.42
 21
148.3324
 31
0.0
  0
LINE
  5
1FF
330
1E
100
AcDbEntity
  8
0
100
AcDbLine
 10
116.144
 20
161.1158
 30
0.0
 11
116.525
 21
157.9152
 31
0.0
  0
LINE
  5
200
330
1E
100
AcDbEntity
  8
0
100
AcDbLine
 10
116.525
 20
157.9152
 30
0.0
 11
116.991
 21
154.0029
 31
0.0
  0
LINE
  5
204
330
1E
100
AcDbEntity
  8
0
100
AcDbLine
 10
117.42
 20
148.3324
 30
0.0
 11
117.776
 21
141.8630999999999
 31
0.0
  0
LINE
  5
206
330
1E
100
AcDbEntity
  8
0
100
AcDbLine
 10
117.776
 20
141.8630999999999
 30
0.0
 11
117.842158614476
 21
139.942
 31
0.0
  0
LINE
  5
208
330
1E
100
AcDbEntity
  8
0
100
AcDbLine
 10
138.5
 20
139.942
 30
0.0
 11
138.5
 21
138.7638
 31
0.0
  0
LINE
  5
209
330
1E
100
AcDbEntity
  8
0
100
AcDbLine
 10
138.5
 20
138.7638
 30
0.0
 11
138.5
 21
139.942
 31
0.0
  0
LINE
  5
20A
330
1E
100
AcDbEntity
  8
0
100
AcDbLine
 10
138.5
 20
138.7638
 30
0.0
 11
138.5
 21
138.1771999999999
 31
0.0
  0
LINE
  5
20B
330
1E
100
AcDbEntity
  8
0
100
AcDbLine
 10
89.0
 20
138.1771999999999
 30
0.0
 11
89.0
 21
138.4948999999999
 31
0.0
  0
LINE
  5
20C
330
1E
100
AcDbEntity
  8
0
100
AcDbLine
 10
89.0
 20
138.1771999999999
 30
0.0
 11
89.0
 21
139.4592
 31
0.0
  0
LINE
  5
20D
330
1E
100
AcDbEntity
  8
0
100
AcDbLine
 10
89.0
 20
138.1771999999999
 30
0.0
 11
89.0
 21
138.7638
 31
0.0
  0
LINE
  5
20E
330
1E
100
AcDbEntity
  8
0
100
AcDbLine
 10
85.42769811320759
 20
137.4895999999999
 30
0.0
 11
88.7812307075745
 21
137.4895999999999
 31
0.0
  0
LINE
  5
20F
330
1E
100
AcDbEntity
  8
0
100
AcDbLine
 10
85.42769811320759
 20
137.4895999999999
 30
0.0
 11
88.7812307075745
 21
137.4895999999999
 31
0.0
  0
LINE
  5
210
330
1E
100
AcDbEntity
  8
0
100
AcDbLine
 10
143.0
 20
137.4895999999999
 30
0.0
 11
146.586
 21
137.0335999999999
 31
0.0
  0
LINE
  5
211
330
1E
100
AcDbEntity
  8
0
100
AcDbLine
 10
85.44400000000001
 20
137.4679999999999
 30
0.0
 11
86.21199999999999
 21
135.548
 31
0.0
  0
LINE
  5
212
330
1E
100
AcDbEntity
  8
0
100
AcDbLine
 10
84.99006924206399
 20
133.4293812769
 30
0.0
 11
85.0
 21
133.4999999999999
 31
0.0
  0
ENDSEC
  0
SECTION
  2
OBJECTS
  0
DICTIONARY
  5
C
330
0
100
AcDbDictionary
281
     1
  3
ACAD_GROUP
350
D
  3
ACAD_LAYOUT
350
19
  3
ACAD_MLINESTYLE
350
16
  3
ACAD_PLOTSETTINGS
350
18
  3
ACAD_PLOTSTYLENAME
350
E
  3
AcDbVariableDictionary
350
217
  0
DICTIONARY
  5
D
102
{ACAD_REACTORS
330
C
102
}
330
C
100
AcDbDictionary
281
     1
  0
DICTIONARY
  5
19
102
{ACAD_REACTORS
330
C
102
}
330
C
100
AcDbDictionary
281
     1
  3
Layout1
350
1D
  3
Model
350
21
  0
DICTIONARY
  5
16
102
{ACAD_REACTORS
330
C
102
}
330
C
100
AcDbDictionary
281
     1
  3
Standard
350
17
  0
DICTIONARY
  5
18
102
{ACAD_REACTORS
330
C
102
}
330
C
100
AcDbDictionary
281
     1
  0
ACDBDICTIONARYWDFLT
  5
E
102
{ACAD_REACTORS
330
C
102
}
330
C
100
AcDbDictionary
281
     1
  3
Normal
350
F
100
AcDbDictionaryWithDefault
340
F
  0
DICTIONARY
  5
217
102
{ACAD_REACTORS
330
C
102
}
330
C
100
AcDbDictionary
281
     1
  3
DIMASSOC
350
218
  0
LAYOUT
  5
1D
102
{ACAD_REACTORS
330
19
102
}
330
19
100
AcDbPlotSettings
  1

  2
hp deskjet 980c series
  4

  6

 40
0.0
 41
0.0
 42
0.0
 43
0.0
 44
0.0
 45
0.0
 46
0.0
 47
0.0
 48
0.0
 49
0.0
140
0.0
141
0.0
142
1.0
143
1.0
 70
   688
 72
     0
 73
     0
 74
     5
  7

 75
    16
147
1.0
148
0.0
149
0.0
100
AcDbLayout
  1
Layout1
 70
     1
 71
     1
 10
0.0
 20
0.0
 11
12.0
 21
9.0
 12
0.0
 22
0.0
 32
0.0
 14
1.000000000000000E+20
 24
1.000000000000000E+20
 34
1.000000000000000E+20
 15
-1.000000000000000E+20
 25
-1.000000000000000E+20
 35
-1.000000000000000E+20
146
0.0
 13
0.0
 23
0.0
 33
0.0
 16
1.0
 26
0.0
 36
0.0
 17
0.0
 27
1.0
 37
0.0
 76
     0
330
1A
  0
LAYOUT
  5
21
102
{ACAD_REACTORS
330
19
102
}
330
19
100
AcDbPlotSettings
  1

  2
hp deskjet 980c series
  4

  6

 40
0.0
 41
0.0
 42
0.0
 43
0.0
 44
0.0
 45
0.0
 46
0.0
 47
0.0
 48
0.0
 49
0.0
140
0.0
141
0.0
142
1.0
143
1.0
 70
  1712
 72
     0
 73
     0
 74
     0
  7

 75
     0
147
1.0
148
0.0
149
0.0
100
AcDbLayout
  1
Model
 70
     1
 71
     0
 10
0.0
 20
0.0
 11
12.0
 21
9.0
 12
0.0
 22
0.0
 32
0.0
 14
0.0
 24
0.0
 34
0.0
 15
0.0
 25
0.0
 35
0.0
146
0.0
 13
0.0
 23
0.0
 33
0.0
 16
1.0
 26
0.0
 36
0.0
 17
0.0
 27
1.0
 37
0.0
 76
     0
330
1E
  0
MLINESTYLE
  5
17
102
{ACAD_REACTORS
330
16
102
}
330
16
100
AcDbMlineStyle
  2
STANDARD
 70
     0
  3

 62
   256
 51
90.0
 52
90.0
 71
     2
 49
0.5
 62
   256
  6
BYLAYER
 49
-0.5
 62
   256
  6
BYLAYER
  0
ACDBPLACEHOLDER
  5
F
102
{ACAD_REACTORS
330
E
102
}
330
E
  0
DICTIONARYVAR
  5
218
102
{ACAD_REACTORS
330
217
102
}
330
217
100
DictionaryVariables
280
     0
  1
1
  0
ENDSEC
  0
EOF
