  0
SECTION
  2
HEADER
  9
$ACADVER
  1
AC1015
  9
$ACADMAINTVER
 70
    13
  9
$DWGCODEPAGE
  3
ANSI_1252
  9
$INSBASE
 10
0.0
 20
0.0
 30
0.0
  9
$EXTMIN
 10
0.0
 20
0.180000000000016
 30
0.0
  9
$EXTMAX
 10
130.0
 20
252.82
 30
0.0
  9
$LIMMIN
 10
0.0
 20
0.0
  9
$LIMMAX
 10
12.0
 20
9.0
  9
$ORTHOMODE
 70
     0
  9
$REGENMODE
 70
     1
  9
$FILLMODE
 70
     1
  9
$QTEXTMODE
 70
     0
  9
$MIRRTEXT
 70
     1
  9
$LTSCALE
 40
1.0
  9
$ATTMODE
 70
     1
  9
$TEXTSIZE
 40
0.2
  9
$TRACEWID
 40
0.05
  9
$TEXTSTYLE
  7
Standard
  9
$CLAYER
  8
0
  9
$CELTYPE
  6
Continuous
  9
$CECOLOR
 62
   256
  9
$CELTSCALE
 40
1.0
  9
$DISPSILH
 70
     0
  9
$DIMSCALE
 40
1.0
  9
$DIMASZ
 40
0.18
  9
$DIMEXO
 40
0.0625
  9
$DIMDLI
 40
0.38
  9
$DIMRND
 40
0.0
  9
$DIMDLE
 40
0.0
  9
$DIMEXE
 40
0.18
  9
$DIMTP
 40
0.0
  9
$DIMTM
 40
0.0
  9
$DIMTXT
 40
0.18
  9
$DIMCEN
 40
0.09
  9
$DIMTSZ
 40
0.0
  9
$DIMTOL
 70
     0
  9
$DIMLIM
 70
     0
  9
$DIMTIH
 70
     1
  9
$DIMTOH
 70
     1
  9
$DIMSE1
 70
     0
  9
$DIMSE2
 70
     0
  9
$DIMTAD
 70
     0
  9
$DIMZIN
 70
     0
  9
$DIMBLK
  1

  9
$DIMASO
 70
     1
  9
$DIMSHO
 70
     1
  9
$DIMPOST
  1

  9
$DIMAPOST
  1

  9
$DIMALT
 70
     0
  9
$DIMALTD
 70
     2
  9
$DIMALTF
 40
25.4
  9
$DIMLFAC
 40
1.0
  9
$DIMTOFL
 70
     0
  9
$DIMTVP
 40
0.0
  9
$DIMTIX
 70
     0
  9
$DIMSOXD
 70
     0
  9
$DIMSAH
 70
     0
  9
$DIMBLK1
  1

  9
$DIMBLK2
  1

  9
$DIMSTYLE
  2
Standard
  9
$DIMCLRD
 70
     0
  9
$DIMCLRE
 70
     0
  9
$DIMCLRT
 70
     0
  9
$DIMTFAC
 40
1.0
  9
$DIMGAP
 40
0.09
  9
$DIMJUST
 70
     0
  9
$DIMSD1
 70
     0
  9
$DIMSD2
 70
     0
  9
$DIMTOLJ
 70
     1
  9
$DIMTZIN
 70
     0
  9
$DIMALTZ
 70
     0
  9
$DIMALTTZ
 70
     0
  9
$DIMUPT
 70
     0
  9
$DIMDEC
 70
     4
  9
$DIMTDEC
 70
     4
  9
$DIMALTU
 70
     2
  9
$DIMALTTD
 70
     2
  9
$DIMTXSTY
  7
Standard
  9
$DIMAUNIT
 70
     0
  9
$DIMADEC
 70
     0
  9
$DIMALTRND
 40
0.0
  9
$DIMAZIN
 70
     0
  9
$DIMDSEP
 70
    46
  9
$DIMATFIT
 70
     3
  9
$DIMFRAC
 70
     0
  9
$DIMLDRBLK
  1

  9
$DIMLUNIT
 70
     2
  9
$DIMLWD
 70
    -2
  9
$DIMLWE
 70
    -2
  9
$DIMTMOVE
 70
     0
  9
$LUNITS
 70
     2
  9
$LUPREC
 70
     4
  9
$SKETCHINC
 40
0.1
  9
$FILLETRAD
 40
0.0
  9
$AUNITS
 70
     0
  9
$AUPREC
 70
     0
  9
$MENU
  1
.
  9
$ELEVATION
 40
0.0
  9
$PELEVATION
 40
0.0
  9
$THICKNESS
 40
0.0
  9
$LIMCHECK
 70
     0
  9
$CHAMFERA
 40
0.0
  9
$CHAMFERB
 40
0.0
  9
$CHAMFERC
 40
0.0
  9
$CHAMFERD
 40
0.0
  9
$SKPOLY
 70
     0
  9
$TDCREATE
 40
2454907.849299583
  9
$TDUCREATE
 40
2454907.807632916
  9
$TDUPDATE
 40
2454907.850719398
  9
$TDUUPDATE
 40
2454907.809052731
  9
$TDINDWG
 40
0.0014199884
  9
$TDUSRTIMER
 40
0.0014199884
  9
$USRTIMER
 70
     1
  9
$ANGBASE
 50
0.0
  9
$ANGDIR
 70
     0
  9
$PDMODE
 70
     0
  9
$PDSIZE
 40
0.0
  9
$PLINEWID
 40
0.0
  9
$SPLFRAME
 70
     0
  9
$SPLINETYPE
 70
     6
  9
$SPLINESEGS
 70
     8
  9
$HANDSEED
  5
2AC
  9
$SURFTAB1
 70
     6
  9
$SURFTAB2
 70
     6
  9
$SURFTYPE
 70
     6
  9
$SURFU
 70
     6
  9
$SURFV
 70
     6
  9
$UCSBASE
  2

  9
$UCSNAME
  2

  9
$UCSORG
 10
0.0
 20
0.0
 30
0.0
  9
$UCSXDIR
 10
1.0
 20
0.0
 30
0.0
  9
$UCSYDIR
 10
0.0
 20
1.0
 30
0.0
  9
$UCSORTHOREF
  2

  9
$UCSORTHOVIEW
 70
     1
  9
$UCSORGTOP
 10
0.0
 20
0.0
 30
0.0
  9
$UCSORGBOTTOM
 10
0.0
 20
0.0
 30
0.0
  9
$UCSORGLEFT
 10
0.0
 20
0.0
 30
0.0
  9
$UCSORGRIGHT
 10
0.0
 20
0.0
 30
0.0
  9
$UCSORGFRONT
 10
0.0
 20
0.0
 30
0.0
  9
$UCSORGBACK
 10
0.0
 20
0.0
 30
0.0
  9
$PUCSBASE
  2

  9
$PUCSNAME
  2

  9
$PUCSORG
 10
0.0
 20
0.0
 30
0.0
  9
$PUCSXDIR
 10
1.0
 20
0.0
 30
0.0
  9
$PUCSYDIR
 10
0.0
 20
1.0
 30
0.0
  9
$PUCSORTHOREF
  2

  9
$PUCSORTHOVIEW
 70
     0
  9
$PUCSORGTOP
 10
0.0
 20
0.0
 30
0.0
  9
$PUCSORGBOTTOM
 10
0.0
 20
0.0
 30
0.0
  9
$PUCSORGLEFT
 10
0.0
 20
0.0
 30
0.0
  9
$PUCSORGRIGHT
 10
0.0
 20
0.0
 30
0.0
  9
$PUCSORGFRONT
 10
0.0
 20
0.0
 30
0.0
  9
$PUCSORGBACK
 10
0.0
 20
0.0
 30
0.0
  9
$USERI1
 70
     0
  9
$USERI2
 70
     0
  9
$USERI3
 70
     0
  9
$USERI4
 70
     0
  9
$USERI5
 70
     0
  9
$USERR1
 40
0.0
  9
$USERR2
 40
0.0
  9
$USERR3
 40
0.0
  9
$USERR4
 40
0.0
  9
$USERR5
 40
0.0
  9
$WORLDVIEW
 70
     1
  9
$SHADEDGE
 70
     3
  9
$SHADEDIF
 70
    70
  9
$TILEMODE
 70
     1
  9
$MAXACTVP
 70
    64
  9
$PINSBASE
 10
0.0
 20
0.0
 30
0.0
  9
$PLIMCHECK
 70
     0
  9
$PEXTMIN
 10
1.000000000000000E+20
 20
1.000000000000000E+20
 30
1.000000000000000E+20
  9
$PEXTMAX
 10
-1.000000000000000E+20
 20
-1.000000000000000E+20
 30
-1.000000000000000E+20
  9
$PLIMMIN
 10
0.0
 20
0.0
  9
$PLIMMAX
 10
12.0
 20
9.0
  9
$UNITMODE
 70
     0
  9
$VISRETAIN
 70
     1
  9
$PLINEGEN
 70
     0
  9
$PSLTSCALE
 70
     1
  9
$TREEDEPTH
 70
  3020
  9
$CMLSTYLE
  2
Standard
  9
$CMLJUST
 70
     0
  9
$CMLSCALE
 40
1.0
  9
$PROXYGRAPHICS
 70
     1
  9
$MEASUREMENT
 70
     0
  9
$CELWEIGHT
370
    -1
  9
$ENDCAPS
280
     0
  9
$JOINSTYLE
280
     0
  9
$LWDISPLAY
290
     0
  9
$INSUNITS
 70
     0
  9
$HYPERLINKBASE
  1

  9
$STYLESHEET
  1

  9
$XEDIT
290
     1
  9
$CEPSNTYPE
380
     0
  9
$PSTYLEMODE
290
     1
  9
$FINGERPRINTGUID
  2
{BFF0DA0F-A200-440B-8689-EF9EF885EA69}
  9
$VERSIONGUID
  2
{4A8C68DC-FB17-4320-82CE-DC0B8D98DE01}
  9
$EXTNAMES
290
     1
  9
$PSVPSCALE
 40
0.0
  9
$OLESTARTUP
290
     0
  0
ENDSEC
  0
SECTION
  2
CLASSES
  0
CLASS
  1
ACDBDICTIONARYWDFLT
  2
AcDbDictionaryWithDefault
  3
AutoCAD 2000
 90
        0
280
     0
281
     0
  0
CLASS
  1
ACDBPLACEHOLDER
  2
AcDbPlaceHolder
  3
AutoCAD 2000
 90
        0
280
     0
281
     0
  0
CLASS
  1
LAYOUT
  2
AcDbLayout
  3
AutoCAD 2000
 90
        0
280
     0
281
     0
  0
CLASS
  1
DICTIONARYVAR
  2
AcDbDictionaryVar
  3
AutoCAD 2000
 90
        0
280
     0
281
     0
  0
ENDSEC
  0
SECTION
  2
TABLES
  0
TABLE
  2
VPORT
  5
8
330
0
100
AcDbSymbolTable
 70
     2
  0
VPORT
  5
2AB
330
8
100
AcDbSymbolTableRecord
100
AcDbViewportTableRecord
  2
*Active
 70
     0
 10
0.0
 20
0.0
 11
1.0
 21
1.0
 12
65.0
 22
126.5
 13
0.0
 23
0.0
 14
1.0
 24
1.0
 15
0.0
 25
0.0
 16
0.0
 26
0.0
 36
1.0
 17
0.0
 27
0.0
 37
0.0
 40
254.2356210526315
 41
1.968387776606954
 42
50.0
 43
0.0
 44
0.0
 50
0.0
 51
0.0
 71
     0
 72
   100
 73
     1
 74
     3
 75
     0
 76
     0
 77
     0
 78
     0
281
     0
 65
     1
110
0.0
120
0.0
130
0.0
111
1.0
121
0.0
131
0.0
112
0.0
122
1.0
132
0.0
 79
     1
146
0.0
  0
ENDTAB
  0
TABLE
  2
LTYPE
  5
5
330
0
100
AcDbSymbolTable
 70
     1
  0
LTYPE
  5
13
330
5
100
AcDbSymbolTableRecord
100
AcDbLinetypeTableRecord
  2
ByBlock
 70
     0
  3

 72
    65
 73
     0
 40
0.0
  0
LTYPE
  5
14
330
5
100
AcDbSymbolTableRecord
100
AcDbLinetypeTableRecord
  2
ByLayer
 70
     0
  3

 72
    65
 73
     0
 40
0.0
  0
LTYPE
  5
15
330
5
100
AcDbSymbolTableRecord
100
AcDbLinetypeTableRecord
  2
Continuous
 70
     0
  3
Solid line
 72
    65
 73
     0
 40
0.0
  0
ENDTAB
  0
TABLE
  2
LAYER
  5
2
330
0
100
AcDbSymbolTable
 70
     1
  0
LAYER
  5
10
330
2
100
AcDbSymbolTableRecord
100
AcDbLayerTableRecord
  2
0
 70
     0
 62
     7
  6
Continuous
370
    -3
390
F
  0
ENDTAB
  0
TABLE
  2
STYLE
  5
3
330
0
100
AcDbSymbolTable
 70
     1
  0
STYLE
  5
11
330
3
100
AcDbSymbolTableRecord
100
AcDbTextStyleTableRecord
  2
Standard
 70
     0
 40
0.0
 41
1.0
 50
0.0
 71
     0
 42
0.2
  3
txt
  4

  0
ENDTAB
  0
TABLE
  2
VIEW
  5
6
330
0
100
AcDbSymbolTable
 70
     0
  0
ENDTAB
  0
TABLE
  2
UCS
  5
7
330
0
100
AcDbSymbolTable
 70
     0
  0
ENDTAB
  0
TABLE
  2
APPID
  5
9
330
0
100
AcDbSymbolTable
 70
     1
  0
APPID
  5
12
330
9
100
AcDbSymbolTableRecord
100
AcDbRegAppTableRecord
  2
ACAD
 70
     0
  0
ENDTAB
  0
TABLE
  2
DIMSTYLE
  5
A
330
0
100
AcDbSymbolTable
 70
     1
100
AcDbDimStyleTable
 71
     0
  0
DIMSTYLE
105
1E0
330
A
100
AcDbSymbolTableRecord
100
AcDbDimStyleTableRecord
  2
Standard
 70
     0
340
11
  0
ENDTAB
  0
TABLE
  2
BLOCK_RECORD
  5
1
330
0
100
AcDbSymbolTable
 70
     0
  0
BLOCK_RECORD
  5
1E
330
1
100
AcDbSymbolTableRecord
100
AcDbBlockTableRecord
  2
*Model_Space
340
21
  0
BLOCK_RECORD
  5
1A
330
1
100
AcDbSymbolTableRecord
100
AcDbBlockTableRecord
  2
*Paper_Space
340
1D
  0
ENDTAB
  0
ENDSEC
  0
SECTION
  2
BLOCKS
  0
BLOCK
  5
1F
330
1E
100
AcDbEntity
  8
0
100
AcDbBlockBegin
  2
*Model_Space
 70
     0
 10
0.0
 20
0.0
 30
0.0
  3
*Model_Space
  1

  0
ENDBLK
  5
20
330
1E
100
AcDbEntity
  8
0
100
AcDbBlockEnd
  0
BLOCK
  5
1B
330
1A
100
AcDbEntity
 67
     1
  8
0
100
AcDbBlockBegin
  2
*Paper_Space
 70
     0
 10
0.0
 20
0.0
 30
0.0
  3
*Paper_Space
  1

  0
ENDBLK
  5
1C
330
1A
100
AcDbEntity
 67
     1
  8
0
100
AcDbBlockEnd
  0
ENDSEC
  0
SECTION
  2
ENTITIES
  0
LINE
  5
22
330
1E
100
AcDbEntity
  8
0
100
AcDbLine
 10
5.93159999999999
 20
16.21
 30
0.0
 11
7.162799999999999
 21
13.70099999999999
 31
0.0
  0
LINE
  5
23
330
1E
100
AcDbEntity
  8
0
100
AcDbLine
 10
4.7723
 20
18.85599999999999
 30
0.0
 11
5.93159999999999
 21
16.21
 31
0.0
  0
LINE
  5
24
330
1E
100
AcDbEntity
  8
0
100
AcDbLine
 10
3.45
 20
23.02499999999999
 30
0.0
 11
4.7723
 21
18.85599999999999
 31
0.0
  0
LINE
  5
25
330
1E
100
AcDbEntity
  8
0
100
AcDbLine
 10
2.289
 20
27.399
 30
0.0
 11
3.45
 21
23.02499999999999
 31
0.0
  0
LINE
  5
26
330
1E
100
AcDbEntity
  8
0
100
AcDbLine
 10
3.72759999999999
 20
24.49699999999999
 30
0.0
 11
5.0376
 21
20.34199999999999
 31
0.0
  0
LINE
  5
28
330
1E
100
AcDbEntity
  8
0
100
AcDbLine
 10
1.463
 20
31.33599999999999
 30
0.0
 11
2.289
 21
27.399
 31
0.0
  0
LINE
  5
29
330
1E
100
AcDbEntity
  8
0
100
AcDbLine
 10
0.669400000000003
 20
36.09599999999999
 30
0.0
 11
1.463
 21
31.33599999999999
 31
0.0
  0
LINE
  5
2A
330
1E
100
AcDbEntity
  8
0
100
AcDbLine
 10
1.763099999999989
 20
32.772
 30
0.0
 11
2.579499999999999
 21
28.85199999999999
 31
0.0
  0
LINE
  5
2C
330
1E
100
AcDbEntity
  8
0
100
AcDbLine
 10
2.579499999999999
 20
28.85199999999999
 30
0.0
 11
3.72759999999999
 21
24.49699999999999
 31
0.0
  0
LINE
  5
2E
330
1E
100
AcDbEntity
  8
0
100
AcDbLine
 10
5.0376
 20
20.34199999999999
 30
0.0
 11
6.1875
 21
17.70599999999999
 31
0.0
  0
LINE
  5
30
330
1E
100
AcDbEntity
  8
0
100
AcDbLine
 10
7.162799999999999
 20
13.70099999999999
 30
0.0
 11
8.060499999999999
 21
12.319
 31
0.0
  0
LINE
  5
31
330
1E
100
AcDbEntity
  8
0
100
AcDbLine
 10
8.060499999999999
 20
12.319
 30
0.0
 11
9.77389999999999
 21
10.056
 31
0.0
  0
LINE
  5
32
330
1E
100
AcDbEntity
  8
0
100
AcDbLine
 10
9.77389999999999
 20
10.056
 30
0.0
 11
11.9
 21
8.154000000000008
 31
0.0
  0
LINE
  5
33
330
1E
100
AcDbEntity
  8
0
100
AcDbLine
 10
11.9
 20
8.154000000000008
 30
0.0
 11
14.4596
 21
6.57400000000003
 31
0.0
  0
LINE
  5
34
330
1E
100
AcDbEntity
  8
0
100
AcDbLine
 10
11.4
 20
11.072
 30
0.0
 11
13.8873
 21
9.398999999999999
 31
0.0
  0
LINE
  5
36
330
1E
100
AcDbEntity
  8
0
100
AcDbLine
 10
9.148600000000008
 20
12.92
 30
0.0
 11
11.4
 21
11.072
 31
0.0
  0
LINE
  5
38
330
1E
100
AcDbEntity
  8
0
100
AcDbLine
 10
7.40969999999999
 20
15.205
 30
0.0
 11
9.148600000000008
 21
12.92
 31
0.0
  0
LINE
  5
3A
330
1E
100
AcDbEntity
  8
0
100
AcDbLine
 10
6.1875
 20
17.70599999999999
 30
0.0
 11
7.40969999999999
 21
15.205
 31
0.0
  0
LINE
  5
3C
330
1E
100
AcDbEntity
  8
0
100
AcDbLine
 10
0.207999999999992
 20
42.428
 30
0.0
 11
0.669400000000003
 21
36.09599999999999
 31
0.0
  0
LINE
  5
3D
330
1E
100
AcDbEntity
  8
0
100
AcDbLine
 10
0.5262000000000001
 20
43.8135
 30
0.0
 11
0.9788999999999978
 21
37.512
 31
0.0
  0
LINE
  5
3F
330
1E
100
AcDbEntity
  8
0
100
AcDbLine
 10
0.9788999999999978
 20
37.512
 30
0.0
 11
1.763099999999989
 21
32.772
 31
0.0
  0
LINE
  5
41
330
1E
100
AcDbEntity
  8
0
100
AcDbLine
 10
14.4596
 20
6.57400000000003
 30
0.0
 11
17.5048
 21
5.30100000000003
 31
0.0
  0
LINE
  5
42
330
1E
100
AcDbEntity
  8
0
100
AcDbLine
 10
13.8873
 20
9.398999999999999
 30
0.0
 11
16.9617
 21
8.10600000000004
 31
0.0
  0
LINE
  5
44
330
1E
100
AcDbEntity
  8
0
100
AcDbLine
 10
0.0
 20
49.5533
 30
0.0
 11
0.207999999999992
 21
42.428
 31
0.0
  0
LINE
  5
45
330
1E
100
AcDbEntity
  8
0
100
AcDbLine
 10
0.0
 20
49.5533
 30
0.0
 11
0.0
 21
50.2224
 31
0.0
  0
LINE
  5
46
330
1E
100
AcDbEntity
  8
0
100
AcDbLine
 10
0.3215999999999939
 20
50.90399999999999
 30
0.0
 11
0.5262000000000001
 21
43.8135
 31
0.0
  0
LINE
  5
47
330
1E
100
AcDbEntity
  8
0
100
AcDbLine
 10
0.3215999999999939
 20
50.90399999999999
 30
0.0
 11
0.5262000000000001
 21
57.99459999999999
 31
0.0
  0
LINE
  5
49
330
1E
100
AcDbEntity
  8
0
100
AcDbLine
 10
0.0
 20
50.2224
 30
0.0
 11
0.207999999999992
 21
57.3476
 31
0.0
  0
LINE
  5
4A
330
1E
100
AcDbEntity
  8
0
100
AcDbLine
 10
0.0
 20
50.2224
 30
0.0
 11
0.0
 21
49.5533
 31
0.0
  0
LINE
  5
4B
330
1E
100
AcDbEntity
  8
0
100
AcDbLine
 10
29.8933
 20
2.625000000000029
 30
0.0
 11
35.6896
 21
1.797000000000019
 31
0.0
  0
LINE
  5
4C
330
1E
100
AcDbEntity
  8
0
100
AcDbLine
 10
24.3543
 20
3.57400000000002
 30
0.0
 11
29.8933
 21
2.625000000000029
 31
0.0
  0
LINE
  5
4D
330
1E
100
AcDbEntity
  8
0
100
AcDbLine
 10
20.8414
 20
4.410000000000009
 30
0.0
 11
24.3543
 21
3.57400000000002
 31
0.0
  0
LINE
  5
4E
330
1E
100
AcDbEntity
  8
0
100
AcDbLine
 10
17.5048
 20
5.30100000000003
 30
0.0
 11
20.8414
 21
4.410000000000009
 31
0.0
  0
LINE
  5
4F
330
1E
100
AcDbEntity
  8
0
100
AcDbLine
 10
20.3277
 20
7.19799999999999
 30
0.0
 11
23.8751
 21
6.343000000000019
 31
0.0
  0
LINE
  5
51
330
1E
100
AcDbEntity
  8
0
100
AcDbLine
 10
23.8751
 20
6.343000000000019
 30
0.0
 11
29.4655
 21
5.36999999999998
 31
0.0
  0
LINE
  5
54
330
1E
100
AcDbEntity
  8
0
100
AcDbLine
 10
29.4655
 20
5.36999999999998
 30
0.0
 11
35.32589999999999
 21
4.516000000000009
 31
0.0
  0
LINE
  5
56
330
1E
100
AcDbEntity
  8
0
100
AcDbLine
 10
35.6896
 20
1.797000000000019
 30
0.0
 11
40.90629999999999
 21
1.20900000000003
 31
0.0
  0
LINE
  5
57
330
1E
100
AcDbEntity
  8
0
100
AcDbLine
 10
40.60139999999999
 20
3.910000000000009
 30
0.0
 11
46.9793
 21
3.32700000000002
 31
0.0
  0
LINE
  5
59
330
1E
100
AcDbEntity
  8
0
100
AcDbLine
 10
35.32589999999999
 20
4.516000000000009
 30
0.0
 11
40.60139999999999
 21
3.910000000000009
 31
0.0
  0
LINE
  5
5B
330
1E
100
AcDbEntity
  8
0
100
AcDbLine
 10
16.9617
 20
8.10600000000004
 30
0.0
 11
20.3277
 21
7.19799999999999
 31
0.0
  0
LINE
  5
5C
330
1E
100
AcDbEntity
  8
0
100
AcDbLine
 10
40.90629999999999
 20
1.20900000000003
 30
0.0
 11
47.2097
 21
0.645000000000022
 31
0.0
  0
LINE
  5
5D
330
1E
100
AcDbEntity
  8
0
100
AcDbLine
 10
0.5262000000000001
 20
57.99459999999999
 30
0.0
 11
0.9788999999999978
 21
64.296
 31
0.0
  0
LINE
  5
5E
330
1E
100
AcDbEntity
  8
0
100
AcDbLine
 10
0.207999999999992
 20
57.3476
 30
0.0
 11
0.669400000000003
 21
63.6793
 31
0.0
  0
LINE
  5
5F
330
1E
100
AcDbEntity
  8
0
100
AcDbLine
 10
1.763099999999989
 20
69.03570000000001
 30
0.0
 11
2.579499999999999
 21
72.95619999999999
 31
0.0
  0
LINE
  5
60
330
1E
100
AcDbEntity
  8
0
100
AcDbLine
 10
1.463
 20
68.44
 30
0.0
 11
2.289
 21
72.377
 31
0.0
  0
LINE
  5
61
330
1E
100
AcDbEntity
  8
0
100
AcDbLine
 10
3.72759999999999
 20
77.3113
 30
0.0
 11
5.0376
 21
81.46590000000001
 31
0.0
  0
LINE
  5
62
330
1E
100
AcDbEntity
  8
0
100
AcDbLine
 10
3.45
 20
76.7502
 30
0.0
 11
4.7723
 21
80.91930000000001
 31
0.0
  0
LINE
  5
63
330
1E
100
AcDbEntity
  8
0
100
AcDbLine
 10
2.579499999999999
 20
72.95619999999999
 30
0.0
 11
3.72759999999999
 21
77.3113
 31
0.0
  0
LINE
  5
64
330
1E
100
AcDbEntity
  8
0
100
AcDbLine
 10
2.289
 20
72.377
 30
0.0
 11
3.45
 21
76.7502
 31
0.0
  0
LINE
  5
65
330
1E
100
AcDbEntity
  8
0
100
AcDbLine
 10
0.9788999999999978
 20
64.296
 30
0.0
 11
1.763099999999989
 21
69.03570000000001
 31
0.0
  0
LINE
  5
66
330
1E
100
AcDbEntity
  8
0
100
AcDbLine
 10
0.669400000000003
 20
63.6793
 30
0.0
 11
1.463
 21
68.44
 31
0.0
  0
LINE
  5
67
330
1E
100
AcDbEntity
  8
0
100
AcDbLine
 10
5.0376
 20
81.46590000000001
 30
0.0
 11
6.1875
 21
84.1023
 31
0.0
  0
LINE
  5
68
330
1E
100
AcDbEntity
  8
0
100
AcDbLine
 10
4.7723
 20
80.91930000000001
 30
0.0
 11
5.93159999999999
 21
83.56559999999999
 31
0.0
  0
LINE
  5
69
330
1E
100
AcDbEntity
  8
0
100
AcDbLine
 10
6.1875
 20
84.1023
 30
0.0
 11
7.40969999999999
 21
86.6033
 31
0.0
  0
LINE
  5
6A
330
1E
100
AcDbEntity
  8
0
100
AcDbLine
 10
5.93159999999999
 20
83.56559999999999
 30
0.0
 11
6.1875
 21
84.1023
 31
0.0
  0
LINE
  5
6B
330
1E
100
AcDbEntity
  8
0
100
AcDbLine
 10
5.93159999999999
 20
83.56559999999999
 30
0.0
 11
6.12805620466723
 21
83.9660119558089
 31
0.0
  0
LINE
  5
6C
330
1E
100
AcDbEntity
  8
0
100
AcDbLine
 10
5.93159999999999
 20
83.56559999999999
 30
0.0
 11
6.12805620466723
 21
83.9660119558089
 31
0.0
  0
LINE
  5
6D
330
1E
100
AcDbEntity
  8
0
100
AcDbLine
 10
13.8873
 20
92.41010000000001
 30
0.0
 11
16.9617
 21
93.7016
 31
0.0
  0
LINE
  5
6E
330
1E
100
AcDbEntity
  8
0
100
AcDbLine
 10
11.4
 20
90.73629999999999
 30
0.0
 11
13.8873
 21
92.41010000000001
 31
0.0
  0
LINE
  5
6F
330
1E
100
AcDbEntity
  8
0
100
AcDbLine
 10
9.148600000000008
 20
88.8879
 30
0.0
 11
11.4
 21
90.73629999999999
 31
0.0
  0
LINE
  5
70
330
1E
100
AcDbEntity
  8
0
100
AcDbLine
 10
7.40969999999999
 20
86.6033
 30
0.0
 11
9.148600000000008
 21
88.8879
 31
0.0
  0
LINE
  5
71
330
1E
100
AcDbEntity
  8
0
100
AcDbLine
 10
16.9617
 20
93.7016
 30
0.0
 11
20.3277
 21
94.61029999999999
 31
0.0
  0
LINE
  5
72
330
1E
100
AcDbEntity
  8
0
100
AcDbLine
 10
23.8751
 20
95.46510000000001
 30
0.0
 11
29.4655
 21
96.43830000000001
 31
0.0
  0
LINE
  5
73
330
1E
100
AcDbEntity
  8
0
100
AcDbLine
 10
20.3277
 20
94.61029999999999
 30
0.0
 11
23.8751
 21
95.46510000000001
 31
0.0
  0
LINE
  5
74
330
1E
100
AcDbEntity
  8
0
100
AcDbLine
 10
29.4655
 20
96.43830000000001
 30
0.0
 11
34.5094
 21
96.90940000000001
 31
0.0
  0
LINE
  5
75
330
1E
100
AcDbEntity
  8
0
100
AcDbLine
 10
40.68509999999999
 20
99.0276
 30
0.0
 11
45.75359999999999
 21
101.3004999999999
 31
0.0
  0
LINE
  5
76
330
1E
100
AcDbEntity
  8
0
100
AcDbLine
 10
34.5094
 20
96.90940000000001
 30
0.0
 11
40.68509999999999
 21
99.0276
 31
0.0
  0
LINE
  5
77
330
1E
100
AcDbEntity
  8
0
100
AcDbLine
 10
42.5
 20
230.8199999999999
 30
0.0
 11
42.5
 21
239.3199999999999
 31
0.0
  0
LINE
  5
78
330
1E
100
AcDbEntity
  8
0
100
AcDbLine
 10
42.5
 20
230.8199999999999
 30
0.0
 11
42.8
 21
230.12
 31
0.0
  0
LINE
  5
79
330
1E
100
AcDbEntity
  8
0
100
AcDbLine
 10
42.5
 20
239.3199999999999
 30
0.0
 11
42.5
 21
230.8199999999999
 31
0.0
  0
LINE
  5
7A
330
1E
100
AcDbEntity
  8
0
100
AcDbLine
 10
42.8
 20
230.12
 30
0.0
 11
43.5
 21
229.82
 31
0.0
  0
LINE
  5
7F
330
1E
100
AcDbEntity
  8
0
100
AcDbLine
 10
42.8
 20
230.12
 30
0.0
 11
43.5
 21
229.82
 31
0.0
  0
LINE
  5
81
330
1E
100
AcDbEntity
  8
0
100
AcDbLine
 10
42.5
 20
230.8199999999999
 30
0.0
 11
42.5
 21
239.3199999999999
 31
0.0
  0
LINE
  5
82
330
1E
100
AcDbEntity
  8
0
100
AcDbLine
 10
42.5
 20
230.8199999999999
 30
0.0
 11
42.8
 21
230.12
 31
0.0
  0
LINE
  5
83
330
1E
100
AcDbEntity
  8
0
100
AcDbLine
 10
42.5
 20
239.3199999999999
 30
0.0
 11
43.0
 21
239.82
 31
0.0
  0
LINE
  5
85
330
1E
100
AcDbEntity
  8
0
100
AcDbLine
 10
42.5
 20
239.3199999999999
 30
0.0
 11
42.5
 21
230.8199999999999
 31
0.0
  0
LINE
  5
86
330
1E
100
AcDbEntity
  8
0
100
AcDbLine
 10
43.5
 20
229.82
 30
0.0
 11
55.5
 21
229.82
 31
0.0
  0
LINE
  5
8B
330
1E
100
AcDbEntity
  8
0
100
AcDbLine
 10
43.5
 20
229.82
 30
0.0
 11
65.0
 21
229.82
 31
0.0
  0
LINE
  5
8C
330
1E
100
AcDbEntity
  8
0
100
AcDbLine
 10
43.5
 20
229.82
 30
0.0
 11
56.5
 21
229.82
 31
0.0
  0
LINE
  5
8D
330
1E
100
AcDbEntity
  8
0
100
AcDbLine
 10
43.0
 20
239.82
 30
0.0
 11
47.5
 21
239.82
 31
0.0
  0
LINE
  5
8F
330
1E
100
AcDbEntity
  8
0
100
AcDbLine
 10
55.58189999999999
 20
0.3250000000000119
 30
0.0
 11
65.0
 21
0.180000000000016
 31
0.0
  0
LINE
  5
90
330
1E
100
AcDbEntity
  8
0
100
AcDbLine
 10
47.2097
 20
0.645000000000022
 30
0.0
 11
55.58189999999999
 21
0.3250000000000119
 31
0.0
  0
LINE
  5
93
330
1E
100
AcDbEntity
  8
0
100
AcDbLine
 10
46.9793
 20
3.32700000000002
 30
0.0
 11
55.4588
 21
2.991000000000009
 31
0.0
  0
LINE
  5
95
330
1E
100
AcDbEntity
  8
0
100
AcDbLine
 10
55.4588
 20
2.991000000000009
 30
0.0
 11
65.0
 21
2.838999999999979
 31
0.0
  0
LINE
  5
CE
330
1E
100
AcDbEntity
  8
0
100
AcDbLine
 10
45.75359999999999
 20
101.3004999999999
 30
0.0
 11
48.7914
 21
103.3204999999999
 31
0.0
  0
LINE
  5
CF
330
1E
100
AcDbEntity
  8
0
100
AcDbLine
 10
48.7914
 20
103.3204999999999
 30
0.0
 11
51.1031
 21
105.5228
 31
0.0
  0
LINE
  5
D1
330
1E
100
AcDbEntity
  8
0
100
AcDbLine
 10
47.5
 20
239.82
 30
0.0
 11
49.5
 21
240.8199999999999
 31
0.0
  0
LINE
  5
D4
330
1E
100
AcDbEntity
  8
0
100
AcDbLine
 10
49.5
 20
240.8199999999999
 30
0.0
 11
50.5
 21
242.8199999999999
 31
0.0
  0
LINE
  5
D5
330
1E
100
AcDbEntity
  8
0
100
AcDbLine
 10
50.5
 20
252.82
 30
0.0
 11
50.5
 21
242.8199999999999
 31
0.0
  0
LINE
  5
D7
330
1E
100
AcDbEntity
  8
0
100
AcDbLine
 10
50.8
 20
252.82
 30
0.0
 11
51.5
 21
252.82
 31
0.0
  0
LINE
  5
D8
330
1E
100
AcDbEntity
  8
0
100
AcDbLine
 10
50.5
 20
252.82
 30
0.0
 11
50.8
 21
252.82
 31
0.0
  0
LINE
  5
D9
330
1E
100
AcDbEntity
  8
0
100
AcDbLine
 10
50.5
 20
252.82
 30
0.0
 11
50.5
 21
242.8199999999999
 31
0.0
  0
LINE
  5
DA
330
1E
100
AcDbEntity
  8
0
100
AcDbLine
 10
50.5
 20
242.8199999999999
 30
0.0
 11
50.5
 21
252.82
 31
0.0
  0
LINE
  5
DB
330
1E
100
AcDbEntity
  8
0
100
AcDbLine
 10
50.5
 20
242.8199999999999
 30
0.0
 11
50.5
 21
252.82
 31
0.0
  0
LINE
  5
DC
330
1E
100
AcDbEntity
  8
0
100
AcDbLine
 10
51.1031
 20
105.5228
 30
0.0
 11
51.84928020382909
 21
106.6979409919559
 31
0.0
  0
LINE
  5
DE
330
1E
100
AcDbEntity
  8
0
100
AcDbLine
 10
51.84928020382909
 20
106.6979409919559
 30
0.0
 11
53.0
 21
110.4518
 31
0.0
  0
LINE
  5
DF
330
1E
100
AcDbEntity
  8
0
100
AcDbLine
 10
53.0
 20
110.4518
 30
0.0
 11
53.0
 21
116.6524
 31
0.0
  0
LINE
  5
E0
330
1E
100
AcDbEntity
  8
0
100
AcDbLine
 10
53.0
 20
122.6491999999999
 30
0.0
 11
53.0
 21
116.6524
 31
0.0
  0
LINE
  5
E1
330
1E
100
AcDbEntity
  8
0
100
AcDbLine
 10
53.0
 20
122.6491999999999
 30
0.0
 11
53.0
 21
131.991
 31
0.0
  0
LINE
  5
E2
330
1E
100
AcDbEntity
  8
0
100
AcDbLine
 10
53.0
 20
131.991
 30
0.0
 11
53.0
 21
122.6491999999999
 31
0.0
  0
LINE
  5
E3
330
1E
100
AcDbEntity
  8
0
100
AcDbLine
 10
53.0
 20
131.991
 30
0.0
 11
53.0
 21
143.281518
 31
0.0
  0
LINE
  5
E4
330
1E
100
AcDbEntity
  8
0
100
AcDbLine
 10
53.0
 20
116.6524
 30
0.0
 11
53.0
 21
110.4518
 31
0.0
  0
LINE
  5
E5
330
1E
100
AcDbEntity
  8
0
100
AcDbLine
 10
53.0
 20
116.6524
 30
0.0
 11
53.0
 21
122.6491999999999
 31
0.0
  0
LINE
  5
E6
330
1E
100
AcDbEntity
  8
0
100
AcDbLine
 10
53.0
 20
143.281518
 30
0.0
 11
53.0
 21
131.991
 31
0.0
  0
LINE
  5
E7
330
1E
100
AcDbEntity
  8
0
100
AcDbLine
 10
53.0
 20
143.281518
 30
0.0
 11
53.0
 21
159.115
 31
0.0
  0
LINE
  5
E8
330
1E
100
AcDbEntity
  8
0
100
AcDbLine
 10
52.468
 20
147.4285
 30
0.0
 11
53.0
 21
146.276685897436
 31
0.0
  0
LINE
  5
E9
330
1E
100
AcDbEntity
  8
0
100
AcDbLine
 10
51.5
 20
252.82
 30
0.0
 11
65.0
 21
252.82
 31
0.0
  0
LINE
  5
EA
330
1E
100
AcDbEntity
  8
0
100
AcDbLine
 10
53.0
 20
159.115
 30
0.0
 11
53.0
 21
143.281518
 31
0.0
  0
LINE
  5
EB
330
1E
100
AcDbEntity
  8
0
100
AcDbLine
 10
53.0
 20
159.115
 30
0.0
 11
53.34179999999999
 21
159.9809999999999
 31
0.0
  0
LINE
  5
EC
330
1E
100
AcDbEntity
  8
0
100
AcDbLine
 10
52.468
 20
179.1928
 30
0.0
 11
53.716
 21
181.8947999999999
 31
0.0
  0
LINE
  5
ED
330
1E
100
AcDbEntity
  8
0
100
AcDbLine
 10
52.468
 20
153.1928
 30
0.0
 11
53.0
 21
154.3446141025639
 31
0.0
  0
LINE
  5
EE
330
1E
100
AcDbEntity
  8
0
100
AcDbLine
 10
52.0
 20
176.3106
 30
0.0
 11
52.0
 21
150.3106299999999
 31
0.0
  0
LINE
  5
EF
330
1E
100
AcDbEntity
  8
0
100
AcDbLine
 10
52.0
 20
176.3106
 30
0.0
 11
52.468
 21
179.1928
 31
0.0
  0
LINE
  5
F0
330
1E
100
AcDbEntity
  8
0
100
AcDbLine
 10
52.0
 20
150.3106299999999
 30
0.0
 11
52.468
 21
147.4285
 31
0.0
  0
LINE
  5
F1
330
1E
100
AcDbEntity
  8
0
100
AcDbLine
 10
52.0
 20
150.3106299999999
 30
0.0
 11
52.0
 21
176.3106
 31
0.0
  0
LINE
  5
F2
330
1E
100
AcDbEntity
  8
0
100
AcDbLine
 10
52.0
 20
150.3106299999999
 30
0.0
 11
52.468
 21
153.1928
 31
0.0
  0
LINE
  5
FD
330
1E
100
AcDbEntity
  8
0
100
AcDbLine
 10
53.34179999999999
 20
159.9809999999999
 30
0.0
 11
56.4184
 21
160.847
 31
0.0
  0
LINE
  5
102
330
1E
100
AcDbEntity
  8
0
100
AcDbLine
 10
53.716
 20
181.8947999999999
 30
0.0
 11
55.79600000000001
 21
184.2814999999999
 31
0.0
  0
LINE
  5
103
330
1E
100
AcDbEntity
  8
0
100
AcDbLine
 10
53.716
 20
181.8947999999999
 30
0.0
 11
55.5
 21
200.8199999999999
 31
0.0
  0
LINE
  5
104
330
1E
100
AcDbEntity
  8
0
100
AcDbLine
 10
55.5
 20
200.8199999999999
 30
0.0
 11
55.5
 21
201.8159999999999
 31
0.0
  0
LINE
  5
105
330
1E
100
AcDbEntity
  8
0
100
AcDbLine
 10
55.5
 20
201.8159999999999
 30
0.0
 11
55.5
 21
203.7192
 31
0.0
  0
LINE
  5
106
330
1E
100
AcDbEntity
  8
0
100
AcDbLine
 10
55.5
 20
201.8159999999999
 30
0.0
 11
55.5
 21
200.8199999999999
 31
0.0
  0
LINE
  5
107
330
1E
100
AcDbEntity
  8
0
100
AcDbLine
 10
55.5
 20
201.8159999999999
 30
0.0
 11
55.5
 21
202.9449999999999
 31
0.0
  0
LINE
  5
108
330
1E
100
AcDbEntity
  8
0
100
AcDbLine
 10
55.31004721788729
 20
198.8049246681399
 30
0.0
 11
55.5
 21
201.8159999999999
 31
0.0
  0
LINE
  5
109
330
1E
100
AcDbEntity
  8
0
100
AcDbLine
 10
55.5
 20
203.7192
 30
0.0
 11
55.5
 21
205.1384999999999
 31
0.0
  0
LINE
  5
10A
330
1E
100
AcDbEntity
  8
0
100
AcDbLine
 10
55.5
 20
203.7192
 30
0.0
 11
55.5
 21
201.8159999999999
 31
0.0
  0
LINE
  5
10B
330
1E
100
AcDbEntity
  8
0
100
AcDbLine
 10
55.5
 20
202.9449999999999
 30
0.0
 11
55.5
 21
205.1384999999999
 31
0.0
  0
LINE
  5
10C
330
1E
100
AcDbEntity
  8
0
100
AcDbLine
 10
55.5
 20
202.9449999999999
 30
0.0
 11
55.5
 21
202.82
 31
0.0
  0
LINE
  5
10D
330
1E
100
AcDbEntity
  8
0
100
AcDbLine
 10
55.5
 20
202.9449999999999
 30
0.0
 11
55.5
 21
201.8159999999999
 31
0.0
  0
LINE
  5
10E
330
1E
100
AcDbEntity
  8
0
100
AcDbLine
 10
55.5
 20
202.82
 30
0.0
 11
55.5
 21
203.288
 31
0.0
  0
LINE
  5
10F
330
1E
100
AcDbEntity
  8
0
100
AcDbLine
 10
55.5
 20
202.82
 30
0.0
 11
55.5
 21
202.9449999999999
 31
0.0
  0
LINE
  5
110
330
1E
100
AcDbEntity
  8
0
100
AcDbLine
 10
55.5
 20
205.1384999999999
 30
0.0
 11
55.5
 21
206.6159999999999
 31
0.0
  0
LINE
  5
111
330
1E
100
AcDbEntity
  8
0
100
AcDbLine
 10
55.5
 20
205.1384999999999
 30
0.0
 11
55.5
 21
202.9449999999999
 31
0.0
  0
LINE
  5
112
330
1E
100
AcDbEntity
  8
0
100
AcDbLine
 10
55.5
 20
205.1384999999999
 30
0.0
 11
55.5
 21
203.7192
 31
0.0
  0
LINE
  5
113
330
1E
100
AcDbEntity
  8
0
100
AcDbLine
 10
55.5
 20
205.1384999999999
 30
0.0
 11
65.0
 21
205.1384999999999
 31
0.0
  0
LINE
  5
114
330
1E
100
AcDbEntity
  8
0
100
AcDbLine
 10
55.5
 20
206.6159999999999
 30
0.0
 11
55.5
 21
204.5359999999999
 31
0.0
  0
LINE
  5
115
330
1E
100
AcDbEntity
  8
0
100
AcDbLine
 10
55.5
 20
206.6159999999999
 30
0.0
 11
55.5
 21
209.372
 31
0.0
  0
LINE
  5
116
330
1E
100
AcDbEntity
  8
0
100
AcDbLine
 10
55.5
 20
206.6159999999999
 30
0.0
 11
55.5
 21
205.1384999999999
 31
0.0
  0
LINE
  5
117
330
1E
100
AcDbEntity
  8
0
100
AcDbLine
 10
55.5
 20
204.5359999999999
 30
0.0
 11
55.5
 21
203.288
 31
0.0
  0
LINE
  5
118
330
1E
100
AcDbEntity
  8
0
100
AcDbLine
 10
55.5
 20
204.5359999999999
 30
0.0
 11
55.5
 21
206.6159999999999
 31
0.0
  0
LINE
  5
119
330
1E
100
AcDbEntity
  8
0
100
AcDbLine
 10
55.5
 20
203.288
 30
0.0
 11
55.5
 21
202.82
 31
0.0
  0
LINE
  5
11A
330
1E
100
AcDbEntity
  8
0
100
AcDbLine
 10
55.5
 20
203.288
 30
0.0
 11
55.5
 21
204.5359999999999
 31
0.0
  0
LINE
  5
11B
330
1E
100
AcDbEntity
  8
0
100
AcDbLine
 10
55.5
 20
208.3250999999999
 30
0.0
 11
55.5
 21
209.16
 31
0.0
  0
LINE
  5
11C
330
1E
100
AcDbEntity
  8
0
100
AcDbLine
 10
55.79600000000001
 20
184.2814999999999
 30
0.0
 11
58.55199999999999
 21
186.0829
 31
0.0
  0
LINE
  5
11D
330
1E
100
AcDbEntity
  8
0
100
AcDbLine
 10
55.89999999999999
 20
207.8199999999999
 30
0.0
 11
57.1
 21
207.12
 31
0.0
  0
LINE
  5
11E
330
1E
100
AcDbEntity
  8
0
100
AcDbLine
 10
55.5
 20
208.32
 30
0.0
 11
55.89999999999999
 21
207.8199999999999
 31
0.0
  0
LINE
  5
11F
330
1E
100
AcDbEntity
  8
0
100
AcDbLine
 10
55.5
 20
208.32
 30
0.0
 11
55.5
 21
229.82
 31
0.0
  0
LINE
  5
120
330
1E
100
AcDbEntity
  8
0
100
AcDbLine
 10
55.5
 20
212.492
 30
0.0
 11
55.5
 21
209.372
 31
0.0
  0
LINE
  5
121
330
1E
100
AcDbEntity
  8
0
100
AcDbLine
 10
55.5
 20
212.492
 30
0.0
 11
55.5
 21
215.8199999999999
 31
0.0
  0
LINE
  5
122
330
1E
100
AcDbEntity
  8
0
100
AcDbLine
 10
55.5
 20
209.372
 30
0.0
 11
55.5
 21
206.6159999999999
 31
0.0
  0
LINE
  5
123
330
1E
100
AcDbEntity
  8
0
100
AcDbLine
 10
55.5
 20
209.372
 30
0.0
 11
55.5
 21
212.492
 31
0.0
  0
LINE
  5
124
330
1E
100
AcDbEntity
  8
0
100
AcDbLine
 10
55.5
 20
219.1479999999999
 30
0.0
 11
55.5
 21
215.8199999999999
 31
0.0
  0
LINE
  5
125
330
1E
100
AcDbEntity
  8
0
100
AcDbLine
 10
55.5
 20
219.1479999999999
 30
0.0
 11
55.5
 21
222.2679999999999
 31
0.0
  0
LINE
  5
126
330
1E
100
AcDbEntity
  8
0
100
AcDbLine
 10
55.5
 20
209.16
 30
0.0
 11
55.5
 21
212.3699999999999
 31
0.0
  0
LINE
  5
127
330
1E
100
AcDbEntity
  8
0
100
AcDbLine
 10
55.5
 20
209.16
 30
0.0
 11
55.5
 21
208.3250999999999
 31
0.0
  0
LINE
  5
128
330
1E
100
AcDbEntity
  8
0
100
AcDbLine
 10
55.5
 20
212.3699999999999
 30
0.0
 11
55.5
 21
215.8199999999999
 31
0.0
  0
LINE
  5
129
330
1E
100
AcDbEntity
  8
0
100
AcDbLine
 10
55.5
 20
212.3699999999999
 30
0.0
 11
55.5
 21
209.16
 31
0.0
  0
LINE
  5
12A
330
1E
100
AcDbEntity
  8
0
100
AcDbLine
 10
55.5
 20
222.2679999999999
 30
0.0
 11
55.5
 21
219.1479999999999
 31
0.0
  0
LINE
  5
12B
330
1E
100
AcDbEntity
  8
0
100
AcDbLine
 10
55.5
 20
222.2679999999999
 30
0.0
 11
55.5
 21
225.024
 31
0.0
  0
LINE
  5
12C
330
1E
100
AcDbEntity
  8
0
100
AcDbLine
 10
55.5
 20
225.024
 30
0.0
 11
55.5
 21
222.2679999999999
 31
0.0
  0
LINE
  5
12D
330
1E
100
AcDbEntity
  8
0
100
AcDbLine
 10
55.5
 20
225.024
 30
0.0
 11
55.5
 21
227.104
 31
0.0
  0
LINE
  5
12E
330
1E
100
AcDbEntity
  8
0
100
AcDbLine
 10
55.5
 20
227.104
 30
0.0
 11
55.5
 21
225.024
 31
0.0
  0
LINE
  5
12F
330
1E
100
AcDbEntity
  8
0
100
AcDbLine
 10
55.5
 20
227.104
 30
0.0
 11
55.5
 21
228.352
 31
0.0
  0
LINE
  5
130
330
1E
100
AcDbEntity
  8
0
100
AcDbLine
 10
55.5
 20
228.352
 30
0.0
 11
55.5
 21
227.104
 31
0.0
  0
LINE
  5
131
330
1E
100
AcDbEntity
  8
0
100
AcDbLine
 10
55.5
 20
228.352
 30
0.0
 11
55.5
 21
228.8199999999999
 31
0.0
  0
LINE
  5
132
330
1E
100
AcDbEntity
  8
0
100
AcDbLine
 10
55.5
 20
228.8199999999999
 30
0.0
 11
55.5
 21
228.352
 31
0.0
  0
LINE
  5
133
330
1E
100
AcDbEntity
  8
0
100
AcDbLine
 10
55.5
 20
229.32
 30
0.0
 11
55.5
 21
228.8543
 31
0.0
  0
LINE
  5
134
330
1E
100
AcDbEntity
  8
0
100
AcDbLine
 10
55.5
 20
228.8543
 30
0.0
 11
55.5
 21
229.32
 31
0.0
  0
LINE
  5
135
330
1E
100
AcDbEntity
  8
0
100
AcDbLine
 10
55.5
 20
228.8543
 30
0.0
 11
55.5
 21
227.6066999999999
 31
0.0
  0
LINE
  5
136
330
1E
100
AcDbEntity
  8
0
100
AcDbLine
 10
55.5
 20
227.6066999999999
 30
0.0
 11
55.5
 21
228.8543
 31
0.0
  0
LINE
  5
137
330
1E
100
AcDbEntity
  8
0
100
AcDbLine
 10
55.5
 20
227.6066999999999
 30
0.0
 11
55.5
 21
225.4084999999999
 31
0.0
  0
LINE
  5
138
330
1E
100
AcDbEntity
  8
0
100
AcDbLine
 10
55.5
 20
225.4084999999999
 30
0.0
 11
55.5
 21
227.6066999999999
 31
0.0
  0
LINE
  5
139
330
1E
100
AcDbEntity
  8
0
100
AcDbLine
 10
55.5
 20
225.4084999999999
 30
0.0
 11
55.5
 21
222.5567999999999
 31
0.0
  0
LINE
  5
13A
330
1E
100
AcDbEntity
  8
0
100
AcDbLine
 10
55.5
 20
222.5567999999999
 30
0.0
 11
55.5
 21
225.4084999999999
 31
0.0
  0
LINE
  5
13B
330
1E
100
AcDbEntity
  8
0
100
AcDbLine
 10
55.5
 20
222.5567999999999
 30
0.0
 11
55.5
 21
219.3486
 31
0.0
  0
LINE
  5
13C
330
1E
100
AcDbEntity
  8
0
100
AcDbLine
 10
55.5
 20
219.3486
 30
0.0
 11
55.5
 21
222.5567999999999
 31
0.0
  0
LINE
  5
13D
330
1E
100
AcDbEntity
  8
0
100
AcDbLine
 10
55.5
 20
219.3486
 30
0.0
 11
55.5
 21
215.8199999999999
 31
0.0
  0
LINE
  5
13E
330
1E
100
AcDbEntity
  8
0
100
AcDbLine
 10
55.5
 20
215.8199999999999
 30
0.0
 11
55.5
 21
219.3486
 31
0.0
  0
LINE
  5
13F
330
1E
100
AcDbEntity
  8
0
100
AcDbLine
 10
55.5
 20
215.8199999999999
 30
0.0
 11
55.5
 21
212.3699999999999
 31
0.0
  0
LINE
  5
140
330
1E
100
AcDbEntity
  8
0
100
AcDbLine
 10
55.5
 20
215.8199999999999
 30
0.0
 11
55.5
 21
219.1479999999999
 31
0.0
  0
LINE
  5
141
330
1E
100
AcDbEntity
  8
0
100
AcDbLine
 10
55.5
 20
215.8199999999999
 30
0.0
 11
55.5
 21
212.492
 31
0.0
  0
LINE
  5
143
330
1E
100
AcDbEntity
  8
0
100
AcDbLine
 10
56.0
 20
208.5199999999999
 30
0.0
 11
56.25
 21
208.17
 31
0.0
  0
LINE
  5
144
330
1E
100
AcDbEntity
  8
0
100
AcDbLine
 10
56.4184
 20
160.847
 30
0.0
 11
63.2551
 21
161.7129999999999
 31
0.0
  0
LINE
  5
145
330
1E
100
AcDbEntity
  8
0
100
AcDbLine
 10
56.25
 20
208.17
 30
0.0
 11
57.1
 21
207.62
 31
0.0
  0
LINE
  5
149
330
1E
100
AcDbEntity
  8
0
100
AcDbLine
 10
55.5
 20
229.82
 30
0.0
 11
56.5
 21
229.82
 31
0.0
  0
LINE
  5
14A
330
1E
100
AcDbEntity
  8
0
100
AcDbLine
 10
55.5
 20
229.82
 30
0.0
 11
55.5
 21
208.32
 31
0.0
  0
LINE
  5
14B
330
1E
100
AcDbEntity
  8
0
100
AcDbLine
 10
57.1
 20
207.62
 30
0.0
 11
59.5
 21
206.9199999999999
 31
0.0
  0
LINE
  5
14C
330
1E
100
AcDbEntity
  8
0
100
AcDbLine
 10
57.1
 20
207.12
 30
0.0
 11
59.5
 21
206.42
 31
0.0
  0
LINE
  5
150
330
1E
100
AcDbEntity
  8
0
100
AcDbLine
 10
58.55199999999999
 20
186.0829
 30
0.0
 11
61.672
 21
187.1636999999999
 31
0.0
  0
LINE
  5
151
330
1E
100
AcDbEntity
  8
0
100
AcDbLine
 10
59.5
 20
206.9199999999999
 30
0.0
 11
62.5
 21
206.5199999999999
 31
0.0
  0
LINE
  5
152
330
1E
100
AcDbEntity
  8
0
100
AcDbLine
 10
59.5
 20
206.42
 30
0.0
 11
62.5
 21
206.02
 31
0.0
  0
LINE
  5
153
330
1E
100
AcDbEntity
  8
0
100
AcDbLine
 10
61.672
 20
187.1636999999999
 30
0.0
 11
65.0
 21
187.569
 31
0.0
  0
LINE
  5
154
330
1E
100
AcDbEntity
  8
0
100
AcDbLine
 10
62.33561643835589
 20
206.0419178082189
 30
0.0
 11
62.5
 21
206.0112
 31
0.0
  0
LINE
  5
155
330
1E
100
AcDbEntity
  8
0
100
AcDbLine
 10
62.5
 20
206.0112
 30
0.0
 11
65.0
 21
205.8199999999999
 31
0.0
  0
LINE
  5
156
330
1E
100
AcDbEntity
  8
0
100
AcDbLine
 10
62.5
 20
206.5199999999999
 30
0.0
 11
65.0
 21
206.32
 31
0.0
  0
LINE
  5
157
330
1E
100
AcDbEntity
  8
0
100
AcDbLine
 10
63.2551
 20
161.7129999999999
 30
0.0
 11
65.0
 21
161.7129999999999
 31
0.0
  0
LINE
  5
163
330
1E
100
AcDbEntity
  8
0
100
AcDbLine
 10
62.5
 20
206.02
 30
0.0
 11
65.0
 21
205.8199999999999
 31
0.0
  0
LINE
  5
1E4
330
1E
100
AcDbEntity
  8
0
100
AcDbLine
 10
100.5345
 20
96.43830000000001
 30
0.0
 11
95.4906
 21
96.90940000000001
 31
0.0
  0
LINE
  5
1E5
330
1E
100
AcDbEntity
  8
0
100
AcDbLine
 10
100.5345
 20
5.36999999999998
 30
0.0
 11
94.6741
 21
4.516000000000009
 31
0.0
  0
LINE
  5
1E6
330
1E
100
AcDbEntity
  8
0
100
AcDbLine
 10
100.1067
 20
2.625000000000029
 30
0.0
 11
94.31040000000001
 21
1.797000000000019
 31
0.0
  0
LINE
  5
1E7
330
1E
100
AcDbEntity
  8
0
100
AcDbLine
 10
118.5999999999999
 20
90.73629999999999
 30
0.0
 11
116.1127
 21
92.41010000000001
 31
0.0
  0
LINE
  5
1E8
330
1E
100
AcDbEntity
  8
0
100
AcDbLine
 10
118.5999999999999
 20
11.072
 30
0.0
 11
116.1127
 21
9.398999999999999
 31
0.0
  0
LINE
  5
1E9
330
1E
100
AcDbEntity
  8
0
100
AcDbLine
 10
118.1
 20
8.154000000000008
 30
0.0
 11
115.5404
 21
6.57400000000003
 31
0.0
  0
LINE
  5
1EA
330
1E
100
AcDbEntity
  8
0
100
AcDbLine
 10
129.6784
 20
50.90399999999999
 30
0.0
 11
129.4738
 21
43.8135
 31
0.0
  0
LINE
  5
1EB
330
1E
100
AcDbEntity
  8
0
100
AcDbLine
 10
130.0
 20
49.5533
 30
0.0
 11
129.7919999999999
 21
42.428
 31
0.0
  0
LINE
  5
1EC
330
1E
100
AcDbEntity
  8
0
100
AcDbLine
 10
128.2369
 20
32.772
 30
0.0
 11
127.4205
 21
28.85199999999999
 31
0.0
  0
LINE
  5
1ED
330
1E
100
AcDbEntity
  8
0
100
AcDbLine
 10
128.537
 20
31.33599999999999
 30
0.0
 11
127.7109999999999
 21
27.399
 31
0.0
  0
LINE
  5
1EE
330
1E
100
AcDbEntity
  8
0
100
AcDbLine
 10
129.4738
 20
43.8135
 30
0.0
 11
129.0211
 21
37.512
 31
0.0
  0
LINE
  5
1EF
330
1E
100
AcDbEntity
  8
0
100
AcDbLine
 10
129.7919999999999
 20
42.428
 30
0.0
 11
129.3306
 21
36.09599999999999
 31
0.0
  0
LINE
  5
1F0
330
1E
100
AcDbEntity
  8
0
100
AcDbLine
 10
129.3306
 20
36.09599999999999
 30
0.0
 11
128.537
 21
31.33599999999999
 31
0.0
  0
LINE
  5
1F1
330
1E
100
AcDbEntity
  8
0
100
AcDbLine
 10
129.0211
 20
37.512
 30
0.0
 11
128.2369
 21
32.772
 31
0.0
  0
LINE
  5
1F2
330
1E
100
AcDbEntity
  8
0
100
AcDbLine
 10
123.8124999999999
 20
17.70599999999999
 30
0.0
 11
122.5903
 21
15.205
 31
0.0
  0
LINE
  5
1F3
330
1E
100
AcDbEntity
  8
0
100
AcDbLine
 10
124.0684
 20
16.21
 30
0.0
 11
122.8372
 21
13.70099999999999
 31
0.0
  0
LINE
  5
1F4
330
1E
100
AcDbEntity
  8
0
100
AcDbLine
 10
127.4205
 20
28.85199999999999
 30
0.0
 11
126.2724
 21
24.49699999999999
 31
0.0
  0
LINE
  5
1F5
330
1E
100
AcDbEntity
  8
0
100
AcDbLine
 10
126.2724
 20
24.49699999999999
 30
0.0
 11
124.9624
 21
20.34199999999999
 31
0.0
  0
LINE
  5
1F6
330
1E
100
AcDbEntity
  8
0
100
AcDbLine
 10
126.55
 20
23.02499999999999
 30
0.0
 11
125.2277
 21
18.85599999999999
 31
0.0
  0
LINE
  5
1F7
330
1E
100
AcDbEntity
  8
0
100
AcDbLine
 10
127.7109999999999
 20
27.399
 30
0.0
 11
126.55
 21
23.02499999999999
 31
0.0
  0
LINE
  5
1F8
330
1E
100
AcDbEntity
  8
0
100
AcDbLine
 10
125.2277
 20
18.85599999999999
 30
0.0
 11
124.0684
 21
16.21
 31
0.0
  0
LINE
  5
1F9
330
1E
100
AcDbEntity
  8
0
100
AcDbLine
 10
124.9624
 20
20.34199999999999
 30
0.0
 11
123.8124999999999
 21
17.70599999999999
 31
0.0
  0
LINE
  5
1FA
330
1E
100
AcDbEntity
  8
0
100
AcDbLine
 10
120.8513999999999
 20
12.92
 30
0.0
 11
118.5999999999999
 21
11.072
 31
0.0
  0
LINE
  5
1FB
330
1E
100
AcDbEntity
  8
0
100
AcDbLine
 10
121.9395
 20
12.319
 30
0.0
 11
120.2261
 21
10.056
 31
0.0
  0
LINE
  5
1FC
330
1E
100
AcDbEntity
  8
0
100
AcDbLine
 10
122.5903
 20
15.205
 30
0.0
 11
120.8513999999999
 21
12.92
 31
0.0
  0
LINE
  5
1FD
330
1E
100
AcDbEntity
  8
0
100
AcDbLine
 10
122.8372
 20
13.70099999999999
 30
0.0
 11
121.9395
 21
12.319
 31
0.0
  0
LINE
  5
1FE
330
1E
100
AcDbEntity
  8
0
100
AcDbLine
 10
120.2261
 20
10.056
 30
0.0
 11
118.1
 21
8.154000000000008
 31
0.0
  0
LINE
  5
1FF
330
1E
100
AcDbEntity
  8
0
100
AcDbLine
 10
128.2369
 20
69.03570000000001
 30
0.0
 11
127.4205
 21
72.95619999999999
 31
0.0
  0
LINE
  5
200
330
1E
100
AcDbEntity
  8
0
100
AcDbLine
 10
128.537
 20
68.44
 30
0.0
 11
127.7109999999999
 21
72.377
 31
0.0
  0
LINE
  5
201
330
1E
100
AcDbEntity
  8
0
100
AcDbLine
 10
129.3306
 20
63.6793
 30
0.0
 11
128.537
 21
68.44
 31
0.0
  0
LINE
  5
202
330
1E
100
AcDbEntity
  8
0
100
AcDbLine
 10
129.0211
 20
64.296
 30
0.0
 11
128.2369
 21
69.03570000000001
 31
0.0
  0
LINE
  5
203
330
1E
100
AcDbEntity
  8
0
100
AcDbLine
 10
130.0
 20
50.2224
 30
0.0
 11
129.7919999999999
 21
57.3476
 31
0.0
  0
LINE
  5
204
330
1E
100
AcDbEntity
  8
0
100
AcDbLine
 10
129.6784
 20
50.90399999999999
 30
0.0
 11
129.4738
 21
57.99459999999999
 31
0.0
  0
LINE
  5
205
330
1E
100
AcDbEntity
  8
0
100
AcDbLine
 10
130.0
 20
50.2224
 30
0.0
 11
130.0
 21
49.5533
 31
0.0
  0
LINE
  5
206
330
1E
100
AcDbEntity
  8
0
100
AcDbLine
 10
130.0
 20
49.5533
 30
0.0
 11
130.0
 21
50.2224
 31
0.0
  0
LINE
  5
207
330
1E
100
AcDbEntity
  8
0
100
AcDbLine
 10
129.4738
 20
57.99459999999999
 30
0.0
 11
129.0211
 21
64.296
 31
0.0
  0
LINE
  5
208
330
1E
100
AcDbEntity
  8
0
100
AcDbLine
 10
129.7919999999999
 20
57.3476
 30
0.0
 11
129.3306
 21
63.6793
 31
0.0
  0
LINE
  5
209
330
1E
100
AcDbEntity
  8
0
100
AcDbLine
 10
122.5903
 20
86.6033
 30
0.0
 11
120.8513999999999
 21
88.8879
 31
0.0
  0
LINE
  5
20A
330
1E
100
AcDbEntity
  8
0
100
AcDbLine
 10
123.8124999999999
 20
84.1023
 30
0.0
 11
122.5903
 21
86.6033
 31
0.0
  0
LINE
  5
20B
330
1E
100
AcDbEntity
  8
0
100
AcDbLine
 10
126.55
 20
76.7502
 30
0.0
 11
125.2277
 21
80.91930000000001
 31
0.0
  0
LINE
  5
20C
330
1E
100
AcDbEntity
  8
0
100
AcDbLine
 10
126.2724
 20
77.3113
 30
0.0
 11
124.9624
 21
81.46590000000001
 31
0.0
  0
LINE
  5
20D
330
1E
100
AcDbEntity
  8
0
100
AcDbLine
 10
127.4205
 20
72.95619999999999
 30
0.0
 11
126.2724
 21
77.3113
 31
0.0
  0
LINE
  5
20E
330
1E
100
AcDbEntity
  8
0
100
AcDbLine
 10
127.7109999999999
 20
72.377
 30
0.0
 11
126.55
 21
76.7502
 31
0.0
  0
LINE
  5
20F
330
1E
100
AcDbEntity
  8
0
100
AcDbLine
 10
125.2277
 20
80.91930000000001
 30
0.0
 11
124.0684
 21
83.56559999999999
 31
0.0
  0
LINE
  5
210
330
1E
100
AcDbEntity
  8
0
100
AcDbLine
 10
124.9624
 20
81.46590000000001
 30
0.0
 11
123.8124999999999
 21
84.1023
 31
0.0
  0
LINE
  5
211
330
1E
100
AcDbEntity
  8
0
100
AcDbLine
 10
124.0684
 20
83.56559999999999
 30
0.0
 11
123.8719437953327
 21
83.9660119558089
 31
0.0
  0
LINE
  5
212
330
1E
100
AcDbEntity
  8
0
100
AcDbLine
 10
124.0684
 20
83.56559999999999
 30
0.0
 11
123.8719437953327
 21
83.9660119558089
 31
0.0
  0
LINE
  5
213
330
1E
100
AcDbEntity
  8
0
100
AcDbLine
 10
124.0684
 20
83.56559999999999
 30
0.0
 11
123.8124999999999
 21
84.1023
 31
0.0
  0
LINE
  5
214
330
1E
100
AcDbEntity
  8
0
100
AcDbLine
 10
120.8513999999999
 20
88.8879
 30
0.0
 11
118.5999999999999
 21
90.73629999999999
 31
0.0
  0
LINE
  5
215
330
1E
100
AcDbEntity
  8
0
100
AcDbLine
 10
109.6723
 20
7.19799999999999
 30
0.0
 11
106.1248999999999
 21
6.343000000000019
 31
0.0
  0
LINE
  5
216
330
1E
100
AcDbEntity
  8
0
100
AcDbLine
 10
109.1586
 20
4.410000000000009
 30
0.0
 11
105.6456999999999
 21
3.57400000000002
 31
0.0
  0
LINE
  5
217
330
1E
100
AcDbEntity
  8
0
100
AcDbLine
 10
113.0382999999999
 20
8.10600000000004
 30
0.0
 11
109.6723
 21
7.19799999999999
 31
0.0
  0
LINE
  5
218
330
1E
100
AcDbEntity
  8
0
100
AcDbLine
 10
115.5404
 20
6.57400000000003
 30
0.0
 11
112.4951999999999
 21
5.30100000000003
 31
0.0
  0
LINE
  5
219
330
1E
100
AcDbEntity
  8
0
100
AcDbLine
 10
112.4951999999999
 20
5.30100000000003
 30
0.0
 11
109.1586
 21
4.410000000000009
 31
0.0
  0
LINE
  5
21A
330
1E
100
AcDbEntity
  8
0
100
AcDbLine
 10
116.1127
 20
9.398999999999999
 30
0.0
 11
113.0382999999999
 21
8.10600000000004
 31
0.0
  0
LINE
  5
21B
330
1E
100
AcDbEntity
  8
0
100
AcDbLine
 10
106.1248999999999
 20
6.343000000000019
 30
0.0
 11
100.5345
 21
5.36999999999998
 31
0.0
  0
LINE
  5
21C
330
1E
100
AcDbEntity
  8
0
100
AcDbLine
 10
105.6456999999999
 20
3.57400000000002
 30
0.0
 11
100.1067
 21
2.625000000000029
 31
0.0
  0
LINE
  5
21D
330
1E
100
AcDbEntity
  8
0
100
AcDbLine
 10
109.6723
 20
94.61029999999999
 30
0.0
 11
106.1248999999999
 21
95.46510000000001
 31
0.0
  0
LINE
  5
21E
330
1E
100
AcDbEntity
  8
0
100
AcDbLine
 10
113.0382999999999
 20
93.7016
 30
0.0
 11
109.6723
 21
94.61029999999999
 31
0.0
  0
LINE
  5
21F
330
1E
100
AcDbEntity
  8
0
100
AcDbLine
 10
116.1127
 20
92.41010000000001
 30
0.0
 11
113.0382999999999
 21
93.7016
 31
0.0
  0
LINE
  5
220
330
1E
100
AcDbEntity
  8
0
100
AcDbLine
 10
106.1248999999999
 20
95.46510000000001
 30
0.0
 11
100.5345
 21
96.43830000000001
 31
0.0
  0
LINE
  5
221
330
1E
100
AcDbEntity
  8
0
100
AcDbLine
 10
77.0
 20
131.991
 30
0.0
 11
77.0
 21
122.6491999999999
 31
0.0
  0
LINE
  5
222
330
1E
100
AcDbEntity
  8
0
100
AcDbLine
 10
77.0
 20
122.6491999999999
 30
0.0
 11
77.0
 21
131.991
 31
0.0
  0
LINE
  5
223
330
1E
100
AcDbEntity
  8
0
100
AcDbLine
 10
78.15071979617091
 20
106.6979409919559
 30
0.0
 11
77.0
 21
110.4518
 31
0.0
  0
LINE
  5
224
330
1E
100
AcDbEntity
  8
0
100
AcDbLine
 10
83.0207
 20
3.32700000000002
 30
0.0
 11
74.5412
 21
2.991000000000009
 31
0.0
  0
LINE
  5
225
330
1E
100
AcDbEntity
  8
0
100
AcDbLine
 10
82.7903
 20
0.645000000000022
 30
0.0
 11
74.41810000000001
 21
0.3250000000000119
 31
0.0
  0
LINE
  5
226
330
1E
100
AcDbEntity
  8
0
100
AcDbLine
 10
89.0937
 20
1.20900000000003
 30
0.0
 11
82.7903
 21
0.645000000000022
 31
0.0
  0
LINE
  5
227
330
1E
100
AcDbEntity
  8
0
100
AcDbLine
 10
89.39860000000001
 20
3.910000000000009
 30
0.0
 11
83.0207
 21
3.32700000000002
 31
0.0
  0
LINE
  5
228
330
1E
100
AcDbEntity
  8
0
100
AcDbLine
 10
94.6741
 20
4.516000000000009
 30
0.0
 11
89.39860000000001
 21
3.910000000000009
 31
0.0
  0
LINE
  5
229
330
1E
100
AcDbEntity
  8
0
100
AcDbLine
 10
94.31040000000001
 20
1.797000000000019
 30
0.0
 11
89.0937
 21
1.20900000000003
 31
0.0
  0
LINE
  5
22A
330
1E
100
AcDbEntity
  8
0
100
AcDbLine
 10
89.3149
 20
99.0276
 30
0.0
 11
84.2464
 21
101.3004999999999
 31
0.0
  0
LINE
  5
22B
330
1E
100
AcDbEntity
  8
0
100
AcDbLine
 10
95.4906
 20
96.90940000000001
 30
0.0
 11
89.3149
 21
99.0276
 31
0.0
  0
LINE
  5
22C
330
1E
100
AcDbEntity
  8
0
100
AcDbLine
 10
84.2464
 20
101.3004999999999
 30
0.0
 11
81.20859999999998
 21
103.3204999999999
 31
0.0
  0
LINE
  5
22D
330
1E
100
AcDbEntity
  8
0
100
AcDbLine
 10
78.8969
 20
105.5228
 30
0.0
 11
78.15071979617091
 21
106.6979409919559
 31
0.0
  0
LINE
  5
22E
330
1E
100
AcDbEntity
  8
0
100
AcDbLine
 10
81.20859999999998
 20
103.3204999999999
 30
0.0
 11
78.8969
 21
105.5228
 31
0.0
  0
LINE
  5
22F
330
1E
100
AcDbEntity
  8
0
100
AcDbLine
 10
74.5412
 20
2.991000000000009
 30
0.0
 11
65.0
 21
2.838999999999979
 31
0.0
  0
LINE
  5
230
330
1E
100
AcDbEntity
  8
0
100
AcDbLine
 10
74.41810000000001
 20
0.3250000000000119
 30
0.0
 11
65.0
 21
0.180000000000016
 31
0.0
  0
LINE
  5
231
330
1E
100
AcDbEntity
  8
0
100
AcDbLine
 10
77.0
 20
116.6524
 30
0.0
 11
77.0
 21
110.4518
 31
0.0
  0
LINE
  5
232
330
1E
100
AcDbEntity
  8
0
100
AcDbLine
 10
77.0
 20
110.4518
 30
0.0
 11
77.0
 21
116.6524
 31
0.0
  0
LINE
  5
233
330
1E
100
AcDbEntity
  8
0
100
AcDbLine
 10
77.0
 20
116.6524
 30
0.0
 11
77.0
 21
122.6491999999999
 31
0.0
  0
LINE
  5
234
330
1E
100
AcDbEntity
  8
0
100
AcDbLine
 10
77.0
 20
122.6491999999999
 30
0.0
 11
77.0
 21
116.6524
 31
0.0
  0
LINE
  5
235
330
1E
100
AcDbEntity
  8
0
100
AcDbLine
 10
78.5
 20
252.82
 30
0.0
 11
65.0
 21
252.82
 31
0.0
  0
LINE
  5
236
330
1E
100
AcDbEntity
  8
0
100
AcDbLine
 10
86.5
 20
229.82
 30
0.0
 11
73.5
 21
229.82
 31
0.0
  0
LINE
  5
237
330
1E
100
AcDbEntity
  8
0
100
AcDbLine
 10
86.5
 20
229.82
 30
0.0
 11
65.0
 21
229.82
 31
0.0
  0
LINE
  5
238
330
1E
100
AcDbEntity
  8
0
100
AcDbLine
 10
86.5
 20
229.82
 30
0.0
 11
74.5
 21
229.82
 31
0.0
  0
LINE
  5
239
330
1E
100
AcDbEntity
  8
0
100
AcDbLine
 10
77.53199999999999
 20
179.1928
 30
0.0
 11
76.28399999999999
 21
181.8947999999999
 31
0.0
  0
LINE
  5
23A
330
1E
100
AcDbEntity
  8
0
100
AcDbLine
 10
77.53199999999999
 20
153.1928
 30
0.0
 11
77.0
 21
154.3446141025639
 31
0.0
  0
LINE
  5
23B
330
1E
100
AcDbEntity
  8
0
100
AcDbLine
 10
77.53199999999999
 20
147.4285
 30
0.0
 11
77.0
 21
146.276685897436
 31
0.0
  0
LINE
  5
23C
330
1E
100
AcDbEntity
  8
0
100
AcDbLine
 10
78.0
 20
150.3106299999999
 30
0.0
 11
78.0
 21
176.3106
 31
0.0
  0
LINE
  5
23D
330
1E
100
AcDbEntity
  8
0
100
AcDbLine
 10
78.0
 20
176.3106
 30
0.0
 11
78.0
 21
150.3106299999999
 31
0.0
  0
LINE
  5
23E
330
1E
100
AcDbEntity
  8
0
100
AcDbLine
 10
78.0
 20
150.3106299999999
 30
0.0
 11
77.53199999999999
 21
153.1928
 31
0.0
  0
LINE
  5
23F
330
1E
100
AcDbEntity
  8
0
100
AcDbLine
 10
78.0
 20
150.3106299999999
 30
0.0
 11
77.53199999999999
 21
147.4285
 31
0.0
  0
LINE
  5
240
330
1E
100
AcDbEntity
  8
0
100
AcDbLine
 10
78.0
 20
176.3106
 30
0.0
 11
77.53199999999999
 21
179.1928
 31
0.0
  0
LINE
  5
241
330
1E
100
AcDbEntity
  8
0
100
AcDbLine
 10
87.5
 20
239.3199999999999
 30
0.0
 11
87.0
 21
239.82
 31
0.0
  0
LINE
  5
242
330
1E
100
AcDbEntity
  8
0
100
AcDbLine
 10
87.5
 20
230.8199999999999
 30
0.0
 11
87.2
 21
230.12
 31
0.0
  0
LINE
  5
243
330
1E
100
AcDbEntity
  8
0
100
AcDbLine
 10
87.5
 20
230.8199999999999
 30
0.0
 11
87.2
 21
230.12
 31
0.0
  0
LINE
  5
244
330
1E
100
AcDbEntity
  8
0
100
AcDbLine
 10
87.5
 20
239.3199999999999
 30
0.0
 11
87.5
 21
230.8199999999999
 31
0.0
  0
LINE
  5
245
330
1E
100
AcDbEntity
  8
0
100
AcDbLine
 10
87.5
 20
230.8199999999999
 30
0.0
 11
87.5
 21
239.3199999999999
 31
0.0
  0
LINE
  5
246
330
1E
100
AcDbEntity
  8
0
100
AcDbLine
 10
87.5
 20
239.3199999999999
 30
0.0
 11
87.5
 21
230.8199999999999
 31
0.0
  0
LINE
  5
247
330
1E
100
AcDbEntity
  8
0
100
AcDbLine
 10
87.5
 20
230.8199999999999
 30
0.0
 11
87.5
 21
239.3199999999999
 31
0.0
  0
LINE
  5
248
330
1E
100
AcDbEntity
  8
0
100
AcDbLine
 10
79.5
 20
242.8199999999999
 30
0.0
 11
79.5
 21
252.82
 31
0.0
  0
LINE
  5
249
330
1E
100
AcDbEntity
  8
0
100
AcDbLine
 10
79.5
 20
242.8199999999999
 30
0.0
 11
79.5
 21
252.82
 31
0.0
  0
LINE
  5
24A
330
1E
100
AcDbEntity
  8
0
100
AcDbLine
 10
79.5
 20
252.82
 30
0.0
 11
79.5
 21
242.8199999999999
 31
0.0
  0
LINE
  5
24B
330
1E
100
AcDbEntity
  8
0
100
AcDbLine
 10
79.5
 20
252.82
 30
0.0
 11
79.5
 21
242.8199999999999
 31
0.0
  0
LINE
  5
24C
330
1E
100
AcDbEntity
  8
0
100
AcDbLine
 10
82.5
 20
239.82
 30
0.0
 11
80.5
 21
240.8199999999999
 31
0.0
  0
LINE
  5
24D
330
1E
100
AcDbEntity
  8
0
100
AcDbLine
 10
87.0
 20
239.82
 30
0.0
 11
82.5
 21
239.82
 31
0.0
  0
LINE
  5
24E
330
1E
100
AcDbEntity
  8
0
100
AcDbLine
 10
87.2
 20
230.12
 30
0.0
 11
86.5
 21
229.82
 31
0.0
  0
LINE
  5
24F
330
1E
100
AcDbEntity
  8
0
100
AcDbLine
 10
87.2
 20
230.12
 30
0.0
 11
86.5
 21
229.82
 31
0.0
  0
LINE
  5
250
330
1E
100
AcDbEntity
  8
0
100
AcDbLine
 10
80.5
 20
240.8199999999999
 30
0.0
 11
79.5
 21
242.8199999999999
 31
0.0
  0
LINE
  5
251
330
1E
100
AcDbEntity
  8
0
100
AcDbLine
 10
79.2
 20
252.82
 30
0.0
 11
78.5
 21
252.82
 31
0.0
  0
LINE
  5
252
330
1E
100
AcDbEntity
  8
0
100
AcDbLine
 10
79.5
 20
252.82
 30
0.0
 11
79.2
 21
252.82
 31
0.0
  0
LINE
  5
253
330
1E
100
AcDbEntity
  8
0
100
AcDbLine
 10
74.5
 20
204.5359999999999
 30
0.0
 11
74.5
 21
206.6159999999999
 31
0.0
  0
LINE
  5
254
330
1E
100
AcDbEntity
  8
0
100
AcDbLine
 10
74.5
 20
206.6159999999999
 30
0.0
 11
74.5
 21
205.1384999999999
 31
0.0
  0
LINE
  5
255
330
1E
100
AcDbEntity
  8
0
100
AcDbLine
 10
74.5
 20
206.6159999999999
 30
0.0
 11
74.5
 21
204.5359999999999
 31
0.0
  0
LINE
  5
256
330
1E
100
AcDbEntity
  8
0
100
AcDbLine
 10
74.5
 20
205.1384999999999
 30
0.0
 11
74.5
 21
206.6159999999999
 31
0.0
  0
LINE
  5
257
330
1E
100
AcDbEntity
  8
0
100
AcDbLine
 10
68.328
 20
187.1636999999999
 30
0.0
 11
65.0
 21
187.569
 31
0.0
  0
LINE
  5
258
330
1E
100
AcDbEntity
  8
0
100
AcDbLine
 10
74.5
 20
205.1384999999999
 30
0.0
 11
65.0
 21
205.1384999999999
 31
0.0
  0
LINE
  5
259
330
1E
100
AcDbEntity
  8
0
100
AcDbLine
 10
73.58160000000001
 20
160.847
 30
0.0
 11
66.7449
 21
161.7129999999999
 31
0.0
  0
LINE
  5
25A
330
1E
100
AcDbEntity
  8
0
100
AcDbLine
 10
77.0
 20
159.115
 30
0.0
 11
77.0
 21
143.281518
 31
0.0
  0
LINE
  5
25B
330
1E
100
AcDbEntity
  8
0
100
AcDbLine
 10
77.0
 20
143.281518
 30
0.0
 11
77.0
 21
159.115
 31
0.0
  0
LINE
  5
25C
330
1E
100
AcDbEntity
  8
0
100
AcDbLine
 10
77.0
 20
143.281518
 30
0.0
 11
77.0
 21
131.991
 31
0.0
  0
LINE
  5
25D
330
1E
100
AcDbEntity
  8
0
100
AcDbLine
 10
77.0
 20
131.991
 30
0.0
 11
77.0
 21
143.281518
 31
0.0
  0
LINE
  5
25E
330
1E
100
AcDbEntity
  8
0
100
AcDbLine
 10
76.6582
 20
159.9809999999999
 30
0.0
 11
73.58160000000001
 21
160.847
 31
0.0
  0
LINE
  5
25F
330
1E
100
AcDbEntity
  8
0
100
AcDbLine
 10
77.0
 20
159.115
 30
0.0
 11
76.6582
 21
159.9809999999999
 31
0.0
  0
LINE
  5
260
330
1E
100
AcDbEntity
  8
0
100
AcDbLine
 10
74.20399999999999
 20
184.2814999999999
 30
0.0
 11
71.448
 21
186.0829
 31
0.0
  0
LINE
  5
261
330
1E
100
AcDbEntity
  8
0
100
AcDbLine
 10
76.28399999999999
 20
181.8947999999999
 30
0.0
 11
74.5
 21
200.8199999999999
 31
0.0
  0
LINE
  5
262
330
1E
100
AcDbEntity
  8
0
100
AcDbLine
 10
76.28399999999999
 20
181.8947999999999
 30
0.0
 11
74.20399999999999
 21
184.2814999999999
 31
0.0
  0
LINE
  5
263
330
1E
100
AcDbEntity
  8
0
100
AcDbLine
 10
74.6899527821127
 20
198.8049246681399
 30
0.0
 11
74.5
 21
201.8159999999999
 31
0.0
  0
LINE
  5
264
330
1E
100
AcDbEntity
  8
0
100
AcDbLine
 10
74.5
 20
203.288
 30
0.0
 11
74.5
 21
204.5359999999999
 31
0.0
  0
LINE
  5
265
330
1E
100
AcDbEntity
  8
0
100
AcDbLine
 10
74.5
 20
203.288
 30
0.0
 11
74.5
 21
202.82
 31
0.0
  0
LINE
  5
266
330
1E
100
AcDbEntity
  8
0
100
AcDbLine
 10
74.5
 20
204.5359999999999
 30
0.0
 11
74.5
 21
203.288
 31
0.0
  0
LINE
  5
267
330
1E
100
AcDbEntity
  8
0
100
AcDbLine
 10
74.5
 20
205.1384999999999
 30
0.0
 11
74.5
 21
203.7192
 31
0.0
  0
LINE
  5
268
330
1E
100
AcDbEntity
  8
0
100
AcDbLine
 10
74.5
 20
205.1384999999999
 30
0.0
 11
74.5
 21
202.9449999999999
 31
0.0
  0
LINE
  5
269
330
1E
100
AcDbEntity
  8
0
100
AcDbLine
 10
74.5
 20
202.82
 30
0.0
 11
74.5
 21
202.9449999999999
 31
0.0
  0
LINE
  5
26A
330
1E
100
AcDbEntity
  8
0
100
AcDbLine
 10
74.5
 20
202.82
 30
0.0
 11
74.5
 21
203.288
 31
0.0
  0
LINE
  5
26B
330
1E
100
AcDbEntity
  8
0
100
AcDbLine
 10
74.5
 20
202.9449999999999
 30
0.0
 11
74.5
 21
201.8159999999999
 31
0.0
  0
LINE
  5
26C
330
1E
100
AcDbEntity
  8
0
100
AcDbLine
 10
74.5
 20
202.9449999999999
 30
0.0
 11
74.5
 21
202.82
 31
0.0
  0
LINE
  5
26D
330
1E
100
AcDbEntity
  8
0
100
AcDbLine
 10
74.5
 20
202.9449999999999
 30
0.0
 11
74.5
 21
205.1384999999999
 31
0.0
  0
LINE
  5
26E
330
1E
100
AcDbEntity
  8
0
100
AcDbLine
 10
74.5
 20
203.7192
 30
0.0
 11
74.5
 21
201.8159999999999
 31
0.0
  0
LINE
  5
26F
330
1E
100
AcDbEntity
  8
0
100
AcDbLine
 10
74.5
 20
203.7192
 30
0.0
 11
74.5
 21
205.1384999999999
 31
0.0
  0
LINE
  5
270
330
1E
100
AcDbEntity
  8
0
100
AcDbLine
 10
74.5
 20
201.8159999999999
 30
0.0
 11
74.5
 21
202.9449999999999
 31
0.0
  0
LINE
  5
271
330
1E
100
AcDbEntity
  8
0
100
AcDbLine
 10
74.5
 20
201.8159999999999
 30
0.0
 11
74.5
 21
200.8199999999999
 31
0.0
  0
LINE
  5
272
330
1E
100
AcDbEntity
  8
0
100
AcDbLine
 10
74.5
 20
201.8159999999999
 30
0.0
 11
74.5
 21
203.7192
 31
0.0
  0
LINE
  5
273
330
1E
100
AcDbEntity
  8
0
100
AcDbLine
 10
74.5
 20
200.8199999999999
 30
0.0
 11
74.5
 21
201.8159999999999
 31
0.0
  0
LINE
  5
274
330
1E
100
AcDbEntity
  8
0
100
AcDbLine
 10
71.448
 20
186.0829
 30
0.0
 11
68.328
 21
187.1636999999999
 31
0.0
  0
LINE
  5
275
330
1E
100
AcDbEntity
  8
0
100
AcDbLine
 10
66.7449
 20
161.7129999999999
 30
0.0
 11
65.0
 21
161.7129999999999
 31
0.0
  0
LINE
  5
276
330
1E
100
AcDbEntity
  8
0
100
AcDbLine
 10
67.5
 20
206.02
 30
0.0
 11
65.0
 21
205.8199999999999
 31
0.0
  0
LINE
  5
277
330
1E
100
AcDbEntity
  8
0
100
AcDbLine
 10
67.5
 20
206.5199999999999
 30
0.0
 11
65.0
 21
206.32
 31
0.0
  0
LINE
  5
278
330
1E
100
AcDbEntity
  8
0
100
AcDbLine
 10
67.5
 20
206.0112
 30
0.0
 11
65.0
 21
205.8199999999999
 31
0.0
  0
LINE
  5
279
330
1E
100
AcDbEntity
  8
0
100
AcDbLine
 10
72.9
 20
207.12
 30
0.0
 11
70.5
 21
206.42
 31
0.0
  0
LINE
  5
27A
330
1E
100
AcDbEntity
  8
0
100
AcDbLine
 10
72.9
 20
207.62
 30
0.0
 11
70.5
 21
206.9199999999999
 31
0.0
  0
LINE
  5
27B
330
1E
100
AcDbEntity
  8
0
100
AcDbLine
 10
74.5
 20
229.82
 30
0.0
 11
74.5
 21
208.32
 31
0.0
  0
LINE
  5
27C
330
1E
100
AcDbEntity
  8
0
100
AcDbLine
 10
74.5
 20
222.5567999999999
 30
0.0
 11
74.5
 21
225.4084999999999
 31
0.0
  0
LINE
  5
27D
330
1E
100
AcDbEntity
  8
0
100
AcDbLine
 10
74.5
 20
225.4084999999999
 30
0.0
 11
74.5
 21
222.5567999999999
 31
0.0
  0
LINE
  5
27E
330
1E
100
AcDbEntity
  8
0
100
AcDbLine
 10
74.5
 20
227.104
 30
0.0
 11
74.5
 21
225.024
 31
0.0
  0
LINE
  5
27F
330
1E
100
AcDbEntity
  8
0
100
AcDbLine
 10
74.5
 20
225.024
 30
0.0
 11
74.5
 21
227.104
 31
0.0
  0
LINE
  5
280
330
1E
100
AcDbEntity
  8
0
100
AcDbLine
 10
74.5
 20
208.32
 30
0.0
 11
74.5
 21
229.82
 31
0.0
  0
LINE
  5
281
330
1E
100
AcDbEntity
  8
0
100
AcDbLine
 10
74.5
 20
215.8199999999999
 30
0.0
 11
74.5
 21
212.492
 31
0.0
  0
LINE
  5
282
330
1E
100
AcDbEntity
  8
0
100
AcDbLine
 10
74.5
 20
215.8199999999999
 30
0.0
 11
74.5
 21
212.3699999999999
 31
0.0
  0
LINE
  5
283
330
1E
100
AcDbEntity
  8
0
100
AcDbLine
 10
74.5
 20
212.3699999999999
 30
0.0
 11
74.5
 21
215.8199999999999
 31
0.0
  0
LINE
  5
284
330
1E
100
AcDbEntity
  8
0
100
AcDbLine
 10
74.5
 20
212.492
 30
0.0
 11
74.5
 21
215.8199999999999
 31
0.0
  0
LINE
  5
285
330
1E
100
AcDbEntity
  8
0
100
AcDbLine
 10
73.75
 20
208.17
 30
0.0
 11
72.9
 21
207.62
 31
0.0
  0
LINE
  5
286
330
1E
100
AcDbEntity
  8
0
100
AcDbLine
 10
74.1
 20
207.8199999999999
 30
0.0
 11
72.9
 21
207.12
 31
0.0
  0
LINE
  5
287
330
1E
100
AcDbEntity
  8
0
100
AcDbLine
 10
74.5
 20
212.3699999999999
 30
0.0
 11
74.5
 21
209.16
 31
0.0
  0
LINE
  5
288
330
1E
100
AcDbEntity
  8
0
100
AcDbLine
 10
74.5
 20
209.16
 30
0.0
 11
74.5
 21
212.3699999999999
 31
0.0
  0
LINE
  5
289
330
1E
100
AcDbEntity
  8
0
100
AcDbLine
 10
74.5
 20
209.372
 30
0.0
 11
74.5
 21
212.492
 31
0.0
  0
LINE
  5
28A
330
1E
100
AcDbEntity
  8
0
100
AcDbLine
 10
74.5
 20
212.492
 30
0.0
 11
74.5
 21
209.372
 31
0.0
  0
LINE
  5
28B
330
1E
100
AcDbEntity
  8
0
100
AcDbLine
 10
74.5
 20
209.16
 30
0.0
 11
74.5
 21
208.3250999999999
 31
0.0
  0
LINE
  5
28C
330
1E
100
AcDbEntity
  8
0
100
AcDbLine
 10
74.5
 20
209.372
 30
0.0
 11
74.5
 21
206.6159999999999
 31
0.0
  0
LINE
  5
28D
330
1E
100
AcDbEntity
  8
0
100
AcDbLine
 10
74.5
 20
208.32
 30
0.0
 11
74.1
 21
207.8199999999999
 31
0.0
  0
LINE
  5
28E
330
1E
100
AcDbEntity
  8
0
100
AcDbLine
 10
74.5
 20
208.3250999999999
 30
0.0
 11
74.5
 21
209.16
 31
0.0
  0
LINE
  5
28F
330
1E
100
AcDbEntity
  8
0
100
AcDbLine
 10
74.5
 20
206.6159999999999
 30
0.0
 11
74.5
 21
209.372
 31
0.0
  0
LINE
  5
290
330
1E
100
AcDbEntity
  8
0
100
AcDbLine
 10
74.0
 20
208.5199999999999
 30
0.0
 11
73.75
 21
208.17
 31
0.0
  0
LINE
  5
291
330
1E
100
AcDbEntity
  8
0
100
AcDbLine
 10
74.5
 20
219.3486
 30
0.0
 11
74.5
 21
222.5567999999999
 31
0.0
  0
LINE
  5
292
330
1E
100
AcDbEntity
  8
0
100
AcDbLine
 10
74.5
 20
222.5567999999999
 30
0.0
 11
74.5
 21
219.3486
 31
0.0
  0
LINE
  5
293
330
1E
100
AcDbEntity
  8
0
100
AcDbLine
 10
74.5
 20
222.2679999999999
 30
0.0
 11
74.5
 21
219.1479999999999
 31
0.0
  0
LINE
  5
294
330
1E
100
AcDbEntity
  8
0
100
AcDbLine
 10
74.5
 20
219.1479999999999
 30
0.0
 11
74.5
 21
222.2679999999999
 31
0.0
  0
LINE
  5
295
330
1E
100
AcDbEntity
  8
0
100
AcDbLine
 10
74.5
 20
215.8199999999999
 30
0.0
 11
74.5
 21
219.1479999999999
 31
0.0
  0
LINE
  5
296
330
1E
100
AcDbEntity
  8
0
100
AcDbLine
 10
74.5
 20
215.8199999999999
 30
0.0
 11
74.5
 21
219.3486
 31
0.0
  0
LINE
  5
297
330
1E
100
AcDbEntity
  8
0
100
AcDbLine
 10
74.5
 20
219.3486
 30
0.0
 11
74.5
 21
215.8199999999999
 31
0.0
  0
LINE
  5
298
330
1E
100
AcDbEntity
  8
0
100
AcDbLine
 10
74.5
 20
219.1479999999999
 30
0.0
 11
74.5
 21
215.8199999999999
 31
0.0
  0
LINE
  5
299
330
1E
100
AcDbEntity
  8
0
100
AcDbLine
 10
74.5
 20
225.024
 30
0.0
 11
74.5
 21
222.2679999999999
 31
0.0
  0
LINE
  5
29A
330
1E
100
AcDbEntity
  8
0
100
AcDbLine
 10
74.5
 20
222.2679999999999
 30
0.0
 11
74.5
 21
225.024
 31
0.0
  0
LINE
  5
29B
330
1E
100
AcDbEntity
  8
0
100
AcDbLine
 10
74.5
 20
229.82
 30
0.0
 11
73.5
 21
229.82
 31
0.0
  0
LINE
  5
29C
330
1E
100
AcDbEntity
  8
0
100
AcDbLine
 10
74.5
 20
225.4084999999999
 30
0.0
 11
74.5
 21
227.6066999999999
 31
0.0
  0
LINE
  5
29D
330
1E
100
AcDbEntity
  8
0
100
AcDbLine
 10
74.5
 20
227.6066999999999
 30
0.0
 11
74.5
 21
225.4084999999999
 31
0.0
  0
LINE
  5
29E
330
1E
100
AcDbEntity
  8
0
100
AcDbLine
 10
74.5
 20
227.6066999999999
 30
0.0
 11
74.5
 21
228.8543
 31
0.0
  0
LINE
  5
29F
330
1E
100
AcDbEntity
  8
0
100
AcDbLine
 10
74.5
 20
228.8543
 30
0.0
 11
74.5
 21
227.6066999999999
 31
0.0
  0
LINE
  5
2A0
330
1E
100
AcDbEntity
  8
0
100
AcDbLine
 10
74.5
 20
228.8543
 30
0.0
 11
74.5
 21
229.32
 31
0.0
  0
LINE
  5
2A1
330
1E
100
AcDbEntity
  8
0
100
AcDbLine
 10
74.5
 20
229.32
 30
0.0
 11
74.5
 21
228.8543
 31
0.0
  0
LINE
  5
2A2
330
1E
100
AcDbEntity
  8
0
100
AcDbLine
 10
74.5
 20
228.8199999999999
 30
0.0
 11
74.5
 21
228.352
 31
0.0
  0
LINE
  5
2A3
330
1E
100
AcDbEntity
  8
0
100
AcDbLine
 10
74.5
 20
228.352
 30
0.0
 11
74.5
 21
228.8199999999999
 31
0.0
  0
LINE
  5
2A4
330
1E
100
AcDbEntity
  8
0
100
AcDbLine
 10
74.5
 20
228.352
 30
0.0
 11
74.5
 21
227.104
 31
0.0
  0
LINE
  5
2A5
330
1E
100
AcDbEntity
  8
0
100
AcDbLine
 10
74.5
 20
227.104
 30
0.0
 11
74.5
 21
228.352
 31
0.0
  0
LINE
  5
2A6
330
1E
100
AcDbEntity
  8
0
100
AcDbLine
 10
70.5
 20
206.42
 30
0.0
 11
67.5
 21
206.02
 31
0.0
  0
LINE
  5
2A7
330
1E
100
AcDbEntity
  8
0
100
AcDbLine
 10
70.5
 20
206.9199999999999
 30
0.0
 11
67.5
 21
206.5199999999999
 31
0.0
  0
LINE
  5
2A8
330
1E
100
AcDbEntity
  8
0
100
AcDbLine
 10
67.66438356164411
 20
206.0419178082189
 30
0.0
 11
67.5
 21
206.0112
 31
0.0
  0
ENDSEC
  0
SECTION
  2
OBJECTS
  0
DICTIONARY
  5
C
330
0
100
AcDbDictionary
281
     1
  3
ACAD_GROUP
350
D
  3
ACAD_LAYOUT
350
19
  3
ACAD_MLINESTYLE
350
16
  3
ACAD_PLOTSETTINGS
350
18
  3
ACAD_PLOTSTYLENAME
350
E
  3
AcDbVariableDictionary
350
2A9
  0
DICTIONARY
  5
D
102
{ACAD_REACTORS
330
C
102
}
330
C
100
AcDbDictionary
281
     1
  0
DICTIONARY
  5
19
102
{ACAD_REACTORS
330
C
102
}
330
C
100
AcDbDictionary
281
     1
  3
Layout1
350
1D
  3
Model
350
21
  0
DICTIONARY
  5
16
102
{ACAD_REACTORS
330
C
102
}
330
C
100
AcDbDictionary
281
     1
  3
Standard
350
17
  0
DICTIONARY
  5
18
102
{ACAD_REACTORS
330
C
102
}
330
C
100
AcDbDictionary
281
     1
  0
ACDBDICTIONARYWDFLT
  5
E
102
{ACAD_REACTORS
330
C
102
}
330
C
100
AcDbDictionary
281
     1
  3
Normal
350
F
100
AcDbDictionaryWithDefault
340
F
  0
DICTIONARY
  5
2A9
102
{ACAD_REACTORS
330
C
102
}
330
C
100
AcDbDictionary
281
     1
  3
DIMASSOC
350
2AA
  0
LAYOUT
  5
1D
102
{ACAD_REACTORS
330
19
102
}
330
19
100
AcDbPlotSettings
  1

  2
hp deskjet 980c series
  4

  6

 40
0.0
 41
0.0
 42
0.0
 43
0.0
 44
0.0
 45
0.0
 46
0.0
 47
0.0
 48
0.0
 49
0.0
140
0.0
141
0.0
142
1.0
143
1.0
 70
   688
 72
     0
 73
     0
 74
     5
  7

 75
    16
147
1.0
148
0.0
149
0.0
100
AcDbLayout
  1
Layout1
 70
     1
 71
     1
 10
0.0
 20
0.0
 11
12.0
 21
9.0
 12
0.0
 22
0.0
 32
0.0
 14
1.000000000000000E+20
 24
1.000000000000000E+20
 34
1.000000000000000E+20
 15
-1.000000000000000E+20
 25
-1.000000000000000E+20
 35
-1.000000000000000E+20
146
0.0
 13
0.0
 23
0.0
 33
0.0
 16
1.0
 26
0.0
 36
0.0
 17
0.0
 27
1.0
 37
0.0
 76
     0
330
1A
  0
LAYOUT
  5
21
102
{ACAD_REACTORS
330
19
102
}
330
19
100
AcDbPlotSettings
  1

  2
hp deskjet 980c series
  4

  6

 40
0.0
 41
0.0
 42
0.0
 43
0.0
 44
0.0
 45
0.0
 46
0.0
 47
0.0
 48
0.0
 49
0.0
140
0.0
141
0.0
142
1.0
143
1.0
 70
  1712
 72
     0
 73
     0
 74
     0
  7

 75
     0
147
1.0
148
0.0
149
0.0
100
AcDbLayout
  1
Model
 70
     1
 71
     0
 10
0.0
 20
0.0
 11
12.0
 21
9.0
 12
0.0
 22
0.0
 32
0.0
 14
0.0
 24
0.0
 34
0.0
 15
0.0
 25
0.0
 35
0.0
146
0.0
 13
0.0
 23
0.0
 33
0.0
 16
1.0
 26
0.0
 36
0.0
 17
0.0
 27
1.0
 37
0.0
 76
     0
330
1E
  0
MLINESTYLE
  5
17
102
{ACAD_REACTORS
330
16
102
}
330
16
100
AcDbMlineStyle
  2
STANDARD
 70
     0
  3

 62
   256
 51
90.0
 52
90.0
 71
     2
 49
0.5
 62
   256
  6
BYLAYER
 49
-0.5
 62
   256
  6
BYLAYER
  0
ACDBPLACEHOLDER
  5
F
102
{ACAD_REACTORS
330
E
102
}
330
E
  0
DICTIONARYVAR
  5
2AA
102
{ACAD_REACTORS
330
2A9
102
}
330
2A9
100
DictionaryVariables
280
     0
  1
1
  0
ENDSEC
  0
EOF
