  0
SECTION
  2
HEADER
  9
$ACADVER
  1
AC1015
  9
$ACADMAINTVER
 70
    13
  9
$DWGCODEPAGE
  3
ANSI_1252
  9
$INSBASE
 10
0.0
 20
0.0
 30
0.0
  9
$EXTMIN
 10
0.0
 20
-0.0000000000000037
 30
0.0
  9
$EXTMAX
 10
155.0
 20
155.0
 30
0.0
  9
$LIMMIN
 10
0.0
 20
0.0
  9
$LIMMAX
 10
12.0
 20
9.0
  9
$ORTHOMODE
 70
     0
  9
$REGENMODE
 70
     1
  9
$FILLMODE
 70
     1
  9
$QTEXTMODE
 70
     0
  9
$MIRRTEXT
 70
     1
  9
$LTSCALE
 40
1.0
  9
$ATTMODE
 70
     1
  9
$TEXTSIZE
 40
0.2
  9
$TRACEWID
 40
0.05
  9
$TEXTSTYLE
  7
Standard
  9
$CLAYER
  8
0
  9
$CELTYPE
  6
Continuous
  9
$CECOLOR
 62
   256
  9
$CELTSCALE
 40
1.0
  9
$DISPSILH
 70
     0
  9
$DIMSCALE
 40
1.0
  9
$DIMASZ
 40
0.18
  9
$DIMEXO
 40
0.0625
  9
$DIMDLI
 40
0.38
  9
$DIMRND
 40
0.0
  9
$DIMDLE
 40
0.0
  9
$DIMEXE
 40
0.18
  9
$DIMTP
 40
0.0
  9
$DIMTM
 40
0.0
  9
$DIMTXT
 40
0.18
  9
$DIMCEN
 40
0.09
  9
$DIMTSZ
 40
0.0
  9
$DIMTOL
 70
     0
  9
$DIMLIM
 70
     0
  9
$DIMTIH
 70
     1
  9
$DIMTOH
 70
     1
  9
$DIMSE1
 70
     0
  9
$DIMSE2
 70
     0
  9
$DIMTAD
 70
     0
  9
$DIMZIN
 70
     0
  9
$DIMBLK
  1

  9
$DIMASO
 70
     1
  9
$DIMSHO
 70
     1
  9
$DIMPOST
  1

  9
$DIMAPOST
  1

  9
$DIMALT
 70
     0
  9
$DIMALTD
 70
     2
  9
$DIMALTF
 40
25.4
  9
$DIMLFAC
 40
1.0
  9
$DIMTOFL
 70
     0
  9
$DIMTVP
 40
0.0
  9
$DIMTIX
 70
     0
  9
$DIMSOXD
 70
     0
  9
$DIMSAH
 70
     0
  9
$DIMBLK1
  1

  9
$DIMBLK2
  1

  9
$DIMSTYLE
  2
Standard
  9
$DIMCLRD
 70
     0
  9
$DIMCLRE
 70
     0
  9
$DIMCLRT
 70
     0
  9
$DIMTFAC
 40
1.0
  9
$DIMGAP
 40
0.09
  9
$DIMJUST
 70
     0
  9
$DIMSD1
 70
     0
  9
$DIMSD2
 70
     0
  9
$DIMTOLJ
 70
     1
  9
$DIMTZIN
 70
     0
  9
$DIMALTZ
 70
     0
  9
$DIMALTTZ
 70
     0
  9
$DIMUPT
 70
     0
  9
$DIMDEC
 70
     4
  9
$DIMTDEC
 70
     4
  9
$DIMALTU
 70
     2
  9
$DIMALTTD
 70
     2
  9
$DIMTXSTY
  7
Standard
  9
$DIMAUNIT
 70
     0
  9
$DIMADEC
 70
     0
  9
$DIMALTRND
 40
0.0
  9
$DIMAZIN
 70
     0
  9
$DIMDSEP
 70
    46
  9
$DIMATFIT
 70
     3
  9
$DIMFRAC
 70
     0
  9
$DIMLDRBLK
  1

  9
$DIMLUNIT
 70
     2
  9
$DIMLWD
 70
    -2
  9
$DIMLWE
 70
    -2
  9
$DIMTMOVE
 70
     0
  9
$LUNITS
 70
     2
  9
$LUPREC
 70
     4
  9
$SKETCHINC
 40
0.1
  9
$FILLETRAD
 40
0.0
  9
$AUNITS
 70
     0
  9
$AUPREC
 70
     0
  9
$MENU
  1
.
  9
$ELEVATION
 40
0.0
  9
$PELEVATION
 40
0.0
  9
$THICKNESS
 40
0.0
  9
$LIMCHECK
 70
     0
  9
$CHAMFERA
 40
0.0
  9
$CHAMFERB
 40
0.0
  9
$CHAMFERC
 40
0.0
  9
$CHAMFERD
 40
0.0
  9
$SKPOLY
 70
     0
  9
$TDCREATE
 40
2454907.770082638
  9
$TDUCREATE
 40
2454907.728415972
  9
$TDUPDATE
 40
2454907.777476122
  9
$TDUUPDATE
 40
2454907.735809455
  9
$TDINDWG
 40
0.0073934838
  9
$TDUSRTIMER
 40
0.0073934838
  9
$USRTIMER
 70
     1
  9
$ANGBASE
 50
0.0
  9
$ANGDIR
 70
     0
  9
$PDMODE
 70
     0
  9
$PDSIZE
 40
0.0
  9
$PLINEWID
 40
0.0
  9
$SPLFRAME
 70
     0
  9
$SPLINETYPE
 70
     6
  9
$SPLINESEGS
 70
     8
  9
$HANDSEED
  5
571
  9
$SURFTAB1
 70
     6
  9
$SURFTAB2
 70
     6
  9
$SURFTYPE
 70
     6
  9
$SURFU
 70
     6
  9
$SURFV
 70
     6
  9
$UCSBASE
  2

  9
$UCSNAME
  2

  9
$UCSORG
 10
0.0
 20
0.0
 30
0.0
  9
$UCSXDIR
 10
1.0
 20
0.0
 30
0.0
  9
$UCSYDIR
 10
0.0
 20
1.0
 30
0.0
  9
$UCSORTHOREF
  2

  9
$UCSORTHOVIEW
 70
     1
  9
$UCSORGTOP
 10
0.0
 20
0.0
 30
0.0
  9
$UCSORGBOTTOM
 10
0.0
 20
0.0
 30
0.0
  9
$UCSORGLEFT
 10
0.0
 20
0.0
 30
0.0
  9
$UCSORGRIGHT
 10
0.0
 20
0.0
 30
0.0
  9
$UCSORGFRONT
 10
0.0
 20
0.0
 30
0.0
  9
$UCSORGBACK
 10
0.0
 20
0.0
 30
0.0
  9
$PUCSBASE
  2

  9
$PUCSNAME
  2

  9
$PUCSORG
 10
0.0
 20
0.0
 30
0.0
  9
$PUCSXDIR
 10
1.0
 20
0.0
 30
0.0
  9
$PUCSYDIR
 10
0.0
 20
1.0
 30
0.0
  9
$PUCSORTHOREF
  2

  9
$PUCSORTHOVIEW
 70
     0
  9
$PUCSORGTOP
 10
0.0
 20
0.0
 30
0.0
  9
$PUCSORGBOTTOM
 10
0.0
 20
0.0
 30
0.0
  9
$PUCSORGLEFT
 10
0.0
 20
0.0
 30
0.0
  9
$PUCSORGRIGHT
 10
0.0
 20
0.0
 30
0.0
  9
$PUCSORGFRONT
 10
0.0
 20
0.0
 30
0.0
  9
$PUCSORGBACK
 10
0.0
 20
0.0
 30
0.0
  9
$USERI1
 70
     0
  9
$USERI2
 70
     0
  9
$USERI3
 70
     0
  9
$USERI4
 70
     0
  9
$USERI5
 70
     0
  9
$USERR1
 40
0.0
  9
$USERR2
 40
0.0
  9
$USERR3
 40
0.0
  9
$USERR4
 40
0.0
  9
$USERR5
 40
0.0
  9
$WORLDVIEW
 70
     1
  9
$SHADEDGE
 70
     3
  9
$SHADEDIF
 70
    70
  9
$TILEMODE
 70
     1
  9
$MAXACTVP
 70
    64
  9
$PINSBASE
 10
0.0
 20
0.0
 30
0.0
  9
$PLIMCHECK
 70
     0
  9
$PEXTMIN
 10
1.000000000000000E+20
 20
1.000000000000000E+20
 30
1.000000000000000E+20
  9
$PEXTMAX
 10
-1.000000000000000E+20
 20
-1.000000000000000E+20
 30
-1.000000000000000E+20
  9
$PLIMMIN
 10
0.0
 20
0.0
  9
$PLIMMAX
 10
12.0
 20
9.0
  9
$UNITMODE
 70
     0
  9
$VISRETAIN
 70
     1
  9
$PLINEGEN
 70
     0
  9
$PSLTSCALE
 70
     1
  9
$TREEDEPTH
 70
  3020
  9
$CMLSTYLE
  2
Standard
  9
$CMLJUST
 70
     0
  9
$CMLSCALE
 40
1.0
  9
$PROXYGRAPHICS
 70
     1
  9
$MEASUREMENT
 70
     0
  9
$CELWEIGHT
370
    -1
  9
$ENDCAPS
280
     0
  9
$JOINSTYLE
280
     0
  9
$LWDISPLAY
290
     0
  9
$INSUNITS
 70
     0
  9
$HYPERLINKBASE
  1

  9
$STYLESHEET
  1

  9
$XEDIT
290
     1
  9
$CEPSNTYPE
380
     0
  9
$PSTYLEMODE
290
     1
  9
$FINGERPRINTGUID
  2
{CB2C2D48-36F7-46F7-8030-810B3D06F6E8}
  9
$VERSIONGUID
  2
{4AC52896-5C5D-4CDF-81F3-CBFDA4F45121}
  9
$EXTNAMES
290
     1
  9
$PSVPSCALE
 40
0.0
  9
$OLESTARTUP
290
     0
  0
ENDSEC
  0
SECTION
  2
CLASSES
  0
CLASS
  1
ACDBDICTIONARYWDFLT
  2
AcDbDictionaryWithDefault
  3
AutoCAD 2000
 90
        0
280
     0
281
     0
  0
CLASS
  1
ACDBPLACEHOLDER
  2
AcDbPlaceHolder
  3
AutoCAD 2000
 90
        0
280
     0
281
     0
  0
CLASS
  1
LAYOUT
  2
AcDbLayout
  3
AutoCAD 2000
 90
        0
280
     0
281
     0
  0
CLASS
  1
DICTIONARYVAR
  2
AcDbDictionaryVar
  3
AutoCAD 2000
 90
        0
280
     0
281
     0
  0
ENDSEC
  0
SECTION
  2
TABLES
  0
TABLE
  2
VPORT
  5
8
330
0
100
AcDbSymbolTable
 70
     3
  0
VPORT
  5
570
330
8
100
AcDbSymbolTableRecord
100
AcDbViewportTableRecord
  2
*Active
 70
     0
 10
0.0
 20
0.0
 11
1.0
 21
1.0
 12
77.5
 22
77.5
 13
0.0
 23
0.0
 14
1.0
 24
1.0
 15
0.0
 25
0.0
 16
0.0
 26
0.0
 36
1.0
 17
0.0
 27
0.0
 37
0.0
 40
155.978947368421
 41
1.968387776606954
 42
50.0
 43
0.0
 44
0.0
 50
0.0
 51
0.0
 71
     0
 72
   100
 73
     1
 74
     3
 75
     0
 76
     0
 77
     0
 78
     0
281
     0
 65
     1
110
0.0
120
0.0
130
0.0
111
1.0
121
0.0
131
0.0
112
0.0
122
1.0
132
0.0
 79
     1
146
0.0
  0
ENDTAB
  0
TABLE
  2
LTYPE
  5
5
330
0
100
AcDbSymbolTable
 70
     1
  0
LTYPE
  5
13
330
5
100
AcDbSymbolTableRecord
100
AcDbLinetypeTableRecord
  2
ByBlock
 70
     0
  3

 72
    65
 73
     0
 40
0.0
  0
LTYPE
  5
14
330
5
100
AcDbSymbolTableRecord
100
AcDbLinetypeTableRecord
  2
ByLayer
 70
     0
  3

 72
    65
 73
     0
 40
0.0
  0
LTYPE
  5
15
330
5
100
AcDbSymbolTableRecord
100
AcDbLinetypeTableRecord
  2
Continuous
 70
     0
  3
Solid line
 72
    65
 73
     0
 40
0.0
  0
ENDTAB
  0
TABLE
  2
LAYER
  5
2
330
0
100
AcDbSymbolTable
 70
     1
  0
LAYER
  5
10
330
2
100
AcDbSymbolTableRecord
100
AcDbLayerTableRecord
  2
0
 70
     0
 62
     7
  6
Continuous
370
    -3
390
F
  0
ENDTAB
  0
TABLE
  2
STYLE
  5
3
330
0
100
AcDbSymbolTable
 70
     1
  0
STYLE
  5
11
330
3
100
AcDbSymbolTableRecord
100
AcDbTextStyleTableRecord
  2
Standard
 70
     0
 40
0.0
 41
1.0
 50
0.0
 71
     0
 42
0.2
  3
txt
  4

  0
ENDTAB
  0
TABLE
  2
VIEW
  5
6
330
0
100
AcDbSymbolTable
 70
     0
  0
ENDTAB
  0
TABLE
  2
UCS
  5
7
330
0
100
AcDbSymbolTable
 70
     0
  0
ENDTAB
  0
TABLE
  2
APPID
  5
9
330
0
100
AcDbSymbolTable
 70
     1
  0
APPID
  5
12
330
9
100
AcDbSymbolTableRecord
100
AcDbRegAppTableRecord
  2
ACAD
 70
     0
  0
ENDTAB
  0
TABLE
  2
DIMSTYLE
  5
A
330
0
100
AcDbSymbolTable
 70
     1
100
AcDbDimStyleTable
 71
     0
  0
DIMSTYLE
105
3FF
330
A
100
AcDbSymbolTableRecord
100
AcDbDimStyleTableRecord
  2
Standard
 70
     0
340
11
  0
ENDTAB
  0
TABLE
  2
BLOCK_RECORD
  5
1
330
0
100
AcDbSymbolTable
 70
     0
  0
BLOCK_RECORD
  5
1E
330
1
100
AcDbSymbolTableRecord
100
AcDbBlockTableRecord
  2
*Model_Space
340
21
  0
BLOCK_RECORD
  5
1A
330
1
100
AcDbSymbolTableRecord
100
AcDbBlockTableRecord
  2
*Paper_Space
340
1D
  0
ENDTAB
  0
ENDSEC
  0
SECTION
  2
BLOCKS
  0
BLOCK
  5
1F
330
1E
100
AcDbEntity
  8
0
100
AcDbBlockBegin
  2
*Model_Space
 70
     0
 10
0.0
 20
0.0
 30
0.0
  3
*Model_Space
  1

  0
ENDBLK
  5
20
330
1E
100
AcDbEntity
  8
0
100
AcDbBlockEnd
  0
BLOCK
  5
1B
330
1A
100
AcDbEntity
 67
     1
  8
0
100
AcDbBlockBegin
  2
*Paper_Space
 70
     0
 10
0.0
 20
0.0
 30
0.0
  3
*Paper_Space
  1

  0
ENDBLK
  5
1C
330
1A
100
AcDbEntity
 67
     1
  8
0
100
AcDbBlockEnd
  0
ENDSEC
  0
SECTION
  2
ENTITIES
  0
LINE
  5
22
330
1E
100
AcDbEntity
  8
0
100
AcDbLine
 10
61.0914
 20
0.4385539999999961
 30
0.0
 11
70.89069999999999
 21
0.102870999999996
 31
0.0
  0
LINE
  5
23
330
1E
100
AcDbEntity
  8
0
100
AcDbLine
 10
48.3985
 20
1.13789
 30
0.0
 11
61.0914
 21
0.4385539999999961
 31
0.0
  0
LINE
  5
24
330
1E
100
AcDbEntity
  8
0
100
AcDbLine
 10
48.3985
 20
1.13789
 30
0.0
 11
61.0914
 21
0.4385539999999961
 31
0.0
  0
LINE
  5
25
330
1E
100
AcDbEntity
  8
0
100
AcDbLine
 10
18.52235000002439
 20
4.612999999993999
 30
0.0
 11
23.31699999999999
 21
3.642569999999999
 31
0.0
  0
LINE
  5
26
330
1E
100
AcDbEntity
  8
0
100
AcDbLine
 10
12.98799999999999
 20
6.91676
 30
0.0
 11
13.850399999989
 21
6.422500000006289
 31
0.0
  0
LINE
  5
27
330
1E
100
AcDbEntity
  8
0
100
AcDbLine
 10
12.98799999999999
 20
6.91676
 30
0.0
 11
13.8503999999898
 21
6.42250000000583
 31
0.0
  0
LINE
  5
29
330
1E
100
AcDbEntity
  8
0
100
AcDbLine
 10
9.55
 20
9.55
 30
0.0
 11
11.146
 21
8.139849999999999
 31
0.0
  0
LINE
  5
2C
330
1E
100
AcDbEntity
  8
0
100
AcDbLine
 10
11.146
 20
8.139849999999999
 30
0.0
 11
12.98799999999999
 21
6.91676
 31
0.0
  0
LINE
  5
2D
330
1E
100
AcDbEntity
  8
0
100
AcDbLine
 10
12.98799999999999
 20
6.9168
 30
0.0
 11
14.7128
 21
5.9282
 31
0.0
  0
LINE
  5
2E
330
1E
100
AcDbEntity
  8
0
100
AcDbLine
 10
16.0906857142963
 20
5.37294285713857
 30
0.0
 11
17.1241
 21
4.956469999999999
 31
0.0
  0
LINE
  5
30
330
1E
100
AcDbEntity
  8
0
100
AcDbLine
 10
16.0906857142959
 20
5.37294285713876
 30
0.0
 11
17.1241
 21
4.956469999999999
 31
0.0
  0
LINE
  5
31
330
1E
100
AcDbEntity
  8
0
100
AcDbLine
 10
14.7128
 20
5.9282
 30
0.0
 11
17.1241
 21
4.9565
 31
0.0
  0
LINE
  5
32
330
1E
100
AcDbEntity
  8
0
100
AcDbLine
 10
17.1241
 20
4.956469999999999
 30
0.0
 11
18.52235000002449
 21
4.61299999999398
 31
0.0
  0
LINE
  5
33
330
1E
100
AcDbEntity
  8
0
100
AcDbLine
 10
17.1241
 20
4.956469999999999
 30
0.0
 11
18.52235000002439
 21
4.612999999993999
 31
0.0
  0
LINE
  5
36
330
1E
100
AcDbEntity
  8
0
100
AcDbLine
 10
18.52235000002439
 20
4.612999999993999
 30
0.0
 11
23.31699999999999
 21
3.642569999999999
 31
0.0
  0
LINE
  5
38
330
1E
100
AcDbEntity
  8
0
100
AcDbLine
 10
23.31699999999999
 20
3.642569999999999
 30
0.0
 11
29.5968
 21
2.894499999999999
 31
0.0
  0
LINE
  5
39
330
1E
100
AcDbEntity
  8
0
100
AcDbLine
 10
29.5968
 20
2.894499999999999
 30
0.0
 11
37.27289999999999
 21
1.9791
 31
0.0
  0
LINE
  5
3C
330
1E
100
AcDbEntity
  8
0
100
AcDbLine
 10
37.27289999999999
 20
1.9791
 30
0.0
 11
48.3985
 21
1.13789
 31
0.0
  0
LINE
  5
3E
330
1E
100
AcDbEntity
  8
0
100
AcDbLine
 10
61.0914
 20
0.4385539999999961
 30
0.0
 11
70.89069999999999
 21
0.102870999999996
 31
0.0
  0
LINE
  5
41
330
1E
100
AcDbEntity
  8
0
100
AcDbLine
 10
8.139849999999999
 20
11.146
 30
0.0
 11
9.55
 21
9.55
 31
0.0
  0
LINE
  5
42
330
1E
100
AcDbEntity
  8
0
100
AcDbLine
 10
6.91676
 20
12.98799999999999
 30
0.0
 11
8.139849999999999
 21
11.146
 31
0.0
  0
LINE
  5
43
330
1E
100
AcDbEntity
  8
0
100
AcDbLine
 10
6.4224999999895
 20
13.8504000000183
 30
0.0
 11
6.91676
 21
12.98799999999999
 31
0.0
  0
LINE
  5
45
330
1E
100
AcDbEntity
  8
0
100
AcDbLine
 10
6.422499999991769
 20
13.85040000001439
 30
0.0
 11
6.91676
 21
12.98799999999999
 31
0.0
  0
LINE
  5
46
330
1E
100
AcDbEntity
  8
0
100
AcDbLine
 10
3.956049999999999
 20
21.6188
 30
0.0
 11
4.956469999999999
 21
17.1241
 31
0.0
  0
LINE
  5
4D
330
1E
100
AcDbEntity
  8
0
100
AcDbLine
 10
4.956469999999999
 20
17.1241
 30
0.0
 11
6.4224999999895
 21
13.8504000000183
 31
0.0
  0
LINE
  5
4E
330
1E
100
AcDbEntity
  8
0
100
AcDbLine
 10
3.642569999999999
 20
23.31699999999999
 30
0.0
 11
3.956049999999609
 21
21.6188000000021
 31
0.0
  0
LINE
  5
4F
330
1E
100
AcDbEntity
  8
0
100
AcDbLine
 10
3.642569999999999
 20
23.31699999999999
 30
0.0
 11
3.956049999999999
 21
21.6188
 31
0.0
  0
LINE
  5
51
330
1E
100
AcDbEntity
  8
0
100
AcDbLine
 10
51.6877
 20
36.2986
 30
0.0
 11
53.743
 21
37.1388
 31
0.0
  0
LINE
  5
52
330
1E
100
AcDbEntity
  8
0
100
AcDbLine
 10
49.5557
 20
35.9914
 30
0.0
 11
51.6877
 21
36.2986
 31
0.0
  0
LINE
  5
58
330
1E
100
AcDbEntity
  8
0
100
AcDbLine
 10
47.2968
 20
36.3038
 30
0.0
 11
49.5557
 21
35.9914
 31
0.0
  0
LINE
  5
59
330
1E
100
AcDbEntity
  8
0
100
AcDbLine
 10
45.1844
 20
37.1627
 30
0.0
 11
47.2968
 21
36.3038
 31
0.0
  0
LINE
  5
5C
330
1E
100
AcDbEntity
  8
0
100
AcDbLine
 10
43.4916
 20
38.4947
 30
0.0
 11
45.1844
 21
37.1627
 31
0.0
  0
LINE
  5
5F
330
1E
100
AcDbEntity
  8
0
100
AcDbLine
 10
53.743
 20
37.1388
 30
0.0
 11
55.4982
 21
38.4986
 31
0.0
  0
LINE
  5
63
330
1E
100
AcDbEntity
  8
0
100
AcDbLine
 10
42.1317
 20
40.25
 30
0.0
 11
43.4916
 21
38.4947
 31
0.0
  0
LINE
  5
66
330
1E
100
AcDbEntity
  8
0
100
AcDbLine
 10
55.4982
 20
38.4986
 30
0.0
 11
56.8303
 21
40.1914
 31
0.0
  0
LINE
  5
67
330
1E
100
AcDbEntity
  8
0
100
AcDbLine
 10
41.2915
 20
42.3053
 30
0.0
 11
42.1317
 21
40.25
 31
0.0
  0
LINE
  5
6C
330
1E
100
AcDbEntity
  8
0
100
AcDbLine
 10
56.8303
 20
40.1914
 30
0.0
 11
57.6891
 21
42.3038
 31
0.0
  0
LINE
  5
73
330
1E
100
AcDbEntity
  8
0
100
AcDbLine
 10
40.9844
 20
44.4373
 30
0.0
 11
41.2915
 21
42.3053
 31
0.0
  0
LINE
  5
74
330
1E
100
AcDbEntity
  8
0
100
AcDbLine
 10
40.9844
 20
44.4373
 30
0.0
 11
41.29679999999999
 21
46.6962
 31
0.0
  0
LINE
  5
79
330
1E
100
AcDbEntity
  8
0
100
AcDbLine
 10
57.6891
 20
42.3038
 30
0.0
 11
58.0015
 21
44.56269999999999
 31
0.0
  0
LINE
  5
7A
330
1E
100
AcDbEntity
  8
0
100
AcDbLine
 10
41.29679999999999
 20
46.6962
 30
0.0
 11
42.1557
 21
48.8086
 31
0.0
  0
LINE
  5
7B
330
1E
100
AcDbEntity
  8
0
100
AcDbLine
 10
57.6944
 20
46.69469999999999
 30
0.0
 11
58.0015
 21
44.56269999999999
 31
0.0
  0
LINE
  5
7E
330
1E
100
AcDbEntity
  8
0
100
AcDbLine
 10
2.894499999999999
 20
29.5968
 30
0.0
 11
3.642569999999999
 21
23.31699999999999
 31
0.0
  0
LINE
  5
7F
330
1E
100
AcDbEntity
  8
0
100
AcDbLine
 10
1.9791
 20
37.27289999999999
 30
0.0
 11
2.894499999999999
 21
29.5968
 31
0.0
  0
LINE
  5
80
330
1E
100
AcDbEntity
  8
0
100
AcDbLine
 10
0.438554
 20
61.0914
 30
0.0
 11
1.13789
 21
48.3985
 31
0.0
  0
LINE
  5
88
330
1E
100
AcDbEntity
  8
0
100
AcDbLine
 10
43.4877
 20
50.50139999999999
 30
0.0
 11
45.243
 21
51.86119999999999
 31
0.0
  0
LINE
  5
8A
330
1E
100
AcDbEntity
  8
0
100
AcDbLine
 10
42.1557
 20
48.8086
 30
0.0
 11
43.4877
 21
50.50139999999999
 31
0.0
  0
LINE
  5
8B
330
1E
100
AcDbEntity
  8
0
100
AcDbLine
 10
55.4944
 20
50.5053
 30
0.0
 11
56.8542
 21
48.75
 31
0.0
  0
LINE
  5
90
330
1E
100
AcDbEntity
  8
0
100
AcDbLine
 10
47.2982
 20
52.7014
 30
0.0
 11
49.4303
 21
53.0086
 31
0.0
  0
LINE
  5
92
330
1E
100
AcDbEntity
  8
0
100
AcDbLine
 10
53.8015
 20
51.8373
 30
0.0
 11
55.4944
 21
50.5053
 31
0.0
  0
LINE
  5
94
330
1E
100
AcDbEntity
  8
0
100
AcDbLine
 10
49.4303
 20
53.0086
 30
0.0
 11
51.6891
 21
52.69619999999999
 31
0.0
  0
LINE
  5
96
330
1E
100
AcDbEntity
  8
0
100
AcDbLine
 10
51.6891
 20
52.69619999999999
 30
0.0
 11
53.8015
 21
51.8373
 31
0.0
  0
LINE
  5
9B
330
1E
100
AcDbEntity
  8
0
100
AcDbLine
 10
45.243
 20
51.86119999999999
 30
0.0
 11
47.2982
 21
52.7014
 31
0.0
  0
LINE
  5
9D
330
1E
100
AcDbEntity
  8
0
100
AcDbLine
 10
56.8542
 20
48.75
 30
0.0
 11
57.6944
 21
46.69469999999999
 31
0.0
  0
LINE
  5
A1
330
1E
100
AcDbEntity
  8
0
100
AcDbLine
 10
0.438554
 20
61.0914
 30
0.0
 11
1.13789
 21
48.3985
 31
0.0
  0
LINE
  5
A2
330
1E
100
AcDbEntity
  8
0
100
AcDbLine
 10
1.13789
 20
48.3985
 30
0.0
 11
1.9791
 21
37.27289999999999
 31
0.0
  0
LINE
  5
A3
330
1E
100
AcDbEntity
  8
0
100
AcDbLine
 10
0.102871
 20
70.89069999999999
 30
0.0
 11
0.438554
 21
61.0914
 31
0.0
  0
LINE
  5
11E
330
1E
100
AcDbEntity
  8
0
100
AcDbLine
 10
0.0
 20
77.5
 30
0.0
 11
0.102871
 21
70.89069999999999
 31
0.0
  0
LINE
  5
12A
330
1E
100
AcDbEntity
  8
0
100
AcDbLine
 10
70.89069999999999
 20
0.102870999999996
 30
0.0
 11
77.5
 21
-0.0000000000000037
 31
0.0
  0
LINE
  5
12B
330
1E
100
AcDbEntity
  8
0
100
AcDbLine
 10
70.89069999999999
 20
0.102870999999996
 30
0.0
 11
77.5
 21
-0.0000000000000037
 31
0.0
  0
LINE
  5
217
330
1E
100
AcDbEntity
  8
0
100
AcDbLine
 10
62.0877
 20
47.7817
 30
0.0
 11
62.2276
 21
50.3203
 31
0.0
  0
LINE
  5
218
330
1E
100
AcDbEntity
  8
0
100
AcDbLine
 10
62.0206
 20
45.82189999999999
 30
0.0
 11
62.0877
 21
47.7817
 31
0.0
  0
LINE
  5
21B
330
1E
100
AcDbEntity
  8
0
100
AcDbLine
 10
62.3958
 20
52.5454
 30
0.0
 11
62.57889999999999
 21
54.08059999999999
 31
0.0
  0
LINE
  5
21C
330
1E
100
AcDbEntity
  8
0
100
AcDbLine
 10
62.2276
 20
50.3203
 30
0.0
 11
62.3958
 21
52.5454
 31
0.0
  0
LINE
  5
21D
330
1E
100
AcDbEntity
  8
0
100
AcDbLine
 10
62.7285
 20
55.3366
 30
0.0
 11
62.8539
 21
56.0159
 31
0.0
  0
LINE
  5
21E
330
1E
100
AcDbEntity
  8
0
100
AcDbLine
 10
62.57889999999999
 20
54.08059999999999
 30
0.0
 11
62.7285
 21
55.3366
 31
0.0
  0
LINE
  5
21F
330
1E
100
AcDbEntity
  8
0
100
AcDbLine
 10
62.8539
 20
56.0159
 30
0.0
 11
62.9913
 21
56.5752
 31
0.0
  0
LINE
  5
220
330
1E
100
AcDbEntity
  8
0
100
AcDbLine
 10
62.9913
 20
56.5752
 30
0.0
 11
63.1856
 21
57.0574
 31
0.0
  0
LINE
  5
223
330
1E
100
AcDbEntity
  8
0
100
AcDbLine
 10
63.1856
 20
57.0574
 30
0.0
 11
63.3834
 21
57.4024
 31
0.0
  0
LINE
  5
226
330
1E
100
AcDbEntity
  8
0
100
AcDbLine
 10
63.628
 20
57.7708
 30
0.0
 11
63.91
 21
58.09000000000001
 31
0.0
  0
LINE
  5
227
330
1E
100
AcDbEntity
  8
0
100
AcDbLine
 10
63.3834
 20
57.4024
 30
0.0
 11
63.628
 21
57.7708
 31
0.0
  0
LINE
  5
235
330
1E
100
AcDbEntity
  8
0
100
AcDbLine
 10
63.91
 20
58.09000000000001
 30
0.0
 11
64.22920000000001
 21
58.372
 31
0.0
  0
LINE
  5
238
330
1E
100
AcDbEntity
  8
0
100
AcDbLine
 10
64.22920000000001
 20
58.372
 30
0.0
 11
64.5976
 21
58.6166
 31
0.0
  0
LINE
  5
23B
330
1E
100
AcDbEntity
  8
0
100
AcDbLine
 10
64.5976
 20
58.6166
 30
0.0
 11
64.9426
 21
58.8144
 31
0.0
  0
LINE
  5
23E
330
1E
100
AcDbEntity
  8
0
100
AcDbLine
 10
64.9426
 20
58.8144
 30
0.0
 11
65.42480000000001
 21
59.0087
 31
0.0
  0
LINE
  5
241
330
1E
100
AcDbEntity
  8
0
100
AcDbLine
 10
65.42480000000001
 20
59.0087
 30
0.0
 11
65.9841
 21
59.14609999999999
 31
0.0
  0
LINE
  5
245
330
1E
100
AcDbEntity
  8
0
100
AcDbLine
 10
65.9841
 20
59.14609999999999
 30
0.0
 11
66.66339999999999
 21
59.27150000000001
 31
0.0
  0
LINE
  5
249
330
1E
100
AcDbEntity
  8
0
100
AcDbLine
 10
66.66339999999999
 20
59.27150000000001
 30
0.0
 11
67.9194
 21
59.4211
 31
0.0
  0
LINE
  5
24A
330
1E
100
AcDbEntity
  8
0
100
AcDbLine
 10
67.9194
 20
59.4211
 30
0.0
 11
69.4546
 21
59.6042
 31
0.0
  0
LINE
  5
24C
330
1E
100
AcDbEntity
  8
0
100
AcDbLine
 10
69.4546
 20
59.6042
 30
0.0
 11
71.6797
 21
59.7724
 31
0.0
  0
LINE
  5
24D
330
1E
100
AcDbEntity
  8
0
100
AcDbLine
 10
71.6797
 20
59.7724
 30
0.0
 11
74.21829999999999
 21
59.9123
 31
0.0
  0
LINE
  5
250
330
1E
100
AcDbEntity
  8
0
100
AcDbLine
 10
74.21829999999999
 20
59.9123
 30
0.0
 11
76.1781
 21
59.97939999999999
 31
0.0
  0
LINE
  5
2D7
330
1E
100
AcDbEntity
  8
0
100
AcDbLine
 10
76.1781
 20
59.97939999999999
 30
0.0
 11
77.5
 21
60.0
 31
0.0
  0
LINE
  5
343
330
1E
100
AcDbEntity
  8
0
100
AcDbLine
 10
77.5
 20
60.0
 30
0.0
 11
78.8219
 21
59.97939999999999
 31
0.0
  0
LINE
  5
3F6
330
1E
100
AcDbEntity
  8
0
100
AcDbLine
 10
78.8219
 20
59.97939999999999
 30
0.0
 11
80.7817
 21
59.9123
 31
0.0
  0
LINE
  5
3FE
330
1E
100
AcDbEntity
  8
0
100
AcDbLine
 10
62.0
 20
44.5
 30
0.0
 11
62.0206
 21
45.82189999999999
 31
0.0
  0
LINE
  5
403
330
1E
100
AcDbEntity
  8
0
100
AcDbLine
 10
77.5
 20
29.0
 30
0.0
 11
78.8219
 21
29.0206
 31
0.0
  0
LINE
  5
404
330
1E
100
AcDbEntity
  8
0
100
AcDbLine
 10
62.3958
 20
36.45459999999999
 30
0.0
 11
62.57889999999999
 21
34.9194
 31
0.0
  0
LINE
  5
405
330
1E
100
AcDbEntity
  8
0
100
AcDbLine
 10
62.0206
 20
43.1781
 30
0.0
 11
62.0877
 21
41.2183
 31
0.0
  0
LINE
  5
406
330
1E
100
AcDbEntity
  8
0
100
AcDbLine
 10
62.0
 20
44.5
 30
0.0
 11
62.0206
 21
43.1781
 31
0.0
  0
LINE
  5
407
330
1E
100
AcDbEntity
  8
0
100
AcDbLine
 10
62.2276
 20
38.67969999999999
 30
0.0
 11
62.3958
 21
36.45459999999999
 31
0.0
  0
LINE
  5
408
330
1E
100
AcDbEntity
  8
0
100
AcDbLine
 10
62.0877
 20
41.2183
 30
0.0
 11
62.2276
 21
38.67969999999999
 31
0.0
  0
LINE
  5
409
330
1E
100
AcDbEntity
  8
0
100
AcDbLine
 10
64.9426
 20
30.1856
 30
0.0
 11
65.42480000000001
 21
29.9913
 31
0.0
  0
LINE
  5
40A
330
1E
100
AcDbEntity
  8
0
100
AcDbLine
 10
62.8539
 20
32.9841
 30
0.0
 11
62.9913
 21
32.4248
 31
0.0
  0
LINE
  5
40B
330
1E
100
AcDbEntity
  8
0
100
AcDbLine
 10
62.57889999999999
 20
34.9194
 30
0.0
 11
62.7285
 21
33.6634
 31
0.0
  0
LINE
  5
40C
330
1E
100
AcDbEntity
  8
0
100
AcDbLine
 10
62.7285
 20
33.6634
 30
0.0
 11
62.8539
 21
32.9841
 31
0.0
  0
LINE
  5
40D
330
1E
100
AcDbEntity
  8
0
100
AcDbLine
 10
63.628
 20
31.2292
 30
0.0
 11
63.91
 21
30.90999999999999
 31
0.0
  0
LINE
  5
40E
330
1E
100
AcDbEntity
  8
0
100
AcDbLine
 10
63.3834
 20
31.5976
 30
0.0
 11
63.628
 21
31.2292
 31
0.0
  0
LINE
  5
40F
330
1E
100
AcDbEntity
  8
0
100
AcDbLine
 10
63.1856
 20
31.94259999999999
 30
0.0
 11
63.3834
 21
31.5976
 31
0.0
  0
LINE
  5
410
330
1E
100
AcDbEntity
  8
0
100
AcDbLine
 10
62.9913
 20
32.4248
 30
0.0
 11
63.1856
 21
31.94259999999999
 31
0.0
  0
LINE
  5
411
330
1E
100
AcDbEntity
  8
0
100
AcDbLine
 10
64.5976
 20
30.3834
 30
0.0
 11
64.9426
 21
30.1856
 31
0.0
  0
LINE
  5
412
330
1E
100
AcDbEntity
  8
0
100
AcDbLine
 10
64.22920000000001
 20
30.628
 30
0.0
 11
64.5976
 21
30.3834
 31
0.0
  0
LINE
  5
413
330
1E
100
AcDbEntity
  8
0
100
AcDbLine
 10
63.91
 20
30.90999999999999
 30
0.0
 11
64.22920000000001
 21
30.628
 31
0.0
  0
LINE
  5
414
330
1E
100
AcDbEntity
  8
0
100
AcDbLine
 10
69.4546
 20
29.3958
 30
0.0
 11
71.6797
 21
29.2276
 31
0.0
  0
LINE
  5
415
330
1E
100
AcDbEntity
  8
0
100
AcDbLine
 10
66.66339999999999
 20
29.72849999999999
 30
0.0
 11
67.9194
 21
29.57889999999999
 31
0.0
  0
LINE
  5
416
330
1E
100
AcDbEntity
  8
0
100
AcDbLine
 10
65.9841
 20
29.8539
 30
0.0
 11
66.66339999999999
 21
29.72849999999999
 31
0.0
  0
LINE
  5
417
330
1E
100
AcDbEntity
  8
0
100
AcDbLine
 10
65.42480000000001
 20
29.9913
 30
0.0
 11
65.9841
 21
29.8539
 31
0.0
  0
LINE
  5
418
330
1E
100
AcDbEntity
  8
0
100
AcDbLine
 10
67.9194
 20
29.57889999999999
 30
0.0
 11
69.4546
 21
29.3958
 31
0.0
  0
LINE
  5
419
330
1E
100
AcDbEntity
  8
0
100
AcDbLine
 10
74.21829999999999
 20
29.0877
 30
0.0
 11
76.1781
 21
29.0206
 31
0.0
  0
LINE
  5
41A
330
1E
100
AcDbEntity
  8
0
100
AcDbLine
 10
71.6797
 20
29.2276
 30
0.0
 11
74.21829999999999
 21
29.0877
 31
0.0
  0
LINE
  5
41B
330
1E
100
AcDbEntity
  8
0
100
AcDbLine
 10
76.1781
 20
29.0206
 30
0.0
 11
77.5
 21
29.0
 31
0.0
  0
LINE
  5
41C
330
1E
100
AcDbEntity
  8
0
100
AcDbLine
 10
78.8219
 20
29.0206
 30
0.0
 11
80.7817
 21
29.0877
 31
0.0
  0
LINE
  5
41D
330
1E
100
AcDbEntity
  8
0
100
AcDbLine
 10
1.13789
 20
106.6014999999999
 30
0.0
 11
1.9791
 21
117.7271
 31
0.0
  0
LINE
  5
41E
330
1E
100
AcDbEntity
  8
0
100
AcDbLine
 10
14.7128
 20
149.0718
 30
0.0
 11
17.1241
 21
150.0434999999999
 31
0.0
  0
LINE
  5
41F
330
1E
100
AcDbEntity
  8
0
100
AcDbLine
 10
4.956469999999999
 20
137.8759
 30
0.0
 11
6.4224999999895
 21
141.1495999999816
 31
0.0
  0
LINE
  5
420
330
1E
100
AcDbEntity
  8
0
100
AcDbLine
 10
8.139849999999999
 20
143.854
 30
0.0
 11
9.55
 21
145.4499999999999
 31
0.0
  0
LINE
  5
421
330
1E
100
AcDbEntity
  8
0
100
AcDbLine
 10
6.91676
 20
142.012
 30
0.0
 11
8.139849999999999
 21
143.854
 31
0.0
  0
LINE
  5
422
330
1E
100
AcDbEntity
  8
0
100
AcDbLine
 10
6.422499999991769
 20
141.1495999999856
 30
0.0
 11
6.91676
 21
142.012
 31
0.0
  0
LINE
  5
423
330
1E
100
AcDbEntity
  8
0
100
AcDbLine
 10
6.4224999999895
 20
141.1495999999816
 30
0.0
 11
6.91676
 21
142.012
 31
0.0
  0
LINE
  5
424
330
1E
100
AcDbEntity
  8
0
100
AcDbLine
 10
9.55
 20
145.4499999999999
 30
0.0
 11
11.146
 21
146.86015
 31
0.0
  0
LINE
  5
425
330
1E
100
AcDbEntity
  8
0
100
AcDbLine
 10
11.146
 20
146.86015
 30
0.0
 11
12.98799999999999
 21
148.0832399999999
 31
0.0
  0
LINE
  5
426
330
1E
100
AcDbEntity
  8
0
100
AcDbLine
 10
12.98799999999999
 20
148.0832399999999
 30
0.0
 11
13.8503999999898
 21
148.5774999999941
 31
0.0
  0
LINE
  5
427
330
1E
100
AcDbEntity
  8
0
100
AcDbLine
 10
12.98799999999999
 20
148.0832399999999
 30
0.0
 11
13.850399999989
 21
148.5774999999937
 31
0.0
  0
LINE
  5
428
330
1E
100
AcDbEntity
  8
0
100
AcDbLine
 10
12.98799999999999
 20
148.0832
 30
0.0
 11
14.7128
 21
149.0718
 31
0.0
  0
LINE
  5
429
330
1E
100
AcDbEntity
  8
0
100
AcDbLine
 10
1.9791
 20
117.7271
 30
0.0
 11
2.894499999999999
 21
125.4032
 31
0.0
  0
LINE
  5
42A
330
1E
100
AcDbEntity
  8
0
100
AcDbLine
 10
2.894499999999999
 20
125.4032
 30
0.0
 11
3.642569999999999
 21
131.6829999999999
 31
0.0
  0
LINE
  5
42B
330
1E
100
AcDbEntity
  8
0
100
AcDbLine
 10
3.956049999999999
 20
133.3811999999999
 30
0.0
 11
4.956469999999999
 21
137.8759
 31
0.0
  0
LINE
  5
42C
330
1E
100
AcDbEntity
  8
0
100
AcDbLine
 10
3.642569999999999
 20
131.6829999999999
 30
0.0
 11
3.956049999999999
 21
133.3811999999999
 31
0.0
  0
LINE
  5
42D
330
1E
100
AcDbEntity
  8
0
100
AcDbLine
 10
3.642569999999999
 20
131.6829999999999
 30
0.0
 11
3.956049999999609
 21
133.3811999999979
 31
0.0
  0
LINE
  5
42E
330
1E
100
AcDbEntity
  8
0
100
AcDbLine
 10
23.31699999999999
 20
151.3574299999999
 30
0.0
 11
29.5968
 21
152.1055
 31
0.0
  0
LINE
  5
42F
330
1E
100
AcDbEntity
  8
0
100
AcDbLine
 10
18.52235000002439
 20
150.3870000000059
 30
0.0
 11
23.31699999999999
 21
151.3574299999999
 31
0.0
  0
LINE
  5
430
330
1E
100
AcDbEntity
  8
0
100
AcDbLine
 10
18.52235000002439
 20
150.3870000000059
 30
0.0
 11
23.31699999999999
 21
151.3574299999999
 31
0.0
  0
LINE
  5
431
330
1E
100
AcDbEntity
  8
0
100
AcDbLine
 10
17.1241
 20
150.04353
 30
0.0
 11
18.52235000002439
 21
150.3870000000059
 31
0.0
  0
LINE
  5
432
330
1E
100
AcDbEntity
  8
0
100
AcDbLine
 10
17.1241
 20
150.04353
 30
0.0
 11
18.52235000002449
 21
150.387000000006
 31
0.0
  0
LINE
  5
433
330
1E
100
AcDbEntity
  8
0
100
AcDbLine
 10
16.0906857142959
 20
149.6270571428612
 30
0.0
 11
17.1241
 21
150.04353
 31
0.0
  0
LINE
  5
434
330
1E
100
AcDbEntity
  8
0
100
AcDbLine
 10
16.0906857142963
 20
149.6270571428614
 30
0.0
 11
17.1241
 21
150.04353
 31
0.0
  0
LINE
  5
435
330
1E
100
AcDbEntity
  8
0
100
AcDbLine
 10
0.102871
 20
84.1093
 30
0.0
 11
0.438554
 21
93.90860000000001
 31
0.0
  0
LINE
  5
436
330
1E
100
AcDbEntity
  8
0
100
AcDbLine
 10
0.438554
 20
93.90860000000001
 30
0.0
 11
1.13789
 21
106.6014999999999
 31
0.0
  0
LINE
  5
437
330
1E
100
AcDbEntity
  8
0
100
AcDbLine
 10
0.438554
 20
93.90860000000001
 30
0.0
 11
1.13789
 21
106.6014999999999
 31
0.0
  0
LINE
  5
438
330
1E
100
AcDbEntity
  8
0
100
AcDbLine
 10
0.0
 20
77.5
 30
0.0
 11
0.102871
 21
84.1093
 31
0.0
  0
LINE
  5
439
330
1E
100
AcDbEntity
  8
0
100
AcDbLine
 10
37.27289999999999
 20
153.0209
 30
0.0
 11
48.3985
 21
153.86211
 31
0.0
  0
LINE
  5
43A
330
1E
100
AcDbEntity
  8
0
100
AcDbLine
 10
29.5968
 20
152.1055
 30
0.0
 11
37.27289999999999
 21
153.0209
 31
0.0
  0
LINE
  5
43B
330
1E
100
AcDbEntity
  8
0
100
AcDbLine
 10
61.0914
 20
154.561446
 30
0.0
 11
70.89069999999999
 21
154.897129
 31
0.0
  0
LINE
  5
43C
330
1E
100
AcDbEntity
  8
0
100
AcDbLine
 10
61.0914
 20
154.561446
 30
0.0
 11
70.89069999999999
 21
154.897129
 31
0.0
  0
LINE
  5
43D
330
1E
100
AcDbEntity
  8
0
100
AcDbLine
 10
48.3985
 20
153.86211
 30
0.0
 11
61.0914
 21
154.561446
 31
0.0
  0
LINE
  5
43E
330
1E
100
AcDbEntity
  8
0
100
AcDbLine
 10
48.3985
 20
153.86211
 30
0.0
 11
61.0914
 21
154.561446
 31
0.0
  0
LINE
  5
43F
330
1E
100
AcDbEntity
  8
0
100
AcDbLine
 10
70.89069999999999
 20
154.897129
 30
0.0
 11
77.5
 21
155.0
 31
0.0
  0
LINE
  5
440
330
1E
100
AcDbEntity
  8
0
100
AcDbLine
 10
70.89069999999999
 20
154.897129
 30
0.0
 11
77.5
 21
155.0
 31
0.0
  0
LINE
  5
441
330
1E
100
AcDbEntity
  8
0
100
AcDbLine
 10
55.4982
 20
116.5013999999999
 30
0.0
 11
56.8303
 21
114.8085999999999
 31
0.0
  0
LINE
  5
442
330
1E
100
AcDbEntity
  8
0
100
AcDbLine
 10
62.0877
 20
113.7817
 30
0.0
 11
62.2276
 21
116.3202999999999
 31
0.0
  0
LINE
  5
443
330
1E
100
AcDbEntity
  8
0
100
AcDbLine
 10
42.1317
 20
114.7499999999999
 30
0.0
 11
43.4916
 21
116.5053
 31
0.0
  0
LINE
  5
444
330
1E
100
AcDbEntity
  8
0
100
AcDbLine
 10
65.42480000000001
 20
125.0087
 30
0.0
 11
65.9841
 21
125.1460999999999
 31
0.0
  0
LINE
  5
445
330
1E
100
AcDbEntity
  8
0
100
AcDbLine
 10
51.6877
 20
118.7014
 30
0.0
 11
53.743
 21
117.8611999999999
 31
0.0
  0
LINE
  5
446
330
1E
100
AcDbEntity
  8
0
100
AcDbLine
 10
45.1844
 20
117.8373
 30
0.0
 11
47.2968
 21
118.6962
 31
0.0
  0
LINE
  5
447
330
1E
100
AcDbEntity
  8
0
100
AcDbLine
 10
43.4916
 20
116.5053
 30
0.0
 11
45.1844
 21
117.8373
 31
0.0
  0
LINE
  5
448
330
1E
100
AcDbEntity
  8
0
100
AcDbLine
 10
49.5557
 20
119.0085999999999
 30
0.0
 11
51.6877
 21
118.7014
 31
0.0
  0
LINE
  5
449
330
1E
100
AcDbEntity
  8
0
100
AcDbLine
 10
47.2968
 20
118.6962
 30
0.0
 11
49.5557
 21
119.0085999999999
 31
0.0
  0
LINE
  5
44A
330
1E
100
AcDbEntity
  8
0
100
AcDbLine
 10
53.743
 20
117.8611999999999
 30
0.0
 11
55.4982
 21
116.5013999999999
 31
0.0
  0
LINE
  5
44B
330
1E
100
AcDbEntity
  8
0
100
AcDbLine
 10
62.8539
 20
122.0158999999999
 30
0.0
 11
62.9913
 21
122.5751999999999
 31
0.0
  0
LINE
  5
44C
330
1E
100
AcDbEntity
  8
0
100
AcDbLine
 10
63.91
 20
124.09
 30
0.0
 11
64.22920000000001
 21
124.3719999999999
 31
0.0
  0
LINE
  5
44D
330
1E
100
AcDbEntity
  8
0
100
AcDbLine
 10
63.628
 20
123.7708
 30
0.0
 11
63.91
 21
124.09
 31
0.0
  0
LINE
  5
44E
330
1E
100
AcDbEntity
  8
0
100
AcDbLine
 10
63.1856
 20
123.0574
 30
0.0
 11
63.3834
 21
123.4024
 31
0.0
  0
LINE
  5
44F
330
1E
100
AcDbEntity
  8
0
100
AcDbLine
 10
62.9913
 20
122.5751999999999
 30
0.0
 11
63.1856
 21
123.0574
 31
0.0
  0
LINE
  5
450
330
1E
100
AcDbEntity
  8
0
100
AcDbLine
 10
63.3834
 20
123.4024
 30
0.0
 11
63.628
 21
123.7708
 31
0.0
  0
LINE
  5
451
330
1E
100
AcDbEntity
  8
0
100
AcDbLine
 10
64.5976
 20
124.6166
 30
0.0
 11
64.9426
 21
124.8144
 31
0.0
  0
LINE
  5
452
330
1E
100
AcDbEntity
  8
0
100
AcDbLine
 10
64.22920000000001
 20
124.3719999999999
 30
0.0
 11
64.5976
 21
124.6166
 31
0.0
  0
LINE
  5
453
330
1E
100
AcDbEntity
  8
0
100
AcDbLine
 10
64.9426
 20
124.8144
 30
0.0
 11
65.42480000000001
 21
125.0087
 31
0.0
  0
LINE
  5
454
330
1E
100
AcDbEntity
  8
0
100
AcDbLine
 10
62.3958
 20
118.5454
 30
0.0
 11
62.57889999999999
 21
120.0806
 31
0.0
  0
LINE
  5
455
330
1E
100
AcDbEntity
  8
0
100
AcDbLine
 10
62.2276
 20
116.3202999999999
 30
0.0
 11
62.3958
 21
118.5454
 31
0.0
  0
LINE
  5
456
330
1E
100
AcDbEntity
  8
0
100
AcDbLine
 10
62.57889999999999
 20
120.0806
 30
0.0
 11
62.7285
 21
121.3366
 31
0.0
  0
LINE
  5
457
330
1E
100
AcDbEntity
  8
0
100
AcDbLine
 10
62.7285
 20
121.3366
 30
0.0
 11
62.8539
 21
122.0158999999999
 31
0.0
  0
LINE
  5
458
330
1E
100
AcDbEntity
  8
0
100
AcDbLine
 10
77.5
 20
126.0
 30
0.0
 11
78.8219
 21
125.9794
 31
0.0
  0
LINE
  5
459
330
1E
100
AcDbEntity
  8
0
100
AcDbLine
 10
71.6797
 20
125.7724
 30
0.0
 11
74.21829999999999
 21
125.9122999999999
 31
0.0
  0
LINE
  5
45A
330
1E
100
AcDbEntity
  8
0
100
AcDbLine
 10
67.9194
 20
125.4210999999999
 30
0.0
 11
69.4546
 21
125.6041999999999
 31
0.0
  0
LINE
  5
45B
330
1E
100
AcDbEntity
  8
0
100
AcDbLine
 10
66.66339999999999
 20
125.2715
 30
0.0
 11
67.9194
 21
125.4210999999999
 31
0.0
  0
LINE
  5
45C
330
1E
100
AcDbEntity
  8
0
100
AcDbLine
 10
65.9841
 20
125.1460999999999
 30
0.0
 11
66.66339999999999
 21
125.2715
 31
0.0
  0
LINE
  5
45D
330
1E
100
AcDbEntity
  8
0
100
AcDbLine
 10
69.4546
 20
125.6041999999999
 30
0.0
 11
71.6797
 21
125.7724
 31
0.0
  0
LINE
  5
45E
330
1E
100
AcDbEntity
  8
0
100
AcDbLine
 10
74.21829999999999
 20
125.9122999999999
 30
0.0
 11
76.1781
 21
125.9794
 31
0.0
  0
LINE
  5
45F
330
1E
100
AcDbEntity
  8
0
100
AcDbLine
 10
76.1781
 20
125.9794
 30
0.0
 11
77.5
 21
126.0
 31
0.0
  0
LINE
  5
460
330
1E
100
AcDbEntity
  8
0
100
AcDbLine
 10
78.8219
 20
125.9794
 30
0.0
 11
80.7817
 21
125.9122999999999
 31
0.0
  0
LINE
  5
461
330
1E
100
AcDbEntity
  8
0
100
AcDbLine
 10
65.42480000000001
 20
95.9913
 30
0.0
 11
65.9841
 21
95.85390000000002
 31
0.0
  0
LINE
  5
462
330
1E
100
AcDbEntity
  8
0
100
AcDbLine
 10
51.6891
 20
102.3037999999999
 30
0.0
 11
53.8015
 21
103.1627
 31
0.0
  0
LINE
  5
463
330
1E
100
AcDbEntity
  8
0
100
AcDbLine
 10
43.4877
 20
104.4986
 30
0.0
 11
45.243
 21
103.1387999999999
 31
0.0
  0
LINE
  5
464
330
1E
100
AcDbEntity
  8
0
100
AcDbLine
 10
40.9844
 20
110.5627
 30
0.0
 11
41.29679999999999
 21
108.3037999999999
 31
0.0
  0
LINE
  5
465
330
1E
100
AcDbEntity
  8
0
100
AcDbLine
 10
41.2915
 20
112.6946999999999
 30
0.0
 11
42.1317
 21
114.7499999999999
 31
0.0
  0
LINE
  5
466
330
1E
100
AcDbEntity
  8
0
100
AcDbLine
 10
40.9844
 20
110.5627
 30
0.0
 11
41.2915
 21
112.6946999999999
 31
0.0
  0
LINE
  5
467
330
1E
100
AcDbEntity
  8
0
100
AcDbLine
 10
41.29679999999999
 20
108.3037999999999
 30
0.0
 11
42.1557
 21
106.1914
 31
0.0
  0
LINE
  5
468
330
1E
100
AcDbEntity
  8
0
100
AcDbLine
 10
42.1557
 20
106.1914
 30
0.0
 11
43.4877
 21
104.4986
 31
0.0
  0
LINE
  5
469
330
1E
100
AcDbEntity
  8
0
100
AcDbLine
 10
45.243
 20
103.1387999999999
 30
0.0
 11
47.2982
 21
102.2985999999999
 31
0.0
  0
LINE
  5
46A
330
1E
100
AcDbEntity
  8
0
100
AcDbLine
 10
49.4303
 20
101.9913999999999
 30
0.0
 11
51.6891
 21
102.3037999999999
 31
0.0
  0
LINE
  5
46B
330
1E
100
AcDbEntity
  8
0
100
AcDbLine
 10
47.2982
 20
102.2985999999999
 30
0.0
 11
49.4303
 21
101.9913999999999
 31
0.0
  0
LINE
  5
46C
330
1E
100
AcDbEntity
  8
0
100
AcDbLine
 10
62.2276
 20
104.6796999999999
 30
0.0
 11
62.3958
 21
102.4545999999999
 31
0.0
  0
LINE
  5
46D
330
1E
100
AcDbEntity
  8
0
100
AcDbLine
 10
53.8015
 20
103.1627
 30
0.0
 11
55.4944
 21
104.4947
 31
0.0
  0
LINE
  5
46E
330
1E
100
AcDbEntity
  8
0
100
AcDbLine
 10
57.6944
 20
108.3053
 30
0.0
 11
58.0015
 21
110.4373
 31
0.0
  0
LINE
  5
46F
330
1E
100
AcDbEntity
  8
0
100
AcDbLine
 10
56.8303
 20
114.8085999999999
 30
0.0
 11
57.6891
 21
112.6962
 31
0.0
  0
LINE
  5
470
330
1E
100
AcDbEntity
  8
0
100
AcDbLine
 10
57.6891
 20
112.6962
 30
0.0
 11
58.0015
 21
110.4373
 31
0.0
  0
LINE
  5
471
330
1E
100
AcDbEntity
  8
0
100
AcDbLine
 10
55.4944
 20
104.4947
 30
0.0
 11
56.8542
 21
106.25
 31
0.0
  0
LINE
  5
472
330
1E
100
AcDbEntity
  8
0
100
AcDbLine
 10
56.8542
 20
106.25
 30
0.0
 11
57.6944
 21
108.3053
 31
0.0
  0
LINE
  5
473
330
1E
100
AcDbEntity
  8
0
100
AcDbLine
 10
62.0
 20
110.4999999999999
 30
0.0
 11
62.0206
 21
109.1781
 31
0.0
  0
LINE
  5
474
330
1E
100
AcDbEntity
  8
0
100
AcDbLine
 10
62.0206
 20
111.8219
 30
0.0
 11
62.0877
 21
113.7817
 31
0.0
  0
LINE
  5
475
330
1E
100
AcDbEntity
  8
0
100
AcDbLine
 10
62.0
 20
110.4999999999999
 30
0.0
 11
62.0206
 21
111.8219
 31
0.0
  0
LINE
  5
476
330
1E
100
AcDbEntity
  8
0
100
AcDbLine
 10
62.0877
 20
107.2183
 30
0.0
 11
62.2276
 21
104.6796999999999
 31
0.0
  0
LINE
  5
477
330
1E
100
AcDbEntity
  8
0
100
AcDbLine
 10
62.0206
 20
109.1781
 30
0.0
 11
62.0877
 21
107.2183
 31
0.0
  0
LINE
  5
478
330
1E
100
AcDbEntity
  8
0
100
AcDbLine
 10
62.9913
 20
98.42480000000001
 30
0.0
 11
63.1856
 21
97.94260000000001
 31
0.0
  0
LINE
  5
479
330
1E
100
AcDbEntity
  8
0
100
AcDbLine
 10
62.3958
 20
102.4545999999999
 30
0.0
 11
62.57889999999999
 21
100.9193999999999
 31
0.0
  0
LINE
  5
47A
330
1E
100
AcDbEntity
  8
0
100
AcDbLine
 10
62.7285
 20
99.6634
 30
0.0
 11
62.8539
 21
98.9841
 31
0.0
  0
LINE
  5
47B
330
1E
100
AcDbEntity
  8
0
100
AcDbLine
 10
62.57889999999999
 20
100.9193999999999
 30
0.0
 11
62.7285
 21
99.6634
 31
0.0
  0
LINE
  5
47C
330
1E
100
AcDbEntity
  8
0
100
AcDbLine
 10
62.8539
 20
98.9841
 30
0.0
 11
62.9913
 21
98.42480000000001
 31
0.0
  0
LINE
  5
47D
330
1E
100
AcDbEntity
  8
0
100
AcDbLine
 10
63.91
 20
96.91
 30
0.0
 11
64.22920000000001
 21
96.628
 31
0.0
  0
LINE
  5
47E
330
1E
100
AcDbEntity
  8
0
100
AcDbLine
 10
63.1856
 20
97.94260000000001
 30
0.0
 11
63.3834
 21
97.59759999999999
 31
0.0
  0
LINE
  5
47F
330
1E
100
AcDbEntity
  8
0
100
AcDbLine
 10
63.3834
 20
97.59759999999999
 30
0.0
 11
63.628
 21
97.2292
 31
0.0
  0
LINE
  5
480
330
1E
100
AcDbEntity
  8
0
100
AcDbLine
 10
63.628
 20
97.2292
 30
0.0
 11
63.91
 21
96.91
 31
0.0
  0
LINE
  5
481
330
1E
100
AcDbEntity
  8
0
100
AcDbLine
 10
64.22920000000001
 20
96.628
 30
0.0
 11
64.5976
 21
96.38339999999999
 31
0.0
  0
LINE
  5
482
330
1E
100
AcDbEntity
  8
0
100
AcDbLine
 10
64.5976
 20
96.38339999999999
 30
0.0
 11
64.9426
 21
96.1856
 31
0.0
  0
LINE
  5
483
330
1E
100
AcDbEntity
  8
0
100
AcDbLine
 10
64.9426
 20
96.1856
 30
0.0
 11
65.42480000000001
 21
95.9913
 31
0.0
  0
LINE
  5
484
330
1E
100
AcDbEntity
  8
0
100
AcDbLine
 10
77.5
 20
95.0
 30
0.0
 11
78.8219
 21
95.0206
 31
0.0
  0
LINE
  5
485
330
1E
100
AcDbEntity
  8
0
100
AcDbLine
 10
71.6797
 20
95.22759999999999
 30
0.0
 11
74.21829999999999
 21
95.0877
 31
0.0
  0
LINE
  5
486
330
1E
100
AcDbEntity
  8
0
100
AcDbLine
 10
67.9194
 20
95.5789
 30
0.0
 11
69.4546
 21
95.3958
 31
0.0
  0
LINE
  5
487
330
1E
100
AcDbEntity
  8
0
100
AcDbLine
 10
66.66339999999999
 20
95.7285
 30
0.0
 11
67.9194
 21
95.5789
 31
0.0
  0
LINE
  5
488
330
1E
100
AcDbEntity
  8
0
100
AcDbLine
 10
65.9841
 20
95.85390000000002
 30
0.0
 11
66.66339999999999
 21
95.7285
 31
0.0
  0
LINE
  5
489
330
1E
100
AcDbEntity
  8
0
100
AcDbLine
 10
69.4546
 20
95.3958
 30
0.0
 11
71.6797
 21
95.22759999999999
 31
0.0
  0
LINE
  5
48A
330
1E
100
AcDbEntity
  8
0
100
AcDbLine
 10
74.21829999999999
 20
95.0877
 30
0.0
 11
76.1781
 21
95.0206
 31
0.0
  0
LINE
  5
48B
330
1E
100
AcDbEntity
  8
0
100
AcDbLine
 10
76.1781
 20
95.0206
 30
0.0
 11
77.5
 21
95.0
 31
0.0
  0
LINE
  5
48C
330
1E
100
AcDbEntity
  8
0
100
AcDbLine
 10
78.8219
 20
95.0206
 30
0.0
 11
80.7817
 21
95.0877
 31
0.0
  0
LINE
  5
48D
330
1E
100
AcDbEntity
  8
0
100
AcDbLine
 10
117.7271
 20
153.0209
 30
0.0
 11
106.6014999999999
 21
153.86211
 31
0.0
  0
LINE
  5
48E
330
1E
100
AcDbEntity
  8
0
100
AcDbLine
 10
117.7271
 20
1.9791
 30
0.0
 11
106.6014999999999
 21
1.13789
 31
0.0
  0
LINE
  5
48F
330
1E
100
AcDbEntity
  8
0
100
AcDbLine
 10
153.86211
 20
48.3985
 30
0.0
 11
153.0209
 21
37.27289999999999
 31
0.0
  0
LINE
  5
490
330
1E
100
AcDbEntity
  8
0
100
AcDbLine
 10
140.2872
 20
5.9282
 30
0.0
 11
137.8759
 21
4.9565
 31
0.0
  0
LINE
  5
491
330
1E
100
AcDbEntity
  8
0
100
AcDbLine
 10
150.04353
 20
17.1241
 30
0.0
 11
148.5775000000105
 21
13.8504000000183
 31
0.0
  0
LINE
  5
492
330
1E
100
AcDbEntity
  8
0
100
AcDbLine
 10
146.86015
 20
11.146
 30
0.0
 11
145.4499999999999
 21
9.55
 31
0.0
  0
LINE
  5
493
330
1E
100
AcDbEntity
  8
0
100
AcDbLine
 10
148.0832399999999
 20
12.98799999999999
 30
0.0
 11
146.86015
 21
11.146
 31
0.0
  0
LINE
  5
494
330
1E
100
AcDbEntity
  8
0
100
AcDbLine
 10
148.5775000000082
 20
13.85040000001439
 30
0.0
 11
148.0832399999999
 21
12.98799999999999
 31
0.0
  0
LINE
  5
495
330
1E
100
AcDbEntity
  8
0
100
AcDbLine
 10
148.5775000000105
 20
13.8504000000183
 30
0.0
 11
148.0832399999999
 21
12.98799999999999
 31
0.0
  0
LINE
  5
496
330
1E
100
AcDbEntity
  8
0
100
AcDbLine
 10
145.4499999999999
 20
9.55
 30
0.0
 11
143.854
 21
8.139849999999999
 31
0.0
  0
LINE
  5
497
330
1E
100
AcDbEntity
  8
0
100
AcDbLine
 10
143.854
 20
8.139849999999999
 30
0.0
 11
142.012
 21
6.91676
 31
0.0
  0
LINE
  5
498
330
1E
100
AcDbEntity
  8
0
100
AcDbLine
 10
142.012
 20
6.91676
 30
0.0
 11
141.1496000000101
 21
6.42250000000583
 31
0.0
  0
LINE
  5
499
330
1E
100
AcDbEntity
  8
0
100
AcDbLine
 10
142.012
 20
6.91676
 30
0.0
 11
141.1496000000109
 21
6.422500000006289
 31
0.0
  0
LINE
  5
49A
330
1E
100
AcDbEntity
  8
0
100
AcDbLine
 10
142.012
 20
6.9168
 30
0.0
 11
140.2872
 21
5.9282
 31
0.0
  0
LINE
  5
49B
330
1E
100
AcDbEntity
  8
0
100
AcDbLine
 10
153.0209
 20
37.27289999999999
 30
0.0
 11
152.1055
 21
29.5968
 31
0.0
  0
LINE
  5
49C
330
1E
100
AcDbEntity
  8
0
100
AcDbLine
 10
152.1055
 20
29.5968
 30
0.0
 11
151.3574299999999
 21
23.31699999999999
 31
0.0
  0
LINE
  5
49D
330
1E
100
AcDbEntity
  8
0
100
AcDbLine
 10
151.0439499999999
 20
21.6188
 30
0.0
 11
150.04353
 21
17.1241
 31
0.0
  0
LINE
  5
49E
330
1E
100
AcDbEntity
  8
0
100
AcDbLine
 10
151.3574299999999
 20
23.31699999999999
 30
0.0
 11
151.0439499999999
 21
21.6188
 31
0.0
  0
LINE
  5
49F
330
1E
100
AcDbEntity
  8
0
100
AcDbLine
 10
151.3574299999999
 20
23.31699999999999
 30
0.0
 11
151.0439500000003
 21
21.6188000000021
 31
0.0
  0
LINE
  5
4A0
330
1E
100
AcDbEntity
  8
0
100
AcDbLine
 10
131.6829999999999
 20
3.642569999999999
 30
0.0
 11
125.4032
 21
2.894499999999999
 31
0.0
  0
LINE
  5
4A1
330
1E
100
AcDbEntity
  8
0
100
AcDbLine
 10
136.4776499999756
 20
4.612999999993999
 30
0.0
 11
131.6829999999999
 21
3.642569999999999
 31
0.0
  0
LINE
  5
4A2
330
1E
100
AcDbEntity
  8
0
100
AcDbLine
 10
136.4776499999756
 20
4.612999999993999
 30
0.0
 11
131.6829999999999
 21
3.642569999999999
 31
0.0
  0
LINE
  5
4A3
330
1E
100
AcDbEntity
  8
0
100
AcDbLine
 10
137.8759
 20
4.956469999999999
 30
0.0
 11
136.4776499999756
 21
4.612999999993999
 31
0.0
  0
LINE
  5
4A4
330
1E
100
AcDbEntity
  8
0
100
AcDbLine
 10
137.8759
 20
4.956469999999999
 30
0.0
 11
136.4776499999755
 21
4.61299999999398
 31
0.0
  0
LINE
  5
4A5
330
1E
100
AcDbEntity
  8
0
100
AcDbLine
 10
138.9093142857041
 20
5.37294285713876
 30
0.0
 11
137.8759
 21
4.956469999999999
 31
0.0
  0
LINE
  5
4A6
330
1E
100
AcDbEntity
  8
0
100
AcDbLine
 10
138.9093142857037
 20
5.37294285713857
 30
0.0
 11
137.8759
 21
4.956469999999999
 31
0.0
  0
LINE
  5
4A7
330
1E
100
AcDbEntity
  8
0
100
AcDbLine
 10
125.4032
 20
2.894499999999999
 30
0.0
 11
117.7271
 21
1.9791
 31
0.0
  0
LINE
  5
4A8
330
1E
100
AcDbEntity
  8
0
100
AcDbLine
 10
151.0439499999999
 20
133.3811999999999
 30
0.0
 11
150.04353
 21
137.8759
 31
0.0
  0
LINE
  5
4A9
330
1E
100
AcDbEntity
  8
0
100
AcDbLine
 10
154.897129
 20
84.1093
 30
0.0
 11
154.5614459999999
 21
93.90860000000001
 31
0.0
  0
LINE
  5
4AA
330
1E
100
AcDbEntity
  8
0
100
AcDbLine
 10
154.897129
 20
70.89069999999999
 30
0.0
 11
154.5614459999999
 21
61.0914
 31
0.0
  0
LINE
  5
4AB
330
1E
100
AcDbEntity
  8
0
100
AcDbLine
 10
154.5614459999999
 20
61.0914
 30
0.0
 11
153.86211
 21
48.3985
 31
0.0
  0
LINE
  5
4AC
330
1E
100
AcDbEntity
  8
0
100
AcDbLine
 10
154.5614459999999
 20
61.0914
 30
0.0
 11
153.86211
 21
48.3985
 31
0.0
  0
LINE
  5
4AD
330
1E
100
AcDbEntity
  8
0
100
AcDbLine
 10
155.0
 20
77.5
 30
0.0
 11
154.897129
 21
70.89069999999999
 31
0.0
  0
LINE
  5
4AE
330
1E
100
AcDbEntity
  8
0
100
AcDbLine
 10
155.0
 20
77.5
 30
0.0
 11
154.897129
 21
84.1093
 31
0.0
  0
LINE
  5
4AF
330
1E
100
AcDbEntity
  8
0
100
AcDbLine
 10
153.86211
 20
106.6014999999999
 30
0.0
 11
153.0209
 21
117.7271
 31
0.0
  0
LINE
  5
4B0
330
1E
100
AcDbEntity
  8
0
100
AcDbLine
 10
154.5614459999999
 20
93.90860000000001
 30
0.0
 11
153.86211
 21
106.6014999999999
 31
0.0
  0
LINE
  5
4B1
330
1E
100
AcDbEntity
  8
0
100
AcDbLine
 10
154.5614459999999
 20
93.90860000000001
 30
0.0
 11
153.86211
 21
106.6014999999999
 31
0.0
  0
LINE
  5
4B2
330
1E
100
AcDbEntity
  8
0
100
AcDbLine
 10
153.0209
 20
117.7271
 30
0.0
 11
152.1055
 21
125.4032
 31
0.0
  0
LINE
  5
4B3
330
1E
100
AcDbEntity
  8
0
100
AcDbLine
 10
152.1055
 20
125.4032
 30
0.0
 11
151.3574299999999
 21
131.6829999999999
 31
0.0
  0
LINE
  5
4B4
330
1E
100
AcDbEntity
  8
0
100
AcDbLine
 10
151.3574299999999
 20
131.6829999999999
 30
0.0
 11
151.0439500000003
 21
133.3811999999979
 31
0.0
  0
LINE
  5
4B5
330
1E
100
AcDbEntity
  8
0
100
AcDbLine
 10
151.3574299999999
 20
131.6829999999999
 30
0.0
 11
151.0439499999999
 21
133.3811999999999
 31
0.0
  0
LINE
  5
4B6
330
1E
100
AcDbEntity
  8
0
100
AcDbLine
 10
140.2872
 20
149.0718
 30
0.0
 11
137.8759
 21
150.0434999999999
 31
0.0
  0
LINE
  5
4B7
330
1E
100
AcDbEntity
  8
0
100
AcDbLine
 10
143.854
 20
146.86015
 30
0.0
 11
142.012
 21
148.0832399999999
 31
0.0
  0
LINE
  5
4B8
330
1E
100
AcDbEntity
  8
0
100
AcDbLine
 10
146.86015
 20
143.854
 30
0.0
 11
145.4499999999999
 21
145.4499999999999
 31
0.0
  0
LINE
  5
4B9
330
1E
100
AcDbEntity
  8
0
100
AcDbLine
 10
148.5775000000105
 20
141.1495999999816
 30
0.0
 11
148.0832399999999
 21
142.012
 31
0.0
  0
LINE
  5
4BA
330
1E
100
AcDbEntity
  8
0
100
AcDbLine
 10
148.5775000000082
 20
141.1495999999856
 30
0.0
 11
148.0832399999999
 21
142.012
 31
0.0
  0
LINE
  5
4BB
330
1E
100
AcDbEntity
  8
0
100
AcDbLine
 10
150.04353
 20
137.8759
 30
0.0
 11
148.5775000000105
 21
141.1495999999816
 31
0.0
  0
LINE
  5
4BC
330
1E
100
AcDbEntity
  8
0
100
AcDbLine
 10
148.0832399999999
 20
142.012
 30
0.0
 11
146.86015
 21
143.854
 31
0.0
  0
LINE
  5
4BD
330
1E
100
AcDbEntity
  8
0
100
AcDbLine
 10
145.4499999999999
 20
145.4499999999999
 30
0.0
 11
143.854
 21
146.86015
 31
0.0
  0
LINE
  5
4BE
330
1E
100
AcDbEntity
  8
0
100
AcDbLine
 10
142.012
 20
148.0832
 30
0.0
 11
140.2872
 21
149.0718
 31
0.0
  0
LINE
  5
4BF
330
1E
100
AcDbEntity
  8
0
100
AcDbLine
 10
142.012
 20
148.0832399999999
 30
0.0
 11
141.1496000000109
 21
148.5774999999937
 31
0.0
  0
LINE
  5
4C0
330
1E
100
AcDbEntity
  8
0
100
AcDbLine
 10
142.012
 20
148.0832399999999
 30
0.0
 11
141.1496000000101
 21
148.5774999999941
 31
0.0
  0
LINE
  5
4C1
330
1E
100
AcDbEntity
  8
0
100
AcDbLine
 10
131.6829999999999
 20
151.3574299999999
 30
0.0
 11
125.4032
 21
152.1055
 31
0.0
  0
LINE
  5
4C2
330
1E
100
AcDbEntity
  8
0
100
AcDbLine
 10
136.4776499999756
 20
150.3870000000059
 30
0.0
 11
131.6829999999999
 21
151.3574299999999
 31
0.0
  0
LINE
  5
4C3
330
1E
100
AcDbEntity
  8
0
100
AcDbLine
 10
136.4776499999756
 20
150.3870000000059
 30
0.0
 11
131.6829999999999
 21
151.3574299999999
 31
0.0
  0
LINE
  5
4C4
330
1E
100
AcDbEntity
  8
0
100
AcDbLine
 10
137.8759
 20
150.04353
 30
0.0
 11
136.4776499999755
 21
150.387000000006
 31
0.0
  0
LINE
  5
4C5
330
1E
100
AcDbEntity
  8
0
100
AcDbLine
 10
137.8759
 20
150.04353
 30
0.0
 11
136.4776499999756
 21
150.3870000000059
 31
0.0
  0
LINE
  5
4C6
330
1E
100
AcDbEntity
  8
0
100
AcDbLine
 10
138.9093142857037
 20
149.6270571428614
 30
0.0
 11
137.8759
 21
150.04353
 31
0.0
  0
LINE
  5
4C7
330
1E
100
AcDbEntity
  8
0
100
AcDbLine
 10
138.9093142857041
 20
149.6270571428612
 30
0.0
 11
137.8759
 21
150.04353
 31
0.0
  0
LINE
  5
4C8
330
1E
100
AcDbEntity
  8
0
100
AcDbLine
 10
125.4032
 20
152.1055
 30
0.0
 11
117.7271
 21
153.0209
 31
0.0
  0
LINE
  5
4C9
330
1E
100
AcDbEntity
  8
0
100
AcDbLine
 10
99.50180000000001
 20
38.4986
 30
0.0
 11
98.16970000000001
 21
40.1914
 31
0.0
  0
LINE
  5
4CA
330
1E
100
AcDbEntity
  8
0
100
AcDbLine
 10
92.9123
 20
41.2183
 30
0.0
 11
92.7724
 21
38.67969999999999
 31
0.0
  0
LINE
  5
4CB
330
1E
100
AcDbEntity
  8
0
100
AcDbLine
 10
112.8683
 20
40.25
 30
0.0
 11
111.5083999999999
 21
38.4947
 31
0.0
  0
LINE
  5
4CC
330
1E
100
AcDbEntity
  8
0
100
AcDbLine
 10
89.5752
 20
29.9913
 30
0.0
 11
89.0159
 21
29.8539
 31
0.0
  0
LINE
  5
4CD
330
1E
100
AcDbEntity
  8
0
100
AcDbLine
 10
93.90860000000001
 20
0.4385539999999961
 30
0.0
 11
84.1093
 21
0.102870999999996
 31
0.0
  0
LINE
  5
4CE
330
1E
100
AcDbEntity
  8
0
100
AcDbLine
 10
93.90860000000001
 20
0.4385539999999961
 30
0.0
 11
84.1093
 21
0.102870999999996
 31
0.0
  0
LINE
  5
4CF
330
1E
100
AcDbEntity
  8
0
100
AcDbLine
 10
106.6014999999999
 20
1.13789
 30
0.0
 11
93.90860000000001
 21
0.4385539999999961
 31
0.0
  0
LINE
  5
4D0
330
1E
100
AcDbEntity
  8
0
100
AcDbLine
 10
106.6014999999999
 20
1.13789
 30
0.0
 11
93.90860000000001
 21
0.4385539999999961
 31
0.0
  0
LINE
  5
4D1
330
1E
100
AcDbEntity
  8
0
100
AcDbLine
 10
103.3123
 20
36.2986
 30
0.0
 11
101.2569999999999
 21
37.1388
 31
0.0
  0
LINE
  5
4D2
330
1E
100
AcDbEntity
  8
0
100
AcDbLine
 10
109.8156
 20
37.1627
 30
0.0
 11
107.7032
 21
36.3038
 31
0.0
  0
LINE
  5
4D3
330
1E
100
AcDbEntity
  8
0
100
AcDbLine
 10
111.5083999999999
 20
38.4947
 30
0.0
 11
109.8156
 21
37.1627
 31
0.0
  0
LINE
  5
4D4
330
1E
100
AcDbEntity
  8
0
100
AcDbLine
 10
105.4443
 20
35.9914
 30
0.0
 11
103.3123
 21
36.2986
 31
0.0
  0
LINE
  5
4D5
330
1E
100
AcDbEntity
  8
0
100
AcDbLine
 10
107.7032
 20
36.3038
 30
0.0
 11
105.4443
 21
35.9914
 31
0.0
  0
LINE
  5
4D6
330
1E
100
AcDbEntity
  8
0
100
AcDbLine
 10
101.2569999999999
 20
37.1388
 30
0.0
 11
99.50180000000001
 21
38.4986
 31
0.0
  0
LINE
  5
4D7
330
1E
100
AcDbEntity
  8
0
100
AcDbLine
 10
92.14609999999998
 20
32.9841
 30
0.0
 11
92.0087
 21
32.4248
 31
0.0
  0
LINE
  5
4D8
330
1E
100
AcDbEntity
  8
0
100
AcDbLine
 10
91.08999999999999
 20
30.90999999999999
 30
0.0
 11
90.7708
 21
30.628
 31
0.0
  0
LINE
  5
4D9
330
1E
100
AcDbEntity
  8
0
100
AcDbLine
 10
91.37199999999999
 20
31.2292
 30
0.0
 11
91.08999999999999
 21
30.90999999999999
 31
0.0
  0
LINE
  5
4DA
330
1E
100
AcDbEntity
  8
0
100
AcDbLine
 10
91.8144
 20
31.94259999999999
 30
0.0
 11
91.61660000000001
 21
31.5976
 31
0.0
  0
LINE
  5
4DB
330
1E
100
AcDbEntity
  8
0
100
AcDbLine
 10
92.0087
 20
32.4248
 30
0.0
 11
91.8144
 21
31.94259999999999
 31
0.0
  0
LINE
  5
4DC
330
1E
100
AcDbEntity
  8
0
100
AcDbLine
 10
91.61660000000001
 20
31.5976
 30
0.0
 11
91.37199999999999
 21
31.2292
 31
0.0
  0
LINE
  5
4DD
330
1E
100
AcDbEntity
  8
0
100
AcDbLine
 10
90.4024
 20
30.3834
 30
0.0
 11
90.05740000000001
 21
30.1856
 31
0.0
  0
LINE
  5
4DE
330
1E
100
AcDbEntity
  8
0
100
AcDbLine
 10
90.7708
 20
30.628
 30
0.0
 11
90.4024
 21
30.3834
 31
0.0
  0
LINE
  5
4DF
330
1E
100
AcDbEntity
  8
0
100
AcDbLine
 10
90.05740000000001
 20
30.1856
 30
0.0
 11
89.5752
 21
29.9913
 31
0.0
  0
LINE
  5
4E0
330
1E
100
AcDbEntity
  8
0
100
AcDbLine
 10
92.60419999999999
 20
36.45459999999999
 30
0.0
 11
92.4211
 21
34.9194
 31
0.0
  0
LINE
  5
4E1
330
1E
100
AcDbEntity
  8
0
100
AcDbLine
 10
92.7724
 20
38.67969999999999
 30
0.0
 11
92.60419999999999
 21
36.45459999999999
 31
0.0
  0
LINE
  5
4E2
330
1E
100
AcDbEntity
  8
0
100
AcDbLine
 10
92.4211
 20
34.9194
 30
0.0
 11
92.27149999999999
 21
33.6634
 31
0.0
  0
LINE
  5
4E3
330
1E
100
AcDbEntity
  8
0
100
AcDbLine
 10
92.27149999999999
 20
33.6634
 30
0.0
 11
92.14609999999998
 21
32.9841
 31
0.0
  0
LINE
  5
4E4
330
1E
100
AcDbEntity
  8
0
100
AcDbLine
 10
84.1093
 20
0.102870999999996
 30
0.0
 11
77.5
 21
-0.0000000000000037
 31
0.0
  0
LINE
  5
4E5
330
1E
100
AcDbEntity
  8
0
100
AcDbLine
 10
84.1093
 20
0.102870999999996
 30
0.0
 11
77.5
 21
-0.0000000000000037
 31
0.0
  0
LINE
  5
4E6
330
1E
100
AcDbEntity
  8
0
100
AcDbLine
 10
77.5
 20
29.0
 30
0.0
 11
76.1781
 21
29.0206
 31
0.0
  0
LINE
  5
4E7
330
1E
100
AcDbEntity
  8
0
100
AcDbLine
 10
83.32030000000001
 20
29.2276
 30
0.0
 11
80.7817
 21
29.0877
 31
0.0
  0
LINE
  5
4E8
330
1E
100
AcDbEntity
  8
0
100
AcDbLine
 10
87.08060000000001
 20
29.57889999999999
 30
0.0
 11
85.54540000000001
 21
29.3958
 31
0.0
  0
LINE
  5
4E9
330
1E
100
AcDbEntity
  8
0
100
AcDbLine
 10
88.3366
 20
29.72849999999999
 30
0.0
 11
87.08060000000001
 21
29.57889999999999
 31
0.0
  0
LINE
  5
4EA
330
1E
100
AcDbEntity
  8
0
100
AcDbLine
 10
89.0159
 20
29.8539
 30
0.0
 11
88.3366
 21
29.72849999999999
 31
0.0
  0
LINE
  5
4EB
330
1E
100
AcDbEntity
  8
0
100
AcDbLine
 10
85.54540000000001
 20
29.3958
 30
0.0
 11
83.32030000000001
 21
29.2276
 31
0.0
  0
LINE
  5
4EC
330
1E
100
AcDbEntity
  8
0
100
AcDbLine
 10
80.7817
 20
29.0877
 30
0.0
 11
78.8219
 21
29.0206
 31
0.0
  0
LINE
  5
4ED
330
1E
100
AcDbEntity
  8
0
100
AcDbLine
 10
78.8219
 20
29.0206
 30
0.0
 11
77.5
 21
29.0
 31
0.0
  0
LINE
  5
4EE
330
1E
100
AcDbEntity
  8
0
100
AcDbLine
 10
76.1781
 20
29.0206
 30
0.0
 11
74.21829999999999
 21
29.0877
 31
0.0
  0
LINE
  5
4EF
330
1E
100
AcDbEntity
  8
0
100
AcDbLine
 10
89.5752
 20
59.0087
 30
0.0
 11
89.0159
 21
59.14609999999999
 31
0.0
  0
LINE
  5
4F0
330
1E
100
AcDbEntity
  8
0
100
AcDbLine
 10
103.3109
 20
52.69619999999999
 30
0.0
 11
101.1984999999999
 21
51.8373
 31
0.0
  0
LINE
  5
4F1
330
1E
100
AcDbEntity
  8
0
100
AcDbLine
 10
111.5123
 20
50.50139999999999
 30
0.0
 11
109.757
 21
51.86119999999999
 31
0.0
  0
LINE
  5
4F2
330
1E
100
AcDbEntity
  8
0
100
AcDbLine
 10
114.0156
 20
44.4373
 30
0.0
 11
113.7032
 21
46.6962
 31
0.0
  0
LINE
  5
4F3
330
1E
100
AcDbEntity
  8
0
100
AcDbLine
 10
113.7085
 20
42.3053
 30
0.0
 11
112.8683
 21
40.25
 31
0.0
  0
LINE
  5
4F4
330
1E
100
AcDbEntity
  8
0
100
AcDbLine
 10
114.0156
 20
44.4373
 30
0.0
 11
113.7085
 21
42.3053
 31
0.0
  0
LINE
  5
4F5
330
1E
100
AcDbEntity
  8
0
100
AcDbLine
 10
113.7032
 20
46.6962
 30
0.0
 11
112.8443
 21
48.8086
 31
0.0
  0
LINE
  5
4F6
330
1E
100
AcDbEntity
  8
0
100
AcDbLine
 10
112.8443
 20
48.8086
 30
0.0
 11
111.5123
 21
50.50139999999999
 31
0.0
  0
LINE
  5
4F7
330
1E
100
AcDbEntity
  8
0
100
AcDbLine
 10
109.757
 20
51.86119999999999
 30
0.0
 11
107.7018
 21
52.7014
 31
0.0
  0
LINE
  5
4F8
330
1E
100
AcDbEntity
  8
0
100
AcDbLine
 10
105.5696999999999
 20
53.0086
 30
0.0
 11
103.3109
 21
52.69619999999999
 31
0.0
  0
LINE
  5
4F9
330
1E
100
AcDbEntity
  8
0
100
AcDbLine
 10
107.7018
 20
52.7014
 30
0.0
 11
105.5696999999999
 21
53.0086
 31
0.0
  0
LINE
  5
4FA
330
1E
100
AcDbEntity
  8
0
100
AcDbLine
 10
92.7724
 20
50.3203
 30
0.0
 11
92.60419999999999
 21
52.5454
 31
0.0
  0
LINE
  5
4FB
330
1E
100
AcDbEntity
  8
0
100
AcDbLine
 10
101.1984999999999
 20
51.8373
 30
0.0
 11
99.50560000000001
 21
50.5053
 31
0.0
  0
LINE
  5
4FC
330
1E
100
AcDbEntity
  8
0
100
AcDbLine
 10
97.3056
 20
46.69469999999999
 30
0.0
 11
96.99850000000001
 21
44.56269999999999
 31
0.0
  0
LINE
  5
4FD
330
1E
100
AcDbEntity
  8
0
100
AcDbLine
 10
98.16970000000001
 20
40.1914
 30
0.0
 11
97.31090000000001
 21
42.3038
 31
0.0
  0
LINE
  5
4FE
330
1E
100
AcDbEntity
  8
0
100
AcDbLine
 10
97.31090000000001
 20
42.3038
 30
0.0
 11
96.99850000000001
 21
44.56269999999999
 31
0.0
  0
LINE
  5
4FF
330
1E
100
AcDbEntity
  8
0
100
AcDbLine
 10
99.50560000000001
 20
50.5053
 30
0.0
 11
98.14580000000001
 21
48.75
 31
0.0
  0
LINE
  5
500
330
1E
100
AcDbEntity
  8
0
100
AcDbLine
 10
98.14580000000001
 20
48.75
 30
0.0
 11
97.3056
 21
46.69469999999999
 31
0.0
  0
LINE
  5
501
330
1E
100
AcDbEntity
  8
0
100
AcDbLine
 10
93.0
 20
44.5
 30
0.0
 11
92.9794
 21
45.82189999999999
 31
0.0
  0
LINE
  5
502
330
1E
100
AcDbEntity
  8
0
100
AcDbLine
 10
92.9794
 20
43.1781
 30
0.0
 11
92.9123
 21
41.2183
 31
0.0
  0
LINE
  5
503
330
1E
100
AcDbEntity
  8
0
100
AcDbLine
 10
93.0
 20
44.5
 30
0.0
 11
92.9794
 21
43.1781
 31
0.0
  0
LINE
  5
504
330
1E
100
AcDbEntity
  8
0
100
AcDbLine
 10
92.9123
 20
47.7817
 30
0.0
 11
92.7724
 21
50.3203
 31
0.0
  0
LINE
  5
505
330
1E
100
AcDbEntity
  8
0
100
AcDbLine
 10
92.9794
 20
45.82189999999999
 30
0.0
 11
92.9123
 21
47.7817
 31
0.0
  0
LINE
  5
506
330
1E
100
AcDbEntity
  8
0
100
AcDbLine
 10
92.0087
 20
56.5752
 30
0.0
 11
91.8144
 21
57.0574
 31
0.0
  0
LINE
  5
507
330
1E
100
AcDbEntity
  8
0
100
AcDbLine
 10
92.60419999999999
 20
52.5454
 30
0.0
 11
92.4211
 21
54.08059999999999
 31
0.0
  0
LINE
  5
508
330
1E
100
AcDbEntity
  8
0
100
AcDbLine
 10
92.27149999999999
 20
55.3366
 30
0.0
 11
92.14609999999998
 21
56.0159
 31
0.0
  0
LINE
  5
509
330
1E
100
AcDbEntity
  8
0
100
AcDbLine
 10
92.4211
 20
54.08059999999999
 30
0.0
 11
92.27149999999999
 21
55.3366
 31
0.0
  0
LINE
  5
50A
330
1E
100
AcDbEntity
  8
0
100
AcDbLine
 10
92.14609999999998
 20
56.0159
 30
0.0
 11
92.0087
 21
56.5752
 31
0.0
  0
LINE
  5
50B
330
1E
100
AcDbEntity
  8
0
100
AcDbLine
 10
91.08999999999999
 20
58.09000000000001
 30
0.0
 11
90.7708
 21
58.372
 31
0.0
  0
LINE
  5
50C
330
1E
100
AcDbEntity
  8
0
100
AcDbLine
 10
91.8144
 20
57.0574
 30
0.0
 11
91.61660000000001
 21
57.4024
 31
0.0
  0
LINE
  5
50D
330
1E
100
AcDbEntity
  8
0
100
AcDbLine
 10
91.61660000000001
 20
57.4024
 30
0.0
 11
91.37199999999999
 21
57.7708
 31
0.0
  0
LINE
  5
50E
330
1E
100
AcDbEntity
  8
0
100
AcDbLine
 10
91.37199999999999
 20
57.7708
 30
0.0
 11
91.08999999999999
 21
58.09000000000001
 31
0.0
  0
LINE
  5
50F
330
1E
100
AcDbEntity
  8
0
100
AcDbLine
 10
90.7708
 20
58.372
 30
0.0
 11
90.4024
 21
58.6166
 31
0.0
  0
LINE
  5
510
330
1E
100
AcDbEntity
  8
0
100
AcDbLine
 10
90.4024
 20
58.6166
 30
0.0
 11
90.05740000000001
 21
58.8144
 31
0.0
  0
LINE
  5
511
330
1E
100
AcDbEntity
  8
0
100
AcDbLine
 10
90.05740000000001
 20
58.8144
 30
0.0
 11
89.5752
 21
59.0087
 31
0.0
  0
LINE
  5
512
330
1E
100
AcDbEntity
  8
0
100
AcDbLine
 10
77.5
 20
60.0
 30
0.0
 11
76.1781
 21
59.97939999999999
 31
0.0
  0
LINE
  5
513
330
1E
100
AcDbEntity
  8
0
100
AcDbLine
 10
83.32030000000001
 20
59.7724
 30
0.0
 11
80.7817
 21
59.9123
 31
0.0
  0
LINE
  5
514
330
1E
100
AcDbEntity
  8
0
100
AcDbLine
 10
87.08060000000001
 20
59.4211
 30
0.0
 11
85.54540000000001
 21
59.6042
 31
0.0
  0
LINE
  5
515
330
1E
100
AcDbEntity
  8
0
100
AcDbLine
 10
88.3366
 20
59.27150000000001
 30
0.0
 11
87.08060000000001
 21
59.4211
 31
0.0
  0
LINE
  5
516
330
1E
100
AcDbEntity
  8
0
100
AcDbLine
 10
89.0159
 20
59.14609999999999
 30
0.0
 11
88.3366
 21
59.27150000000001
 31
0.0
  0
LINE
  5
517
330
1E
100
AcDbEntity
  8
0
100
AcDbLine
 10
85.54540000000001
 20
59.6042
 30
0.0
 11
83.32030000000001
 21
59.7724
 31
0.0
  0
LINE
  5
518
330
1E
100
AcDbEntity
  8
0
100
AcDbLine
 10
80.7817
 20
59.9123
 30
0.0
 11
78.8219
 21
59.97939999999999
 31
0.0
  0
LINE
  5
519
330
1E
100
AcDbEntity
  8
0
100
AcDbLine
 10
78.8219
 20
59.97939999999999
 30
0.0
 11
77.5
 21
60.0
 31
0.0
  0
LINE
  5
51A
330
1E
100
AcDbEntity
  8
0
100
AcDbLine
 10
76.1781
 20
59.97939999999999
 30
0.0
 11
74.21829999999999
 21
59.9123
 31
0.0
  0
LINE
  5
51B
330
1E
100
AcDbEntity
  8
0
100
AcDbLine
 10
89.5752
 20
95.9913
 30
0.0
 11
89.0159
 21
95.85390000000002
 31
0.0
  0
LINE
  5
51C
330
1E
100
AcDbEntity
  8
0
100
AcDbLine
 10
89.5752
 20
125.0087
 30
0.0
 11
89.0159
 21
125.1460999999999
 31
0.0
  0
LINE
  5
51D
330
1E
100
AcDbEntity
  8
0
100
AcDbLine
 10
93.0
 20
110.4999999999999
 30
0.0
 11
92.9794
 21
111.8219
 31
0.0
  0
LINE
  5
528
330
1E
100
AcDbEntity
  8
0
100
AcDbLine
 10
92.27149999999999
 20
99.6634
 30
0.0
 11
92.14609999999998
 21
98.9841
 31
0.0
  0
LINE
  5
529
330
1E
100
AcDbEntity
  8
0
100
AcDbLine
 10
90.4024
 20
96.38339999999999
 30
0.0
 11
90.05740000000001
 21
96.1856
 31
0.0
  0
LINE
  5
52A
330
1E
100
AcDbEntity
  8
0
100
AcDbLine
 10
90.05740000000001
 20
96.1856
 30
0.0
 11
89.5752
 21
95.9913
 31
0.0
  0
LINE
  5
52B
330
1E
100
AcDbEntity
  8
0
100
AcDbLine
 10
91.08999999999999
 20
96.91
 30
0.0
 11
90.7708
 21
96.628
 31
0.0
  0
LINE
  5
52C
330
1E
100
AcDbEntity
  8
0
100
AcDbLine
 10
91.8144
 20
97.94260000000001
 30
0.0
 11
91.61660000000001
 21
97.59759999999999
 31
0.0
  0
LINE
  5
52D
330
1E
100
AcDbEntity
  8
0
100
AcDbLine
 10
91.37199999999999
 20
97.2292
 30
0.0
 11
91.08999999999999
 21
96.91
 31
0.0
  0
LINE
  5
52E
330
1E
100
AcDbEntity
  8
0
100
AcDbLine
 10
91.61660000000001
 20
97.59759999999999
 30
0.0
 11
91.37199999999999
 21
97.2292
 31
0.0
  0
LINE
  5
52F
330
1E
100
AcDbEntity
  8
0
100
AcDbLine
 10
92.14609999999998
 20
98.9841
 30
0.0
 11
92.0087
 21
98.42480000000001
 31
0.0
  0
LINE
  5
530
330
1E
100
AcDbEntity
  8
0
100
AcDbLine
 10
92.0087
 20
98.42480000000001
 30
0.0
 11
91.8144
 21
97.94260000000001
 31
0.0
  0
LINE
  5
531
330
1E
100
AcDbEntity
  8
0
100
AcDbLine
 10
90.7708
 20
96.628
 30
0.0
 11
90.4024
 21
96.38339999999999
 31
0.0
  0
LINE
  5
536
330
1E
100
AcDbEntity
  8
0
100
AcDbLine
 10
92.9123
 20
107.2183
 30
0.0
 11
92.7724
 21
104.6796999999999
 31
0.0
  0
LINE
  5
537
330
1E
100
AcDbEntity
  8
0
100
AcDbLine
 10
92.60419999999999
 20
102.4545999999999
 30
0.0
 11
92.4211
 21
100.9193999999999
 31
0.0
  0
LINE
  5
538
330
1E
100
AcDbEntity
  8
0
100
AcDbLine
 10
92.7724
 20
104.6796999999999
 30
0.0
 11
92.60419999999999
 21
102.4545999999999
 31
0.0
  0
LINE
  5
539
330
1E
100
AcDbEntity
  8
0
100
AcDbLine
 10
92.4211
 20
100.9193999999999
 30
0.0
 11
92.27149999999999
 21
99.6634
 31
0.0
  0
LINE
  5
53A
330
1E
100
AcDbEntity
  8
0
100
AcDbLine
 10
92.9794
 20
109.1781
 30
0.0
 11
92.9123
 21
107.2183
 31
0.0
  0
LINE
  5
53B
330
1E
100
AcDbEntity
  8
0
100
AcDbLine
 10
93.0
 20
110.4999999999999
 30
0.0
 11
92.9794
 21
109.1781
 31
0.0
  0
LINE
  5
543
330
1E
100
AcDbEntity
  8
0
100
AcDbLine
 10
91.61660000000001
 20
123.4024
 30
0.0
 11
91.37199999999999
 21
123.7708
 31
0.0
  0
LINE
  5
547
330
1E
100
AcDbEntity
  8
0
100
AcDbLine
 10
92.7724
 20
116.3202999999999
 30
0.0
 11
92.60419999999999
 21
118.5454
 31
0.0
  0
LINE
  5
548
330
1E
100
AcDbEntity
  8
0
100
AcDbLine
 10
92.9123
 20
113.7817
 30
0.0
 11
92.7724
 21
116.3202999999999
 31
0.0
  0
LINE
  5
549
330
1E
100
AcDbEntity
  8
0
100
AcDbLine
 10
92.9794
 20
111.8219
 30
0.0
 11
92.9123
 21
113.7817
 31
0.0
  0
LINE
  5
54A
330
1E
100
AcDbEntity
  8
0
100
AcDbLine
 10
92.60419999999999
 20
118.5454
 30
0.0
 11
92.4211
 21
120.0806
 31
0.0
  0
LINE
  5
54B
330
1E
100
AcDbEntity
  8
0
100
AcDbLine
 10
92.4211
 20
120.0806
 30
0.0
 11
92.27149999999999
 21
121.3366
 31
0.0
  0
LINE
  5
54C
330
1E
100
AcDbEntity
  8
0
100
AcDbLine
 10
92.27149999999999
 20
121.3366
 30
0.0
 11
92.14609999999998
 21
122.0158999999999
 31
0.0
  0
LINE
  5
54D
330
1E
100
AcDbEntity
  8
0
100
AcDbLine
 10
91.8144
 20
123.0574
 30
0.0
 11
91.61660000000001
 21
123.4024
 31
0.0
  0
LINE
  5
54E
330
1E
100
AcDbEntity
  8
0
100
AcDbLine
 10
92.0087
 20
122.5751999999999
 30
0.0
 11
91.8144
 21
123.0574
 31
0.0
  0
LINE
  5
54F
330
1E
100
AcDbEntity
  8
0
100
AcDbLine
 10
92.14609999999998
 20
122.0158999999999
 30
0.0
 11
92.0087
 21
122.5751999999999
 31
0.0
  0
LINE
  5
550
330
1E
100
AcDbEntity
  8
0
100
AcDbLine
 10
91.08999999999999
 20
124.09
 30
0.0
 11
90.7708
 21
124.3719999999999
 31
0.0
  0
LINE
  5
551
330
1E
100
AcDbEntity
  8
0
100
AcDbLine
 10
91.37199999999999
 20
123.7708
 30
0.0
 11
91.08999999999999
 21
124.09
 31
0.0
  0
LINE
  5
552
330
1E
100
AcDbEntity
  8
0
100
AcDbLine
 10
90.4024
 20
124.6166
 30
0.0
 11
90.05740000000001
 21
124.8144
 31
0.0
  0
LINE
  5
553
330
1E
100
AcDbEntity
  8
0
100
AcDbLine
 10
90.7708
 20
124.3719999999999
 30
0.0
 11
90.4024
 21
124.6166
 31
0.0
  0
LINE
  5
554
330
1E
100
AcDbEntity
  8
0
100
AcDbLine
 10
90.05740000000001
 20
124.8144
 30
0.0
 11
89.5752
 21
125.0087
 31
0.0
  0
LINE
  5
555
330
1E
100
AcDbEntity
  8
0
100
AcDbLine
 10
77.5
 20
95.0
 30
0.0
 11
76.1781
 21
95.0206
 31
0.0
  0
LINE
  5
556
330
1E
100
AcDbEntity
  8
0
100
AcDbLine
 10
83.32030000000001
 20
95.22759999999999
 30
0.0
 11
80.7817
 21
95.0877
 31
0.0
  0
LINE
  5
557
330
1E
100
AcDbEntity
  8
0
100
AcDbLine
 10
87.08060000000001
 20
95.5789
 30
0.0
 11
85.54540000000001
 21
95.3958
 31
0.0
  0
LINE
  5
558
330
1E
100
AcDbEntity
  8
0
100
AcDbLine
 10
88.3366
 20
95.7285
 30
0.0
 11
87.08060000000001
 21
95.5789
 31
0.0
  0
LINE
  5
559
330
1E
100
AcDbEntity
  8
0
100
AcDbLine
 10
89.0159
 20
95.85390000000002
 30
0.0
 11
88.3366
 21
95.7285
 31
0.0
  0
LINE
  5
55A
330
1E
100
AcDbEntity
  8
0
100
AcDbLine
 10
85.54540000000001
 20
95.3958
 30
0.0
 11
83.32030000000001
 21
95.22759999999999
 31
0.0
  0
LINE
  5
55B
330
1E
100
AcDbEntity
  8
0
100
AcDbLine
 10
80.7817
 20
95.0877
 30
0.0
 11
78.8219
 21
95.0206
 31
0.0
  0
LINE
  5
55C
330
1E
100
AcDbEntity
  8
0
100
AcDbLine
 10
78.8219
 20
95.0206
 30
0.0
 11
77.5
 21
95.0
 31
0.0
  0
LINE
  5
55D
330
1E
100
AcDbEntity
  8
0
100
AcDbLine
 10
76.1781
 20
95.0206
 30
0.0
 11
74.21829999999999
 21
95.0877
 31
0.0
  0
LINE
  5
55E
330
1E
100
AcDbEntity
  8
0
100
AcDbLine
 10
77.5
 20
126.0
 30
0.0
 11
76.1781
 21
125.9794
 31
0.0
  0
LINE
  5
55F
330
1E
100
AcDbEntity
  8
0
100
AcDbLine
 10
83.32030000000001
 20
125.7724
 30
0.0
 11
80.7817
 21
125.9122999999999
 31
0.0
  0
LINE
  5
560
330
1E
100
AcDbEntity
  8
0
100
AcDbLine
 10
87.08060000000001
 20
125.4210999999999
 30
0.0
 11
85.54540000000001
 21
125.6041999999999
 31
0.0
  0
LINE
  5
561
330
1E
100
AcDbEntity
  8
0
100
AcDbLine
 10
88.3366
 20
125.2715
 30
0.0
 11
87.08060000000001
 21
125.4210999999999
 31
0.0
  0
LINE
  5
562
330
1E
100
AcDbEntity
  8
0
100
AcDbLine
 10
89.0159
 20
125.1460999999999
 30
0.0
 11
88.3366
 21
125.2715
 31
0.0
  0
LINE
  5
563
330
1E
100
AcDbEntity
  8
0
100
AcDbLine
 10
85.54540000000001
 20
125.6041999999999
 30
0.0
 11
83.32030000000001
 21
125.7724
 31
0.0
  0
LINE
  5
564
330
1E
100
AcDbEntity
  8
0
100
AcDbLine
 10
80.7817
 20
125.9122999999999
 30
0.0
 11
78.8219
 21
125.9794
 31
0.0
  0
LINE
  5
565
330
1E
100
AcDbEntity
  8
0
100
AcDbLine
 10
78.8219
 20
125.9794
 30
0.0
 11
77.5
 21
126.0
 31
0.0
  0
LINE
  5
566
330
1E
100
AcDbEntity
  8
0
100
AcDbLine
 10
76.1781
 20
125.9794
 30
0.0
 11
74.21829999999999
 21
125.9122999999999
 31
0.0
  0
LINE
  5
567
330
1E
100
AcDbEntity
  8
0
100
AcDbLine
 10
93.90860000000001
 20
154.561446
 30
0.0
 11
84.1093
 21
154.897129
 31
0.0
  0
LINE
  5
568
330
1E
100
AcDbEntity
  8
0
100
AcDbLine
 10
93.90860000000001
 20
154.561446
 30
0.0
 11
84.1093
 21
154.897129
 31
0.0
  0
LINE
  5
569
330
1E
100
AcDbEntity
  8
0
100
AcDbLine
 10
106.6014999999999
 20
153.86211
 30
0.0
 11
93.90860000000001
 21
154.561446
 31
0.0
  0
LINE
  5
56A
330
1E
100
AcDbEntity
  8
0
100
AcDbLine
 10
106.6014999999999
 20
153.86211
 30
0.0
 11
93.90860000000001
 21
154.561446
 31
0.0
  0
LINE
  5
56B
330
1E
100
AcDbEntity
  8
0
100
AcDbLine
 10
84.1093
 20
154.897129
 30
0.0
 11
77.5
 21
155.0
 31
0.0
  0
LINE
  5
56C
330
1E
100
AcDbEntity
  8
0
100
AcDbLine
 10
84.1093
 20
154.897129
 30
0.0
 11
77.5
 21
155.0
 31
0.0
  0
ENDSEC
  0
SECTION
  2
OBJECTS
  0
DICTIONARY
  5
C
330
0
100
AcDbDictionary
281
     1
  3
ACAD_GROUP
350
D
  3
ACAD_LAYOUT
350
19
  3
ACAD_MLINESTYLE
350
16
  3
ACAD_PLOTSETTINGS
350
18
  3
ACAD_PLOTSTYLENAME
350
E
  3
AcDbVariableDictionary
350
56D
  0
DICTIONARY
  5
D
102
{ACAD_REACTORS
330
C
102
}
330
C
100
AcDbDictionary
281
     1
  0
DICTIONARY
  5
19
102
{ACAD_REACTORS
330
C
102
}
330
C
100
AcDbDictionary
281
     1
  3
Layout1
350
1D
  3
Model
350
21
  0
DICTIONARY
  5
16
102
{ACAD_REACTORS
330
C
102
}
330
C
100
AcDbDictionary
281
     1
  3
Standard
350
17
  0
DICTIONARY
  5
18
102
{ACAD_REACTORS
330
C
102
}
330
C
100
AcDbDictionary
281
     1
  0
ACDBDICTIONARYWDFLT
  5
E
102
{ACAD_REACTORS
330
C
102
}
330
C
100
AcDbDictionary
281
     1
  3
Normal
350
F
100
AcDbDictionaryWithDefault
340
F
  0
DICTIONARY
  5
56D
102
{ACAD_REACTORS
330
C
102
}
330
C
100
AcDbDictionary
281
     1
  3
DIMASSOC
350
56E
  0
LAYOUT
  5
1D
102
{ACAD_REACTORS
330
19
102
}
330
19
100
AcDbPlotSettings
  1

  2
hp deskjet 980c series
  4

  6

 40
0.0
 41
0.0
 42
0.0
 43
0.0
 44
0.0
 45
0.0
 46
0.0
 47
0.0
 48
0.0
 49
0.0
140
0.0
141
0.0
142
1.0
143
1.0
 70
   688
 72
     0
 73
     0
 74
     5
  7

 75
    16
147
1.0
148
0.0
149
0.0
100
AcDbLayout
  1
Layout1
 70
     1
 71
     1
 10
0.0
 20
0.0
 11
12.0
 21
9.0
 12
0.0
 22
0.0
 32
0.0
 14
1.000000000000000E+20
 24
1.000000000000000E+20
 34
1.000000000000000E+20
 15
-1.000000000000000E+20
 25
-1.000000000000000E+20
 35
-1.000000000000000E+20
146
0.0
 13
0.0
 23
0.0
 33
0.0
 16
1.0
 26
0.0
 36
0.0
 17
0.0
 27
1.0
 37
0.0
 76
     0
330
1A
  0
LAYOUT
  5
21
102
{ACAD_REACTORS
330
19
102
}
330
19
100
AcDbPlotSettings
  1

  2
hp deskjet 980c series
  4

  6

 40
0.0
 41
0.0
 42
0.0
 43
0.0
 44
0.0
 45
0.0
 46
0.0
 47
0.0
 48
0.0
 49
0.0
140
0.0
141
0.0
142
1.0
143
1.0
 70
  1712
 72
     0
 73
     0
 74
     0
  7

 75
     0
147
1.0
148
0.0
149
0.0
100
AcDbLayout
  1
Model
 70
     1
 71
     0
 10
0.0
 20
0.0
 11
12.0
 21
9.0
 12
0.0
 22
0.0
 32
0.0
 14
0.0
 24
0.0
 34
0.0
 15
0.0
 25
0.0
 35
0.0
146
0.0
 13
0.0
 23
0.0
 33
0.0
 16
1.0
 26
0.0
 36
0.0
 17
0.0
 27
1.0
 37
0.0
 76
     0
330
1E
  0
MLINESTYLE
  5
17
102
{ACAD_REACTORS
330
16
102
}
330
16
100
AcDbMlineStyle
  2
STANDARD
 70
     0
  3

 62
   256
 51
90.0
 52
90.0
 71
     2
 49
0.5
 62
   256
  6
BYLAYER
 49
-0.5
 62
   256
  6
BYLAYER
  0
ACDBPLACEHOLDER
  5
F
102
{ACAD_REACTORS
330
E
102
}
330
E
  0
DICTIONARYVAR
  5
56E
102
{ACAD_REACTORS
330
56D
102
}
330
56D
100
DictionaryVariables
280
     0
  1
1
  0
ENDSEC
  0
EOF
