  0
SECTION
  2
HEADER
  9
$ACADVER
  1
AC1015
  9
$ACADMAINTVER
 70
    13
  9
$DWGCODEPAGE
  3
ANSI_1252
  9
$INSBASE
 10
0.0
 20
0.0
 30
0.0
  9
$EXTMIN
 10
0.0334999999999874
 20
0.0363999999999846
 30
0.0
  9
$EXTMAX
 10
184.9664999999999
 20
228.9636
 30
0.0
  9
$LIMMIN
 10
0.0
 20
0.0
  9
$LIMMAX
 10
12.0
 20
9.0
  9
$ORTHOMODE
 70
     0
  9
$REGENMODE
 70
     1
  9
$FILLMODE
 70
     1
  9
$QTEXTMODE
 70
     0
  9
$MIRRTEXT
 70
     1
  9
$LTSCALE
 40
1.0
  9
$ATTMODE
 70
     1
  9
$TEXTSIZE
 40
0.2
  9
$TRACEWID
 40
0.05
  9
$TEXTSTYLE
  7
Standard
  9
$CLAYER
  8
0
  9
$CELTYPE
  6
Continuous
  9
$CECOLOR
 62
   256
  9
$CELTSCALE
 40
1.0
  9
$DISPSILH
 70
     0
  9
$DIMSCALE
 40
1.0
  9
$DIMASZ
 40
0.18
  9
$DIMEXO
 40
0.0625
  9
$DIMDLI
 40
0.38
  9
$DIMRND
 40
0.0
  9
$DIMDLE
 40
0.0
  9
$DIMEXE
 40
0.18
  9
$DIMTP
 40
0.0
  9
$DIMTM
 40
0.0
  9
$DIMTXT
 40
0.18
  9
$DIMCEN
 40
0.09
  9
$DIMTSZ
 40
0.0
  9
$DIMTOL
 70
     0
  9
$DIMLIM
 70
     0
  9
$DIMTIH
 70
     1
  9
$DIMTOH
 70
     1
  9
$DIMSE1
 70
     0
  9
$DIMSE2
 70
     0
  9
$DIMTAD
 70
     0
  9
$DIMZIN
 70
     0
  9
$DIMBLK
  1

  9
$DIMASO
 70
     1
  9
$DIMSHO
 70
     1
  9
$DIMPOST
  1

  9
$DIMAPOST
  1

  9
$DIMALT
 70
     0
  9
$DIMALTD
 70
     2
  9
$DIMALTF
 40
25.4
  9
$DIMLFAC
 40
1.0
  9
$DIMTOFL
 70
     0
  9
$DIMTVP
 40
0.0
  9
$DIMTIX
 70
     0
  9
$DIMSOXD
 70
     0
  9
$DIMSAH
 70
     0
  9
$DIMBLK1
  1

  9
$DIMBLK2
  1

  9
$DIMSTYLE
  2
Standard
  9
$DIMCLRD
 70
     0
  9
$DIMCLRE
 70
     0
  9
$DIMCLRT
 70
     0
  9
$DIMTFAC
 40
1.0
  9
$DIMGAP
 40
0.09
  9
$DIMJUST
 70
     0
  9
$DIMSD1
 70
     0
  9
$DIMSD2
 70
     0
  9
$DIMTOLJ
 70
     1
  9
$DIMTZIN
 70
     0
  9
$DIMALTZ
 70
     0
  9
$DIMALTTZ
 70
     0
  9
$DIMUPT
 70
     0
  9
$DIMDEC
 70
     4
  9
$DIMTDEC
 70
     4
  9
$DIMALTU
 70
     2
  9
$DIMALTTD
 70
     2
  9
$DIMTXSTY
  7
Standard
  9
$DIMAUNIT
 70
     0
  9
$DIMADEC
 70
     0
  9
$DIMALTRND
 40
0.0
  9
$DIMAZIN
 70
     0
  9
$DIMDSEP
 70
    46
  9
$DIMATFIT
 70
     3
  9
$DIMFRAC
 70
     0
  9
$DIMLDRBLK
  1

  9
$DIMLUNIT
 70
     2
  9
$DIMLWD
 70
    -2
  9
$DIMLWE
 70
    -2
  9
$DIMTMOVE
 70
     0
  9
$LUNITS
 70
     2
  9
$LUPREC
 70
     4
  9
$SKETCHINC
 40
0.1
  9
$FILLETRAD
 40
0.0
  9
$AUNITS
 70
     0
  9
$AUPREC
 70
     0
  9
$MENU
  1
.
  9
$ELEVATION
 40
0.0
  9
$PELEVATION
 40
0.0
  9
$THICKNESS
 40
0.0
  9
$LIMCHECK
 70
     0
  9
$CHAMFERA
 40
0.0
  9
$CHAMFERB
 40
0.0
  9
$CHAMFERC
 40
0.0
  9
$CHAMFERD
 40
0.0
  9
$SKPOLY
 70
     0
  9
$TDCREATE
 40
2454907.738799005
  9
$TDUCREATE
 40
2454907.697132338
  9
$TDUPDATE
 40
2454907.762842338
  9
$TDUUPDATE
 40
2454907.721175671
  9
$TDINDWG
 40
0.0240435069
  9
$TDUSRTIMER
 40
0.0240435069
  9
$USRTIMER
 70
     1
  9
$ANGBASE
 50
0.0
  9
$ANGDIR
 70
     0
  9
$PDMODE
 70
     0
  9
$PDSIZE
 40
0.0
  9
$PLINEWID
 40
0.0
  9
$SPLFRAME
 70
     0
  9
$SPLINETYPE
 70
     6
  9
$SPLINESEGS
 70
     8
  9
$HANDSEED
  5
18C
  9
$SURFTAB1
 70
     6
  9
$SURFTAB2
 70
     6
  9
$SURFTYPE
 70
     6
  9
$SURFU
 70
     6
  9
$SURFV
 70
     6
  9
$UCSBASE
  2

  9
$UCSNAME
  2

  9
$UCSORG
 10
0.0
 20
0.0
 30
0.0
  9
$UCSXDIR
 10
1.0
 20
0.0
 30
0.0
  9
$UCSYDIR
 10
0.0
 20
1.0
 30
0.0
  9
$UCSORTHOREF
  2

  9
$UCSORTHOVIEW
 70
     1
  9
$UCSORGTOP
 10
0.0
 20
0.0
 30
0.0
  9
$UCSORGBOTTOM
 10
0.0
 20
0.0
 30
0.0
  9
$UCSORGLEFT
 10
0.0
 20
0.0
 30
0.0
  9
$UCSORGRIGHT
 10
0.0
 20
0.0
 30
0.0
  9
$UCSORGFRONT
 10
0.0
 20
0.0
 30
0.0
  9
$UCSORGBACK
 10
0.0
 20
0.0
 30
0.0
  9
$PUCSBASE
  2

  9
$PUCSNAME
  2

  9
$PUCSORG
 10
0.0
 20
0.0
 30
0.0
  9
$PUCSXDIR
 10
1.0
 20
0.0
 30
0.0
  9
$PUCSYDIR
 10
0.0
 20
1.0
 30
0.0
  9
$PUCSORTHOREF
  2

  9
$PUCSORTHOVIEW
 70
     0
  9
$PUCSORGTOP
 10
0.0
 20
0.0
 30
0.0
  9
$PUCSORGBOTTOM
 10
0.0
 20
0.0
 30
0.0
  9
$PUCSORGLEFT
 10
0.0
 20
0.0
 30
0.0
  9
$PUCSORGRIGHT
 10
0.0
 20
0.0
 30
0.0
  9
$PUCSORGFRONT
 10
0.0
 20
0.0
 30
0.0
  9
$PUCSORGBACK
 10
0.0
 20
0.0
 30
0.0
  9
$USERI1
 70
     0
  9
$USERI2
 70
     0
  9
$USERI3
 70
     0
  9
$USERI4
 70
     0
  9
$USERI5
 70
     0
  9
$USERR1
 40
0.0
  9
$USERR2
 40
0.0
  9
$USERR3
 40
0.0
  9
$USERR4
 40
0.0
  9
$USERR5
 40
0.0
  9
$WORLDVIEW
 70
     1
  9
$SHADEDGE
 70
     3
  9
$SHADEDIF
 70
    70
  9
$TILEMODE
 70
     1
  9
$MAXACTVP
 70
    64
  9
$PINSBASE
 10
0.0
 20
0.0
 30
0.0
  9
$PLIMCHECK
 70
     0
  9
$PEXTMIN
 10
1.000000000000000E+20
 20
1.000000000000000E+20
 30
1.000000000000000E+20
  9
$PEXTMAX
 10
-1.000000000000000E+20
 20
-1.000000000000000E+20
 30
-1.000000000000000E+20
  9
$PLIMMIN
 10
0.0
 20
0.0
  9
$PLIMMAX
 10
12.0
 20
9.0
  9
$UNITMODE
 70
     0
  9
$VISRETAIN
 70
     1
  9
$PLINEGEN
 70
     0
  9
$PSLTSCALE
 70
     1
  9
$TREEDEPTH
 70
  3020
  9
$CMLSTYLE
  2
Standard
  9
$CMLJUST
 70
     0
  9
$CMLSCALE
 40
1.0
  9
$PROXYGRAPHICS
 70
     1
  9
$MEASUREMENT
 70
     0
  9
$CELWEIGHT
370
    -1
  9
$ENDCAPS
280
     0
  9
$JOINSTYLE
280
     0
  9
$LWDISPLAY
290
     0
  9
$INSUNITS
 70
     0
  9
$HYPERLINKBASE
  1

  9
$STYLESHEET
  1

  9
$XEDIT
290
     1
  9
$CEPSNTYPE
380
     0
  9
$PSTYLEMODE
290
     1
  9
$FINGERPRINTGUID
  2
{B3D91716-9584-4D66-B408-CAD3FCFA0271}
  9
$VERSIONGUID
  2
{93B7B6D1-2B9F-4B41-8771-C7F0128DE5C9}
  9
$EXTNAMES
290
     1
  9
$PSVPSCALE
 40
0.0
  9
$OLESTARTUP
290
     0
  0
ENDSEC
  0
SECTION
  2
CLASSES
  0
CLASS
  1
ACDBDICTIONARYWDFLT
  2
AcDbDictionaryWithDefault
  3
AutoCAD 2000
 90
        0
280
     0
281
     0
  0
CLASS
  1
ACDBPLACEHOLDER
  2
AcDbPlaceHolder
  3
AutoCAD 2000
 90
        0
280
     0
281
     0
  0
CLASS
  1
LAYOUT
  2
AcDbLayout
  3
AutoCAD 2000
 90
        0
280
     0
281
     0
  0
CLASS
  1
DICTIONARYVAR
  2
AcDbDictionaryVar
  3
AutoCAD 2000
 90
        0
280
     0
281
     0
  0
ENDSEC
  0
SECTION
  2
TABLES
  0
TABLE
  2
VPORT
  5
8
330
0
100
AcDbSymbolTable
 70
     2
  0
VPORT
  5
18B
330
8
100
AcDbSymbolTableRecord
100
AcDbViewportTableRecord
  2
*Active
 70
     0
 10
0.0
 20
0.0
 11
1.0
 21
1.0
 12
92.5
 22
114.5
 13
0.0
 23
0.0
 14
1.0
 24
1.0
 15
0.0
 25
0.0
 16
0.0
 26
0.0
 36
1.0
 17
0.0
 27
0.0
 37
0.0
 40
230.373056
 41
1.968387776606954
 42
50.0
 43
0.0
 44
0.0
 50
0.0
 51
0.0
 71
     0
 72
   100
 73
     1
 74
     3
 75
     0
 76
     0
 77
     0
 78
     0
281
     0
 65
     1
110
0.0
120
0.0
130
0.0
111
1.0
121
0.0
131
0.0
112
0.0
122
1.0
132
0.0
 79
     1
146
0.0
  0
ENDTAB
  0
TABLE
  2
LTYPE
  5
5
330
0
100
AcDbSymbolTable
 70
     1
  0
LTYPE
  5
13
330
5
100
AcDbSymbolTableRecord
100
AcDbLinetypeTableRecord
  2
ByBlock
 70
     0
  3

 72
    65
 73
     0
 40
0.0
  0
LTYPE
  5
14
330
5
100
AcDbSymbolTableRecord
100
AcDbLinetypeTableRecord
  2
ByLayer
 70
     0
  3

 72
    65
 73
     0
 40
0.0
  0
LTYPE
  5
15
330
5
100
AcDbSymbolTableRecord
100
AcDbLinetypeTableRecord
  2
Continuous
 70
     0
  3
Solid line
 72
    65
 73
     0
 40
0.0
  0
ENDTAB
  0
TABLE
  2
LAYER
  5
2
330
0
100
AcDbSymbolTable
 70
     1
  0
LAYER
  5
10
330
2
100
AcDbSymbolTableRecord
100
AcDbLayerTableRecord
  2
0
 70
     0
 62
     7
  6
Continuous
370
    -3
390
F
  0
ENDTAB
  0
TABLE
  2
STYLE
  5
3
330
0
100
AcDbSymbolTable
 70
     1
  0
STYLE
  5
11
330
3
100
AcDbSymbolTableRecord
100
AcDbTextStyleTableRecord
  2
Standard
 70
     0
 40
0.0
 41
1.0
 50
0.0
 71
     0
 42
0.2
  3
txt
  4

  0
ENDTAB
  0
TABLE
  2
VIEW
  5
6
330
0
100
AcDbSymbolTable
 70
     0
  0
ENDTAB
  0
TABLE
  2
UCS
  5
7
330
0
100
AcDbSymbolTable
 70
     0
  0
ENDTAB
  0
TABLE
  2
APPID
  5
9
330
0
100
AcDbSymbolTable
 70
     1
  0
APPID
  5
12
330
9
100
AcDbSymbolTableRecord
100
AcDbRegAppTableRecord
  2
ACAD
 70
     0
  0
ENDTAB
  0
TABLE
  2
DIMSTYLE
  5
A
330
0
100
AcDbSymbolTable
 70
     1
100
AcDbDimStyleTable
 71
     0
  0
DIMSTYLE
105
183
330
A
100
AcDbSymbolTableRecord
100
AcDbDimStyleTableRecord
  2
Standard
 70
     0
340
11
  0
ENDTAB
  0
TABLE
  2
BLOCK_RECORD
  5
1
330
0
100
AcDbSymbolTable
 70
     0
  0
BLOCK_RECORD
  5
1E
330
1
100
AcDbSymbolTableRecord
100
AcDbBlockTableRecord
  2
*Model_Space
340
21
  0
BLOCK_RECORD
  5
1A
330
1
100
AcDbSymbolTableRecord
100
AcDbBlockTableRecord
  2
*Paper_Space
340
1D
  0
ENDTAB
  0
ENDSEC
  0
SECTION
  2
BLOCKS
  0
BLOCK
  5
1F
330
1E
100
AcDbEntity
  8
0
100
AcDbBlockBegin
  2
*Model_Space
 70
     0
 10
0.0
 20
0.0
 30
0.0
  3
*Model_Space
  1

  0
ENDBLK
  5
20
330
1E
100
AcDbEntity
  8
0
100
AcDbBlockEnd
  0
BLOCK
  5
1B
330
1A
100
AcDbEntity
 67
     1
  8
0
100
AcDbBlockBegin
  2
*Paper_Space
 70
     0
 10
0.0
 20
0.0
 30
0.0
  3
*Paper_Space
  1

  0
ENDBLK
  5
1C
330
1A
100
AcDbEntity
 67
     1
  8
0
100
AcDbBlockEnd
  0
ENDSEC
  0
SECTION
  2
ENTITIES
  0
LINE
  5
22
330
1E
100
AcDbEntity
  8
0
100
AcDbLine
 10
0.8599999999999869
 20
136.2528
 30
0.0
 11
3.57909999999999
 21
133.0047
 31
0.0
  0
LINE
  5
23
330
1E
100
AcDbEntity
  8
0
100
AcDbLine
 10
16.3108
 20
125.2729999999999
 30
0.0
 11
73.67740000000001
 21
95.64772335711209
 31
0.0
  0
LINE
  5
2A
330
1E
100
AcDbEntity
  8
0
100
AcDbLine
 10
16.3108
 20
125.2729999999999
 30
0.0
 11
73.67740000000001
 21
95.64772335711209
 31
0.0
  0
LINE
  5
2F
330
1E
100
AcDbEntity
  8
0
100
AcDbLine
 10
6.41349999999999
 20
130.7947
 30
0.0
 11
16.3108
 21
125.2729999999999
 31
0.0
  0
LINE
  5
30
330
1E
100
AcDbEntity
  8
0
100
AcDbLine
 10
3.57909999999999
 20
133.0047
 30
0.0
 11
6.41349999999999
 21
130.7947
 31
0.0
  0
LINE
  5
33
330
1E
100
AcDbEntity
  8
0
100
AcDbLine
 10
0.8599999999999869
 20
136.2528
 30
0.0
 11
3.57909999999999
 21
133.0047
 31
0.0
  0
LINE
  5
34
330
1E
100
AcDbEntity
  8
0
100
AcDbLine
 10
0.0334999999999874
 20
138.8907
 30
0.0
 11
0.324199999999988
 21
139.9703
 31
0.0
  0
LINE
  5
35
330
1E
100
AcDbEntity
  8
0
100
AcDbLine
 10
0.0334999999999874
 20
138.8907
 30
0.0
 11
0.8599999999999869
 21
136.2528
 31
0.0
  0
LINE
  5
3F
330
1E
100
AcDbEntity
  8
0
100
AcDbLine
 10
0.324199999999988
 20
139.9703
 30
0.0
 11
1.204499999999989
 21
140.6595
 31
0.0
  0
LINE
  5
51
330
1E
100
AcDbEntity
  8
0
100
AcDbLine
 10
1.204499999999989
 20
140.6595
 30
0.0
 11
7.17667999999999
 21
141.3787
 31
0.0
  0
LINE
  5
53
330
1E
100
AcDbEntity
  8
0
100
AcDbLine
 10
8.845389999999991
 20
141.5751
 30
0.0
 11
23.28549999999999
 21
143.5536999999999
 31
0.0
  0
LINE
  5
54
330
1E
100
AcDbEntity
  8
0
100
AcDbLine
 10
23.28549999999999
 20
143.5536999999999
 30
0.0
 11
33.4052
 21
144.5111999999999
 31
0.0
  0
LINE
  5
55
330
1E
100
AcDbEntity
  8
0
100
AcDbLine
 10
33.4052
 20
144.5111999999999
 30
0.0
 11
44.1835
 21
145.5585
 31
0.0
  0
LINE
  5
56
330
1E
100
AcDbEntity
  8
0
100
AcDbLine
 10
7.17667999999999
 20
141.3787
 30
0.0
 11
8.845389999999991
 21
141.5751
 31
0.0
  0
LINE
  5
5F
330
1E
100
AcDbEntity
  8
0
100
AcDbLine
 10
0.0334999999999874
 20
138.8907
 30
0.0
 11
0.324199999999988
 21
139.9703
 31
0.0
  0
LINE
  5
61
330
1E
100
AcDbEntity
  8
0
100
AcDbLine
 10
0.0334999999999874
 20
138.8907
 30
0.0
 11
0.8599999999999869
 21
136.2528
 31
0.0
  0
LINE
  5
62
330
1E
100
AcDbEntity
  8
0
100
AcDbLine
 10
57.7214
 20
60.0364
 30
0.0
 11
58.1214
 21
60.0364
 31
0.0
  0
LINE
  5
63
330
1E
100
AcDbEntity
  8
0
100
AcDbLine
 10
57.1214
 20
90.0364
 30
0.0
 11
58.2214
 21
90.0364
 31
0.0
  0
LINE
  5
64
330
1E
100
AcDbEntity
  8
0
100
AcDbLine
 10
58.2214
 20
90.0364
 30
0.0
 11
60.1214
 21
90.0364
 31
0.0
  0
LINE
  5
65
330
1E
100
AcDbEntity
  8
0
100
AcDbLine
 10
56.7214
 20
90.0364
 30
0.0
 11
57.7214
 21
60.0364
 31
0.0
  0
LINE
  5
66
330
1E
100
AcDbEntity
  8
0
100
AcDbLine
 10
56.7214
 20
90.0364
 30
0.0
 11
57.1214
 21
90.0364
 31
0.0
  0
LINE
  5
67
330
1E
100
AcDbEntity
  8
0
100
AcDbLine
 10
58.1214
 20
60.0364
 30
0.0
 11
59.1214
 21
60.0364
 31
0.0
  0
LINE
  5
68
330
1E
100
AcDbEntity
  8
0
100
AcDbLine
 10
70.12139999999999
 20
0.0626999999999996
 30
0.0
 11
71.92140000000001
 21
0.137599999999999
 31
0.0
  0
LINE
  5
69
330
1E
100
AcDbEntity
  8
0
100
AcDbLine
 10
68.2214
 20
0.0363999999999846
 30
0.0
 11
70.12139999999999
 21
0.0626999999999996
 31
0.0
  0
LINE
  5
6A
330
1E
100
AcDbEntity
  8
0
100
AcDbLine
 10
60.1214
 20
90.0364
 30
0.0
 11
62.5214
 21
90.0364
 31
0.0
  0
LINE
  5
6B
330
1E
100
AcDbEntity
  8
0
100
AcDbLine
 10
60.7214
 20
60.0364
 30
0.0
 11
60.7214
 21
4.298200000000009
 31
0.0
  0
LINE
  5
6C
330
1E
100
AcDbEntity
  8
0
100
AcDbLine
 10
60.7214
 20
60.0364
 30
0.0
 11
61.0214
 21
60.0364
 31
0.0
  0
LINE
  5
6D
330
1E
100
AcDbEntity
  8
0
100
AcDbLine
 10
61.0214
 20
5.647599999999999
 30
0.0
 11
61.7214
 21
6.847
 31
0.0
  0
LINE
  5
6E
330
1E
100
AcDbEntity
  8
0
100
AcDbLine
 10
60.82139999999999
 20
60.0364
 30
0.0
 11
63.0214
 21
60.0364
 31
0.0
  0
LINE
  5
6F
330
1E
100
AcDbEntity
  8
0
100
AcDbLine
 10
61.0214
 20
60.0364
 30
0.0
 11
61.7214
 21
60.0364
 31
0.0
  0
LINE
  5
70
330
1E
100
AcDbEntity
  8
0
100
AcDbLine
 10
61.7214
 20
60.0364
 30
0.0
 11
62.92139999999999
 21
60.0364
 31
0.0
  0
LINE
  5
71
330
1E
100
AcDbEntity
  8
0
100
AcDbLine
 10
61.7214
 20
6.847
 30
0.0
 11
62.92139999999999
 21
8.046399999999991
 31
0.0
  0
LINE
  5
72
330
1E
100
AcDbEntity
  8
0
100
AcDbLine
 10
60.7214
 20
4.298200000000009
 30
0.0
 11
61.0214
 21
2.311599999999999
 31
0.0
  0
LINE
  5
73
330
1E
100
AcDbEntity
  8
0
100
AcDbLine
 10
60.7214
 20
4.298200000000009
 30
0.0
 11
60.7214
 21
60.0364
 31
0.0
  0
LINE
  5
74
330
1E
100
AcDbEntity
  8
0
100
AcDbLine
 10
60.7214
 20
4.298200000000009
 30
0.0
 11
61.0214
 21
5.647599999999999
 31
0.0
  0
LINE
  5
75
330
1E
100
AcDbEntity
  8
0
100
AcDbLine
 10
61.0214
 20
2.311599999999999
 30
0.0
 11
61.7214
 21
1.1871
 31
0.0
  0
LINE
  5
76
330
1E
100
AcDbEntity
  8
0
100
AcDbLine
 10
62.92139999999999
 20
8.046399999999991
 30
0.0
 11
64.52139999999999
 21
9.0959
 31
0.0
  0
LINE
  5
77
330
1E
100
AcDbEntity
  8
0
100
AcDbLine
 10
63.0214
 20
60.0364
 30
0.0
 11
65.5214
 21
60.0364
 31
0.0
  0
LINE
  5
78
330
1E
100
AcDbEntity
  8
0
100
AcDbLine
 10
62.5214
 20
90.0364
 30
0.0
 11
65.2214
 21
90.0364
 31
0.0
  0
LINE
  5
79
330
1E
100
AcDbEntity
  8
0
100
AcDbLine
 10
62.92139999999999
 20
60.0364
 30
0.0
 11
64.52139999999999
 21
60.0364
 31
0.0
  0
LINE
  5
7A
330
1E
100
AcDbEntity
  8
0
100
AcDbLine
 10
64.52139999999999
 20
60.0364
 30
0.0
 11
66.32139999999999
 21
60.0364
 31
0.0
  0
LINE
  5
7B
330
1E
100
AcDbEntity
  8
0
100
AcDbLine
 10
64.52139999999999
 20
9.0959
 30
0.0
 11
66.32139999999999
 21
9.808099999999999
 31
0.0
  0
LINE
  5
7C
330
1E
100
AcDbEntity
  8
0
100
AcDbLine
 10
61.7214
 20
1.1871
 30
0.0
 11
62.92139999999999
 21
0.5124999999999961
 31
0.0
  0
LINE
  5
7D
330
1E
100
AcDbEntity
  8
0
100
AcDbLine
 10
62.92139999999999
 20
0.5124999999999961
 30
0.0
 11
64.52139999999999
 21
0.137599999999999
 31
0.0
  0
LINE
  5
7E
330
1E
100
AcDbEntity
  8
0
100
AcDbLine
 10
73.5214
 20
0.5124999999999961
 30
0.0
 11
74.7214
 21
1.1871
 31
0.0
  0
LINE
  5
7F
330
1E
100
AcDbEntity
  8
0
100
AcDbLine
 10
71.92140000000001
 20
0.137599999999999
 30
0.0
 11
73.5214
 21
0.5124999999999961
 31
0.0
  0
LINE
  5
80
330
1E
100
AcDbEntity
  8
0
100
AcDbLine
 10
75.4214
 20
2.311599999999999
 30
0.0
 11
75.7214
 21
4.298200000000009
 31
0.0
  0
LINE
  5
81
330
1E
100
AcDbEntity
  8
0
100
AcDbLine
 10
74.7214
 20
1.1871
 30
0.0
 11
75.4214
 21
2.311599999999999
 31
0.0
  0
LINE
  5
82
330
1E
100
AcDbEntity
  8
0
100
AcDbLine
 10
75.4214
 20
5.647599999999999
 30
0.0
 11
75.7214
 21
4.298200000000009
 31
0.0
  0
LINE
  5
83
330
1E
100
AcDbEntity
  8
0
100
AcDbLine
 10
75.7214
 20
4.298200000000009
 30
0.0
 11
75.7214
 21
60.0364
 31
0.0
  0
LINE
  5
84
330
1E
100
AcDbEntity
  8
0
100
AcDbLine
 10
74.7214
 20
6.847
 30
0.0
 11
75.4214
 21
5.647599999999999
 31
0.0
  0
LINE
  5
85
330
1E
100
AcDbEntity
  8
0
100
AcDbLine
 10
73.5214
 20
8.046399999999991
 30
0.0
 11
74.7214
 21
6.847
 31
0.0
  0
LINE
  5
86
330
1E
100
AcDbEntity
  8
0
100
AcDbLine
 10
71.92140000000001
 20
9.0959
 30
0.0
 11
73.5214
 21
8.046399999999991
 31
0.0
  0
LINE
  5
87
330
1E
100
AcDbEntity
  8
0
100
AcDbLine
 10
70.12139999999999
 20
9.808099999999999
 30
0.0
 11
71.92140000000001
 21
9.0959
 31
0.0
  0
LINE
  5
88
330
1E
100
AcDbEntity
  8
0
100
AcDbLine
 10
65.5214
 20
60.0364
 30
0.0
 11
68.2214
 21
60.0364
 31
0.0
  0
LINE
  5
89
330
1E
100
AcDbEntity
  8
0
100
AcDbLine
 10
65.2214
 20
90.0364
 30
0.0
 11
68.2214
 21
90.0364
 31
0.0
  0
LINE
  5
8A
330
1E
100
AcDbEntity
  8
0
100
AcDbLine
 10
68.2214
 20
10.0364
 30
0.0
 11
70.12139999999999
 21
9.808099999999999
 31
0.0
  0
LINE
  5
8B
330
1E
100
AcDbEntity
  8
0
100
AcDbLine
 10
71.92140000000001
 20
60.0364
 30
0.0
 11
73.5214
 21
60.0364
 31
0.0
  0
LINE
  5
8C
330
1E
100
AcDbEntity
  8
0
100
AcDbLine
 10
70.12139999999999
 20
60.0364
 30
0.0
 11
71.92140000000001
 21
60.0364
 31
0.0
  0
LINE
  5
8D
330
1E
100
AcDbEntity
  8
0
100
AcDbLine
 10
75.4214
 20
60.0364
 30
0.0
 11
75.7214
 21
60.0364
 31
0.0
  0
LINE
  5
8E
330
1E
100
AcDbEntity
  8
0
100
AcDbLine
 10
74.7214
 20
60.0364
 30
0.0
 11
75.4214
 21
60.0364
 31
0.0
  0
LINE
  5
8F
330
1E
100
AcDbEntity
  8
0
100
AcDbLine
 10
73.5214
 20
60.0364
 30
0.0
 11
74.7214
 21
60.0364
 31
0.0
  0
LINE
  5
90
330
1E
100
AcDbEntity
  8
0
100
AcDbLine
 10
77.3214
 20
60.0364
 30
0.0
 11
78.32139999999999
 21
60.0364
 31
0.0
  0
LINE
  5
91
330
1E
100
AcDbEntity
  8
0
100
AcDbLine
 10
75.62139999999999
 20
60.0364
 30
0.0
 11
77.3214
 21
60.0364
 31
0.0
  0
LINE
  5
92
330
1E
100
AcDbEntity
  8
0
100
AcDbLine
 10
73.4214
 20
60.0364
 30
0.0
 11
75.62139999999999
 21
60.0364
 31
0.0
  0
LINE
  5
93
330
1E
100
AcDbEntity
  8
0
100
AcDbLine
 10
70.9214
 20
60.0364
 30
0.0
 11
73.4214
 21
60.0364
 31
0.0
  0
LINE
  5
94
330
1E
100
AcDbEntity
  8
0
100
AcDbLine
 10
68.2214
 20
60.0364
 30
0.0
 11
70.9214
 21
60.0364
 31
0.0
  0
LINE
  5
95
330
1E
100
AcDbEntity
  8
0
100
AcDbLine
 10
68.2214
 20
60.0364
 30
0.0
 11
70.12139999999999
 21
60.0364
 31
0.0
  0
LINE
  5
96
330
1E
100
AcDbEntity
  8
0
100
AcDbLine
 10
78.32139999999999
 20
60.0364
 30
0.0
 11
78.7214
 21
60.0364
 31
0.0
  0
LINE
  5
97
330
1E
100
AcDbEntity
  8
0
100
AcDbLine
 10
78.7214
 20
60.0364
 30
0.0
 11
79.7214
 21
90.0364
 31
0.0
  0
LINE
  5
98
330
1E
100
AcDbEntity
  8
0
100
AcDbLine
 10
78.2214
 20
90.0364
 30
0.0
 11
79.3214
 21
90.0364
 31
0.0
  0
LINE
  5
99
330
1E
100
AcDbEntity
  8
0
100
AcDbLine
 10
76.32139999999999
 20
90.0364
 30
0.0
 11
78.2214
 21
90.0364
 31
0.0
  0
LINE
  5
9A
330
1E
100
AcDbEntity
  8
0
100
AcDbLine
 10
73.92140000000001
 20
90.0364
 30
0.0
 11
76.32139999999999
 21
90.0364
 31
0.0
  0
LINE
  5
9B
330
1E
100
AcDbEntity
  8
0
100
AcDbLine
 10
71.2214
 20
90.0364
 30
0.0
 11
73.92140000000001
 21
90.0364
 31
0.0
  0
LINE
  5
9C
330
1E
100
AcDbEntity
  8
0
100
AcDbLine
 10
68.2214
 20
90.0364
 30
0.0
 11
71.2214
 21
90.0364
 31
0.0
  0
LINE
  5
9D
330
1E
100
AcDbEntity
  8
0
100
AcDbLine
 10
75.7214
 20
60.0364
 30
0.0
 11
77.3214
 21
60.0364
 31
0.0
  0
LINE
  5
9E
330
1E
100
AcDbEntity
  8
0
100
AcDbLine
 10
75.7214
 20
60.0364
 30
0.0
 11
75.7214
 21
4.298200000000009
 31
0.0
  0
LINE
  5
9F
330
1E
100
AcDbEntity
  8
0
100
AcDbLine
 10
66.32139999999999
 20
60.0364
 30
0.0
 11
68.2214
 21
60.0364
 31
0.0
  0
LINE
  5
A0
330
1E
100
AcDbEntity
  8
0
100
AcDbLine
 10
66.32139999999999
 20
9.808099999999999
 30
0.0
 11
68.2214
 21
10.0364
 31
0.0
  0
LINE
  5
A1
330
1E
100
AcDbEntity
  8
0
100
AcDbLine
 10
64.52139999999999
 20
0.137599999999999
 30
0.0
 11
66.32139999999999
 21
0.0626999999999996
 31
0.0
  0
LINE
  5
A2
330
1E
100
AcDbEntity
  8
0
100
AcDbLine
 10
66.32139999999999
 20
0.0626999999999996
 30
0.0
 11
68.2214
 21
0.0363999999999846
 31
0.0
  0
LINE
  5
A3
330
1E
100
AcDbEntity
  8
0
100
AcDbLine
 10
59.1214
 20
60.0364
 30
0.0
 11
60.7214
 21
60.0364
 31
0.0
  0
LINE
  5
A4
330
1E
100
AcDbEntity
  8
0
100
AcDbLine
 10
59.1214
 20
60.0364
 30
0.0
 11
60.82139999999999
 21
60.0364
 31
0.0
  0
LINE
  5
A5
330
1E
100
AcDbEntity
  8
0
100
AcDbLine
 10
57.2214
 20
90.3964
 30
0.0
 11
57.2214
 21
104.145935774013
 31
0.0
  0
LINE
  5
A6
330
1E
100
AcDbEntity
  8
0
100
AcDbLine
 10
57.2214
 20
90.3964
 30
0.0
 11
57.6174
 21
90.3964
 31
0.0
  0
LINE
  5
A7
330
1E
100
AcDbEntity
  8
0
100
AcDbLine
 10
57.2214
 20
90.3964
 30
0.0
 11
57.4854
 21
90.0364
 31
0.0
  0
LINE
  5
A8
330
1E
100
AcDbEntity
  8
0
100
AcDbLine
 10
57.6174
 20
90.3964
 30
0.0
 11
58.6734
 21
90.3964
 31
0.0
  0
LINE
  5
A9
330
1E
100
AcDbEntity
  8
0
100
AcDbLine
 10
58.6734
 20
90.3964
 30
0.0
 11
60.4334
 21
90.3964
 31
0.0
  0
LINE
  5
AA
330
1E
100
AcDbEntity
  8
0
100
AcDbLine
 10
60.4334
 20
90.3964
 30
0.0
 11
62.7654
 21
90.3964
 31
0.0
  0
LINE
  5
AB
330
1E
100
AcDbEntity
  8
0
100
AcDbLine
 10
57.2214
 20
104.145935774013
 30
0.0
 11
57.2214
 21
90.3964
 31
0.0
  0
LINE
  5
AC
330
1E
100
AcDbEntity
  8
0
100
AcDbLine
 10
62.7654
 20
90.3964
 30
0.0
 11
65.4054
 21
90.3964
 31
0.0
  0
LINE
  5
AD
330
1E
100
AcDbEntity
  8
0
100
AcDbLine
 10
65.4054
 20
90.3964
 30
0.0
 11
68.2214
 21
90.3964
 31
0.0
  0
LINE
  5
B0
330
1E
100
AcDbEntity
  8
0
100
AcDbLine
 10
44.1835
 20
145.5585
 30
0.0
 11
52.76559999999999
 21
146.3729999999999
 31
0.0
  0
LINE
  5
B1
330
1E
100
AcDbEntity
  8
0
100
AcDbLine
 10
52.76559999999999
 20
146.3729999999999
 30
0.0
 11
63.3342
 21
147.2733
 31
0.0
  0
LINE
  5
B2
330
1E
100
AcDbEntity
  8
0
100
AcDbLine
 10
60.1665
 20
150.7746
 30
0.0
 11
60.96659999999999
 21
150.7746
 31
0.0
  0
LINE
  5
B3
330
1E
100
AcDbEntity
  8
0
100
AcDbLine
 10
60.1665
 20
150.7746
 30
0.0
 11
61.6066
 21
150.7746
 31
0.0
  0
LINE
  5
B4
330
1E
100
AcDbEntity
  8
0
100
AcDbLine
 10
59.2665
 20
167.8006
 30
0.0
 11
60.1666
 21
167.8006
 31
0.0
  0
LINE
  5
B5
330
1E
100
AcDbEntity
  8
0
100
AcDbLine
 10
59.2666
 20
150.7746
 30
0.0
 11
60.1665
 21
150.7746
 31
0.0
  0
LINE
  5
B6
330
1E
100
AcDbEntity
  8
0
100
AcDbLine
 10
58.96650000000001
 20
150.7746
 30
0.0
 11
58.9666
 21
167.8006
 31
0.0
  0
LINE
  5
B7
330
1E
100
AcDbEntity
  8
0
100
AcDbLine
 10
58.96650000000001
 20
150.7746
 30
0.0
 11
59.2666
 21
150.7746
 31
0.0
  0
LINE
  5
B8
330
1E
100
AcDbEntity
  8
0
100
AcDbLine
 10
58.9666
 20
167.8006
 30
0.0
 11
60.1665
 21
168.5316
 31
0.0
  0
LINE
  5
B9
330
1E
100
AcDbEntity
  8
0
100
AcDbLine
 10
58.9666
 20
167.8006
 30
0.0
 11
59.2665
 21
167.8006
 31
0.0
  0
LINE
  5
BA
330
1E
100
AcDbEntity
  8
0
100
AcDbLine
 10
63.3342
 20
147.2733
 30
0.0
 11
73.6627
 21
147.9335
 31
0.0
  0
LINE
  5
BB
330
1E
100
AcDbEntity
  8
0
100
AcDbLine
 10
60.96659999999999
 20
150.7746
 30
0.0
 11
60.96659999999999
 21
147.0716129004789
 31
0.0
  0
LINE
  5
BC
330
1E
100
AcDbEntity
  8
0
100
AcDbLine
 10
60.96659999999999
 20
147.0716129004789
 30
0.0
 11
60.96659999999999
 21
150.7746
 31
0.0
  0
LINE
  5
BD
330
1E
100
AcDbEntity
  8
0
100
AcDbLine
 10
63.46659999999999
 20
150.7746
 30
0.0
 11
65.6266
 21
150.7746
 31
0.0
  0
LINE
  5
BE
330
1E
100
AcDbEntity
  8
0
100
AcDbLine
 10
61.6066
 20
150.7746
 30
0.0
 11
63.46659999999999
 21
150.7746
 31
0.0
  0
LINE
  5
C0
330
1E
100
AcDbEntity
  8
0
100
AcDbLine
 10
67.9666
 20
150.7746
 30
0.0
 11
70.3065
 21
150.7746
 31
0.0
  0
LINE
  5
C1
330
1E
100
AcDbEntity
  8
0
100
AcDbLine
 10
67.96649999999999
 20
167.8006
 30
0.0
 11
70.30660000000001
 21
167.7996
 31
0.0
  0
LINE
  5
C2
330
1E
100
AcDbEntity
  8
0
100
AcDbLine
 10
65.6266
 20
150.7746
 30
0.0
 11
67.9666
 21
150.7746
 31
0.0
  0
LINE
  5
C3
330
1E
100
AcDbEntity
  8
0
100
AcDbLine
 10
65.6266
 20
167.8006
 30
0.0
 11
67.96649999999999
 21
167.8006
 31
0.0
  0
LINE
  5
C4
330
1E
100
AcDbEntity
  8
0
100
AcDbLine
 10
63.46659999999999
 20
167.8006
 30
0.0
 11
65.6266
 21
167.8006
 31
0.0
  0
LINE
  5
C5
330
1E
100
AcDbEntity
  8
0
100
AcDbLine
 10
61.6065
 20
167.8006
 30
0.0
 11
63.46659999999999
 21
167.8006
 31
0.0
  0
LINE
  5
C6
330
1E
100
AcDbEntity
  8
0
100
AcDbLine
 10
60.1666
 20
167.8006
 30
0.0
 11
61.6065
 21
167.8006
 31
0.0
  0
LINE
  5
C7
330
1E
100
AcDbEntity
  8
0
100
AcDbLine
 10
67.96649999999999
 20
168.7745999999999
 30
0.0
 11
75.76649999999999
 21
168.5316
 31
0.0
  0
LINE
  5
C8
330
1E
100
AcDbEntity
  8
0
100
AcDbLine
 10
60.1665
 20
168.5316
 30
0.0
 11
67.96649999999999
 21
168.7745999999999
 31
0.0
  0
LINE
  5
C9
330
1E
100
AcDbEntity
  8
0
100
AcDbLine
 10
78.8254
 20
90.3964
 30
0.0
 11
79.2214
 21
90.3964
 31
0.0
  0
LINE
  5
CA
330
1E
100
AcDbEntity
  8
0
100
AcDbLine
 10
77.7694
 20
90.3964
 30
0.0
 11
78.8254
 21
90.3964
 31
0.0
  0
LINE
  5
CB
330
1E
100
AcDbEntity
  8
0
100
AcDbLine
 10
76.0094
 20
90.3964
 30
0.0
 11
77.7694
 21
90.3964
 31
0.0
  0
LINE
  5
CC
330
1E
100
AcDbEntity
  8
0
100
AcDbLine
 10
73.67740000000001
 20
90.3964
 30
0.0
 11
76.0094
 21
90.3964
 31
0.0
  0
LINE
  5
CD
330
1E
100
AcDbEntity
  8
0
100
AcDbLine
 10
73.67740000000001
 20
95.64772335711209
 30
0.0
 11
94.9665
 21
84.6536
 31
0.0
  0
LINE
  5
CF
330
1E
100
AcDbEntity
  8
0
100
AcDbLine
 10
73.6627
 20
147.9335
 30
0.0
 11
83.3305
 21
148.3535999999999
 31
0.0
  0
LINE
  5
D0
330
1E
100
AcDbEntity
  8
0
100
AcDbLine
 10
70.3065
 20
150.7746
 30
0.0
 11
72.46649999999999
 21
150.7746
 31
0.0
  0
LINE
  5
D1
330
1E
100
AcDbEntity
  8
0
100
AcDbLine
 10
72.46649999999999
 20
150.7746
 30
0.0
 11
74.32649999999999
 21
150.7746
 31
0.0
  0
LINE
  5
D2
330
1E
100
AcDbEntity
  8
0
100
AcDbLine
 10
74.96649999999999
 20
147.9901547073789
 30
0.0
 11
74.96649999999999
 21
150.7746
 31
0.0
  0
LINE
  5
D3
330
1E
100
AcDbEntity
  8
0
100
AcDbLine
 10
74.32649999999999
 20
150.7746
 30
0.0
 11
75.76649999999999
 21
150.7746
 31
0.0
  0
LINE
  5
D4
330
1E
100
AcDbEntity
  8
0
100
AcDbLine
 10
70.30660000000001
 20
167.7996
 30
0.0
 11
72.4666
 21
167.8006
 31
0.0
  0
LINE
  5
D5
330
1E
100
AcDbEntity
  8
0
100
AcDbLine
 10
72.4666
 20
167.8006
 30
0.0
 11
74.32649999999999
 21
167.8006
 31
0.0
  0
LINE
  5
D6
330
1E
100
AcDbEntity
  8
0
100
AcDbLine
 10
74.32649999999999
 20
167.8006
 30
0.0
 11
75.76649999999999
 21
167.8006
 31
0.0
  0
LINE
  5
D7
330
1E
100
AcDbEntity
  8
0
100
AcDbLine
 10
74.96649999999999
 20
150.7746
 30
0.0
 11
75.76649999999999
 21
150.7746
 31
0.0
  0
LINE
  5
D8
330
1E
100
AcDbEntity
  8
0
100
AcDbLine
 10
74.96649999999999
 20
150.7746
 30
0.0
 11
74.96649999999999
 21
147.9901547073789
 31
0.0
  0
LINE
  5
D9
330
1E
100
AcDbEntity
  8
0
100
AcDbLine
 10
75.76649999999999
 20
167.8006
 30
0.0
 11
76.6665
 21
167.8006
 31
0.0
  0
LINE
  5
DA
330
1E
100
AcDbEntity
  8
0
100
AcDbLine
 10
75.76649999999999
 20
150.7746
 30
0.0
 11
76.6665
 21
150.7746
 31
0.0
  0
LINE
  5
DB
330
1E
100
AcDbEntity
  8
0
100
AcDbLine
 10
75.76649999999999
 20
168.5316
 30
0.0
 11
76.96649999999999
 21
167.8006
 31
0.0
  0
LINE
  5
DC
330
1E
100
AcDbEntity
  8
0
100
AcDbLine
 10
79.2214
 20
92.7846892273542
 30
0.0
 11
79.2214
 21
90.3964
 31
0.0
  0
LINE
  5
DD
330
1E
100
AcDbEntity
  8
0
100
AcDbLine
 10
76.6665
 20
167.8006
 30
0.0
 11
76.96649999999999
 21
167.8006
 31
0.0
  0
LINE
  5
DE
330
1E
100
AcDbEntity
  8
0
100
AcDbLine
 10
76.96649999999999
 20
150.7746
 30
0.0
 11
76.96649999999999
 21
167.8006
 31
0.0
  0
LINE
  5
DF
330
1E
100
AcDbEntity
  8
0
100
AcDbLine
 10
76.6665
 20
150.7746
 30
0.0
 11
76.96649999999999
 21
150.7746
 31
0.0
  0
LINE
  5
E0
330
1E
100
AcDbEntity
  8
0
100
AcDbLine
 10
71.03740000000001
 20
90.3964
 30
0.0
 11
73.67740000000001
 21
90.3964
 31
0.0
  0
LINE
  5
E1
330
1E
100
AcDbEntity
  8
0
100
AcDbLine
 10
68.2214
 20
90.3964
 30
0.0
 11
71.03740000000001
 21
90.3964
 31
0.0
  0
LINE
  5
E2
330
1E
100
AcDbEntity
  8
0
100
AcDbLine
 10
78.9574
 20
90.0364
 30
0.0
 11
79.2214
 21
90.3964
 31
0.0
  0
LINE
  5
E3
330
1E
100
AcDbEntity
  8
0
100
AcDbLine
 10
120.0104999999999
 20
81.38016
 30
0.0
 11
123.1535
 21
79.63903399999999
 31
0.0
  0
LINE
  5
E4
330
1E
100
AcDbEntity
  8
0
100
AcDbLine
 10
117.7375
 20
83.91615999999999
 30
0.0
 11
120.0104999999999
 21
81.38016
 31
0.0
  0
LINE
  5
E5
330
1E
100
AcDbEntity
  8
0
100
AcDbLine
 10
116.4125
 20
86.75496
 30
0.0
 11
117.7375
 21
83.91615999999999
 31
0.0
  0
LINE
  5
E6
330
1E
100
AcDbEntity
  8
0
100
AcDbLine
 10
115.0495
 20
78.65359999999999
 30
0.0
 11
115.9445
 21
78.65359999999999
 31
0.0
  0
LINE
  5
E7
330
1E
100
AcDbEntity
  8
0
100
AcDbLine
 10
115.0495
 20
78.65359999999999
 30
0.0
 11
123.5445
 21
78.65359999999999
 31
0.0
  0
LINE
  5
E8
330
1E
100
AcDbEntity
  8
0
100
AcDbLine
 10
108.8254999999999
 20
79.530477
 30
0.0
 11
115.0495
 21
78.65359999999999
 31
0.0
  0
LINE
  5
F3
330
1E
100
AcDbEntity
  8
0
100
AcDbLine
 10
105.3665
 20
148.6536
 30
0.0
 11
107.8255
 21
148.6536
 31
0.0
  0
LINE
  5
F6
330
1E
100
AcDbEntity
  8
0
100
AcDbLine
 10
107.8255
 20
148.6536
 30
0.0
 11
109.8444999999999
 21
148.6536
 31
0.0
  0
LINE
  5
F7
330
1E
100
AcDbEntity
  8
0
100
AcDbLine
 10
101.8685
 20
148.6536
 30
0.0
 11
105.3665
 21
148.6536
 31
0.0
  0
LINE
  5
F8
330
1E
100
AcDbEntity
  8
0
100
AcDbLine
 10
109.8444999999999
 20
148.6536
 30
0.0
 11
111.0384999999999
 21
148.6536
 31
0.0
  0
LINE
  5
F9
330
1E
100
AcDbEntity
  8
0
100
AcDbLine
 10
98.26220000000001
 20
148.6536
 30
0.0
 11
101.8685
 21
148.6536
 31
0.0
  0
LINE
  5
FA
330
1E
100
AcDbEntity
  8
0
100
AcDbLine
 10
94.9665
 20
148.6536
 30
0.0
 11
98.26220000000001
 21
148.6536
 31
0.0
  0
LINE
  5
FB
330
1E
100
AcDbEntity
  8
0
100
AcDbLine
 10
83.3305
 20
148.3535999999999
 30
0.0
 11
94.9665
 21
148.6536
 31
0.0
  0
LINE
  5
FD
330
1E
100
AcDbEntity
  8
0
100
AcDbLine
 10
111.3485
 20
129.0578999999999
 30
0.0
 11
112.0225
 21
119.2095
 31
0.0
  0
LINE
  5
FF
330
1E
100
AcDbEntity
  8
0
100
AcDbLine
 10
115.3065
 20
91.01119999999999
 30
0.0
 11
116.4125
 21
86.75496
 31
0.0
  0
LINE
  5
100
330
1E
100
AcDbEntity
  8
0
100
AcDbLine
 10
114.6335
 20
96.1458
 30
0.0
 11
115.3065
 21
91.01119999999999
 31
0.0
  0
LINE
  5
101
330
1E
100
AcDbEntity
  8
0
100
AcDbLine
 10
113.7904999999999
 20
102.9638999999999
 30
0.0
 11
114.6335
 21
96.1458
 31
0.0
  0
LINE
  5
102
330
1E
100
AcDbEntity
  8
0
100
AcDbLine
 10
112.8645
 20
110.3712
 30
0.0
 11
113.7904999999999
 21
102.9638999999999
 31
0.0
  0
LINE
  5
103
330
1E
100
AcDbEntity
  8
0
100
AcDbLine
 10
112.0225
 20
119.2095
 30
0.0
 11
112.8645
 21
110.3712
 31
0.0
  0
LINE
  5
110
330
1E
100
AcDbEntity
  8
0
100
AcDbLine
 10
111.0384999999999
 20
148.6536
 30
0.0
 11
111.4665
 21
148.6536
 31
0.0
  0
LINE
  5
111
330
1E
100
AcDbEntity
  8
0
100
AcDbLine
 10
111.4665
 20
148.6536
 30
0.0
 11
111.8195
 21
148.6536
 31
0.0
  0
LINE
  5
112
330
1E
100
AcDbEntity
  8
0
100
AcDbLine
 10
111.8195
 20
148.6536
 30
0.0
 11
112.8665
 21
148.6536
 31
0.0
  0
LINE
  5
113
330
1E
100
AcDbEntity
  8
0
100
AcDbLine
 10
119.6635
 20
148.6536
 30
0.0
 11
122.8855
 21
148.6536
 31
0.0
  0
LINE
  5
114
330
1E
100
AcDbEntity
  8
0
100
AcDbLine
 10
116.8665
 20
148.6536
 30
0.0
 11
119.6635
 21
148.6536
 31
0.0
  0
LINE
  5
115
330
1E
100
AcDbEntity
  8
0
100
AcDbLine
 10
114.5944999999999
 20
148.6536
 30
0.0
 11
116.8665
 21
148.6536
 31
0.0
  0
LINE
  5
116
330
1E
100
AcDbEntity
  8
0
100
AcDbLine
 10
112.8665
 20
148.6536
 30
0.0
 11
114.5944999999999
 21
148.6536
 31
0.0
  0
LINE
  5
117
330
1E
100
AcDbEntity
  8
0
100
AcDbLine
 10
110.4665
 20
148.1536
 30
0.0
 11
111.4665
 21
148.6536
 31
0.0
  0
LINE
  5
119
330
1E
100
AcDbEntity
  8
0
100
AcDbLine
 10
109.9664999999999
 20
147.1536
 30
0.0
 11
110.4665
 21
148.1536
 31
0.0
  0
LINE
  5
11B
330
1E
100
AcDbEntity
  8
0
100
AcDbLine
 10
109.9664999999999
 20
147.1536
 30
0.0
 11
111.3485
 21
129.0578999999999
 31
0.0
  0
LINE
  5
11C
330
1E
100
AcDbEntity
  8
0
100
AcDbLine
 10
79.3214
 20
90.0364
 30
0.0
 11
79.7214
 21
90.0364
 31
0.0
  0
LINE
  5
11D
330
1E
100
AcDbEntity
  8
0
100
AcDbLine
 10
79.2214
 20
90.3964
 30
0.0
 11
79.2214
 21
92.7846892273542
 31
0.0
  0
LINE
  5
11E
330
1E
100
AcDbEntity
  8
0
100
AcDbLine
 10
122.6204999999999
 20
228.0475999999999
 30
0.0
 11
129.846395151666
 21
150.034752942762
 31
0.0
  0
LINE
  5
11F
330
1E
100
AcDbEntity
  8
0
100
AcDbLine
 10
122.6204999999999
 20
228.0475999999999
 30
0.0
 11
122.7275
 21
228.0536
 31
0.0
  0
LINE
  5
120
330
1E
100
AcDbEntity
  8
0
100
AcDbLine
 10
122.6204999999999
 20
228.0475999999999
 30
0.0
 11
129.846395151666
 21
150.034752942762
 31
0.0
  0
LINE
  5
121
330
1E
100
AcDbEntity
  8
0
100
AcDbLine
 10
123.1535
 20
79.63903399999999
 30
0.0
 11
127.0135
 21
78.80599699999999
 31
0.0
  0
LINE
  5
122
330
1E
100
AcDbEntity
  8
0
100
AcDbLine
 10
123.5445
 20
78.65359999999999
 30
0.0
 11
126.9584999999999
 21
78.65359999999999
 31
0.0
  0
LINE
  5
123
330
1E
100
AcDbEntity
  8
0
100
AcDbLine
 10
122.8855
 20
148.6536
 30
0.0
 11
126.3695
 21
148.6536
 31
0.0
  0
LINE
  5
124
330
1E
100
AcDbEntity
  8
0
100
AcDbLine
 10
122.7275
 20
228.0536
 30
0.0
 11
123.0415
 21
228.0726
 31
0.0
  0
LINE
  5
125
330
1E
100
AcDbEntity
  8
0
100
AcDbLine
 10
123.3775
 20
228.0936
 30
0.0
 11
123.9385
 21
228.1276
 31
0.0
  0
LINE
  5
126
330
1E
100
AcDbEntity
  8
0
100
AcDbLine
 10
123.0415
 20
228.0726
 30
0.0
 11
123.3775
 21
228.0936
 31
0.0
  0
LINE
  5
127
330
1E
100
AcDbEntity
  8
0
100
AcDbLine
 10
126.9584999999999
 20
78.65359999999999
 30
0.0
 11
129.2785
 21
78.65359999999999
 31
0.0
  0
LINE
  5
128
330
1E
100
AcDbEntity
  8
0
100
AcDbLine
 10
127.0135
 20
78.80599699999999
 30
0.0
 11
129.9665
 21
78.65359999999999
 31
0.0
  0
LINE
  5
129
330
1E
100
AcDbEntity
  8
0
100
AcDbLine
 10
129.2785
 20
78.65359999999999
 30
0.0
 11
129.9665
 21
78.65359999999999
 31
0.0
  0
LINE
  5
12A
330
1E
100
AcDbEntity
  8
0
100
AcDbLine
 10
129.9665
 20
78.65359999999999
 30
0.0
 11
174.9665
 21
78.65359999999999
 31
0.0
  0
LINE
  5
12F
330
1E
100
AcDbEntity
  8
0
100
AcDbLine
 10
126.3695
 20
148.6536
 30
0.0
 11
129.9665
 21
148.6536
 31
0.0
  0
LINE
  5
130
330
1E
100
AcDbEntity
  8
0
100
AcDbLine
 10
174.9665
 20
78.65359999999999
 30
0.0
 11
184.9664999999999
 21
78.65359999999999
 31
0.0
  0
LINE
  5
133
330
1E
100
AcDbEntity
  8
0
100
AcDbLine
 10
129.9665
 20
148.6536
 30
0.0
 11
174.9665
 21
148.6536
 31
0.0
  0
LINE
  5
134
330
1E
100
AcDbEntity
  8
0
100
AcDbLine
 10
174.9665
 20
148.6536
 30
0.0
 11
177.3644999999999
 21
148.6536
 31
0.0
  0
LINE
  5
13B
330
1E
100
AcDbEntity
  8
0
100
AcDbLine
 10
177.3644999999999
 20
148.6536
 30
0.0
 11
179.6875
 21
148.6536
 31
0.0
  0
LINE
  5
13C
330
1E
100
AcDbEntity
  8
0
100
AcDbLine
 10
179.6875
 20
148.6536
 30
0.0
 11
181.8355
 21
148.6536
 31
0.0
  0
LINE
  5
157
330
1E
100
AcDbEntity
  8
0
100
AcDbLine
 10
181.8355
 20
148.6536
 30
0.0
 11
183.4665
 21
148.6536
 31
0.0
  0
LINE
  5
158
330
1E
100
AcDbEntity
  8
0
100
AcDbLine
 10
183.4665
 20
148.6536
 30
0.0
 11
184.4664999999999
 21
148.1536
 31
0.0
  0
LINE
  5
167
330
1E
100
AcDbEntity
  8
0
100
AcDbLine
 10
184.9664999999999
 20
78.65359999999999
 30
0.0
 11
184.9664999999999
 21
119.2095
 31
0.0
  0
LINE
  5
169
330
1E
100
AcDbEntity
  8
0
100
AcDbLine
 10
184.9664999999999
 20
119.2095
 30
0.0
 11
184.9664999999999
 21
78.65359999999999
 31
0.0
  0
LINE
  5
16A
330
1E
100
AcDbEntity
  8
0
100
AcDbLine
 10
184.9664999999999
 20
119.2095
 30
0.0
 11
184.9664999999999
 21
129.0578999999999
 31
0.0
  0
LINE
  5
16B
330
1E
100
AcDbEntity
  8
0
100
AcDbLine
 10
184.9664999999999
 20
129.0578999999999
 30
0.0
 11
184.9664999999999
 21
119.2095
 31
0.0
  0
LINE
  5
16C
330
1E
100
AcDbEntity
  8
0
100
AcDbLine
 10
184.9664999999999
 20
129.0578999999999
 30
0.0
 11
184.9664999999999
 21
147.1536
 31
0.0
  0
LINE
  5
16D
330
1E
100
AcDbEntity
  8
0
100
AcDbLine
 10
184.9664999999999
 20
147.1536
 30
0.0
 11
184.9664999999999
 21
129.0578999999999
 31
0.0
  0
LINE
  5
170
330
1E
100
AcDbEntity
  8
0
100
AcDbLine
 10
184.4664999999999
 20
148.1536
 30
0.0
 11
184.9664999999999
 21
147.1536
 31
0.0
  0
LINE
  5
171
330
1E
100
AcDbEntity
  8
0
100
AcDbLine
 10
142.7144999999999
 20
149.1785999999999
 30
0.0
 11
143.6485
 21
148.6785999999999
 31
0.0
  0
LINE
  5
172
330
1E
100
AcDbEntity
  8
0
100
AcDbLine
 10
140.4074999999999
 20
149.9786
 30
0.0
 11
141.6165
 21
149.6036
 31
0.0
  0
LINE
  5
173
330
1E
100
AcDbEntity
  8
0
100
AcDbLine
 10
141.6165
 20
149.6036
 30
0.0
 11
142.7144999999999
 21
149.1785999999999
 31
0.0
  0
LINE
  5
174
330
1E
100
AcDbEntity
  8
0
100
AcDbLine
 10
139.9485756782979
 20
150.078524139721
 30
0.0
 11
140.4074999999999
 21
149.9786
 31
0.0
  0
LINE
  5
175
330
1E
100
AcDbEntity
  8
0
100
AcDbLine
 10
129.5335
 20
149.9786
 30
0.0
 11
129.8453127368409
 21
150.0464390052459
 31
0.0
  0
LINE
  5
176
330
1E
100
AcDbEntity
  8
0
100
AcDbLine
 10
128.3255
 20
149.6036
 30
0.0
 11
129.5335
 21
149.9786
 31
0.0
  0
LINE
  5
177
330
1E
100
AcDbEntity
  8
0
100
AcDbLine
 10
127.2275
 20
149.1785999999999
 30
0.0
 11
128.3255
 21
149.6036
 31
0.0
  0
LINE
  5
178
330
1E
100
AcDbEntity
  8
0
100
AcDbLine
 10
126.2934999999999
 20
148.6785999999999
 30
0.0
 11
127.2275
 21
149.1785999999999
 31
0.0
  0
LINE
  5
179
330
1E
100
AcDbEntity
  8
0
100
AcDbLine
 10
123.9385
 20
228.1276
 30
0.0
 11
125.8895
 21
228.2475999999999
 31
0.0
  0
LINE
  5
17A
330
1E
100
AcDbEntity
  8
0
100
AcDbLine
 10
137.1715
 20
228.9376
 30
0.0
 11
137.4854999999999
 21
228.9566
 31
0.0
  0
LINE
  5
17B
330
1E
100
AcDbEntity
  8
0
100
AcDbLine
 10
137.4854999999999
 20
228.9566
 30
0.0
 11
137.5925
 21
228.9636
 31
0.0
  0
LINE
  5
17C
330
1E
100
AcDbEntity
  8
0
100
AcDbLine
 10
137.5925
 20
228.9636
 30
0.0
 11
139.95044462341
 21
150.0661417486639
 31
0.0
  0
LINE
  5
17D
330
1E
100
AcDbEntity
  8
0
100
AcDbLine
 10
136.8354999999999
 20
228.9175999999999
 30
0.0
 11
137.1715
 21
228.9376
 31
0.0
  0
LINE
  5
17E
330
1E
100
AcDbEntity
  8
0
100
AcDbLine
 10
136.2754999999999
 20
228.8825999999999
 30
0.0
 11
136.8354999999999
 21
228.9175999999999
 31
0.0
  0
LINE
  5
17F
330
1E
100
AcDbEntity
  8
0
100
AcDbLine
 10
134.3245
 20
228.7636
 30
0.0
 11
136.2754999999999
 21
228.8825999999999
 31
0.0
  0
LINE
  5
180
330
1E
100
AcDbEntity
  8
0
100
AcDbLine
 10
130.1065
 20
228.5055999999999
 30
0.0
 11
134.3245
 21
228.7636
 31
0.0
  0
LINE
  5
181
330
1E
100
AcDbEntity
  8
0
100
AcDbLine
 10
125.8895
 20
228.2475999999999
 30
0.0
 11
130.1065
 21
228.5055999999999
 31
0.0
  0
LINE
  5
187
330
1E
100
AcDbEntity
  8
0
100
AcDbLine
 10
129.846395151666
 20
150.034752942762
 30
0.0
 11
139.9485756782979
 21
150.078524139721
 31
0.0
  0
LINE
  5
188
330
1E
100
AcDbEntity
  8
0
100
AcDbLine
 10
108.8254999999999
 20
79.530477
 30
0.0
 11
94.9665
 21
84.6536
 31
0.0
  0
ENDSEC
  0
SECTION
  2
OBJECTS
  0
DICTIONARY
  5
C
330
0
100
AcDbDictionary
281
     1
  3
ACAD_GROUP
350
D
  3
ACAD_LAYOUT
350
19
  3
ACAD_MLINESTYLE
350
16
  3
ACAD_PLOTSETTINGS
350
18
  3
ACAD_PLOTSTYLENAME
350
E
  3
AcDbVariableDictionary
350
189
  0
DICTIONARY
  5
D
102
{ACAD_REACTORS
330
C
102
}
330
C
100
AcDbDictionary
281
     1
  0
DICTIONARY
  5
19
102
{ACAD_REACTORS
330
C
102
}
330
C
100
AcDbDictionary
281
     1
  3
Layout1
350
1D
  3
Model
350
21
  0
DICTIONARY
  5
16
102
{ACAD_REACTORS
330
C
102
}
330
C
100
AcDbDictionary
281
     1
  3
Standard
350
17
  0
DICTIONARY
  5
18
102
{ACAD_REACTORS
330
C
102
}
330
C
100
AcDbDictionary
281
     1
  0
ACDBDICTIONARYWDFLT
  5
E
102
{ACAD_REACTORS
330
C
102
}
330
C
100
AcDbDictionary
281
     1
  3
Normal
350
F
100
AcDbDictionaryWithDefault
340
F
  0
DICTIONARY
  5
189
102
{ACAD_REACTORS
330
C
102
}
330
C
100
AcDbDictionary
281
     1
  3
DIMASSOC
350
18A
  0
LAYOUT
  5
1D
102
{ACAD_REACTORS
330
19
102
}
330
19
100
AcDbPlotSettings
  1

  2
hp deskjet 980c series
  4

  6

 40
0.0
 41
0.0
 42
0.0
 43
0.0
 44
0.0
 45
0.0
 46
0.0
 47
0.0
 48
0.0
 49
0.0
140
0.0
141
0.0
142
1.0
143
1.0
 70
   688
 72
     0
 73
     0
 74
     5
  7

 75
    16
147
1.0
148
0.0
149
0.0
100
AcDbLayout
  1
Layout1
 70
     1
 71
     1
 10
0.0
 20
0.0
 11
12.0
 21
9.0
 12
0.0
 22
0.0
 32
0.0
 14
1.000000000000000E+20
 24
1.000000000000000E+20
 34
1.000000000000000E+20
 15
-1.000000000000000E+20
 25
-1.000000000000000E+20
 35
-1.000000000000000E+20
146
0.0
 13
0.0
 23
0.0
 33
0.0
 16
1.0
 26
0.0
 36
0.0
 17
0.0
 27
1.0
 37
0.0
 76
     0
330
1A
  0
LAYOUT
  5
21
102
{ACAD_REACTORS
330
19
102
}
330
19
100
AcDbPlotSettings
  1

  2
hp deskjet 980c series
  4

  6

 40
0.0
 41
0.0
 42
0.0
 43
0.0
 44
0.0
 45
0.0
 46
0.0
 47
0.0
 48
0.0
 49
0.0
140
0.0
141
0.0
142
1.0
143
1.0
 70
  1712
 72
     0
 73
     0
 74
     0
  7

 75
     0
147
1.0
148
0.0
149
0.0
100
AcDbLayout
  1
Model
 70
     1
 71
     0
 10
0.0
 20
0.0
 11
12.0
 21
9.0
 12
0.0
 22
0.0
 32
0.0
 14
0.0
 24
0.0
 34
0.0
 15
0.0
 25
0.0
 35
0.0
146
0.0
 13
0.0
 23
0.0
 33
0.0
 16
1.0
 26
0.0
 36
0.0
 17
0.0
 27
1.0
 37
0.0
 76
     0
330
1E
  0
MLINESTYLE
  5
17
102
{ACAD_REACTORS
330
16
102
}
330
16
100
AcDbMlineStyle
  2
STANDARD
 70
     0
  3

 62
   256
 51
90.0
 52
90.0
 71
     2
 49
0.5
 62
   256
  6
BYLAYER
 49
-0.5
 62
   256
  6
BYLAYER
  0
ACDBPLACEHOLDER
  5
F
102
{ACAD_REACTORS
330
E
102
}
330
E
  0
DICTIONARYVAR
  5
18A
102
{ACAD_REACTORS
330
189
102
}
330
189
100
DictionaryVariables
280
     0
  1
1
  0
ENDSEC
  0
EOF
