  0
SECTION
  2
HEADER
  9
$ACADVER
  1
AC1015
  9
$ACADMAINTVER
 70
    13
  9
$DWGCODEPAGE
  3
ANSI_1252
  9
$INSBASE
 10
0.0
 20
0.0
 30
0.0
  9
$EXTMIN
 10
0.0000000000000069
 20
-0.0888499999999914
 30
0.0
  9
$EXTMAX
 10
115.0
 20
184.08885
 30
0.0
  9
$LIMMIN
 10
0.0
 20
0.0
  9
$LIMMAX
 10
12.0
 20
9.0
  9
$ORTHOMODE
 70
     0
  9
$REGENMODE
 70
     1
  9
$FILLMODE
 70
     1
  9
$QTEXTMODE
 70
     0
  9
$MIRRTEXT
 70
     1
  9
$LTSCALE
 40
1.0
  9
$ATTMODE
 70
     1
  9
$TEXTSIZE
 40
0.2
  9
$TRACEWID
 40
0.05
  9
$TEXTSTYLE
  7
Standard
  9
$CLAYER
  8
0
  9
$CELTYPE
  6
Continuous
  9
$CECOLOR
 62
   256
  9
$CELTSCALE
 40
1.0
  9
$DISPSILH
 70
     0
  9
$DIMSCALE
 40
1.0
  9
$DIMASZ
 40
0.18
  9
$DIMEXO
 40
0.0625
  9
$DIMDLI
 40
0.38
  9
$DIMRND
 40
0.0
  9
$DIMDLE
 40
0.0
  9
$DIMEXE
 40
0.18
  9
$DIMTP
 40
0.0
  9
$DIMTM
 40
0.0
  9
$DIMTXT
 40
0.18
  9
$DIMCEN
 40
0.09
  9
$DIMTSZ
 40
0.0
  9
$DIMTOL
 70
     0
  9
$DIMLIM
 70
     0
  9
$DIMTIH
 70
     1
  9
$DIMTOH
 70
     1
  9
$DIMSE1
 70
     0
  9
$DIMSE2
 70
     0
  9
$DIMTAD
 70
     0
  9
$DIMZIN
 70
     0
  9
$DIMBLK
  1

  9
$DIMASO
 70
     1
  9
$DIMSHO
 70
     1
  9
$DIMPOST
  1

  9
$DIMAPOST
  1

  9
$DIMALT
 70
     0
  9
$DIMALTD
 70
     2
  9
$DIMALTF
 40
25.4
  9
$DIMLFAC
 40
1.0
  9
$DIMTOFL
 70
     0
  9
$DIMTVP
 40
0.0
  9
$DIMTIX
 70
     0
  9
$DIMSOXD
 70
     0
  9
$DIMSAH
 70
     0
  9
$DIMBLK1
  1

  9
$DIMBLK2
  1

  9
$DIMSTYLE
  2
Standard
  9
$DIMCLRD
 70
     0
  9
$DIMCLRE
 70
     0
  9
$DIMCLRT
 70
     0
  9
$DIMTFAC
 40
1.0
  9
$DIMGAP
 40
0.09
  9
$DIMJUST
 70
     0
  9
$DIMSD1
 70
     0
  9
$DIMSD2
 70
     0
  9
$DIMTOLJ
 70
     1
  9
$DIMTZIN
 70
     0
  9
$DIMALTZ
 70
     0
  9
$DIMALTTZ
 70
     0
  9
$DIMUPT
 70
     0
  9
$DIMDEC
 70
     4
  9
$DIMTDEC
 70
     4
  9
$DIMALTU
 70
     2
  9
$DIMALTTD
 70
     2
  9
$DIMTXSTY
  7
Standard
  9
$DIMAUNIT
 70
     0
  9
$DIMADEC
 70
     0
  9
$DIMALTRND
 40
0.0
  9
$DIMAZIN
 70
     0
  9
$DIMDSEP
 70
    46
  9
$DIMATFIT
 70
     3
  9
$DIMFRAC
 70
     0
  9
$DIMLDRBLK
  1

  9
$DIMLUNIT
 70
     2
  9
$DIMLWD
 70
    -2
  9
$DIMLWE
 70
    -2
  9
$DIMTMOVE
 70
     0
  9
$LUNITS
 70
     2
  9
$LUPREC
 70
     4
  9
$SKETCHINC
 40
0.1
  9
$FILLETRAD
 40
0.0
  9
$AUNITS
 70
     0
  9
$AUPREC
 70
     0
  9
$MENU
  1
.
  9
$ELEVATION
 40
0.0
  9
$PELEVATION
 40
0.0
  9
$THICKNESS
 40
0.0
  9
$LIMCHECK
 70
     0
  9
$CHAMFERA
 40
0.0
  9
$CHAMFERB
 40
0.0
  9
$CHAMFERC
 40
0.0
  9
$CHAMFERD
 40
0.0
  9
$SKPOLY
 70
     0
  9
$TDCREATE
 40
2454906.855132014
  9
$TDUCREATE
 40
2454906.813465347
  9
$TDUPDATE
 40
2454906.856116898
  9
$TDUUPDATE
 40
2454906.814450231
  9
$TDINDWG
 40
0.0009852431
  9
$TDUSRTIMER
 40
0.0009852431
  9
$USRTIMER
 70
     1
  9
$ANGBASE
 50
0.0
  9
$ANGDIR
 70
     0
  9
$PDMODE
 70
     0
  9
$PDSIZE
 40
0.0
  9
$PLINEWID
 40
0.0
  9
$SPLFRAME
 70
     0
  9
$SPLINETYPE
 70
     6
  9
$SPLINESEGS
 70
     8
  9
$HANDSEED
  5
1E8
  9
$SURFTAB1
 70
     6
  9
$SURFTAB2
 70
     6
  9
$SURFTYPE
 70
     6
  9
$SURFU
 70
     6
  9
$SURFV
 70
     6
  9
$UCSBASE
  2

  9
$UCSNAME
  2

  9
$UCSORG
 10
0.0
 20
0.0
 30
0.0
  9
$UCSXDIR
 10
1.0
 20
0.0
 30
0.0
  9
$UCSYDIR
 10
0.0
 20
1.0
 30
0.0
  9
$UCSORTHOREF
  2

  9
$UCSORTHOVIEW
 70
     1
  9
$UCSORGTOP
 10
0.0
 20
0.0
 30
0.0
  9
$UCSORGBOTTOM
 10
0.0
 20
0.0
 30
0.0
  9
$UCSORGLEFT
 10
0.0
 20
0.0
 30
0.0
  9
$UCSORGRIGHT
 10
0.0
 20
0.0
 30
0.0
  9
$UCSORGFRONT
 10
0.0
 20
0.0
 30
0.0
  9
$UCSORGBACK
 10
0.0
 20
0.0
 30
0.0
  9
$PUCSBASE
  2

  9
$PUCSNAME
  2

  9
$PUCSORG
 10
0.0
 20
0.0
 30
0.0
  9
$PUCSXDIR
 10
1.0
 20
0.0
 30
0.0
  9
$PUCSYDIR
 10
0.0
 20
1.0
 30
0.0
  9
$PUCSORTHOREF
  2

  9
$PUCSORTHOVIEW
 70
     0
  9
$PUCSORGTOP
 10
0.0
 20
0.0
 30
0.0
  9
$PUCSORGBOTTOM
 10
0.0
 20
0.0
 30
0.0
  9
$PUCSORGLEFT
 10
0.0
 20
0.0
 30
0.0
  9
$PUCSORGRIGHT
 10
0.0
 20
0.0
 30
0.0
  9
$PUCSORGFRONT
 10
0.0
 20
0.0
 30
0.0
  9
$PUCSORGBACK
 10
0.0
 20
0.0
 30
0.0
  9
$USERI1
 70
     0
  9
$USERI2
 70
     0
  9
$USERI3
 70
     0
  9
$USERI4
 70
     0
  9
$USERI5
 70
     0
  9
$USERR1
 40
0.0
  9
$USERR2
 40
0.0
  9
$USERR3
 40
0.0
  9
$USERR4
 40
0.0
  9
$USERR5
 40
0.0
  9
$WORLDVIEW
 70
     1
  9
$SHADEDGE
 70
     3
  9
$SHADEDIF
 70
    70
  9
$TILEMODE
 70
     1
  9
$MAXACTVP
 70
    64
  9
$PINSBASE
 10
0.0
 20
0.0
 30
0.0
  9
$PLIMCHECK
 70
     0
  9
$PEXTMIN
 10
1.000000000000000E+20
 20
1.000000000000000E+20
 30
1.000000000000000E+20
  9
$PEXTMAX
 10
-1.000000000000000E+20
 20
-1.000000000000000E+20
 30
-1.000000000000000E+20
  9
$PLIMMIN
 10
0.0
 20
0.0
  9
$PLIMMAX
 10
12.0
 20
9.0
  9
$UNITMODE
 70
     0
  9
$VISRETAIN
 70
     1
  9
$PLINEGEN
 70
     0
  9
$PSLTSCALE
 70
     1
  9
$TREEDEPTH
 70
  3020
  9
$CMLSTYLE
  2
Standard
  9
$CMLJUST
 70
     0
  9
$CMLSCALE
 40
1.0
  9
$PROXYGRAPHICS
 70
     1
  9
$MEASUREMENT
 70
     0
  9
$CELWEIGHT
370
    -1
  9
$ENDCAPS
280
     0
  9
$JOINSTYLE
280
     0
  9
$LWDISPLAY
290
     0
  9
$INSUNITS
 70
     0
  9
$HYPERLINKBASE
  1

  9
$STYLESHEET
  1

  9
$XEDIT
290
     1
  9
$CEPSNTYPE
380
     0
  9
$PSTYLEMODE
290
     1
  9
$FINGERPRINTGUID
  2
{2DAA46A4-A558-4BC0-ACB3-867762B0A942}
  9
$VERSIONGUID
  2
{DCA07F70-F210-4B4E-9B40-C66C5FC15DAE}
  9
$EXTNAMES
290
     1
  9
$PSVPSCALE
 40
0.0
  9
$OLESTARTUP
290
     0
  0
ENDSEC
  0
SECTION
  2
CLASSES
  0
CLASS
  1
ACDBDICTIONARYWDFLT
  2
AcDbDictionaryWithDefault
  3
AutoCAD 2000
 90
        0
280
     0
281
     0
  0
CLASS
  1
ACDBPLACEHOLDER
  2
AcDbPlaceHolder
  3
AutoCAD 2000
 90
        0
280
     0
281
     0
  0
CLASS
  1
LAYOUT
  2
AcDbLayout
  3
AutoCAD 2000
 90
        0
280
     0
281
     0
  0
CLASS
  1
DICTIONARYVAR
  2
AcDbDictionaryVar
  3
AutoCAD 2000
 90
        0
280
     0
281
     0
  0
ENDSEC
  0
SECTION
  2
TABLES
  0
TABLE
  2
VPORT
  5
8
330
0
100
AcDbSymbolTable
 70
     2
  0
VPORT
  5
1E7
330
8
100
AcDbSymbolTableRecord
100
AcDbViewportTableRecord
  2
*Active
 70
     0
 10
0.0
 20
0.0
 11
1.0
 21
1.0
 12
57.5
 22
92.0
 13
0.0
 23
0.0
 14
1.0
 24
1.0
 15
0.0
 25
0.0
 16
0.0
 26
0.0
 36
1.0
 17
0.0
 27
0.0
 37
0.0
 40
185.3409275789473
 41
1.968387776606954
 42
50.0
 43
0.0
 44
0.0
 50
0.0
 51
0.0
 71
     0
 72
   100
 73
     1
 74
     3
 75
     0
 76
     0
 77
     0
 78
     0
281
     0
 65
     1
110
0.0
120
0.0
130
0.0
111
1.0
121
0.0
131
0.0
112
0.0
122
1.0
132
0.0
 79
     1
146
0.0
  0
ENDTAB
  0
TABLE
  2
LTYPE
  5
5
330
0
100
AcDbSymbolTable
 70
     1
  0
LTYPE
  5
13
330
5
100
AcDbSymbolTableRecord
100
AcDbLinetypeTableRecord
  2
ByBlock
 70
     0
  3

 72
    65
 73
     0
 40
0.0
  0
LTYPE
  5
14
330
5
100
AcDbSymbolTableRecord
100
AcDbLinetypeTableRecord
  2
ByLayer
 70
     0
  3

 72
    65
 73
     0
 40
0.0
  0
LTYPE
  5
15
330
5
100
AcDbSymbolTableRecord
100
AcDbLinetypeTableRecord
  2
Continuous
 70
     0
  3
Solid line
 72
    65
 73
     0
 40
0.0
  0
ENDTAB
  0
TABLE
  2
LAYER
  5
2
330
0
100
AcDbSymbolTable
 70
     1
  0
LAYER
  5
10
330
2
100
AcDbSymbolTableRecord
100
AcDbLayerTableRecord
  2
0
 70
     0
 62
     7
  6
Continuous
370
    -3
390
F
  0
ENDTAB
  0
TABLE
  2
STYLE
  5
3
330
0
100
AcDbSymbolTable
 70
     1
  0
STYLE
  5
11
330
3
100
AcDbSymbolTableRecord
100
AcDbTextStyleTableRecord
  2
Standard
 70
     0
 40
0.0
 41
1.0
 50
0.0
 71
     0
 42
0.2
  3
txt
  4

  0
ENDTAB
  0
TABLE
  2
VIEW
  5
6
330
0
100
AcDbSymbolTable
 70
     0
  0
ENDTAB
  0
TABLE
  2
UCS
  5
7
330
0
100
AcDbSymbolTable
 70
     0
  0
ENDTAB
  0
TABLE
  2
APPID
  5
9
330
0
100
AcDbSymbolTable
 70
     1
  0
APPID
  5
12
330
9
100
AcDbSymbolTableRecord
100
AcDbRegAppTableRecord
  2
ACAD
 70
     0
  0
ENDTAB
  0
TABLE
  2
DIMSTYLE
  5
A
330
0
100
AcDbSymbolTable
 70
     1
100
AcDbDimStyleTable
 71
     0
  0
DIMSTYLE
105
1DF
330
A
100
AcDbSymbolTableRecord
100
AcDbDimStyleTableRecord
  2
Standard
 70
     0
340
11
  0
ENDTAB
  0
TABLE
  2
BLOCK_RECORD
  5
1
330
0
100
AcDbSymbolTable
 70
     0
  0
BLOCK_RECORD
  5
1E
330
1
100
AcDbSymbolTableRecord
100
AcDbBlockTableRecord
  2
*Model_Space
340
21
  0
BLOCK_RECORD
  5
1A
330
1
100
AcDbSymbolTableRecord
100
AcDbBlockTableRecord
  2
*Paper_Space
340
1D
  0
ENDTAB
  0
ENDSEC
  0
SECTION
  2
BLOCKS
  0
BLOCK
  5
1F
330
1E
100
AcDbEntity
  8
0
100
AcDbBlockBegin
  2
*Model_Space
 70
     0
 10
0.0
 20
0.0
 30
0.0
  3
*Model_Space
  1

  0
ENDBLK
  5
20
330
1E
100
AcDbEntity
  8
0
100
AcDbBlockEnd
  0
BLOCK
  5
1B
330
1A
100
AcDbEntity
 67
     1
  8
0
100
AcDbBlockBegin
  2
*Paper_Space
 70
     0
 10
0.0
 20
0.0
 30
0.0
  3
*Paper_Space
  1

  0
ENDBLK
  5
1C
330
1A
100
AcDbEntity
 67
     1
  8
0
100
AcDbBlockEnd
  0
ENDSEC
  0
SECTION
  2
ENTITIES
  0
LINE
  5
22
330
1E
100
AcDbEntity
  8
0
100
AcDbLine
 10
2.5
 20
145.58885
 30
0.0
 11
2.5
 21
143.4221499999999
 31
0.0
  0
LINE
  5
23
330
1E
100
AcDbEntity
  8
0
100
AcDbLine
 10
2.5
 20
145.58885
 30
0.0
 11
4.48
 21
145.58885
 31
0.0
  0
LINE
  5
24
330
1E
100
AcDbEntity
  8
0
100
AcDbLine
 10
2.5
 20
143.4221499999999
 30
0.0
 11
3.841459999999999
 21
143.4221499999999
 31
0.0
  0
LINE
  5
25
330
1E
100
AcDbEntity
  8
0
100
AcDbLine
 10
2.5
 20
143.4221499999999
 30
0.0
 11
2.5
 21
145.58885
 31
0.0
  0
LINE
  5
26
330
1E
100
AcDbEntity
  8
0
100
AcDbLine
 10
2.5
 20
143.4221499999999
 30
0.0
 11
4.48
 21
143.4221499999999
 31
0.0
  0
LINE
  5
27
330
1E
100
AcDbEntity
  8
0
100
AcDbLine
 10
2.500000000000009
 20
156.5888499999999
 30
0.0
 11
4.480000000000009
 21
156.5888499999999
 31
0.0
  0
LINE
  5
28
330
1E
100
AcDbEntity
  8
0
100
AcDbLine
 10
2.500000000000009
 20
152.58885
 30
0.0
 11
4.480000000000009
 21
152.58885
 31
0.0
  0
LINE
  5
29
330
1E
100
AcDbEntity
  8
0
100
AcDbLine
 10
2.500000000000009
 20
152.58885
 30
0.0
 11
2.500000000000009
 21
156.5888499999999
 31
0.0
  0
LINE
  5
2A
330
1E
100
AcDbEntity
  8
0
100
AcDbLine
 10
4.48
 20
145.58885
 30
0.0
 11
9.760000000000008
 21
145.58885
 31
0.0
  0
LINE
  5
2B
330
1E
100
AcDbEntity
  8
0
100
AcDbLine
 10
4.48
 20
143.4221499999999
 30
0.0
 11
9.760000000000008
 21
143.4221499999999
 31
0.0
  0
LINE
  5
2C
330
1E
100
AcDbEntity
  8
0
100
AcDbLine
 10
3.841459999999999
 20
143.4221499999999
 30
0.0
 11
5.773170000000009
 21
143.4221499999999
 31
0.0
  0
LINE
  5
2D
330
1E
100
AcDbEntity
  8
0
100
AcDbLine
 10
3.841459999999999
 20
138.00555
 30
0.0
 11
15.0782
 21
77.28846
 31
0.0
  0
LINE
  5
2E
330
1E
100
AcDbEntity
  8
0
100
AcDbLine
 10
3.841459999999999
 20
138.00555
 30
0.0
 11
3.841459999999999
 21
143.4221499999999
 31
0.0
  0
LINE
  5
2F
330
1E
100
AcDbEntity
  8
0
100
AcDbLine
 10
3.841459999999999
 20
138.00555
 30
0.0
 11
15.0782
 21
98.95515000000001
 31
0.0
  0
LINE
  5
30
330
1E
100
AcDbEntity
  8
0
100
AcDbLine
 10
9.760000000000008
 20
143.4221499999999
 30
0.0
 11
18.55999999999999
 21
143.4221499999999
 31
0.0
  0
LINE
  5
31
330
1E
100
AcDbEntity
  8
0
100
AcDbLine
 10
9.760000000000008
 20
145.58885
 30
0.0
 11
18.55999999999999
 21
145.58885
 31
0.0
  0
LINE
  5
32
330
1E
100
AcDbEntity
  8
0
100
AcDbLine
 10
5.773170000000009
 20
143.4221499999999
 30
0.0
 11
10.9244
 21
143.4221499999999
 31
0.0
  0
LINE
  5
33
330
1E
100
AcDbEntity
  8
0
100
AcDbLine
 10
4.480000000000009
 20
152.58885
 30
0.0
 11
9.760000000000008
 21
152.58885
 31
0.0
  0
LINE
  5
34
330
1E
100
AcDbEntity
  8
0
100
AcDbLine
 10
4.480000000000009
 20
156.5888499999999
 30
0.0
 11
9.760000000000008
 21
156.5888499999999
 31
0.0
  0
LINE
  5
35
330
1E
100
AcDbEntity
  8
0
100
AcDbLine
 10
9.760000000000008
 20
156.5888499999999
 30
0.0
 11
18.55999999999999
 21
156.5888499999999
 31
0.0
  0
LINE
  5
36
330
1E
100
AcDbEntity
  8
0
100
AcDbLine
 10
9.760000000000008
 20
152.58885
 30
0.0
 11
15.0714
 21
152.58885
 31
0.0
  0
LINE
  5
37
330
1E
100
AcDbEntity
  8
0
100
AcDbLine
 10
9.760000000000008
 20
152.58885
 30
0.0
 11
18.55999999999999
 21
152.58885
 31
0.0
  0
LINE
  5
38
330
1E
100
AcDbEntity
  8
0
100
AcDbLine
 10
2.500000000000009
 20
170.58885
 30
0.0
 11
2.500000000000009
 21
172.58885
 31
0.0
  0
LINE
  5
39
330
1E
100
AcDbEntity
  8
0
100
AcDbLine
 10
2.500000000000009
 20
170.58885
 30
0.0
 11
4.480000000000009
 21
170.58885
 31
0.0
  0
LINE
  5
3A
330
1E
100
AcDbEntity
  8
0
100
AcDbLine
 10
2.500000000000009
 20
172.58885
 30
0.0
 11
2.500000000000009
 21
170.58885
 31
0.0
  0
LINE
  5
3B
330
1E
100
AcDbEntity
  8
0
100
AcDbLine
 10
2.500000000000009
 20
172.58885
 30
0.0
 11
4.480000000000009
 21
172.58885
 31
0.0
  0
LINE
  5
3C
330
1E
100
AcDbEntity
  8
0
100
AcDbLine
 10
0.0000000000000069
 20
180.08885
 30
0.0
 11
0.428039000000007
 21
180.08885
 31
0.0
  0
LINE
  5
3D
330
1E
100
AcDbEntity
  8
0
100
AcDbLine
 10
0.0000000000000069
 20
181.08885
 30
0.0
 11
0.428039000000007
 21
181.08885
 31
0.0
  0
LINE
  5
3E
330
1E
100
AcDbEntity
  8
0
100
AcDbLine
 10
0.0000000000000069
 20
180.08885
 30
0.0
 11
0.428039000000007
 21
180.08885
 31
0.0
  0
LINE
  5
3F
330
1E
100
AcDbEntity
  8
0
100
AcDbLine
 10
0.0000000000000069
 20
180.08885
 30
0.0
 11
0.0000000000000069
 21
181.08885
 31
0.0
  0
LINE
  5
40
330
1E
100
AcDbEntity
  8
0
100
AcDbLine
 10
0.428039000000007
 20
181.08885
 30
0.0
 11
1.99752000000001
 21
181.08885
 31
0.0
  0
LINE
  5
41
330
1E
100
AcDbEntity
  8
0
100
AcDbLine
 10
0.0000000000000072
 20
181.08885
 30
0.0
 11
5.707200000000009
 21
181.72585
 31
0.0
  0
LINE
  5
42
330
1E
100
AcDbEntity
  8
0
100
AcDbLine
 10
0.428039000000007
 20
180.08885
 30
0.0
 11
1.000000000000009
 21
180.08885
 31
0.0
  0
LINE
  5
43
330
1E
100
AcDbEntity
  8
0
100
AcDbLine
 10
0.428039000000007
 20
180.08885
 30
0.0
 11
1.99752000000001
 21
180.08885
 31
0.0
  0
LINE
  5
44
330
1E
100
AcDbEntity
  8
0
100
AcDbLine
 10
1.000000000000009
 20
180.08885
 30
0.0
 11
2.500000000000009
 21
172.58885
 31
0.0
  0
LINE
  5
45
330
1E
100
AcDbEntity
  8
0
100
AcDbLine
 10
1.000000000000009
 20
180.08885
 30
0.0
 11
16.4878
 21
180.08885
 31
0.0
  0
LINE
  5
46
330
1E
100
AcDbEntity
  8
0
100
AcDbLine
 10
1.000000000000009
 20
180.08885
 30
0.0
 11
16.4878
 21
180.08885
 31
0.0
  0
LINE
  5
47
330
1E
100
AcDbEntity
  8
0
100
AcDbLine
 10
1.99752000000001
 20
180.08885
 30
0.0
 11
4.050640000000009
 21
180.08885
 31
0.0
  0
LINE
  5
48
330
1E
100
AcDbEntity
  8
0
100
AcDbLine
 10
7.704710000000009
 20
180.08885
 30
0.0
 11
11.84239999999999
 21
180.08885
 31
0.0
  0
LINE
  5
49
330
1E
100
AcDbEntity
  8
0
100
AcDbLine
 10
4.050640000000009
 20
180.08885
 30
0.0
 11
7.704710000000009
 21
180.08885
 31
0.0
  0
LINE
  5
4A
330
1E
100
AcDbEntity
  8
0
100
AcDbLine
 10
7.704710000000009
 20
181.08885
 30
0.0
 11
11.84239999999999
 21
181.08885
 31
0.0
  0
LINE
  5
4B
330
1E
100
AcDbEntity
  8
0
100
AcDbLine
 10
4.050640000000009
 20
181.08885
 30
0.0
 11
7.704710000000009
 21
181.08885
 31
0.0
  0
LINE
  5
4C
330
1E
100
AcDbEntity
  8
0
100
AcDbLine
 10
1.99752000000001
 20
181.08885
 30
0.0
 11
4.050640000000009
 21
181.08885
 31
0.0
  0
LINE
  5
4D
330
1E
100
AcDbEntity
  8
0
100
AcDbLine
 10
5.707200000000009
 20
181.72585
 30
0.0
 11
15.1241
 21
182.56985
 31
0.0
  0
LINE
  5
4E
330
1E
100
AcDbEntity
  8
0
100
AcDbLine
 10
0.428039000000007
 20
181.08885
 30
0.0
 11
1.99752000000001
 21
181.08885
 31
0.0
  0
LINE
  5
4F
330
1E
100
AcDbEntity
  8
0
100
AcDbLine
 10
0.428039000000007
 20
180.08885
 30
0.0
 11
1.000000000000009
 21
180.08885
 31
0.0
  0
LINE
  5
50
330
1E
100
AcDbEntity
  8
0
100
AcDbLine
 10
0.428039000000007
 20
180.08885
 30
0.0
 11
1.99752000000001
 21
180.08885
 31
0.0
  0
LINE
  5
51
330
1E
100
AcDbEntity
  8
0
100
AcDbLine
 10
5.707200000000009
 20
181.72585
 30
0.0
 11
15.1241
 21
182.56985
 31
0.0
  0
LINE
  5
52
330
1E
100
AcDbEntity
  8
0
100
AcDbLine
 10
0.0000000000000069
 20
181.08885
 30
0.0
 11
5.707200000000009
 21
181.72585
 31
0.0
  0
LINE
  5
53
330
1E
100
AcDbEntity
  8
0
100
AcDbLine
 10
0.0000000000000069
 20
181.08885
 30
0.0
 11
0.428039000000007
 21
181.08885
 31
0.0
  0
LINE
  5
54
330
1E
100
AcDbEntity
  8
0
100
AcDbLine
 10
4.480000000000009
 20
172.58885
 30
0.0
 11
9.760000000000008
 21
172.58885
 31
0.0
  0
LINE
  5
55
330
1E
100
AcDbEntity
  8
0
100
AcDbLine
 10
9.760000000000008
 20
172.58885
 30
0.0
 11
18.55999999999999
 21
172.58885
 31
0.0
  0
LINE
  5
56
330
1E
100
AcDbEntity
  8
0
100
AcDbLine
 10
4.480000000000009
 20
170.58885
 30
0.0
 11
9.760000000000008
 21
170.58885
 31
0.0
  0
LINE
  5
57
330
1E
100
AcDbEntity
  8
0
100
AcDbLine
 10
32.5
 20
17.58885
 30
0.0
 11
33.39999999999999
 21
13.06335
 31
0.0
  0
LINE
  5
58
330
1E
100
AcDbEntity
  8
0
100
AcDbLine
 10
32.5
 20
17.58885
 30
0.0
 11
32.5
 21
52.23705
 31
0.0
  0
LINE
  5
59
330
1E
100
AcDbEntity
  8
0
100
AcDbLine
 10
32.5
 20
17.58885
 30
0.0
 11
33.39999999999999
 21
22.11435
 31
0.0
  0
LINE
  5
5A
330
1E
100
AcDbEntity
  8
0
100
AcDbLine
 10
33.39999999999999
 20
22.11435
 30
0.0
 11
35.8
 21
26.35695
 31
0.0
  0
LINE
  5
5B
330
1E
100
AcDbEntity
  8
0
100
AcDbLine
 10
35.8
 20
26.35695
 30
0.0
 11
39.8
 21
30.10464999999999
 31
0.0
  0
LINE
  5
5C
330
1E
100
AcDbEntity
  8
0
100
AcDbLine
 10
36.07139999999999
 20
17.58885
 30
0.0
 11
36.8429
 21
13.70985
 31
0.0
  0
LINE
  5
5D
330
1E
100
AcDbEntity
  8
0
100
AcDbLine
 10
36.07139999999999
 20
17.58885
 30
0.0
 11
36.8429
 21
21.46784999999999
 31
0.0
  0
LINE
  5
5E
330
1E
100
AcDbEntity
  8
0
100
AcDbLine
 10
36.8429
 20
21.46784999999999
 30
0.0
 11
38.9
 21
25.10445
 31
0.0
  0
LINE
  5
5F
330
1E
100
AcDbEntity
  8
0
100
AcDbLine
 10
38.9
 20
25.10445
 30
0.0
 11
42.3286
 21
28.31665
 31
0.0
  0
LINE
  5
60
330
1E
100
AcDbEntity
  8
0
100
AcDbLine
 10
36.8429
 20
13.70985
 30
0.0
 11
38.9
 21
10.07325
 31
0.0
  0
LINE
  5
61
330
1E
100
AcDbEntity
  8
0
100
AcDbLine
 10
38.9
 20
10.07325
 30
0.0
 11
42.3286
 21
6.861049999999999
 31
0.0
  0
LINE
  5
62
330
1E
100
AcDbEntity
  8
0
100
AcDbLine
 10
33.39999999999999
 20
13.06335
 30
0.0
 11
35.8
 21
8.820749999999989
 31
0.0
  0
LINE
  5
63
330
1E
100
AcDbEntity
  8
0
100
AcDbLine
 10
35.8
 20
8.820749999999989
 30
0.0
 11
39.8
 21
5.07304999999999
 31
0.0
  0
LINE
  5
64
330
1E
100
AcDbEntity
  8
0
100
AcDbLine
 10
39.8
 20
30.10464999999999
 30
0.0
 11
45.1
 21
32.93305
 31
0.0
  0
LINE
  5
65
330
1E
100
AcDbEntity
  8
0
100
AcDbLine
 10
42.3286
 20
28.31665
 30
0.0
 11
46.8714
 21
30.74105
 31
0.0
  0
LINE
  5
66
330
1E
100
AcDbEntity
  8
0
100
AcDbLine
 10
46.8714
 20
30.74105
 30
0.0
 11
52.0143
 21
32.19565
 31
0.0
  0
LINE
  5
67
330
1E
100
AcDbEntity
  8
0
100
AcDbLine
 10
45.1
 20
32.93305
 30
0.0
 11
51.1
 21
34.63015
 31
0.0
  0
LINE
  5
68
330
1E
100
AcDbEntity
  8
0
100
AcDbLine
 10
42.3286
 20
6.861049999999999
 30
0.0
 11
46.8714
 21
4.43665
 31
0.0
  0
LINE
  5
69
330
1E
100
AcDbEntity
  8
0
100
AcDbLine
 10
46.8714
 20
4.43665
 30
0.0
 11
52.0143
 21
2.98205
 31
0.0
  0
LINE
  5
6A
330
1E
100
AcDbEntity
  8
0
100
AcDbLine
 10
39.8
 20
5.07304999999999
 30
0.0
 11
45.1
 21
2.24464999999999
 31
0.0
  0
LINE
  5
6B
330
1E
100
AcDbEntity
  8
0
100
AcDbLine
 10
45.1
 20
2.24464999999999
 30
0.0
 11
51.1
 21
0.547549999999993
 31
0.0
  0
LINE
  5
6C
330
1E
100
AcDbEntity
  8
0
100
AcDbLine
 10
57.5
 20
2.436550000000019
 30
0.0
 11
62.9857
 21
2.98205
 31
0.0
  0
LINE
  5
6D
330
1E
100
AcDbEntity
  8
0
100
AcDbLine
 10
69.90000000000001
 20
2.24464999999999
 30
0.0
 11
75.2
 21
5.07304999999999
 31
0.0
  0
LINE
  5
6E
330
1E
100
AcDbEntity
  8
0
100
AcDbLine
 10
63.9
 20
0.547549999999993
 30
0.0
 11
69.90000000000001
 21
2.24464999999999
 31
0.0
  0
LINE
  5
6F
330
1E
100
AcDbEntity
  8
0
100
AcDbLine
 10
62.9857
 20
2.98205
 30
0.0
 11
68.1286
 21
4.43665
 31
0.0
  0
LINE
  5
70
330
1E
100
AcDbEntity
  8
0
100
AcDbLine
 10
57.5
 20
-0.0888499999999914
 30
0.0
 11
63.9
 21
0.547549999999993
 31
0.0
  0
LINE
  5
71
330
1E
100
AcDbEntity
  8
0
100
AcDbLine
 10
68.1286
 20
4.43665
 30
0.0
 11
72.67140000000001
 21
6.861049999999999
 31
0.0
  0
LINE
  5
72
330
1E
100
AcDbEntity
  8
0
100
AcDbLine
 10
68.1286
 20
30.74105
 30
0.0
 11
72.67140000000001
 21
28.31665
 31
0.0
  0
LINE
  5
73
330
1E
100
AcDbEntity
  8
0
100
AcDbLine
 10
62.9857
 20
32.19565
 30
0.0
 11
68.1286
 21
30.74105
 31
0.0
  0
LINE
  5
74
330
1E
100
AcDbEntity
  8
0
100
AcDbLine
 10
57.5
 20
32.74115
 30
0.0
 11
62.9857
 21
32.19565
 31
0.0
  0
LINE
  5
75
330
1E
100
AcDbEntity
  8
0
100
AcDbLine
 10
69.90000000000001
 20
32.93305
 30
0.0
 11
75.2
 21
30.10464999999999
 31
0.0
  0
LINE
  5
76
330
1E
100
AcDbEntity
  8
0
100
AcDbLine
 10
63.9
 20
34.63015
 30
0.0
 11
69.90000000000001
 21
32.93305
 31
0.0
  0
LINE
  5
77
330
1E
100
AcDbEntity
  8
0
100
AcDbLine
 10
57.5
 20
35.26655
 30
0.0
 11
63.9
 21
34.63015
 31
0.0
  0
LINE
  5
78
330
1E
100
AcDbEntity
  8
0
100
AcDbLine
 10
52.0143
 20
32.19565
 30
0.0
 11
57.5
 21
32.74115
 31
0.0
  0
LINE
  5
79
330
1E
100
AcDbEntity
  8
0
100
AcDbLine
 10
51.1
 20
34.63015
 30
0.0
 11
57.5
 21
35.26655
 31
0.0
  0
LINE
  5
7A
330
1E
100
AcDbEntity
  8
0
100
AcDbLine
 10
52.0143
 20
2.98205
 30
0.0
 11
57.5
 21
2.436550000000019
 31
0.0
  0
LINE
  5
7B
330
1E
100
AcDbEntity
  8
0
100
AcDbLine
 10
51.1
 20
0.547549999999993
 30
0.0
 11
57.5
 21
-0.0888499999999914
 31
0.0
  0
LINE
  5
7C
330
1E
100
AcDbEntity
  8
0
100
AcDbLine
 10
10.9244
 20
143.4221499999999
 30
0.0
 11
19.50979999999999
 21
143.4221499999999
 31
0.0
  0
LINE
  5
7D
330
1E
100
AcDbEntity
  8
0
100
AcDbLine
 10
16.59329999999999
 20
77.28846
 30
0.0
 11
20.7344
 21
77.28846
 31
0.0
  0
LINE
  5
7E
330
1E
100
AcDbEntity
  8
0
100
AcDbLine
 10
15.0782
 20
98.95515000000001
 30
0.0
 11
18.1083
 21
96.43575
 31
0.0
  0
LINE
  5
7F
330
1E
100
AcDbEntity
  8
0
100
AcDbLine
 10
18.55999999999999
 20
143.4221499999999
 30
0.0
 11
30.22
 21
143.4221499999999
 31
0.0
  0
LINE
  5
80
330
1E
100
AcDbEntity
  8
0
100
AcDbLine
 10
18.55999999999999
 20
145.58885
 30
0.0
 11
30.22
 21
145.58885
 31
0.0
  0
LINE
  5
81
330
1E
100
AcDbEntity
  8
0
100
AcDbLine
 10
19.50979999999999
 20
143.4221499999999
 30
0.0
 11
30.8854
 21
143.4221499999999
 31
0.0
  0
LINE
  5
82
330
1E
100
AcDbEntity
  8
0
100
AcDbLine
 10
18.1083
 20
96.43575
 30
0.0
 11
23.1585
 21
93.91634999999999
 31
0.0
  0
LINE
  5
83
330
1E
100
AcDbEntity
  8
0
100
AcDbLine
 10
20.7344
 20
77.28846
 30
0.0
 11
27.5017
 21
77.28846
 31
0.0
  0
LINE
  5
84
330
1E
100
AcDbEntity
  8
0
100
AcDbLine
 10
15.0782
 20
77.28846
 30
0.0
 11
18.1083
 21
74.76909
 31
0.0
  0
LINE
  5
85
330
1E
100
AcDbEntity
  8
0
100
AcDbLine
 10
15.0782
 20
77.28846
 30
0.0
 11
16.59329999999999
 21
77.28846
 31
0.0
  0
LINE
  5
86
330
1E
100
AcDbEntity
  8
0
100
AcDbLine
 10
18.1083
 20
74.76909
 30
0.0
 11
23.1585
 21
72.24971
 31
0.0
  0
LINE
  5
87
330
1E
100
AcDbEntity
  8
0
100
AcDbLine
 10
30.22
 20
145.58885
 30
0.0
 11
43.42
 21
145.58885
 31
0.0
  0
LINE
  5
88
330
1E
100
AcDbEntity
  8
0
100
AcDbLine
 10
30.22
 20
143.4221499999999
 30
0.0
 11
43.42
 21
143.4221499999999
 31
0.0
  0
LINE
  5
89
330
1E
100
AcDbEntity
  8
0
100
AcDbLine
 10
23.1585
 20
93.91634999999999
 30
0.0
 11
30.2289
 21
91.90094999999999
 31
0.0
  0
LINE
  5
8A
330
1E
100
AcDbEntity
  8
0
100
AcDbLine
 10
30.8854
 20
143.4221499999999
 30
0.0
 11
43.76339999999999
 21
143.4221499999999
 31
0.0
  0
LINE
  5
8B
330
1E
100
AcDbEntity
  8
0
100
AcDbLine
 10
30.2289
 20
91.90094999999999
 30
0.0
 11
37.5
 21
90.54063888902641
 31
0.0
  0
LINE
  5
8C
330
1E
100
AcDbEntity
  8
0
100
AcDbLine
 10
27.5017
 20
77.28846
 30
0.0
 11
36.39009999999999
 21
77.28846
 31
0.0
  0
LINE
  5
8D
330
1E
100
AcDbEntity
  8
0
100
AcDbLine
 10
23.1585
 20
72.24971
 30
0.0
 11
30.2289
 21
70.2342
 31
0.0
  0
LINE
  5
8E
330
1E
100
AcDbEntity
  8
0
100
AcDbLine
 10
30.2289
 20
70.2342
 30
0.0
 11
37.5
 21
68.87395187889059
 31
0.0
  0
LINE
  5
8F
330
1E
100
AcDbEntity
  8
0
100
AcDbLine
 10
31.5
 20
111.58885
 30
0.0
 11
32.436
 21
104.93285
 31
0.0
  0
LINE
  5
90
330
1E
100
AcDbEntity
  8
0
100
AcDbLine
 10
31.5
 20
111.58885
 30
0.0
 11
32.436
 21
118.24485
 31
0.0
  0
LINE
  5
91
330
1E
100
AcDbEntity
  8
0
100
AcDbLine
 10
31.5
 20
52.94415
 30
0.0
 11
31.5
 21
52.23705
 31
0.0
  0
LINE
  5
92
330
1E
100
AcDbEntity
  8
0
100
AcDbLine
 10
31.5
 20
52.94415
 30
0.0
 11
32.436
 21
57.65069
 31
0.0
  0
LINE
  5
93
330
1E
100
AcDbEntity
  8
0
100
AcDbLine
 10
32.5
 20
52.23705
 30
0.0
 11
33.39999999999999
 21
56.76255
 31
0.0
  0
LINE
  5
94
330
1E
100
AcDbEntity
  8
0
100
AcDbLine
 10
32.5
 20
52.23705
 30
0.0
 11
32.5
 21
17.58885
 31
0.0
  0
LINE
  5
95
330
1E
100
AcDbEntity
  8
0
100
AcDbLine
 10
33.39999999999999
 20
56.76255
 30
0.0
 11
35.8
 21
61.00521
 31
0.0
  0
LINE
  5
96
330
1E
100
AcDbEntity
  8
0
100
AcDbLine
 10
32.436
 20
57.65069
 30
0.0
 11
34.93199999999999
 21
62.06304
 31
0.0
  0
LINE
  5
97
330
1E
100
AcDbEntity
  8
0
100
AcDbLine
 10
34.93199999999999
 20
62.06304
 30
0.0
 11
39.092
 21
65.96061
 31
0.0
  0
LINE
  5
98
330
1E
100
AcDbEntity
  8
0
100
AcDbLine
 10
32.436
 20
56.94355
 30
0.0
 11
34.93199999999999
 21
61.35593
 31
0.0
  0
LINE
  5
99
330
1E
100
AcDbEntity
  8
0
100
AcDbLine
 10
37.5
 20
64.4690399423077
 30
0.0
 11
37.5
 21
102.50915
 31
0.0
  0
LINE
  5
9A
330
1E
100
AcDbEntity
  8
0
100
AcDbLine
 10
35.8
 20
61.00521
 30
0.0
 11
39.8
 21
64.75287
 31
0.0
  0
LINE
  5
9B
330
1E
100
AcDbEntity
  8
0
100
AcDbLine
 10
39.8
 20
64.75287
 30
0.0
 11
45.1
 21
67.581299
 31
0.0
  0
LINE
  5
9C
330
1E
100
AcDbEntity
  8
0
100
AcDbLine
 10
34.93199999999999
 20
61.35593
 30
0.0
 11
39.092
 21
65.2535
 31
0.0
  0
LINE
  5
9D
330
1E
100
AcDbEntity
  8
0
100
AcDbLine
 10
39.092
 20
65.96061
 30
0.0
 11
44.60399999999999
 21
68.90218
 31
0.0
  0
LINE
  5
9E
330
1E
100
AcDbEntity
  8
0
100
AcDbLine
 10
44.60399999999999
 20
68.90218
 30
0.0
 11
50.84399999999999
 21
70.66710999999999
 31
0.0
  0
LINE
  5
9F
330
1E
100
AcDbEntity
  8
0
100
AcDbLine
 10
39.092
 20
65.2535
 30
0.0
 11
44.60399999999999
 21
68.195068
 31
0.0
  0
LINE
  5
A0
330
1E
100
AcDbEntity
  8
0
100
AcDbLine
 10
69.90000000000001
 20
67.581299
 30
0.0
 11
75.2
 21
64.75287
 31
0.0
  0
LINE
  5
A1
330
1E
100
AcDbEntity
  8
0
100
AcDbLine
 10
45.1
 20
67.581299
 30
0.0
 11
51.1
 21
69.27835999999999
 31
0.0
  0
LINE
  5
A2
330
1E
100
AcDbEntity
  8
0
100
AcDbLine
 10
63.9
 20
69.27835999999999
 30
0.0
 11
69.90000000000001
 21
67.581299
 31
0.0
  0
LINE
  5
A3
330
1E
100
AcDbEntity
  8
0
100
AcDbLine
 10
57.5
 20
69.91475
 30
0.0
 11
63.9
 21
69.27835999999999
 31
0.0
  0
LINE
  5
A4
330
1E
100
AcDbEntity
  8
0
100
AcDbLine
 10
51.1
 20
69.27835999999999
 30
0.0
 11
57.5
 21
69.91475
 31
0.0
  0
LINE
  5
A5
330
1E
100
AcDbEntity
  8
0
100
AcDbLine
 10
70.396
 20
68.90218
 30
0.0
 11
75.908
 21
65.96061
 31
0.0
  0
LINE
  5
A6
330
1E
100
AcDbEntity
  8
0
100
AcDbLine
 10
70.396
 20
68.195068
 30
0.0
 11
75.908
 21
65.2535
 31
0.0
  0
LINE
  5
A7
330
1E
100
AcDbEntity
  8
0
100
AcDbLine
 10
64.15600000000001
 20
69.96000999999999
 30
0.0
 11
70.396
 21
68.195068
 31
0.0
  0
LINE
  5
A8
330
1E
100
AcDbEntity
  8
0
100
AcDbLine
 10
44.60399999999999
 20
68.195068
 30
0.0
 11
50.84399999999999
 21
69.96000999999999
 31
0.0
  0
LINE
  5
A9
330
1E
100
AcDbEntity
  8
0
100
AcDbLine
 10
36.39009999999999
 20
77.28846
 30
0.0
 11
37.5
 21
77.28846
 31
0.0
  0
LINE
  5
AA
330
1E
100
AcDbEntity
  8
0
100
AcDbLine
 10
37.5
 20
102.50915
 30
0.0
 11
37.5
 21
107.4356499999999
 31
0.0
  0
LINE
  5
AB
330
1E
100
AcDbEntity
  8
0
100
AcDbLine
 10
37.5
 20
102.50915
 30
0.0
 11
37.5
 21
64.4690399423077
 31
0.0
  0
LINE
  5
AC
330
1E
100
AcDbEntity
  8
0
100
AcDbLine
 10
34.93199999999999
 20
98.69285000000001
 30
0.0
 11
37.5
 21
95.29025
 31
0.0
  0
LINE
  5
AD
330
1E
100
AcDbEntity
  8
0
100
AcDbLine
 10
32.0
 20
112.58885
 30
0.0
 11
32.0
 21
110.58885
 31
0.0
  0
LINE
  5
AE
330
1E
100
AcDbEntity
  8
0
100
AcDbLine
 10
32.0
 20
112.58885
 30
0.0
 11
35.0
 21
112.58885
 31
0.0
  0
LINE
  5
AF
330
1E
100
AcDbEntity
  8
0
100
AcDbLine
 10
32.0
 20
110.58885
 30
0.0
 11
35.0
 21
110.58885
 31
0.0
  0
LINE
  5
B0
330
1E
100
AcDbEntity
  8
0
100
AcDbLine
 10
32.0
 20
110.58885
 30
0.0
 11
34.640625
 21
110.58885
 31
0.0
  0
LINE
  5
B1
330
1E
100
AcDbEntity
  8
0
100
AcDbLine
 10
32.0
 20
110.58885
 30
0.0
 11
32.0
 21
112.58885
 31
0.0
  0
LINE
  5
B4
330
1E
100
AcDbEntity
  8
0
100
AcDbLine
 10
35.0
 20
110.58885
 30
0.0
 11
35.0
 21
112.58885
 31
0.0
  0
LINE
  5
B5
330
1E
100
AcDbEntity
  8
0
100
AcDbLine
 10
37.5
 20
110.5325499999999
 30
0.0
 11
37.5
 21
111.58885
 31
0.0
  0
LINE
  5
B6
330
1E
100
AcDbEntity
  8
0
100
AcDbLine
 10
37.5
 20
110.5325499999999
 30
0.0
 11
37.5
 21
107.4356499999999
 31
0.0
  0
LINE
  5
B7
330
1E
100
AcDbEntity
  8
0
100
AcDbLine
 10
38.22
 20
116.7088499999999
 30
0.0
 11
40.14
 21
121.50885
 31
0.0
  0
LINE
  5
B8
330
1E
100
AcDbEntity
  8
0
100
AcDbLine
 10
37.5
 20
111.58885
 30
0.0
 11
38.22
 21
116.7088499999999
 31
0.0
  0
LINE
  5
B9
330
1E
100
AcDbEntity
  8
0
100
AcDbLine
 10
37.5
 20
111.58885
 30
0.0
 11
37.5
 21
110.5325499999999
 31
0.0
  0
LINE
  5
BA
330
1E
100
AcDbEntity
  8
0
100
AcDbLine
 10
37.5
 20
107.4356499999999
 30
0.0
 11
37.5
 21
102.50915
 31
0.0
  0
LINE
  5
BB
330
1E
100
AcDbEntity
  8
0
100
AcDbLine
 10
37.5
 20
107.4356499999999
 30
0.0
 11
37.5
 21
110.5325499999999
 31
0.0
  0
LINE
  5
BC
330
1E
100
AcDbEntity
  8
0
100
AcDbLine
 10
35.0
 20
112.58885
 30
0.0
 11
35.0
 21
110.58885
 31
0.0
  0
LINE
  5
BD
330
1E
100
AcDbEntity
  8
0
100
AcDbLine
 10
40.14
 20
121.50885
 30
0.0
 11
43.34
 21
125.74885
 31
0.0
  0
LINE
  5
C3
330
1E
100
AcDbEntity
  8
0
100
AcDbLine
 10
43.34
 20
125.74885
 30
0.0
 11
47.58
 21
128.94885
 31
0.0
  0
LINE
  5
C4
330
1E
100
AcDbEntity
  8
0
100
AcDbLine
 10
45.38399999999999
 20
130.57445
 30
0.0
 11
47.116
 21
131.57445
 31
0.0
  0
LINE
  5
C5
330
1E
100
AcDbEntity
  8
0
100
AcDbLine
 10
47.58
 20
128.94885
 30
0.0
 11
52.38
 21
130.86885
 31
0.0
  0
LINE
  5
C7
330
1E
100
AcDbEntity
  8
0
100
AcDbLine
 10
43.88399999999999
 20
133.1724499999999
 30
0.0
 11
45.61600000000001
 21
134.1724499999999
 31
0.0
  0
LINE
  5
C8
330
1E
100
AcDbEntity
  8
0
100
AcDbLine
 10
43.88399999999999
 20
133.1724499999999
 30
0.0
 11
45.2054270539318
 21
130.8837383425899
 31
0.0
  0
LINE
  5
C9
330
1E
100
AcDbEntity
  8
0
100
AcDbLine
 10
43.88399999999999
 20
133.1724499999999
 30
0.0
 11
45.38399999999999
 21
130.57445
 31
0.0
  0
LINE
  5
CD
330
1E
100
AcDbEntity
  8
0
100
AcDbLine
 10
43.42
 20
143.4221499999999
 30
0.0
 11
57.5
 21
143.4221499999999
 31
0.0
  0
LINE
  5
CE
330
1E
100
AcDbEntity
  8
0
100
AcDbLine
 10
43.42
 20
145.58885
 30
0.0
 11
57.5
 21
145.58885
 31
0.0
  0
LINE
  5
CF
330
1E
100
AcDbEntity
  8
0
100
AcDbLine
 10
43.76339999999999
 20
143.4221499999999
 30
0.0
 11
57.5
 21
143.4221499999999
 31
0.0
  0
LINE
  5
D0
330
1E
100
AcDbEntity
  8
0
100
AcDbLine
 10
45.61600000000001
 20
134.1724499999999
 30
0.0
 11
47.116
 21
131.57445
 31
0.0
  0
LINE
  5
D1
330
1E
100
AcDbEntity
  8
0
100
AcDbLine
 10
44.60399999999999
 20
134.1568499999999
 30
0.0
 11
50.84399999999999
 21
136.65285
 31
0.0
  0
LINE
  5
D2
330
1E
100
AcDbEntity
  8
0
100
AcDbLine
 10
39.092
 20
129.99685
 30
0.0
 11
44.60399999999999
 21
134.1568499999999
 31
0.0
  0
LINE
  5
D3
330
1E
100
AcDbEntity
  8
0
100
AcDbLine
 10
34.93199999999999
 20
124.48485
 30
0.0
 11
39.092
 21
129.99685
 31
0.0
  0
LINE
  5
D4
330
1E
100
AcDbEntity
  8
0
100
AcDbLine
 10
32.436
 20
118.24485
 30
0.0
 11
34.93199999999999
 21
124.48485
 31
0.0
  0
LINE
  5
D5
330
1E
100
AcDbEntity
  8
0
100
AcDbLine
 10
32.436
 20
104.93285
 30
0.0
 11
34.93199999999999
 21
98.69285000000001
 31
0.0
  0
LINE
  5
D6
330
1E
100
AcDbEntity
  8
0
100
AcDbLine
 10
57.5
 20
131.58885
 30
0.0
 11
62.62
 21
130.86885
 31
0.0
  0
LINE
  5
D7
330
1E
100
AcDbEntity
  8
0
100
AcDbLine
 10
52.38
 20
130.86885
 30
0.0
 11
57.5
 21
131.58885
 31
0.0
  0
LINE
  5
DA
330
1E
100
AcDbEntity
  8
0
100
AcDbLine
 10
50.84399999999999
 20
136.65285
 30
0.0
 11
57.5
 21
137.58885
 31
0.0
  0
LINE
  5
DB
330
1E
100
AcDbEntity
  8
0
100
AcDbLine
 10
57.5
 20
145.58885
 30
0.0
 11
71.58
 21
145.58885
 31
0.0
  0
LINE
  5
DC
330
1E
100
AcDbEntity
  8
0
100
AcDbLine
 10
57.5
 20
143.4221499999999
 30
0.0
 11
71.2366
 21
143.4221499999999
 31
0.0
  0
LINE
  5
DD
330
1E
100
AcDbEntity
  8
0
100
AcDbLine
 10
57.5
 20
143.4221499999999
 30
0.0
 11
71.58
 21
143.4221499999999
 31
0.0
  0
LINE
  5
DE
330
1E
100
AcDbEntity
  8
0
100
AcDbLine
 10
57.5
 20
137.58885
 30
0.0
 11
64.15600000000001
 21
136.65285
 31
0.0
  0
LINE
  5
DF
330
1E
100
AcDbEntity
  8
0
100
AcDbLine
 10
62.62
 20
130.86885
 30
0.0
 11
67.42
 21
128.94885
 31
0.0
  0
LINE
  5
E0
330
1E
100
AcDbEntity
  8
0
100
AcDbLine
 10
67.42
 20
128.94885
 30
0.0
 11
71.66
 21
125.74885
 31
0.0
  0
LINE
  5
E1
330
1E
100
AcDbEntity
  8
0
100
AcDbLine
 10
67.884
 20
131.57445
 30
0.0
 11
69.384
 21
134.1724499999999
 31
0.0
  0
LINE
  5
E2
330
1E
100
AcDbEntity
  8
0
100
AcDbLine
 10
67.884
 20
131.57445
 30
0.0
 11
69.616
 21
130.57445
 31
0.0
  0
LINE
  5
E3
330
1E
100
AcDbEntity
  8
0
100
AcDbLine
 10
68.0659887429644
 20
131.889654502814
 30
0.0
 11
69.384
 21
134.1724499999999
 31
0.0
  0
LINE
  5
E5
330
1E
100
AcDbEntity
  8
0
100
AcDbLine
 10
69.384
 20
134.1724499999999
 30
0.0
 11
71.116
 21
133.1724499999999
 31
0.0
  0
LINE
  5
E6
330
1E
100
AcDbEntity
  8
0
100
AcDbLine
 10
69.616
 20
130.57445
 30
0.0
 11
71.116
 21
133.1724499999999
 31
0.0
  0
LINE
  5
E8
330
1E
100
AcDbEntity
  8
0
100
AcDbLine
 10
64.15600000000001
 20
136.65285
 30
0.0
 11
70.396
 21
134.1568499999999
 31
0.0
  0
LINE
  5
E9
330
1E
100
AcDbEntity
  8
0
100
AcDbLine
 10
71.58
 20
143.4221499999999
 30
0.0
 11
84.77999999999999
 21
143.4221499999999
 31
0.0
  0
LINE
  5
EA
330
1E
100
AcDbEntity
  8
0
100
AcDbLine
 10
71.2366
 20
143.4221499999999
 30
0.0
 11
71.58
 21
143.4221499999999
 31
0.0
  0
LINE
  5
EB
330
1E
100
AcDbEntity
  8
0
100
AcDbLine
 10
70.396
 20
134.1568499999999
 30
0.0
 11
75.908
 21
129.99685
 31
0.0
  0
LINE
  5
EC
330
1E
100
AcDbEntity
  8
0
100
AcDbLine
 10
64.15600000000001
 20
70.66710999999999
 30
0.0
 11
70.396
 21
68.90218
 31
0.0
  0
LINE
  5
ED
330
1E
100
AcDbEntity
  8
0
100
AcDbLine
 10
57.5
 20
71.32895999999999
 30
0.0
 11
64.15600000000001
 21
70.66710999999999
 31
0.0
  0
LINE
  5
EE
330
1E
100
AcDbEntity
  8
0
100
AcDbLine
 10
57.5
 20
70.62186
 30
0.0
 11
64.15600000000001
 21
69.96000999999999
 31
0.0
  0
LINE
  5
EF
330
1E
100
AcDbEntity
  8
0
100
AcDbLine
 10
50.84399999999999
 20
70.66710999999999
 30
0.0
 11
57.5
 21
71.32895999999999
 31
0.0
  0
LINE
  5
F0
330
1E
100
AcDbEntity
  8
0
100
AcDbLine
 10
50.84399999999999
 20
69.96000999999999
 30
0.0
 11
57.5
 21
70.62186
 31
0.0
  0
LINE
  5
F1
330
1E
100
AcDbEntity
  8
0
100
AcDbLine
 10
31.5
 20
52.23705
 30
0.0
 11
32.436
 21
47.53054999999999
 31
0.0
  0
LINE
  5
F2
330
1E
100
AcDbEntity
  8
0
100
AcDbLine
 10
31.5
 20
52.23705
 30
0.0
 11
31.5
 21
52.94415
 31
0.0
  0
LINE
  5
F3
330
1E
100
AcDbEntity
  8
0
100
AcDbLine
 10
31.5
 20
52.23705
 30
0.0
 11
32.436
 21
56.94355
 31
0.0
  0
LINE
  5
F4
330
1E
100
AcDbEntity
  8
0
100
AcDbLine
 10
32.436
 20
47.53054999999999
 30
0.0
 11
32.5
 21
47.41741410256411
 31
0.0
  0
LINE
  5
F5
330
1E
100
AcDbEntity
  8
0
100
AcDbLine
 10
75.2
 20
5.07304999999999
 30
0.0
 11
79.2
 21
8.820749999999989
 31
0.0
  0
LINE
  5
F6
330
1E
100
AcDbEntity
  8
0
100
AcDbLine
 10
72.67140000000001
 20
6.861049999999999
 30
0.0
 11
76.09999999999999
 21
10.07325
 31
0.0
  0
LINE
  5
F7
330
1E
100
AcDbEntity
  8
0
100
AcDbLine
 10
72.67140000000001
 20
28.31665
 30
0.0
 11
76.09999999999999
 21
25.10445
 31
0.0
  0
LINE
  5
F8
330
1E
100
AcDbEntity
  8
0
100
AcDbLine
 10
76.09999999999999
 20
10.07325
 30
0.0
 11
78.1571
 21
13.70985
 31
0.0
  0
LINE
  5
F9
330
1E
100
AcDbEntity
  8
0
100
AcDbLine
 10
78.1571
 20
13.70985
 30
0.0
 11
78.9286
 21
17.58885
 31
0.0
  0
LINE
  5
FA
330
1E
100
AcDbEntity
  8
0
100
AcDbLine
 10
79.2
 20
8.820749999999989
 30
0.0
 11
81.6
 21
13.06335
 31
0.0
  0
LINE
  5
FB
330
1E
100
AcDbEntity
  8
0
100
AcDbLine
 10
78.1571
 20
21.46784999999999
 30
0.0
 11
78.9286
 21
17.58885
 31
0.0
  0
LINE
  5
FC
330
1E
100
AcDbEntity
  8
0
100
AcDbLine
 10
76.09999999999999
 20
25.10445
 30
0.0
 11
78.1571
 21
21.46784999999999
 31
0.0
  0
LINE
  5
FD
330
1E
100
AcDbEntity
  8
0
100
AcDbLine
 10
79.2
 20
61.00521
 30
0.0
 11
81.6
 21
56.76255
 31
0.0
  0
LINE
  5
FE
330
1E
100
AcDbEntity
  8
0
100
AcDbLine
 10
79.2
 20
26.35695
 30
0.0
 11
81.6
 21
22.11435
 31
0.0
  0
LINE
  5
FF
330
1E
100
AcDbEntity
  8
0
100
AcDbLine
 10
75.2
 20
30.10464999999999
 30
0.0
 11
79.2
 21
26.35695
 31
0.0
  0
LINE
  5
100
330
1E
100
AcDbEntity
  8
0
100
AcDbLine
 10
77.5
 20
64.4690399423077
 30
0.0
 11
77.5
 21
102.50915
 31
0.0
  0
LINE
  5
101
330
1E
100
AcDbEntity
  8
0
100
AcDbLine
 10
75.2
 20
64.75287
 30
0.0
 11
79.2
 21
61.00521
 31
0.0
  0
LINE
  5
102
330
1E
100
AcDbEntity
  8
0
100
AcDbLine
 10
80.068
 20
62.06304
 30
0.0
 11
82.56399999999999
 21
57.65069
 31
0.0
  0
LINE
  5
103
330
1E
100
AcDbEntity
  8
0
100
AcDbLine
 10
81.6
 20
13.06335
 30
0.0
 11
82.5
 21
17.58885
 31
0.0
  0
LINE
  5
104
330
1E
100
AcDbEntity
  8
0
100
AcDbLine
 10
81.6
 20
22.11435
 30
0.0
 11
82.5
 21
17.58885
 31
0.0
  0
LINE
  5
105
330
1E
100
AcDbEntity
  8
0
100
AcDbLine
 10
82.5
 20
17.58885
 30
0.0
 11
82.5
 21
52.23705
 31
0.0
  0
LINE
  5
106
330
1E
100
AcDbEntity
  8
0
100
AcDbLine
 10
82.5
 20
52.23705
 30
0.0
 11
82.5
 21
17.58885
 31
0.0
  0
LINE
  5
107
330
1E
100
AcDbEntity
  8
0
100
AcDbLine
 10
81.6
 20
56.76255
 30
0.0
 11
82.5
 21
52.23705
 31
0.0
  0
LINE
  5
108
330
1E
100
AcDbEntity
  8
0
100
AcDbLine
 10
83.49999999999999
 20
52.94415
 30
0.0
 11
83.49999999999999
 21
52.23705
 31
0.0
  0
LINE
  5
109
330
1E
100
AcDbEntity
  8
0
100
AcDbLine
 10
82.56399999999999
 20
47.53054999999999
 30
0.0
 11
83.49999999999999
 21
52.23705
 31
0.0
  0
LINE
  5
10A
330
1E
100
AcDbEntity
  8
0
100
AcDbLine
 10
82.5
 20
47.41741410256411
 30
0.0
 11
82.56399999999999
 21
47.53054999999999
 31
0.0
  0
LINE
  5
10B
330
1E
100
AcDbEntity
  8
0
100
AcDbLine
 10
83.49999999999999
 20
52.23705
 30
0.0
 11
83.49999999999999
 21
52.94415
 31
0.0
  0
LINE
  5
10C
330
1E
100
AcDbEntity
  8
0
100
AcDbLine
 10
82.56399999999999
 20
57.65069
 30
0.0
 11
83.49999999999999
 21
52.94415
 31
0.0
  0
LINE
  5
10D
330
1E
100
AcDbEntity
  8
0
100
AcDbLine
 10
82.56399999999999
 20
56.94355
 30
0.0
 11
83.49999999999999
 21
52.23705
 31
0.0
  0
LINE
  5
10E
330
1E
100
AcDbEntity
  8
0
100
AcDbLine
 10
80.068
 20
61.35593
 30
0.0
 11
82.56399999999999
 21
56.94355
 31
0.0
  0
LINE
  5
10F
330
1E
100
AcDbEntity
  8
0
100
AcDbLine
 10
71.66
 20
125.74885
 30
0.0
 11
74.86
 21
121.50885
 31
0.0
  0
LINE
  5
110
330
1E
100
AcDbEntity
  8
0
100
AcDbLine
 10
74.86
 20
121.50885
 30
0.0
 11
76.78
 21
116.7088499999999
 31
0.0
  0
LINE
  5
112
330
1E
100
AcDbEntity
  8
0
100
AcDbLine
 10
75.908
 20
129.99685
 30
0.0
 11
80.068
 21
124.48485
 31
0.0
  0
LINE
  5
113
330
1E
100
AcDbEntity
  8
0
100
AcDbLine
 10
77.5
 20
90.54063888902641
 30
0.0
 11
84.77110000000001
 21
91.90094999999999
 31
0.0
  0
LINE
  5
114
330
1E
100
AcDbEntity
  8
0
100
AcDbLine
 10
77.5
 20
77.28846
 30
0.0
 11
78.6099
 21
77.28846
 31
0.0
  0
LINE
  5
115
330
1E
100
AcDbEntity
  8
0
100
AcDbLine
 10
78.6099
 20
77.28846
 30
0.0
 11
87.49830000000001
 21
77.28846
 31
0.0
  0
LINE
  5
116
330
1E
100
AcDbEntity
  8
0
100
AcDbLine
 10
77.5
 20
68.87395187889059
 30
0.0
 11
84.77110000000001
 21
70.2342
 31
0.0
  0
LINE
  5
117
330
1E
100
AcDbEntity
  8
0
100
AcDbLine
 10
77.5
 20
102.50915
 30
0.0
 11
77.5
 21
64.4690399423077
 31
0.0
  0
LINE
  5
118
330
1E
100
AcDbEntity
  8
0
100
AcDbLine
 10
77.5
 20
102.50915
 30
0.0
 11
77.5
 21
107.4356499999999
 31
0.0
  0
LINE
  5
11A
330
1E
100
AcDbEntity
  8
0
100
AcDbLine
 10
77.5
 20
95.29025
 30
0.0
 11
80.068
 21
98.69285000000001
 31
0.0
  0
LINE
  5
11B
330
1E
100
AcDbEntity
  8
0
100
AcDbLine
 10
91.8415
 20
93.91634999999999
 30
0.0
 11
96.8917
 21
96.43575
 31
0.0
  0
LINE
  5
11C
330
1E
100
AcDbEntity
  8
0
100
AcDbLine
 10
84.77110000000001
 20
91.90094999999999
 30
0.0
 11
91.8415
 21
93.91634999999999
 31
0.0
  0
LINE
  5
11D
330
1E
100
AcDbEntity
  8
0
100
AcDbLine
 10
87.49830000000001
 20
77.28846
 30
0.0
 11
94.2656
 21
77.28846
 31
0.0
  0
LINE
  5
11E
330
1E
100
AcDbEntity
  8
0
100
AcDbLine
 10
98.40670000000001
 20
77.28846
 30
0.0
 11
99.92180000000001
 21
77.28846
 31
0.0
  0
LINE
  5
11F
330
1E
100
AcDbEntity
  8
0
100
AcDbLine
 10
99.92180000000001
 20
98.95515000000001
 30
0.0
 11
111.1589999999999
 21
138.00555
 31
0.0
  0
LINE
  5
120
330
1E
100
AcDbEntity
  8
0
100
AcDbLine
 10
96.8917
 20
96.43575
 30
0.0
 11
99.92180000000001
 21
98.95515000000001
 31
0.0
  0
LINE
  5
121
330
1E
100
AcDbEntity
  8
0
100
AcDbLine
 10
94.2656
 20
77.28846
 30
0.0
 11
98.40670000000001
 21
77.28846
 31
0.0
  0
LINE
  5
122
330
1E
100
AcDbEntity
  8
0
100
AcDbLine
 10
99.92180000000001
 20
77.28846
 30
0.0
 11
111.1589999999999
 21
138.00555
 31
0.0
  0
LINE
  5
123
330
1E
100
AcDbEntity
  8
0
100
AcDbLine
 10
96.8917
 20
74.76909
 30
0.0
 11
99.92180000000001
 21
77.28846
 31
0.0
  0
LINE
  5
124
330
1E
100
AcDbEntity
  8
0
100
AcDbLine
 10
91.8415
 20
72.24971
 30
0.0
 11
96.8917
 21
74.76909
 31
0.0
  0
LINE
  5
125
330
1E
100
AcDbEntity
  8
0
100
AcDbLine
 10
84.77110000000001
 20
70.2342
 30
0.0
 11
91.8415
 21
72.24971
 31
0.0
  0
LINE
  5
126
330
1E
100
AcDbEntity
  8
0
100
AcDbLine
 10
80.068
 20
98.69285000000001
 30
0.0
 11
82.56399999999999
 21
104.93285
 31
0.0
  0
LINE
  5
127
330
1E
100
AcDbEntity
  8
0
100
AcDbLine
 10
77.5
 20
111.58885
 30
0.0
 11
77.5
 21
110.5325499999999
 31
0.0
  0
LINE
  5
128
330
1E
100
AcDbEntity
  8
0
100
AcDbLine
 10
77.5
 20
110.5325499999999
 30
0.0
 11
77.5
 21
111.58885
 31
0.0
  0
LINE
  5
129
330
1E
100
AcDbEntity
  8
0
100
AcDbLine
 10
77.5
 20
110.5325499999999
 30
0.0
 11
77.5
 21
107.4356499999999
 31
0.0
  0
LINE
  5
12A
330
1E
100
AcDbEntity
  8
0
100
AcDbLine
 10
77.5
 20
107.4356499999999
 30
0.0
 11
77.5
 21
102.50915
 31
0.0
  0
LINE
  5
12B
330
1E
100
AcDbEntity
  8
0
100
AcDbLine
 10
77.5
 20
107.4356499999999
 30
0.0
 11
77.5
 21
110.5325499999999
 31
0.0
  0
LINE
  5
12C
330
1E
100
AcDbEntity
  8
0
100
AcDbLine
 10
76.78
 20
116.7088499999999
 30
0.0
 11
77.5
 21
111.58885
 31
0.0
  0
LINE
  5
12F
330
1E
100
AcDbEntity
  8
0
100
AcDbLine
 10
80.35937500000001
 20
110.58885
 30
0.0
 11
83.0
 21
110.58885
 31
0.0
  0
LINE
  5
130
330
1E
100
AcDbEntity
  8
0
100
AcDbLine
 10
80.0
 20
112.58885
 30
0.0
 11
83.0
 21
112.58885
 31
0.0
  0
LINE
  5
131
330
1E
100
AcDbEntity
  8
0
100
AcDbLine
 10
80.0
 20
112.58885
 30
0.0
 11
80.0
 21
110.58885
 31
0.0
  0
LINE
  5
132
330
1E
100
AcDbEntity
  8
0
100
AcDbLine
 10
80.0
 20
110.58885
 30
0.0
 11
83.0
 21
110.58885
 31
0.0
  0
LINE
  5
133
330
1E
100
AcDbEntity
  8
0
100
AcDbLine
 10
80.0
 20
110.58885
 30
0.0
 11
80.0
 21
112.58885
 31
0.0
  0
LINE
  5
135
330
1E
100
AcDbEntity
  8
0
100
AcDbLine
 10
80.068
 20
124.48485
 30
0.0
 11
82.56399999999999
 21
118.24485
 31
0.0
  0
LINE
  5
136
330
1E
100
AcDbEntity
  8
0
100
AcDbLine
 10
84.77999999999999
 20
143.4221499999999
 30
0.0
 11
96.44
 21
143.4221499999999
 31
0.0
  0
LINE
  5
137
330
1E
100
AcDbEntity
  8
0
100
AcDbLine
 10
96.44
 20
143.4221499999999
 30
0.0
 11
105.24
 21
143.4221499999999
 31
0.0
  0
LINE
  5
138
330
1E
100
AcDbEntity
  8
0
100
AcDbLine
 10
95.4902
 20
143.4221499999999
 30
0.0
 11
104.076
 21
143.4221499999999
 31
0.0
  0
LINE
  5
139
330
1E
100
AcDbEntity
  8
0
100
AcDbLine
 10
96.44
 20
145.58885
 30
0.0
 11
105.24
 21
145.58885
 31
0.0
  0
LINE
  5
13A
330
1E
100
AcDbEntity
  8
0
100
AcDbLine
 10
84.77999999999999
 20
145.58885
 30
0.0
 11
96.44
 21
145.58885
 31
0.0
  0
LINE
  5
13B
330
1E
100
AcDbEntity
  8
0
100
AcDbLine
 10
84.11459999999999
 20
143.4221499999999
 30
0.0
 11
95.4902
 21
143.4221499999999
 31
0.0
  0
LINE
  5
13C
330
1E
100
AcDbEntity
  8
0
100
AcDbLine
 10
83.0
 20
112.58885
 30
0.0
 11
83.0
 21
110.58885
 31
0.0
  0
LINE
  5
13D
330
1E
100
AcDbEntity
  8
0
100
AcDbLine
 10
83.0
 20
110.58885
 30
0.0
 11
83.0
 21
112.58885
 31
0.0
  0
LINE
  5
13E
330
1E
100
AcDbEntity
  8
0
100
AcDbLine
 10
82.56399999999999
 20
118.24485
 30
0.0
 11
83.49999999999999
 21
111.58885
 31
0.0
  0
LINE
  5
13F
330
1E
100
AcDbEntity
  8
0
100
AcDbLine
 10
82.56399999999999
 20
104.93285
 30
0.0
 11
83.49999999999999
 21
111.58885
 31
0.0
  0
LINE
  5
140
330
1E
100
AcDbEntity
  8
0
100
AcDbLine
 10
75.908
 20
65.96061
 30
0.0
 11
80.068
 21
62.06304
 31
0.0
  0
LINE
  5
141
330
1E
100
AcDbEntity
  8
0
100
AcDbLine
 10
75.908
 20
65.2535
 30
0.0
 11
80.068
 21
61.35593
 31
0.0
  0
LINE
  5
142
330
1E
100
AcDbEntity
  8
0
100
AcDbLine
 10
110.5199999999999
 20
143.4221499999999
 30
0.0
 11
112.5
 21
143.4221499999999
 31
0.0
  0
LINE
  5
143
330
1E
100
AcDbEntity
  8
0
100
AcDbLine
 10
105.24
 20
143.4221499999999
 30
0.0
 11
110.5199999999999
 21
143.4221499999999
 31
0.0
  0
LINE
  5
144
330
1E
100
AcDbEntity
  8
0
100
AcDbLine
 10
109.227
 20
143.4221499999999
 30
0.0
 11
111.1589999999999
 21
143.4221499999999
 31
0.0
  0
LINE
  5
145
330
1E
100
AcDbEntity
  8
0
100
AcDbLine
 10
111.1589999999999
 20
138.00555
 30
0.0
 11
111.1589999999999
 21
143.4221499999999
 31
0.0
  0
LINE
  5
146
330
1E
100
AcDbEntity
  8
0
100
AcDbLine
 10
104.076
 20
143.4221499999999
 30
0.0
 11
109.227
 21
143.4221499999999
 31
0.0
  0
LINE
  5
147
330
1E
100
AcDbEntity
  8
0
100
AcDbLine
 10
112.5
 20
143.4221499999999
 30
0.0
 11
112.5
 21
145.58885
 31
0.0
  0
LINE
  5
148
330
1E
100
AcDbEntity
  8
0
100
AcDbLine
 10
110.5199999999999
 20
145.58885
 30
0.0
 11
112.5
 21
145.58885
 31
0.0
  0
LINE
  5
149
330
1E
100
AcDbEntity
  8
0
100
AcDbLine
 10
112.5
 20
145.58885
 30
0.0
 11
112.5
 21
143.4221499999999
 31
0.0
  0
LINE
  5
14A
330
1E
100
AcDbEntity
  8
0
100
AcDbLine
 10
105.24
 20
145.58885
 30
0.0
 11
110.5199999999999
 21
145.58885
 31
0.0
  0
LINE
  5
14B
330
1E
100
AcDbEntity
  8
0
100
AcDbLine
 10
111.1589999999999
 20
143.4221499999999
 30
0.0
 11
112.5
 21
143.4221499999999
 31
0.0
  0
LINE
  5
14C
330
1E
100
AcDbEntity
  8
0
100
AcDbLine
 10
111.1589999999999
 20
143.4221499999999
 30
0.0
 11
111.1589999999999
 21
138.00555
 31
0.0
  0
LINE
  5
14D
330
1E
100
AcDbEntity
  8
0
100
AcDbLine
 10
99.9286
 20
145.58885
 30
0.0
 11
99.9286
 21
152.58885
 31
0.0
  0
LINE
  5
14E
330
1E
100
AcDbEntity
  8
0
100
AcDbLine
 10
78.5446
 20
145.58885
 30
0.0
 11
87.5394
 21
145.58885
 31
0.0
  0
LINE
  5
14F
330
1E
100
AcDbEntity
  8
0
100
AcDbLine
 10
71.58
 20
145.58885
 30
0.0
 11
78.5446
 21
145.58885
 31
0.0
  0
LINE
  5
150
330
1E
100
AcDbEntity
  8
0
100
AcDbLine
 10
71.58
 20
145.58885
 30
0.0
 11
84.77999999999999
 21
145.58885
 31
0.0
  0
LINE
  5
151
330
1E
100
AcDbEntity
  8
0
100
AcDbLine
 10
11.84239999999999
 20
180.08885
 30
0.0
 11
16.6935
 21
180.08885
 31
0.0
  0
LINE
  5
152
330
1E
100
AcDbEntity
  8
0
100
AcDbLine
 10
11.84239999999999
 20
181.08885
 30
0.0
 11
16.6935
 21
181.08885
 31
0.0
  0
LINE
  5
153
330
1E
100
AcDbEntity
  8
0
100
AcDbLine
 10
15.0714
 20
152.58885
 30
0.0
 11
15.0714
 21
145.58885
 31
0.0
  0
LINE
  5
154
330
1E
100
AcDbEntity
  8
0
100
AcDbLine
 10
15.0714
 20
170.58885
 30
0.0
 11
16.5989
 21
170.58885
 31
0.0
  0
LINE
  5
155
330
1E
100
AcDbEntity
  8
0
100
AcDbLine
 10
18.55999999999999
 20
156.5888499999999
 30
0.0
 11
30.22
 21
156.5888499999999
 31
0.0
  0
LINE
  5
156
330
1E
100
AcDbEntity
  8
0
100
AcDbLine
 10
18.55999999999999
 20
152.58885
 30
0.0
 11
30.22
 21
152.58885
 31
0.0
  0
LINE
  5
157
330
1E
100
AcDbEntity
  8
0
100
AcDbLine
 10
16.5989
 20
170.58885
 30
0.0
 11
20.67199999999999
 21
170.58885
 31
0.0
  0
LINE
  5
158
330
1E
100
AcDbEntity
  8
0
100
AcDbLine
 10
20.67199999999999
 20
170.58885
 30
0.0
 11
27.46059999999999
 21
170.58885
 31
0.0
  0
LINE
  5
159
330
1E
100
AcDbEntity
  8
0
100
AcDbLine
 10
30.22
 20
156.5888499999999
 30
0.0
 11
43.42
 21
156.5888499999999
 31
0.0
  0
LINE
  5
15A
330
1E
100
AcDbEntity
  8
0
100
AcDbLine
 10
30.22
 20
152.58885
 30
0.0
 11
43.42
 21
152.58885
 31
0.0
  0
LINE
  5
15B
330
1E
100
AcDbEntity
  8
0
100
AcDbLine
 10
27.46059999999999
 20
170.58885
 30
0.0
 11
36.4554
 21
170.58885
 31
0.0
  0
LINE
  5
15C
330
1E
100
AcDbEntity
  8
0
100
AcDbLine
 10
18.55999999999999
 20
170.58885
 30
0.0
 11
30.22
 21
170.58885
 31
0.0
  0
LINE
  5
15D
330
1E
100
AcDbEntity
  8
0
100
AcDbLine
 10
105.24
 20
152.58885
 30
0.0
 11
110.5199999999999
 21
152.58885
 31
0.0
  0
LINE
  5
15E
330
1E
100
AcDbEntity
  8
0
100
AcDbLine
 10
96.44
 20
152.58885
 30
0.0
 11
105.24
 21
152.58885
 31
0.0
  0
LINE
  5
15F
330
1E
100
AcDbEntity
  8
0
100
AcDbLine
 10
84.77999999999999
 20
152.58885
 30
0.0
 11
96.44
 21
152.58885
 31
0.0
  0
LINE
  5
160
330
1E
100
AcDbEntity
  8
0
100
AcDbLine
 10
57.5
 20
152.58885
 30
0.0
 11
71.58
 21
152.58885
 31
0.0
  0
LINE
  5
161
330
1E
100
AcDbEntity
  8
0
100
AcDbLine
 10
57.5
 20
156.5888499999999
 30
0.0
 11
71.58
 21
156.5888499999999
 31
0.0
  0
LINE
  5
162
330
1E
100
AcDbEntity
  8
0
100
AcDbLine
 10
43.42
 20
156.5888499999999
 30
0.0
 11
57.5
 21
156.5888499999999
 31
0.0
  0
LINE
  5
163
330
1E
100
AcDbEntity
  8
0
100
AcDbLine
 10
43.42
 20
152.58885
 30
0.0
 11
57.5
 21
152.58885
 31
0.0
  0
LINE
  5
164
330
1E
100
AcDbEntity
  8
0
100
AcDbLine
 10
71.58
 20
156.5888499999999
 30
0.0
 11
84.77999999999999
 21
156.5888499999999
 31
0.0
  0
LINE
  5
165
330
1E
100
AcDbEntity
  8
0
100
AcDbLine
 10
71.58
 20
152.58885
 30
0.0
 11
84.77999999999999
 21
152.58885
 31
0.0
  0
LINE
  5
166
330
1E
100
AcDbEntity
  8
0
100
AcDbLine
 10
84.77999999999999
 20
156.5888499999999
 30
0.0
 11
96.44
 21
156.5888499999999
 31
0.0
  0
LINE
  5
167
330
1E
100
AcDbEntity
  8
0
100
AcDbLine
 10
78.5446
 20
170.58885
 30
0.0
 11
87.5394
 21
170.58885
 31
0.0
  0
LINE
  5
168
330
1E
100
AcDbEntity
  8
0
100
AcDbLine
 10
68.3617
 20
170.58885
 30
0.0
 11
78.5446
 21
170.58885
 31
0.0
  0
LINE
  5
169
330
1E
100
AcDbEntity
  8
0
100
AcDbLine
 10
96.44
 20
156.5888499999999
 30
0.0
 11
105.24
 21
156.5888499999999
 31
0.0
  0
LINE
  5
16A
330
1E
100
AcDbEntity
  8
0
100
AcDbLine
 10
98.40110000000001
 20
170.58885
 30
0.0
 11
99.9286
 21
170.58885
 31
0.0
  0
LINE
  5
16B
330
1E
100
AcDbEntity
  8
0
100
AcDbLine
 10
105.24
 20
156.5888499999999
 30
0.0
 11
110.5199999999999
 21
156.5888499999999
 31
0.0
  0
LINE
  5
16C
330
1E
100
AcDbEntity
  8
0
100
AcDbLine
 10
99.9286
 20
156.5888499999999
 30
0.0
 11
99.9286
 21
170.58885
 31
0.0
  0
LINE
  5
16D
330
1E
100
AcDbEntity
  8
0
100
AcDbLine
 10
94.32799999999998
 20
170.58885
 30
0.0
 11
98.40110000000001
 21
170.58885
 31
0.0
  0
LINE
  5
16E
330
1E
100
AcDbEntity
  8
0
100
AcDbLine
 10
87.5394
 20
170.58885
 30
0.0
 11
94.32799999999998
 21
170.58885
 31
0.0
  0
LINE
  5
16F
330
1E
100
AcDbEntity
  8
0
100
AcDbLine
 10
96.44
 20
170.58885
 30
0.0
 11
105.24
 21
170.58885
 31
0.0
  0
LINE
  5
170
330
1E
100
AcDbEntity
  8
0
100
AcDbLine
 10
84.77999999999999
 20
170.58885
 30
0.0
 11
96.44
 21
170.58885
 31
0.0
  0
LINE
  5
171
330
1E
100
AcDbEntity
  8
0
100
AcDbLine
 10
71.58
 20
170.58885
 30
0.0
 11
84.77999999999999
 21
170.58885
 31
0.0
  0
LINE
  5
172
330
1E
100
AcDbEntity
  8
0
100
AcDbLine
 10
57.5
 20
170.58885
 30
0.0
 11
71.58
 21
170.58885
 31
0.0
  0
LINE
  5
173
330
1E
100
AcDbEntity
  8
0
100
AcDbLine
 10
57.5
 20
170.58885
 30
0.0
 11
68.3617
 21
170.58885
 31
0.0
  0
LINE
  5
174
330
1E
100
AcDbEntity
  8
0
100
AcDbLine
 10
99.9286
 20
152.58885
 30
0.0
 11
99.9286
 21
145.58885
 31
0.0
  0
LINE
  5
175
330
1E
100
AcDbEntity
  8
0
100
AcDbLine
 10
99.9286
 20
152.58885
 30
0.0
 11
105.24
 21
152.58885
 31
0.0
  0
LINE
  5
176
330
1E
100
AcDbEntity
  8
0
100
AcDbLine
 10
112.5
 20
152.58885
 30
0.0
 11
112.5
 21
156.5888499999999
 31
0.0
  0
LINE
  5
177
330
1E
100
AcDbEntity
  8
0
100
AcDbLine
 10
112.5
 20
156.5888499999999
 30
0.0
 11
112.5
 21
152.58885
 31
0.0
  0
LINE
  5
178
330
1E
100
AcDbEntity
  8
0
100
AcDbLine
 10
110.5199999999999
 20
156.5888499999999
 30
0.0
 11
112.5
 21
156.5888499999999
 31
0.0
  0
LINE
  5
179
330
1E
100
AcDbEntity
  8
0
100
AcDbLine
 10
110.5199999999999
 20
152.58885
 30
0.0
 11
112.5
 21
152.58885
 31
0.0
  0
LINE
  5
17A
330
1E
100
AcDbEntity
  8
0
100
AcDbLine
 10
112.5
 20
170.58885
 30
0.0
 11
112.5
 21
172.58885
 31
0.0
  0
LINE
  5
17B
330
1E
100
AcDbEntity
  8
0
100
AcDbLine
 10
110.5199999999999
 20
170.58885
 30
0.0
 11
112.5
 21
170.58885
 31
0.0
  0
LINE
  5
17C
330
1E
100
AcDbEntity
  8
0
100
AcDbLine
 10
105.24
 20
170.58885
 30
0.0
 11
110.5199999999999
 21
170.58885
 31
0.0
  0
LINE
  5
17D
330
1E
100
AcDbEntity
  8
0
100
AcDbLine
 10
99.9286
 20
170.58885
 30
0.0
 11
105.24
 21
170.58885
 31
0.0
  0
LINE
  5
17E
330
1E
100
AcDbEntity
  8
0
100
AcDbLine
 10
99.9286
 20
170.58885
 30
0.0
 11
99.9286
 21
156.5888499999999
 31
0.0
  0
LINE
  5
17F
330
1E
100
AcDbEntity
  8
0
100
AcDbLine
 10
36.4554
 20
170.58885
 30
0.0
 11
46.63829999999999
 21
170.58885
 31
0.0
  0
LINE
  5
180
330
1E
100
AcDbEntity
  8
0
100
AcDbLine
 10
46.63829999999999
 20
170.58885
 30
0.0
 11
57.5
 21
170.58885
 31
0.0
  0
LINE
  5
181
330
1E
100
AcDbEntity
  8
0
100
AcDbLine
 10
30.22
 20
170.58885
 30
0.0
 11
43.42
 21
170.58885
 31
0.0
  0
LINE
  5
182
330
1E
100
AcDbEntity
  8
0
100
AcDbLine
 10
17.5485
 20
172.58885
 30
0.0
 11
19.66979999999999
 21
172.58885
 31
0.0
  0
LINE
  5
183
330
1E
100
AcDbEntity
  8
0
100
AcDbLine
 10
18.55999999999999
 20
172.58885
 30
0.0
 11
30.22
 21
172.58885
 31
0.0
  0
LINE
  5
184
330
1E
100
AcDbEntity
  8
0
100
AcDbLine
 10
16.4878
 20
180.08885
 30
0.0
 11
17.5485
 21
172.58885
 31
0.0
  0
LINE
  5
185
330
1E
100
AcDbEntity
  8
0
100
AcDbLine
 10
16.4878
 20
180.08885
 30
0.0
 11
18.6091
 21
180.08885
 31
0.0
  0
LINE
  5
186
330
1E
100
AcDbEntity
  8
0
100
AcDbLine
 10
16.6935
 20
180.08885
 30
0.0
 11
22.4007
 21
180.08885
 31
0.0
  0
LINE
  5
187
330
1E
100
AcDbEntity
  8
0
100
AcDbLine
 10
18.6091
 20
180.08885
 30
0.0
 11
19.66979999999999
 21
172.58885
 31
0.0
  0
LINE
  5
188
330
1E
100
AcDbEntity
  8
0
100
AcDbLine
 10
18.6091
 20
180.08885
 30
0.0
 11
56.0
 21
180.08885
 31
0.0
  0
LINE
  5
189
330
1E
100
AcDbEntity
  8
0
100
AcDbLine
 10
18.6091
 20
180.08885
 30
0.0
 11
56.0
 21
180.08885
 31
0.0
  0
LINE
  5
18A
330
1E
100
AcDbEntity
  8
0
100
AcDbLine
 10
22.4007
 20
180.08885
 30
0.0
 11
28.9639
 21
180.08885
 31
0.0
  0
LINE
  5
18B
330
1E
100
AcDbEntity
  8
0
100
AcDbLine
 10
28.9639
 20
180.08885
 30
0.0
 11
35.6963
 21
180.08885
 31
0.0
  0
LINE
  5
18C
330
1E
100
AcDbEntity
  8
0
100
AcDbLine
 10
16.6935
 20
181.08885
 30
0.0
 11
22.4007
 21
181.08885
 31
0.0
  0
LINE
  5
18D
330
1E
100
AcDbEntity
  8
0
100
AcDbLine
 10
22.4007
 20
181.08885
 30
0.0
 11
28.9639
 21
181.08885
 31
0.0
  0
LINE
  5
18E
330
1E
100
AcDbEntity
  8
0
100
AcDbLine
 10
35.6963
 20
180.08885
 30
0.0
 11
42.80389999999999
 21
180.08885
 31
0.0
  0
LINE
  5
18F
330
1E
100
AcDbEntity
  8
0
100
AcDbLine
 10
42.80389999999999
 20
180.08885
 30
0.0
 11
50.0807
 21
180.08885
 31
0.0
  0
LINE
  5
190
330
1E
100
AcDbEntity
  8
0
100
AcDbLine
 10
28.9639
 20
181.08885
 30
0.0
 11
35.6963
 21
181.08885
 31
0.0
  0
LINE
  5
191
330
1E
100
AcDbEntity
  8
0
100
AcDbLine
 10
35.6963
 20
181.08885
 30
0.0
 11
42.80389999999999
 21
181.08885
 31
0.0
  0
LINE
  5
192
330
1E
100
AcDbEntity
  8
0
100
AcDbLine
 10
42.80389999999999
 20
181.08885
 30
0.0
 11
50.0807
 21
181.08885
 31
0.0
  0
LINE
  5
193
330
1E
100
AcDbEntity
  8
0
100
AcDbLine
 10
35.6699
 20
183.69485
 30
0.0
 11
46.37109999999999
 21
183.97585
 31
0.0
  0
LINE
  5
194
330
1E
100
AcDbEntity
  8
0
100
AcDbLine
 10
24.969
 20
183.1888499999999
 30
0.0
 11
35.6699
 21
183.69485
 31
0.0
  0
LINE
  5
195
330
1E
100
AcDbEntity
  8
0
100
AcDbLine
 10
15.1241
 20
182.56985
 30
0.0
 11
24.969
 21
183.1888499999999
 31
0.0
  0
LINE
  5
196
330
1E
100
AcDbEntity
  8
0
100
AcDbLine
 10
30.22
 20
172.58885
 30
0.0
 11
43.42
 21
172.58885
 31
0.0
  0
LINE
  5
197
330
1E
100
AcDbEntity
  8
0
100
AcDbLine
 10
59.0
 20
172.58885
 30
0.0
 11
59.0
 21
180.08885
 31
0.0
  0
LINE
  5
198
330
1E
100
AcDbEntity
  8
0
100
AcDbLine
 10
56.0
 20
172.58885
 30
0.0
 11
56.0
 21
180.08885
 31
0.0
  0
LINE
  5
199
330
1E
100
AcDbEntity
  8
0
100
AcDbLine
 10
56.0
 20
172.58885
 30
0.0
 11
59.0
 21
172.58885
 31
0.0
  0
LINE
  5
19A
330
1E
100
AcDbEntity
  8
0
100
AcDbLine
 10
95.3302
 20
172.58885
 30
0.0
 11
96.39090000000001
 21
180.08885
 31
0.0
  0
LINE
  5
19B
330
1E
100
AcDbEntity
  8
0
100
AcDbLine
 10
95.3302
 20
172.58885
 30
0.0
 11
97.4515
 21
172.58885
 31
0.0
  0
LINE
  5
19C
330
1E
100
AcDbEntity
  8
0
100
AcDbLine
 10
97.4515
 20
172.58885
 30
0.0
 11
98.51220000000001
 21
180.08885
 31
0.0
  0
LINE
  5
19D
330
1E
100
AcDbEntity
  8
0
100
AcDbLine
 10
112.5
 20
172.58885
 30
0.0
 11
114.0
 21
180.08885
 31
0.0
  0
LINE
  5
19E
330
1E
100
AcDbEntity
  8
0
100
AcDbLine
 10
110.5199999999999
 20
172.58885
 30
0.0
 11
112.5
 21
172.58885
 31
0.0
  0
LINE
  5
19F
330
1E
100
AcDbEntity
  8
0
100
AcDbLine
 10
105.24
 20
172.58885
 30
0.0
 11
110.5199999999999
 21
172.58885
 31
0.0
  0
LINE
  5
1A0
330
1E
100
AcDbEntity
  8
0
100
AcDbLine
 10
96.44
 20
172.58885
 30
0.0
 11
105.24
 21
172.58885
 31
0.0
  0
LINE
  5
1A1
330
1E
100
AcDbEntity
  8
0
100
AcDbLine
 10
84.77999999999999
 20
172.58885
 30
0.0
 11
96.44
 21
172.58885
 31
0.0
  0
LINE
  5
1A2
330
1E
100
AcDbEntity
  8
0
100
AcDbLine
 10
71.58
 20
172.58885
 30
0.0
 11
84.77999999999999
 21
172.58885
 31
0.0
  0
LINE
  5
1A3
330
1E
100
AcDbEntity
  8
0
100
AcDbLine
 10
50.0807
 20
180.08885
 30
0.0
 11
57.5
 21
180.08885
 31
0.0
  0
LINE
  5
1A4
330
1E
100
AcDbEntity
  8
0
100
AcDbLine
 10
50.0807
 20
181.08885
 30
0.0
 11
57.5
 21
181.08885
 31
0.0
  0
LINE
  5
1A5
330
1E
100
AcDbEntity
  8
0
100
AcDbLine
 10
54.77759999999999
 20
184.08885
 30
0.0
 11
55.2795
 21
184.08885
 31
0.0
  0
LINE
  5
1A6
330
1E
100
AcDbEntity
  8
0
100
AcDbLine
 10
54.4765
 20
184.08885
 30
0.0
 11
54.77759999999999
 21
184.08885
 31
0.0
  0
LINE
  5
1A7
330
1E
100
AcDbEntity
  8
0
100
AcDbLine
 10
55.2795
 20
184.08885
 30
0.0
 11
55.9444
 21
184.08885
 31
0.0
  0
LINE
  5
1A8
330
1E
100
AcDbEntity
  8
0
100
AcDbLine
 10
56.0
 20
180.08885
 30
0.0
 11
56.0
 21
172.58885
 31
0.0
  0
LINE
  5
1A9
330
1E
100
AcDbEntity
  8
0
100
AcDbLine
 10
56.0
 20
180.08885
 30
0.0
 11
59.0
 21
180.08885
 31
0.0
  0
LINE
  5
1AA
330
1E
100
AcDbEntity
  8
0
100
AcDbLine
 10
59.0
 20
180.08885
 30
0.0
 11
96.39090000000001
 21
180.08885
 31
0.0
  0
LINE
  5
1AB
330
1E
100
AcDbEntity
  8
0
100
AcDbLine
 10
59.0
 20
180.08885
 30
0.0
 11
59.0
 21
172.58885
 31
0.0
  0
LINE
  5
1AC
330
1E
100
AcDbEntity
  8
0
100
AcDbLine
 10
59.0
 20
180.08885
 30
0.0
 11
96.39090000000001
 21
180.08885
 31
0.0
  0
LINE
  5
1AD
330
1E
100
AcDbEntity
  8
0
100
AcDbLine
 10
96.39090000000001
 20
180.08885
 30
0.0
 11
98.51220000000001
 21
180.08885
 31
0.0
  0
LINE
  5
1AE
330
1E
100
AcDbEntity
  8
0
100
AcDbLine
 10
98.51220000000001
 20
180.08885
 30
0.0
 11
114.0
 21
180.08885
 31
0.0
  0
LINE
  5
1AF
330
1E
100
AcDbEntity
  8
0
100
AcDbLine
 10
98.3065
 20
180.08885
 30
0.0
 11
103.1579999999999
 21
180.08885
 31
0.0
  0
LINE
  5
1B0
330
1E
100
AcDbEntity
  8
0
100
AcDbLine
 10
103.1579999999999
 20
180.08885
 30
0.0
 11
107.295
 21
180.08885
 31
0.0
  0
LINE
  5
1B1
330
1E
100
AcDbEntity
  8
0
100
AcDbLine
 10
107.295
 20
180.08885
 30
0.0
 11
110.949
 21
180.08885
 31
0.0
  0
LINE
  5
1B2
330
1E
100
AcDbEntity
  8
0
100
AcDbLine
 10
110.949
 20
180.08885
 30
0.0
 11
113.002
 21
180.08885
 31
0.0
  0
LINE
  5
1B3
330
1E
100
AcDbEntity
  8
0
100
AcDbLine
 10
113.002
 20
180.08885
 30
0.0
 11
114.572
 21
180.08885
 31
0.0
  0
LINE
  5
1B4
330
1E
100
AcDbEntity
  8
0
100
AcDbLine
 10
92.5993
 20
180.08885
 30
0.0
 11
98.3065
 21
180.08885
 31
0.0
  0
LINE
  5
1B5
330
1E
100
AcDbEntity
  8
0
100
AcDbLine
 10
86.03610000000001
 20
180.08885
 30
0.0
 11
92.5993
 21
180.08885
 31
0.0
  0
LINE
  5
1B6
330
1E
100
AcDbEntity
  8
0
100
AcDbLine
 10
79.3037
 20
180.08885
 30
0.0
 11
86.03610000000001
 21
180.08885
 31
0.0
  0
LINE
  5
1B7
330
1E
100
AcDbEntity
  8
0
100
AcDbLine
 10
72.1961
 20
180.08885
 30
0.0
 11
79.3037
 21
180.08885
 31
0.0
  0
LINE
  5
1B8
330
1E
100
AcDbEntity
  8
0
100
AcDbLine
 10
64.9193
 20
180.08885
 30
0.0
 11
72.1961
 21
180.08885
 31
0.0
  0
LINE
  5
1B9
330
1E
100
AcDbEntity
  8
0
100
AcDbLine
 10
57.5
 20
180.08885
 30
0.0
 11
64.9193
 21
180.08885
 31
0.0
  0
LINE
  5
1BA
330
1E
100
AcDbEntity
  8
0
100
AcDbLine
 10
98.3065
 20
181.08885
 30
0.0
 11
103.1579999999999
 21
181.08885
 31
0.0
  0
LINE
  5
1BB
330
1E
100
AcDbEntity
  8
0
100
AcDbLine
 10
103.1579999999999
 20
181.08885
 30
0.0
 11
107.295
 21
181.08885
 31
0.0
  0
LINE
  5
1BC
330
1E
100
AcDbEntity
  8
0
100
AcDbLine
 10
107.295
 20
181.08885
 30
0.0
 11
110.949
 21
181.08885
 31
0.0
  0
LINE
  5
1BD
330
1E
100
AcDbEntity
  8
0
100
AcDbLine
 10
110.949
 20
181.08885
 30
0.0
 11
113.002
 21
181.08885
 31
0.0
  0
LINE
  5
1BE
330
1E
100
AcDbEntity
  8
0
100
AcDbLine
 10
113.002
 20
181.08885
 30
0.0
 11
114.572
 21
181.08885
 31
0.0
  0
LINE
  5
1BF
330
1E
100
AcDbEntity
  8
0
100
AcDbLine
 10
114.572
 20
181.08885
 30
0.0
 11
115.0
 21
181.08885
 31
0.0
  0
LINE
  5
1C0
330
1E
100
AcDbEntity
  8
0
100
AcDbLine
 10
92.5993
 20
181.08885
 30
0.0
 11
98.3065
 21
181.08885
 31
0.0
  0
LINE
  5
1C1
330
1E
100
AcDbEntity
  8
0
100
AcDbLine
 10
86.03610000000001
 20
181.08885
 30
0.0
 11
92.5993
 21
181.08885
 31
0.0
  0
LINE
  5
1C2
330
1E
100
AcDbEntity
  8
0
100
AcDbLine
 10
79.3037
 20
181.08885
 30
0.0
 11
86.03610000000001
 21
181.08885
 31
0.0
  0
LINE
  5
1C3
330
1E
100
AcDbEntity
  8
0
100
AcDbLine
 10
72.1961
 20
181.08885
 30
0.0
 11
79.3037
 21
181.08885
 31
0.0
  0
LINE
  5
1C4
330
1E
100
AcDbEntity
  8
0
100
AcDbLine
 10
64.9193
 20
181.08885
 30
0.0
 11
72.1961
 21
181.08885
 31
0.0
  0
LINE
  5
1C5
330
1E
100
AcDbEntity
  8
0
100
AcDbLine
 10
57.5
 20
181.08885
 30
0.0
 11
64.9193
 21
181.08885
 31
0.0
  0
LINE
  5
1C6
330
1E
100
AcDbEntity
  8
0
100
AcDbLine
 10
114.0
 20
180.08885
 30
0.0
 11
114.572
 21
180.08885
 31
0.0
  0
LINE
  5
1C7
330
1E
100
AcDbEntity
  8
0
100
AcDbLine
 10
115.0
 20
180.08885
 30
0.0
 11
115.0
 21
181.08885
 31
0.0
  0
LINE
  5
1C8
330
1E
100
AcDbEntity
  8
0
100
AcDbLine
 10
115.0
 20
181.08885
 30
0.0
 11
115.0
 21
180.08885
 31
0.0
  0
LINE
  5
1C9
330
1E
100
AcDbEntity
  8
0
100
AcDbLine
 10
114.572
 20
180.08885
 30
0.0
 11
115.0
 21
180.08885
 31
0.0
  0
LINE
  5
1CA
330
1E
100
AcDbEntity
  8
0
100
AcDbLine
 10
59.7205
 20
184.08885
 30
0.0
 11
60.2224
 21
184.08885
 31
0.0
  0
LINE
  5
1CB
330
1E
100
AcDbEntity
  8
0
100
AcDbLine
 10
60.2224
 20
184.08885
 30
0.0
 11
60.5235
 21
184.08885
 31
0.0
  0
LINE
  5
1CC
330
1E
100
AcDbEntity
  8
0
100
AcDbLine
 10
60.5235
 20
184.08885
 30
0.0
 11
60.6364
 21
184.08885
 31
0.0
  0
LINE
  5
1CD
330
1E
100
AcDbEntity
  8
0
100
AcDbLine
 10
59.0556
 20
184.08885
 30
0.0
 11
59.7205
 21
184.08885
 31
0.0
  0
LINE
  5
1CE
330
1E
100
AcDbEntity
  8
0
100
AcDbLine
 10
58.3029
 20
184.08885
 30
0.0
 11
59.0556
 21
184.08885
 31
0.0
  0
LINE
  5
1CF
330
1E
100
AcDbEntity
  8
0
100
AcDbLine
 10
57.5
 20
184.08885
 30
0.0
 11
58.3029
 21
184.08885
 31
0.0
  0
LINE
  5
1D0
330
1E
100
AcDbEntity
  8
0
100
AcDbLine
 10
68.6289
 20
183.97585
 30
0.0
 11
79.3301
 21
183.69485
 31
0.0
  0
LINE
  5
1D1
330
1E
100
AcDbEntity
  8
0
100
AcDbLine
 10
79.3301
 20
183.69485
 30
0.0
 11
90.03100000000001
 21
183.1888499999999
 31
0.0
  0
LINE
  5
1D2
330
1E
100
AcDbEntity
  8
0
100
AcDbLine
 10
90.03100000000001
 20
183.1888499999999
 30
0.0
 11
99.8759
 21
182.56985
 31
0.0
  0
LINE
  5
1D3
330
1E
100
AcDbEntity
  8
0
100
AcDbLine
 10
99.8759
 20
182.56985
 30
0.0
 11
109.2929999999999
 21
181.72585
 31
0.0
  0
LINE
  5
1D4
330
1E
100
AcDbEntity
  8
0
100
AcDbLine
 10
109.2929999999999
 20
181.72585
 30
0.0
 11
115.0
 21
181.08885
 31
0.0
  0
LINE
  5
1D5
330
1E
100
AcDbEntity
  8
0
100
AcDbLine
 10
55.9444
 20
184.08885
 30
0.0
 11
56.6971
 21
184.08885
 31
0.0
  0
LINE
  5
1D6
330
1E
100
AcDbEntity
  8
0
100
AcDbLine
 10
56.6971
 20
184.08885
 30
0.0
 11
57.5
 21
184.08885
 31
0.0
  0
LINE
  5
1D7
330
1E
100
AcDbEntity
  8
0
100
AcDbLine
 10
54.3636
 20
184.08885
 30
0.0
 11
54.4765
 21
184.08885
 31
0.0
  0
LINE
  5
1D8
330
1E
100
AcDbEntity
  8
0
100
AcDbLine
 10
57.5
 20
172.58885
 30
0.0
 11
71.58
 21
172.58885
 31
0.0
  0
LINE
  5
1D9
330
1E
100
AcDbEntity
  8
0
100
AcDbLine
 10
43.42
 20
172.58885
 30
0.0
 11
57.5
 21
172.58885
 31
0.0
  0
LINE
  5
1DA
330
1E
100
AcDbEntity
  8
0
100
AcDbLine
 10
43.42
 20
170.58885
 30
0.0
 11
57.5
 21
170.58885
 31
0.0
  0
LINE
  5
1DB
330
1E
100
AcDbEntity
  8
0
100
AcDbLine
 10
15.0714
 20
156.5888499999999
 30
0.0
 11
15.0714
 21
170.58885
 31
0.0
  0
LINE
  5
1DC
330
1E
100
AcDbEntity
  8
0
100
AcDbLine
 10
15.0714
 20
145.58885
 30
0.0
 11
15.0714
 21
152.58885
 31
0.0
  0
LINE
  5
1DD
330
1E
100
AcDbEntity
  8
0
100
AcDbLine
 10
9.760000000000008
 20
170.58885
 30
0.0
 11
15.0714
 21
170.58885
 31
0.0
  0
LINE
  5
1DE
330
1E
100
AcDbEntity
  8
0
100
AcDbLine
 10
9.760000000000008
 20
170.58885
 30
0.0
 11
18.55999999999999
 21
170.58885
 31
0.0
  0
LINE
  5
1E3
330
1E
100
AcDbEntity
  8
0
100
AcDbLine
 10
54.4765
 20
184.08885
 30
0.0
 11
46.37109999999999
 21
183.97585
 31
0.0
  0
LINE
  5
1E4
330
1E
100
AcDbEntity
  8
0
100
AcDbLine
 10
60.6364
 20
184.08885
 30
0.0
 11
68.6289
 21
183.97585
 31
0.0
  0
ENDSEC
  0
SECTION
  2
OBJECTS
  0
DICTIONARY
  5
C
330
0
100
AcDbDictionary
281
     1
  3
ACAD_GROUP
350
D
  3
ACAD_LAYOUT
350
19
  3
ACAD_MLINESTYLE
350
16
  3
ACAD_PLOTSETTINGS
350
18
  3
ACAD_PLOTSTYLENAME
350
E
  3
AcDbVariableDictionary
350
1E5
  0
DICTIONARY
  5
D
102
{ACAD_REACTORS
330
C
102
}
330
C
100
AcDbDictionary
281
     1
  0
DICTIONARY
  5
19
102
{ACAD_REACTORS
330
C
102
}
330
C
100
AcDbDictionary
281
     1
  3
Layout1
350
1D
  3
Model
350
21
  0
DICTIONARY
  5
16
102
{ACAD_REACTORS
330
C
102
}
330
C
100
AcDbDictionary
281
     1
  3
Standard
350
17
  0
DICTIONARY
  5
18
102
{ACAD_REACTORS
330
C
102
}
330
C
100
AcDbDictionary
281
     1
  0
ACDBDICTIONARYWDFLT
  5
E
102
{ACAD_REACTORS
330
C
102
}
330
C
100
AcDbDictionary
281
     1
  3
Normal
350
F
100
AcDbDictionaryWithDefault
340
F
  0
DICTIONARY
  5
1E5
102
{ACAD_REACTORS
330
C
102
}
330
C
100
AcDbDictionary
281
     1
  3
DIMASSOC
350
1E6
  0
LAYOUT
  5
1D
102
{ACAD_REACTORS
330
19
102
}
330
19
100
AcDbPlotSettings
  1

  2
hp deskjet 980c series
  4

  6

 40
0.0
 41
0.0
 42
0.0
 43
0.0
 44
0.0
 45
0.0
 46
0.0
 47
0.0
 48
0.0
 49
0.0
140
0.0
141
0.0
142
1.0
143
1.0
 70
   688
 72
     0
 73
     0
 74
     5
  7

 75
    16
147
1.0
148
0.0
149
0.0
100
AcDbLayout
  1
Layout1
 70
     1
 71
     1
 10
0.0
 20
0.0
 11
12.0
 21
9.0
 12
0.0
 22
0.0
 32
0.0
 14
1.000000000000000E+20
 24
1.000000000000000E+20
 34
1.000000000000000E+20
 15
-1.000000000000000E+20
 25
-1.000000000000000E+20
 35
-1.000000000000000E+20
146
0.0
 13
0.0
 23
0.0
 33
0.0
 16
1.0
 26
0.0
 36
0.0
 17
0.0
 27
1.0
 37
0.0
 76
     0
330
1A
  0
LAYOUT
  5
21
102
{ACAD_REACTORS
330
19
102
}
330
19
100
AcDbPlotSettings
  1

  2
hp deskjet 980c series
  4

  6

 40
0.0
 41
0.0
 42
0.0
 43
0.0
 44
0.0
 45
0.0
 46
0.0
 47
0.0
 48
0.0
 49
0.0
140
0.0
141
0.0
142
1.0
143
1.0
 70
  1712
 72
     0
 73
     0
 74
     0
  7

 75
     0
147
1.0
148
0.0
149
0.0
100
AcDbLayout
  1
Model
 70
     1
 71
     0
 10
0.0
 20
0.0
 11
12.0
 21
9.0
 12
0.0
 22
0.0
 32
0.0
 14
0.0
 24
0.0
 34
0.0
 15
0.0
 25
0.0
 35
0.0
146
0.0
 13
0.0
 23
0.0
 33
0.0
 16
1.0
 26
0.0
 36
0.0
 17
0.0
 27
1.0
 37
0.0
 76
     0
330
1E
  0
MLINESTYLE
  5
17
102
{ACAD_REACTORS
330
16
102
}
330
16
100
AcDbMlineStyle
  2
STANDARD
 70
     0
  3

 62
   256
 51
90.0
 52
90.0
 71
     2
 49
0.5
 62
   256
  6
BYLAYER
 49
-0.5
 62
   256
  6
BYLAYER
  0
ACDBPLACEHOLDER
  5
F
102
{ACAD_REACTORS
330
E
102
}
330
E
  0
DICTIONARYVAR
  5
1E6
102
{ACAD_REACTORS
330
1E5
102
}
330
1E5
100
DictionaryVariables
280
     0
  1
1
  0
ENDSEC
  0
EOF
