  0
SECTION
  2
HEADER
  9
$ACADVER
  1
AC1015
  9
$ACADMAINTVER
 70
    13
  9
$DWGCODEPAGE
  3
ANSI_1252
  9
$INSBASE
 10
0.0
 20
0.0
 30
0.0
  9
$EXTMIN
 10
-0.0890000000000168
 20
-0.0888499999999914
 30
0.0
  9
$EXTMAX
 10
300.089
 20
184.08885
 30
0.0
  9
$LIMMIN
 10
0.0
 20
0.0
  9
$LIMMAX
 10
12.0
 20
9.0
  9
$ORTHOMODE
 70
     0
  9
$REGENMODE
 70
     1
  9
$FILLMODE
 70
     1
  9
$QTEXTMODE
 70
     0
  9
$MIRRTEXT
 70
     1
  9
$LTSCALE
 40
1.0
  9
$ATTMODE
 70
     1
  9
$TEXTSIZE
 40
0.2
  9
$TRACEWID
 40
0.05
  9
$TEXTSTYLE
  7
Standard
  9
$CLAYER
  8
0
  9
$CELTYPE
  6
Continuous
  9
$CECOLOR
 62
   256
  9
$CELTSCALE
 40
1.0
  9
$DISPSILH
 70
     0
  9
$DIMSCALE
 40
1.0
  9
$DIMASZ
 40
0.18
  9
$DIMEXO
 40
0.0625
  9
$DIMDLI
 40
0.38
  9
$DIMRND
 40
0.0
  9
$DIMDLE
 40
0.0
  9
$DIMEXE
 40
0.18
  9
$DIMTP
 40
0.0
  9
$DIMTM
 40
0.0
  9
$DIMTXT
 40
0.18
  9
$DIMCEN
 40
0.09
  9
$DIMTSZ
 40
0.0
  9
$DIMTOL
 70
     0
  9
$DIMLIM
 70
     0
  9
$DIMTIH
 70
     1
  9
$DIMTOH
 70
     1
  9
$DIMSE1
 70
     0
  9
$DIMSE2
 70
     0
  9
$DIMTAD
 70
     0
  9
$DIMZIN
 70
     0
  9
$DIMBLK
  1

  9
$DIMASO
 70
     1
  9
$DIMSHO
 70
     1
  9
$DIMPOST
  1

  9
$DIMAPOST
  1

  9
$DIMALT
 70
     0
  9
$DIMALTD
 70
     2
  9
$DIMALTF
 40
25.4
  9
$DIMLFAC
 40
1.0
  9
$DIMTOFL
 70
     0
  9
$DIMTVP
 40
0.0
  9
$DIMTIX
 70
     0
  9
$DIMSOXD
 70
     0
  9
$DIMSAH
 70
     0
  9
$DIMBLK1
  1

  9
$DIMBLK2
  1

  9
$DIMSTYLE
  2
Standard
  9
$DIMCLRD
 70
     0
  9
$DIMCLRE
 70
     0
  9
$DIMCLRT
 70
     0
  9
$DIMTFAC
 40
1.0
  9
$DIMGAP
 40
0.09
  9
$DIMJUST
 70
     0
  9
$DIMSD1
 70
     0
  9
$DIMSD2
 70
     0
  9
$DIMTOLJ
 70
     1
  9
$DIMTZIN
 70
     0
  9
$DIMALTZ
 70
     0
  9
$DIMALTTZ
 70
     0
  9
$DIMUPT
 70
     0
  9
$DIMDEC
 70
     4
  9
$DIMTDEC
 70
     4
  9
$DIMALTU
 70
     2
  9
$DIMALTTD
 70
     2
  9
$DIMTXSTY
  7
Standard
  9
$DIMAUNIT
 70
     0
  9
$DIMADEC
 70
     0
  9
$DIMALTRND
 40
0.0
  9
$DIMAZIN
 70
     0
  9
$DIMDSEP
 70
    46
  9
$DIMATFIT
 70
     3
  9
$DIMFRAC
 70
     0
  9
$DIMLDRBLK
  1

  9
$DIMLUNIT
 70
     2
  9
$DIMLWD
 70
    -2
  9
$DIMLWE
 70
    -2
  9
$DIMTMOVE
 70
     0
  9
$LUNITS
 70
     2
  9
$LUPREC
 70
     4
  9
$SKETCHINC
 40
0.1
  9
$FILLETRAD
 40
0.0
  9
$AUNITS
 70
     0
  9
$AUPREC
 70
     0
  9
$MENU
  1
.
  9
$ELEVATION
 40
0.0
  9
$PELEVATION
 40
0.0
  9
$THICKNESS
 40
0.0
  9
$LIMCHECK
 70
     0
  9
$CHAMFERA
 40
0.0
  9
$CHAMFERB
 40
0.0
  9
$CHAMFERC
 40
0.0
  9
$CHAMFERD
 40
0.0
  9
$SKPOLY
 70
     0
  9
$TDCREATE
 40
2454906.855092951
  9
$TDUCREATE
 40
2454906.813426284
  9
$TDUPDATE
 40
2454906.856953298
  9
$TDUUPDATE
 40
2454906.815286632
  9
$TDINDWG
 40
0.0018628819
  9
$TDUSRTIMER
 40
0.0018628819
  9
$USRTIMER
 70
     1
  9
$ANGBASE
 50
0.0
  9
$ANGDIR
 70
     0
  9
$PDMODE
 70
     0
  9
$PDSIZE
 40
0.0
  9
$PLINEWID
 40
0.0
  9
$SPLFRAME
 70
     0
  9
$SPLINETYPE
 70
     6
  9
$SPLINESEGS
 70
     8
  9
$HANDSEED
  5
222
  9
$SURFTAB1
 70
     6
  9
$SURFTAB2
 70
     6
  9
$SURFTYPE
 70
     6
  9
$SURFU
 70
     6
  9
$SURFV
 70
     6
  9
$UCSBASE
  2

  9
$UCSNAME
  2

  9
$UCSORG
 10
0.0
 20
0.0
 30
0.0
  9
$UCSXDIR
 10
1.0
 20
0.0
 30
0.0
  9
$UCSYDIR
 10
0.0
 20
1.0
 30
0.0
  9
$UCSORTHOREF
  2

  9
$UCSORTHOVIEW
 70
     1
  9
$UCSORGTOP
 10
0.0
 20
0.0
 30
0.0
  9
$UCSORGBOTTOM
 10
0.0
 20
0.0
 30
0.0
  9
$UCSORGLEFT
 10
0.0
 20
0.0
 30
0.0
  9
$UCSORGRIGHT
 10
0.0
 20
0.0
 30
0.0
  9
$UCSORGFRONT
 10
0.0
 20
0.0
 30
0.0
  9
$UCSORGBACK
 10
0.0
 20
0.0
 30
0.0
  9
$PUCSBASE
  2

  9
$PUCSNAME
  2

  9
$PUCSORG
 10
0.0
 20
0.0
 30
0.0
  9
$PUCSXDIR
 10
1.0
 20
0.0
 30
0.0
  9
$PUCSYDIR
 10
0.0
 20
1.0
 30
0.0
  9
$PUCSORTHOREF
  2

  9
$PUCSORTHOVIEW
 70
     0
  9
$PUCSORGTOP
 10
0.0
 20
0.0
 30
0.0
  9
$PUCSORGBOTTOM
 10
0.0
 20
0.0
 30
0.0
  9
$PUCSORGLEFT
 10
0.0
 20
0.0
 30
0.0
  9
$PUCSORGRIGHT
 10
0.0
 20
0.0
 30
0.0
  9
$PUCSORGFRONT
 10
0.0
 20
0.0
 30
0.0
  9
$PUCSORGBACK
 10
0.0
 20
0.0
 30
0.0
  9
$USERI1
 70
     0
  9
$USERI2
 70
     0
  9
$USERI3
 70
     0
  9
$USERI4
 70
     0
  9
$USERI5
 70
     0
  9
$USERR1
 40
0.0
  9
$USERR2
 40
0.0
  9
$USERR3
 40
0.0
  9
$USERR4
 40
0.0
  9
$USERR5
 40
0.0
  9
$WORLDVIEW
 70
     1
  9
$SHADEDGE
 70
     3
  9
$SHADEDIF
 70
    70
  9
$TILEMODE
 70
     1
  9
$MAXACTVP
 70
    64
  9
$PINSBASE
 10
0.0
 20
0.0
 30
0.0
  9
$PLIMCHECK
 70
     0
  9
$PEXTMIN
 10
1.000000000000000E+20
 20
1.000000000000000E+20
 30
1.000000000000000E+20
  9
$PEXTMAX
 10
-1.000000000000000E+20
 20
-1.000000000000000E+20
 30
-1.000000000000000E+20
  9
$PLIMMIN
 10
0.0
 20
0.0
  9
$PLIMMAX
 10
12.0
 20
9.0
  9
$UNITMODE
 70
     0
  9
$VISRETAIN
 70
     1
  9
$PLINEGEN
 70
     0
  9
$PSLTSCALE
 70
     1
  9
$TREEDEPTH
 70
  3020
  9
$CMLSTYLE
  2
Standard
  9
$CMLJUST
 70
     0
  9
$CMLSCALE
 40
1.0
  9
$PROXYGRAPHICS
 70
     1
  9
$MEASUREMENT
 70
     0
  9
$CELWEIGHT
370
    -1
  9
$ENDCAPS
280
     0
  9
$JOINSTYLE
280
     0
  9
$LWDISPLAY
290
     0
  9
$INSUNITS
 70
     0
  9
$HYPERLINKBASE
  1

  9
$STYLESHEET
  1

  9
$XEDIT
290
     1
  9
$CEPSNTYPE
380
     0
  9
$PSTYLEMODE
290
     1
  9
$FINGERPRINTGUID
  2
{10FBC613-0328-452A-A680-1584B9B8E23A}
  9
$VERSIONGUID
  2
{8DFE25E6-5B3A-4253-94B0-CB91F5BC8586}
  9
$EXTNAMES
290
     1
  9
$PSVPSCALE
 40
0.0
  9
$OLESTARTUP
290
     0
  0
ENDSEC
  0
SECTION
  2
CLASSES
  0
CLASS
  1
ACDBDICTIONARYWDFLT
  2
AcDbDictionaryWithDefault
  3
AutoCAD 2000
 90
        0
280
     0
281
     0
  0
CLASS
  1
ACDBPLACEHOLDER
  2
AcDbPlaceHolder
  3
AutoCAD 2000
 90
        0
280
     0
281
     0
  0
CLASS
  1
LAYOUT
  2
AcDbLayout
  3
AutoCAD 2000
 90
        0
280
     0
281
     0
  0
CLASS
  1
DICTIONARYVAR
  2
AcDbDictionaryVar
  3
AutoCAD 2000
 90
        0
280
     0
281
     0
  0
ENDSEC
  0
SECTION
  2
TABLES
  0
TABLE
  2
VPORT
  5
8
330
0
100
AcDbSymbolTable
 70
     2
  0
VPORT
  5
221
330
8
100
AcDbSymbolTableRecord
100
AcDbViewportTableRecord
  2
*Active
 70
     0
 10
0.0
 20
0.0
 11
1.0
 21
1.0
 12
149.9999999999999
 22
92.0
 13
0.0
 23
0.0
 14
1.0
 24
1.0
 15
0.0
 25
0.0
 16
0.0
 26
0.0
 36
1.0
 17
0.0
 27
0.0
 37
0.0
 40
185.3409275789473
 41
1.968387776606954
 42
50.0
 43
0.0
 44
0.0
 50
0.0
 51
0.0
 71
     0
 72
   100
 73
     1
 74
     3
 75
     0
 76
     0
 77
     0
 78
     0
281
     0
 65
     1
110
0.0
120
0.0
130
0.0
111
1.0
121
0.0
131
0.0
112
0.0
122
1.0
132
0.0
 79
     1
146
0.0
  0
ENDTAB
  0
TABLE
  2
LTYPE
  5
5
330
0
100
AcDbSymbolTable
 70
     1
  0
LTYPE
  5
13
330
5
100
AcDbSymbolTableRecord
100
AcDbLinetypeTableRecord
  2
ByBlock
 70
     0
  3

 72
    65
 73
     0
 40
0.0
  0
LTYPE
  5
14
330
5
100
AcDbSymbolTableRecord
100
AcDbLinetypeTableRecord
  2
ByLayer
 70
     0
  3

 72
    65
 73
     0
 40
0.0
  0
LTYPE
  5
15
330
5
100
AcDbSymbolTableRecord
100
AcDbLinetypeTableRecord
  2
Continuous
 70
     0
  3
Solid line
 72
    65
 73
     0
 40
0.0
  0
ENDTAB
  0
TABLE
  2
LAYER
  5
2
330
0
100
AcDbSymbolTable
 70
     1
  0
LAYER
  5
10
330
2
100
AcDbSymbolTableRecord
100
AcDbLayerTableRecord
  2
0
 70
     0
 62
     7
  6
Continuous
370
    -3
390
F
  0
ENDTAB
  0
TABLE
  2
STYLE
  5
3
330
0
100
AcDbSymbolTable
 70
     1
  0
STYLE
  5
11
330
3
100
AcDbSymbolTableRecord
100
AcDbTextStyleTableRecord
  2
Standard
 70
     0
 40
0.0
 41
1.0
 50
0.0
 71
     0
 42
0.2
  3
txt
  4

  0
ENDTAB
  0
TABLE
  2
VIEW
  5
6
330
0
100
AcDbSymbolTable
 70
     0
  0
ENDTAB
  0
TABLE
  2
UCS
  5
7
330
0
100
AcDbSymbolTable
 70
     0
  0
ENDTAB
  0
TABLE
  2
APPID
  5
9
330
0
100
AcDbSymbolTable
 70
     1
  0
APPID
  5
12
330
9
100
AcDbSymbolTableRecord
100
AcDbRegAppTableRecord
  2
ACAD
 70
     0
  0
ENDTAB
  0
TABLE
  2
DIMSTYLE
  5
A
330
0
100
AcDbSymbolTable
 70
     1
100
AcDbDimStyleTable
 71
     0
  0
DIMSTYLE
105
216
330
A
100
AcDbSymbolTableRecord
100
AcDbDimStyleTableRecord
  2
Standard
 70
     0
340
11
  0
ENDTAB
  0
TABLE
  2
BLOCK_RECORD
  5
1
330
0
100
AcDbSymbolTable
 70
     0
  0
BLOCK_RECORD
  5
1E
330
1
100
AcDbSymbolTableRecord
100
AcDbBlockTableRecord
  2
*Model_Space
340
21
  0
BLOCK_RECORD
  5
1A
330
1
100
AcDbSymbolTableRecord
100
AcDbBlockTableRecord
  2
*Paper_Space
340
1D
  0
ENDTAB
  0
ENDSEC
  0
SECTION
  2
BLOCKS
  0
BLOCK
  5
1F
330
1E
100
AcDbEntity
  8
0
100
AcDbBlockBegin
  2
*Model_Space
 70
     0
 10
0.0
 20
0.0
 30
0.0
  3
*Model_Space
  1

  0
ENDBLK
  5
20
330
1E
100
AcDbEntity
  8
0
100
AcDbBlockEnd
  0
BLOCK
  5
1B
330
1A
100
AcDbEntity
 67
     1
  8
0
100
AcDbBlockBegin
  2
*Paper_Space
 70
     0
 10
0.0
 20
0.0
 30
0.0
  3
*Paper_Space
  1

  0
ENDBLK
  5
1C
330
1A
100
AcDbEntity
 67
     1
  8
0
100
AcDbBlockEnd
  0
ENDSEC
  0
SECTION
  2
ENTITIES
  0
LINE
  5
22
330
1E
100
AcDbEntity
  8
0
100
AcDbLine
 10
2.41099999999998
 20
145.58885
 30
0.0
 11
4.390999999999979
 21
145.58885
 31
0.0
  0
LINE
  5
23
330
1E
100
AcDbEntity
  8
0
100
AcDbLine
 10
2.41099999999998
 20
145.58885
 30
0.0
 11
2.41099999999998
 21
143.4221499999999
 31
0.0
  0
LINE
  5
24
330
1E
100
AcDbEntity
  8
0
100
AcDbLine
 10
2.41099999999998
 20
143.4221499999999
 30
0.0
 11
4.390999999999979
 21
143.4221499999999
 31
0.0
  0
LINE
  5
25
330
1E
100
AcDbEntity
  8
0
100
AcDbLine
 10
2.41099999999998
 20
143.4221499999999
 30
0.0
 11
2.41099999999998
 21
145.58885
 31
0.0
  0
LINE
  5
26
330
1E
100
AcDbEntity
  8
0
100
AcDbLine
 10
2.41099999999998
 20
143.4221499999999
 30
0.0
 11
3.752459999999979
 21
143.4221499999999
 31
0.0
  0
LINE
  5
27
330
1E
100
AcDbEntity
  8
0
100
AcDbLine
 10
2.41099999999998
 20
143.4221499999999
 30
0.0
 11
3.752459999999979
 21
143.4221499999999
 31
0.0
  0
LINE
  5
28
330
1E
100
AcDbEntity
  8
0
100
AcDbLine
 10
2.41099999999998
 20
156.5888499999999
 30
0.0
 11
2.41099999999998
 21
152.58885
 31
0.0
  0
LINE
  5
29
330
1E
100
AcDbEntity
  8
0
100
AcDbLine
 10
2.41099999999998
 20
156.5888499999999
 30
0.0
 11
4.390999999999979
 21
156.5888499999999
 31
0.0
  0
LINE
  5
2A
330
1E
100
AcDbEntity
  8
0
100
AcDbLine
 10
2.41099999999998
 20
152.58885
 30
0.0
 11
4.390999999999979
 21
152.58885
 31
0.0
  0
LINE
  5
2B
330
1E
100
AcDbEntity
  8
0
100
AcDbLine
 10
2.41099999999998
 20
152.58885
 30
0.0
 11
2.41099999999998
 21
156.5888499999999
 31
0.0
  0
LINE
  5
2C
330
1E
100
AcDbEntity
  8
0
100
AcDbLine
 10
-0.0890000000000168
 20
180.08885
 30
0.0
 11
0.339038999999983
 21
180.08885
 31
0.0
  0
LINE
  5
2D
330
1E
100
AcDbEntity
  8
0
100
AcDbLine
 10
-0.0890000000000168
 20
180.08885
 30
0.0
 11
-0.0890000000000168
 21
181.08885
 31
0.0
  0
LINE
  5
2E
330
1E
100
AcDbEntity
  8
0
100
AcDbLine
 10
0.9109999999999828
 20
180.08885
 30
0.0
 11
2.41099999999998
 21
172.58885
 31
0.0
  0
LINE
  5
2F
330
1E
100
AcDbEntity
  8
0
100
AcDbLine
 10
0.9109999999999899
 20
180.08885
 30
0.0
 11
16.3988
 21
180.08885
 31
0.0
  0
LINE
  5
30
330
1E
100
AcDbEntity
  8
0
100
AcDbLine
 10
0.9109999999999828
 20
180.08885
 30
0.0
 11
2.41099999999998
 21
172.58885
 31
0.0
  0
LINE
  5
31
330
1E
100
AcDbEntity
  8
0
100
AcDbLine
 10
0.9109999999999828
 20
180.08885
 30
0.0
 11
16.3988
 21
180.08885
 31
0.0
  0
LINE
  5
32
330
1E
100
AcDbEntity
  8
0
100
AcDbLine
 10
0.339038999999983
 20
180.08885
 30
0.0
 11
1.908519999999979
 21
180.08885
 31
0.0
  0
LINE
  5
33
330
1E
100
AcDbEntity
  8
0
100
AcDbLine
 10
0.339038999999983
 20
180.08885
 30
0.0
 11
0.9109999999999828
 21
180.08885
 31
0.0
  0
LINE
  5
34
330
1E
100
AcDbEntity
  8
0
100
AcDbLine
 10
1.908519999999979
 20
180.08885
 30
0.0
 11
3.961639999999979
 21
180.08885
 31
0.0
  0
LINE
  5
35
330
1E
100
AcDbEntity
  8
0
100
AcDbLine
 10
0.339038999999983
 20
181.08885
 30
0.0
 11
1.908519999999979
 21
181.08885
 31
0.0
  0
LINE
  5
36
330
1E
100
AcDbEntity
  8
0
100
AcDbLine
 10
0.339038999999983
 20
180.08885
 30
0.0
 11
1.908519999999979
 21
180.08885
 31
0.0
  0
LINE
  5
37
330
1E
100
AcDbEntity
  8
0
100
AcDbLine
 10
0.339038999999983
 20
180.08885
 30
0.0
 11
0.9109999999999828
 21
180.08885
 31
0.0
  0
LINE
  5
38
330
1E
100
AcDbEntity
  8
0
100
AcDbLine
 10
1.908519999999979
 20
181.08885
 30
0.0
 11
3.961639999999979
 21
181.08885
 31
0.0
  0
LINE
  5
39
330
1E
100
AcDbEntity
  8
0
100
AcDbLine
 10
0.339038999999983
 20
181.08885
 30
0.0
 11
1.908519999999979
 21
181.08885
 31
0.0
  0
LINE
  5
3A
330
1E
100
AcDbEntity
  8
0
100
AcDbLine
 10
-0.0890000000000168
 20
181.08885
 30
0.0
 11
0.339038999999983
 21
181.08885
 31
0.0
  0
LINE
  5
3B
330
1E
100
AcDbEntity
  8
0
100
AcDbLine
 10
-0.0890000000000168
 20
181.08885
 30
0.0
 11
5.618199999999981
 21
181.72585
 31
0.0
  0
LINE
  5
3C
330
1E
100
AcDbEntity
  8
0
100
AcDbLine
 10
-0.0890000000000168
 20
181.08885
 30
0.0
 11
-0.0890000000000168
 21
180.08885
 31
0.0
  0
LINE
  5
3D
330
1E
100
AcDbEntity
  8
0
100
AcDbLine
 10
2.41099999999998
 20
172.58885
 30
0.0
 11
2.41099999999998
 21
170.58885
 31
0.0
  0
LINE
  5
3E
330
1E
100
AcDbEntity
  8
0
100
AcDbLine
 10
2.41099999999998
 20
172.58885
 30
0.0
 11
4.390999999999979
 21
172.58885
 31
0.0
  0
LINE
  5
3F
330
1E
100
AcDbEntity
  8
0
100
AcDbLine
 10
3.752459999999979
 20
138.00555
 30
0.0
 11
14.9892
 21
77.28846
 31
0.0
  0
LINE
  5
40
330
1E
100
AcDbEntity
  8
0
100
AcDbLine
 10
3.752459999999979
 20
143.4221499999999
 30
0.0
 11
3.752459999999979
 21
138.00555
 31
0.0
  0
LINE
  5
41
330
1E
100
AcDbEntity
  8
0
100
AcDbLine
 10
3.752459999999979
 20
143.4221499999999
 30
0.0
 11
5.684169999999981
 21
143.4221499999999
 31
0.0
  0
LINE
  5
42
330
1E
100
AcDbEntity
  8
0
100
AcDbLine
 10
4.390999999999979
 20
145.58885
 30
0.0
 11
9.67099999999999
 21
145.58885
 31
0.0
  0
LINE
  5
43
330
1E
100
AcDbEntity
  8
0
100
AcDbLine
 10
4.390999999999979
 20
143.4221499999999
 30
0.0
 11
9.67099999999999
 21
143.4221499999999
 31
0.0
  0
LINE
  5
44
330
1E
100
AcDbEntity
  8
0
100
AcDbLine
 10
3.752459999999979
 20
138.00555
 30
0.0
 11
14.9892
 21
77.28846
 31
0.0
  0
LINE
  5
45
330
1E
100
AcDbEntity
  8
0
100
AcDbLine
 10
3.752459999999979
 20
138.00555
 30
0.0
 11
3.752459999999979
 21
143.4221499999999
 31
0.0
  0
LINE
  5
46
330
1E
100
AcDbEntity
  8
0
100
AcDbLine
 10
4.390999999999979
 20
156.5888499999999
 30
0.0
 11
9.67099999999999
 21
156.5888499999999
 31
0.0
  0
LINE
  5
47
330
1E
100
AcDbEntity
  8
0
100
AcDbLine
 10
4.390999999999979
 20
145.58885
 30
0.0
 11
9.67099999999999
 21
145.58885
 31
0.0
  0
LINE
  5
48
330
1E
100
AcDbEntity
  8
0
100
AcDbLine
 10
4.390999999999979
 20
143.4221499999999
 30
0.0
 11
9.67099999999999
 21
143.4221499999999
 31
0.0
  0
LINE
  5
49
330
1E
100
AcDbEntity
  8
0
100
AcDbLine
 10
9.67099999999999
 20
145.58885
 30
0.0
 11
18.471
 21
145.58885
 31
0.0
  0
LINE
  5
4A
330
1E
100
AcDbEntity
  8
0
100
AcDbLine
 10
9.67099999999999
 20
143.4221499999999
 30
0.0
 11
18.471
 21
143.4221499999999
 31
0.0
  0
LINE
  5
4B
330
1E
100
AcDbEntity
  8
0
100
AcDbLine
 10
5.684169999999981
 20
143.4221499999999
 30
0.0
 11
10.83539999999999
 21
143.4221499999999
 31
0.0
  0
LINE
  5
4C
330
1E
100
AcDbEntity
  8
0
100
AcDbLine
 10
9.67099999999999
 20
152.58885
 30
0.0
 11
14.9824
 21
152.58885
 31
0.0
  0
LINE
  5
4D
330
1E
100
AcDbEntity
  8
0
100
AcDbLine
 10
4.390999999999979
 20
152.58885
 30
0.0
 11
9.67099999999999
 21
152.58885
 31
0.0
  0
LINE
  5
4E
330
1E
100
AcDbEntity
  8
0
100
AcDbLine
 10
4.390999999999979
 20
152.58885
 30
0.0
 11
9.67099999999999
 21
152.58885
 31
0.0
  0
LINE
  5
4F
330
1E
100
AcDbEntity
  8
0
100
AcDbLine
 10
4.390999999999979
 20
156.5888499999999
 30
0.0
 11
9.67099999999999
 21
156.5888499999999
 31
0.0
  0
LINE
  5
50
330
1E
100
AcDbEntity
  8
0
100
AcDbLine
 10
9.67099999999999
 20
156.5888499999999
 30
0.0
 11
18.471
 21
156.5888499999999
 31
0.0
  0
LINE
  5
51
330
1E
100
AcDbEntity
  8
0
100
AcDbLine
 10
9.67099999999999
 20
152.58885
 30
0.0
 11
18.471
 21
152.58885
 31
0.0
  0
LINE
  5
52
330
1E
100
AcDbEntity
  8
0
100
AcDbLine
 10
4.390999999999979
 20
152.58885
 30
0.0
 11
9.67099999999999
 21
152.58885
 31
0.0
  0
LINE
  5
53
330
1E
100
AcDbEntity
  8
0
100
AcDbLine
 10
4.390999999999979
 20
152.58885
 30
0.0
 11
9.67099999999999
 21
152.58885
 31
0.0
  0
LINE
  5
54
330
1E
100
AcDbEntity
  8
0
100
AcDbLine
 10
4.390999999999979
 20
170.58885
 30
0.0
 11
9.67099999999999
 21
170.58885
 31
0.0
  0
LINE
  5
55
330
1E
100
AcDbEntity
  8
0
100
AcDbLine
 10
10.83539999999999
 20
143.4221499999999
 30
0.0
 11
19.42079999999999
 21
143.4221499999999
 31
0.0
  0
LINE
  5
56
330
1E
100
AcDbEntity
  8
0
100
AcDbLine
 10
14.9824
 20
156.5888499999999
 30
0.0
 11
14.9824
 21
170.58885
 31
0.0
  0
LINE
  5
57
330
1E
100
AcDbEntity
  8
0
100
AcDbLine
 10
14.9824
 20
145.58885
 30
0.0
 11
14.9824
 21
152.58885
 31
0.0
  0
LINE
  5
58
330
1E
100
AcDbEntity
  8
0
100
AcDbLine
 10
16.5043
 20
77.28846
 30
0.0
 11
20.6454
 21
77.28846
 31
0.0
  0
LINE
  5
59
330
1E
100
AcDbEntity
  8
0
100
AcDbLine
 10
14.9892
 20
77.28846
 30
0.0
 11
18.0193
 21
74.76909
 31
0.0
  0
LINE
  5
5A
330
1E
100
AcDbEntity
  8
0
100
AcDbLine
 10
14.9892
 20
77.28846
 30
0.0
 11
16.5043
 21
77.28846
 31
0.0
  0
LINE
  5
5B
330
1E
100
AcDbEntity
  8
0
100
AcDbLine
 10
18.471
 20
143.4221499999999
 30
0.0
 11
30.131
 21
143.4221499999999
 31
0.0
  0
LINE
  5
5C
330
1E
100
AcDbEntity
  8
0
100
AcDbLine
 10
18.471
 20
145.58885
 30
0.0
 11
30.131
 21
145.58885
 31
0.0
  0
LINE
  5
5D
330
1E
100
AcDbEntity
  8
0
100
AcDbLine
 10
19.42079999999999
 20
143.4221499999999
 30
0.0
 11
30.79639999999999
 21
143.4221499999999
 31
0.0
  0
LINE
  5
5E
330
1E
100
AcDbEntity
  8
0
100
AcDbLine
 10
18.0193
 20
74.76909
 30
0.0
 11
23.0695
 21
72.24971
 31
0.0
  0
LINE
  5
5F
330
1E
100
AcDbEntity
  8
0
100
AcDbLine
 10
18.471
 20
156.5888499999999
 30
0.0
 11
30.131
 21
156.5888499999999
 31
0.0
  0
LINE
  5
60
330
1E
100
AcDbEntity
  8
0
100
AcDbLine
 10
18.471
 20
152.58885
 30
0.0
 11
30.131
 21
152.58885
 31
0.0
  0
LINE
  5
61
330
1E
100
AcDbEntity
  8
0
100
AcDbLine
 10
20.6454
 20
77.28846
 30
0.0
 11
27.4127
 21
77.28846
 31
0.0
  0
LINE
  5
62
330
1E
100
AcDbEntity
  8
0
100
AcDbLine
 10
30.131
 20
145.58885
 30
0.0
 11
43.331
 21
145.58885
 31
0.0
  0
LINE
  5
63
330
1E
100
AcDbEntity
  8
0
100
AcDbLine
 10
30.131
 20
143.4221499999999
 30
0.0
 11
43.331
 21
143.4221499999999
 31
0.0
  0
LINE
  5
64
330
1E
100
AcDbEntity
  8
0
100
AcDbLine
 10
27.4127
 20
77.28846
 30
0.0
 11
36.3011
 21
77.28846
 31
0.0
  0
LINE
  5
65
330
1E
100
AcDbEntity
  8
0
100
AcDbLine
 10
23.0695
 20
72.24971
 30
0.0
 11
30.1399
 21
70.2342
 31
0.0
  0
LINE
  5
66
330
1E
100
AcDbEntity
  8
0
100
AcDbLine
 10
30.131
 20
156.5888499999999
 30
0.0
 11
43.331
 21
156.5888499999999
 31
0.0
  0
LINE
  5
67
330
1E
100
AcDbEntity
  8
0
100
AcDbLine
 10
30.131
 20
152.58885
 30
0.0
 11
43.331
 21
152.58885
 31
0.0
  0
LINE
  5
68
330
1E
100
AcDbEntity
  8
0
100
AcDbLine
 10
27.3716
 20
170.58885
 30
0.0
 11
36.36639999999999
 21
170.58885
 31
0.0
  0
LINE
  5
69
330
1E
100
AcDbEntity
  8
0
100
AcDbLine
 10
20.583
 20
170.58885
 30
0.0
 11
27.3716
 21
170.58885
 31
0.0
  0
LINE
  5
6A
330
1E
100
AcDbEntity
  8
0
100
AcDbLine
 10
16.5099
 20
170.58885
 30
0.0
 11
20.583
 21
170.58885
 31
0.0
  0
LINE
  5
6B
330
1E
100
AcDbEntity
  8
0
100
AcDbLine
 10
14.9824
 20
152.58885
 30
0.0
 11
14.9824
 21
145.58885
 31
0.0
  0
LINE
  5
6C
330
1E
100
AcDbEntity
  8
0
100
AcDbLine
 10
14.9824
 20
170.58885
 30
0.0
 11
14.9824
 21
156.5888499999999
 31
0.0
  0
LINE
  5
6D
330
1E
100
AcDbEntity
  8
0
100
AcDbLine
 10
14.9824
 20
170.58885
 30
0.0
 11
16.5099
 21
170.58885
 31
0.0
  0
LINE
  5
6E
330
1E
100
AcDbEntity
  8
0
100
AcDbLine
 10
30.79639999999999
 20
143.4221499999999
 30
0.0
 11
43.6744
 21
143.4221499999999
 31
0.0
  0
LINE
  5
6F
330
1E
100
AcDbEntity
  8
0
100
AcDbLine
 10
36.3011
 20
77.28846
 30
0.0
 11
46.50249999999999
 21
77.28846
 31
0.0
  0
LINE
  5
70
330
1E
100
AcDbEntity
  8
0
100
AcDbLine
 10
30.1399
 20
70.2342
 30
0.0
 11
38.2202
 21
68.72256999999999
 31
0.0
  0
LINE
  5
71
330
1E
100
AcDbEntity
  8
0
100
AcDbLine
 10
57.411
 20
67.58884999999999
 30
0.0
 11
67.51139999999999
 21
67.840788
 31
0.0
  0
LINE
  5
72
330
1E
100
AcDbEntity
  8
0
100
AcDbLine
 10
57.411
 20
77.28846
 30
0.0
 11
68.3195
 21
77.28846
 31
0.0
  0
LINE
  5
73
330
1E
100
AcDbEntity
  8
0
100
AcDbLine
 10
43.331
 20
145.58885
 30
0.0
 11
57.411
 21
145.58885
 31
0.0
  0
LINE
  5
74
330
1E
100
AcDbEntity
  8
0
100
AcDbLine
 10
43.331
 20
143.4221499999999
 30
0.0
 11
57.411
 21
143.4221499999999
 31
0.0
  0
LINE
  5
75
330
1E
100
AcDbEntity
  8
0
100
AcDbLine
 10
57.411
 20
145.58885
 30
0.0
 11
71.491
 21
145.58885
 31
0.0
  0
LINE
  5
76
330
1E
100
AcDbEntity
  8
0
100
AcDbLine
 10
57.411
 20
143.4221499999999
 30
0.0
 11
71.1476
 21
143.4221499999999
 31
0.0
  0
LINE
  5
77
330
1E
100
AcDbEntity
  8
0
100
AcDbLine
 10
57.411
 20
143.4221499999999
 30
0.0
 11
71.491
 21
143.4221499999999
 31
0.0
  0
LINE
  5
78
330
1E
100
AcDbEntity
  8
0
100
AcDbLine
 10
43.6744
 20
143.4221499999999
 30
0.0
 11
57.411
 21
143.4221499999999
 31
0.0
  0
LINE
  5
79
330
1E
100
AcDbEntity
  8
0
100
AcDbLine
 10
46.50249999999999
 20
77.28846
 30
0.0
 11
57.411
 21
77.28846
 31
0.0
  0
LINE
  5
7A
330
1E
100
AcDbEntity
  8
0
100
AcDbLine
 10
38.2202
 20
68.72256999999999
 30
0.0
 11
47.3106
 21
67.840788
 31
0.0
  0
LINE
  5
7B
330
1E
100
AcDbEntity
  8
0
100
AcDbLine
 10
47.3106
 20
67.840788
 30
0.0
 11
57.411
 21
67.58884999999999
 31
0.0
  0
LINE
  5
7C
330
1E
100
AcDbEntity
  8
0
100
AcDbLine
 10
67.51139999999999
 20
67.840788
 30
0.0
 11
76.6018
 21
68.72256999999999
 31
0.0
  0
LINE
  5
7D
330
1E
100
AcDbEntity
  8
0
100
AcDbLine
 10
57.411
 20
152.58885
 30
0.0
 11
71.491
 21
152.58885
 31
0.0
  0
LINE
  5
7E
330
1E
100
AcDbEntity
  8
0
100
AcDbLine
 10
57.411
 20
156.5888499999999
 30
0.0
 11
71.491
 21
156.5888499999999
 31
0.0
  0
LINE
  5
7F
330
1E
100
AcDbEntity
  8
0
100
AcDbLine
 10
43.331
 20
156.5888499999999
 30
0.0
 11
57.411
 21
156.5888499999999
 31
0.0
  0
LINE
  5
80
330
1E
100
AcDbEntity
  8
0
100
AcDbLine
 10
43.331
 20
152.58885
 30
0.0
 11
57.411
 21
152.58885
 31
0.0
  0
LINE
  5
81
330
1E
100
AcDbEntity
  8
0
100
AcDbLine
 10
71.491
 20
143.4221499999999
 30
0.0
 11
84.691
 21
143.4221499999999
 31
0.0
  0
LINE
  5
82
330
1E
100
AcDbEntity
  8
0
100
AcDbLine
 10
71.491
 20
145.58885
 30
0.0
 11
80.051
 21
145.58885
 31
0.0
  0
LINE
  5
83
330
1E
100
AcDbEntity
  8
0
100
AcDbLine
 10
71.1476
 20
143.4221499999999
 30
0.0
 11
80.47439999999999
 21
143.4221499999999
 31
0.0
  0
LINE
  5
84
330
1E
100
AcDbEntity
  8
0
100
AcDbLine
 10
68.3195
 20
77.28846
 30
0.0
 11
78.5209
 21
77.28846
 31
0.0
  0
LINE
  5
85
330
1E
100
AcDbEntity
  8
0
100
AcDbLine
 10
71.491
 20
156.5888499999999
 30
0.0
 11
84.691
 21
156.5888499999999
 31
0.0
  0
LINE
  5
86
330
1E
100
AcDbEntity
  8
0
100
AcDbLine
 10
71.491
 20
152.58885
 30
0.0
 11
84.691
 21
152.58885
 31
0.0
  0
LINE
  5
87
330
1E
100
AcDbEntity
  8
0
100
AcDbLine
 10
68.2727
 20
170.58885
 30
0.0
 11
78.4556
 21
170.58885
 31
0.0
  0
LINE
  5
88
330
1E
100
AcDbEntity
  8
0
100
AcDbLine
 10
57.411
 20
170.58885
 30
0.0
 11
71.491
 21
170.58885
 31
0.0
  0
LINE
  5
89
330
1E
100
AcDbEntity
  8
0
100
AcDbLine
 10
57.411
 20
170.58885
 30
0.0
 11
68.2727
 21
170.58885
 31
0.0
  0
LINE
  5
8A
330
1E
100
AcDbEntity
  8
0
100
AcDbLine
 10
80.051
 20
145.58885
 30
0.0
 11
88.451
 21
145.58885
 31
0.0
  0
LINE
  5
8B
330
1E
100
AcDbEntity
  8
0
100
AcDbLine
 10
80.051
 20
143.4221499999999
 30
0.0
 11
88.451
 21
143.4221499999999
 31
0.0
  0
LINE
  5
8C
330
1E
100
AcDbEntity
  8
0
100
AcDbLine
 10
80.47439999999999
 20
143.4221499999999
 30
0.0
 11
88.6695
 21
143.4221499999999
 31
0.0
  0
LINE
  5
8D
330
1E
100
AcDbEntity
  8
0
100
AcDbLine
 10
78.5209
 20
77.28846
 30
0.0
 11
87.4093
 21
77.28846
 31
0.0
  0
LINE
  5
8E
330
1E
100
AcDbEntity
  8
0
100
AcDbLine
 10
84.6821
 20
70.2342
 30
0.0
 11
91.7525
 21
72.24971
 31
0.0
  0
LINE
  5
8F
330
1E
100
AcDbEntity
  8
0
100
AcDbLine
 10
76.6018
 20
68.72256999999999
 30
0.0
 11
84.6821
 21
70.2342
 31
0.0
  0
LINE
  5
90
330
1E
100
AcDbEntity
  8
0
100
AcDbLine
 10
84.691
 20
156.5888499999999
 30
0.0
 11
96.35100000000001
 21
156.5888499999999
 31
0.0
  0
LINE
  5
91
330
1E
100
AcDbEntity
  8
0
100
AcDbLine
 10
87.4093
 20
77.28846
 30
0.0
 11
94.17659999999999
 21
77.28846
 31
0.0
  0
LINE
  5
92
330
1E
100
AcDbEntity
  8
0
100
AcDbLine
 10
84.691
 20
152.58885
 30
0.0
 11
96.35100000000001
 21
152.58885
 31
0.0
  0
LINE
  5
93
330
1E
100
AcDbEntity
  8
0
100
AcDbLine
 10
78.4556
 20
170.58885
 30
0.0
 11
87.45040000000001
 21
170.58885
 31
0.0
  0
LINE
  5
94
330
1E
100
AcDbEntity
  8
0
100
AcDbLine
 10
88.451
 20
143.4221499999999
 30
0.0
 11
97.41100000000001
 21
143.4221499999999
 31
0.0
  0
LINE
  5
95
330
1E
100
AcDbEntity
  8
0
100
AcDbLine
 10
88.451
 20
145.58885
 30
0.0
 11
97.41100000000001
 21
145.58885
 31
0.0
  0
LINE
  5
96
330
1E
100
AcDbEntity
  8
0
100
AcDbLine
 10
88.6695
 20
143.4221499999999
 30
0.0
 11
97.41100000000001
 21
143.4221499999999
 31
0.0
  0
LINE
  5
97
330
1E
100
AcDbEntity
  8
0
100
AcDbLine
 10
94.17659999999999
 20
77.28846
 30
0.0
 11
98.3177
 21
77.28846
 31
0.0
  0
LINE
  5
98
330
1E
100
AcDbEntity
  8
0
100
AcDbLine
 10
91.7525
 20
72.24971
 30
0.0
 11
96.8027
 21
74.76909
 31
0.0
  0
LINE
  5
99
330
1E
100
AcDbEntity
  8
0
100
AcDbLine
 10
96.35100000000001
 20
156.5888499999999
 30
0.0
 11
105.151
 21
156.5888499999999
 31
0.0
  0
LINE
  5
9A
330
1E
100
AcDbEntity
  8
0
100
AcDbLine
 10
96.35100000000001
 20
152.58885
 30
0.0
 11
105.151
 21
152.58885
 31
0.0
  0
LINE
  5
9B
330
1E
100
AcDbEntity
  8
0
100
AcDbLine
 10
87.45040000000001
 20
170.58885
 30
0.0
 11
94.23899999999999
 21
170.58885
 31
0.0
  0
LINE
  5
9C
330
1E
100
AcDbEntity
  8
0
100
AcDbLine
 10
94.23899999999999
 20
170.58885
 30
0.0
 11
98.3121
 21
170.58885
 31
0.0
  0
LINE
  5
9D
330
1E
100
AcDbEntity
  8
0
100
AcDbLine
 10
71.491
 20
170.58885
 30
0.0
 11
84.691
 21
170.58885
 31
0.0
  0
LINE
  5
9E
330
1E
100
AcDbEntity
  8
0
100
AcDbLine
 10
84.691
 20
170.58885
 30
0.0
 11
96.35100000000001
 21
170.58885
 31
0.0
  0
LINE
  5
9F
330
1E
100
AcDbEntity
  8
0
100
AcDbLine
 10
99.8328
 20
77.28846
 30
0.0
 11
102.0829069239119
 21
89.44628798284169
 31
0.0
  0
LINE
  5
A0
330
1E
100
AcDbEntity
  8
0
100
AcDbLine
 10
97.41100000000001
 20
145.58885
 30
0.0
 11
106.371
 21
145.58885
 31
0.0
  0
LINE
  5
A1
330
1E
100
AcDbEntity
  8
0
100
AcDbLine
 10
97.41100000000001
 20
143.4221499999999
 30
0.0
 11
106.152
 21
143.4221499999999
 31
0.0
  0
LINE
  5
A2
330
1E
100
AcDbEntity
  8
0
100
AcDbLine
 10
97.41100000000001
 20
143.4221499999999
 30
0.0
 11
106.371
 21
143.4221499999999
 31
0.0
  0
LINE
  5
A3
330
1E
100
AcDbEntity
  8
0
100
AcDbLine
 10
106.371
 20
143.4221499999999
 30
0.0
 11
114.771
 21
143.4221499999999
 31
0.0
  0
LINE
  5
A4
330
1E
100
AcDbEntity
  8
0
100
AcDbLine
 10
106.371
 20
145.58885
 30
0.0
 11
114.771
 21
145.58885
 31
0.0
  0
LINE
  5
A5
330
1E
100
AcDbEntity
  8
0
100
AcDbLine
 10
106.152
 20
143.4221499999999
 30
0.0
 11
114.348
 21
143.4221499999999
 31
0.0
  0
LINE
  5
A6
330
1E
100
AcDbEntity
  8
0
100
AcDbLine
 10
109.623
 20
90.38925
 30
0.0
 11
113.7034016669969
 21
91.58884999999999
 31
0.0
  0
LINE
  5
A7
330
1E
100
AcDbEntity
  8
0
100
AcDbLine
 10
103.8389999999999
 20
89.50745000000001
 30
0.0
 11
109.623
 21
90.38925
 31
0.0
  0
LINE
  5
A8
330
1E
100
AcDbEntity
  8
0
100
AcDbLine
 10
102.081479708692
 20
89.43857642168941
 30
0.0
 11
103.8389999999999
 21
89.50745000000001
 31
0.0
  0
LINE
  5
A9
330
1E
100
AcDbEntity
  8
0
100
AcDbLine
 10
98.3177
 20
77.28846
 30
0.0
 11
99.8328
 21
77.28846
 31
0.0
  0
LINE
  5
AA
330
1E
100
AcDbEntity
  8
0
100
AcDbLine
 10
96.8027
 20
74.76909
 30
0.0
 11
99.8328
 21
77.28846
 31
0.0
  0
LINE
  5
AB
330
1E
100
AcDbEntity
  8
0
100
AcDbLine
 10
99.83960000000001
 20
152.58885
 30
0.0
 11
105.151
 21
152.58885
 31
0.0
  0
LINE
  5
AC
330
1E
100
AcDbEntity
  8
0
100
AcDbLine
 10
99.83960000000001
 20
152.58885
 30
0.0
 11
99.83960000000001
 21
145.58885
 31
0.0
  0
LINE
  5
AD
330
1E
100
AcDbEntity
  8
0
100
AcDbLine
 10
99.83960000000001
 20
170.58885
 30
0.0
 11
105.151
 21
170.58885
 31
0.0
  0
LINE
  5
AE
330
1E
100
AcDbEntity
  8
0
100
AcDbLine
 10
99.83960000000001
 20
170.58885
 30
0.0
 11
99.83960000000001
 21
156.5888499999999
 31
0.0
  0
LINE
  5
AF
330
1E
100
AcDbEntity
  8
0
100
AcDbLine
 10
98.3121
 20
170.58885
 30
0.0
 11
99.83960000000001
 21
170.58885
 31
0.0
  0
LINE
  5
B0
330
1E
100
AcDbEntity
  8
0
100
AcDbLine
 10
105.151
 20
152.58885
 30
0.0
 11
110.4309999999999
 21
152.58885
 31
0.0
  0
LINE
  5
B1
330
1E
100
AcDbEntity
  8
0
100
AcDbLine
 10
105.151
 20
152.58885
 30
0.0
 11
110.4309999999999
 21
152.58885
 31
0.0
  0
LINE
  5
B2
330
1E
100
AcDbEntity
  8
0
100
AcDbLine
 10
105.151
 20
156.5888499999999
 30
0.0
 11
110.4309999999999
 21
156.5888499999999
 31
0.0
  0
LINE
  5
B3
330
1E
100
AcDbEntity
  8
0
100
AcDbLine
 10
110.4309999999999
 20
156.5888499999999
 30
0.0
 11
112.4109999999999
 21
156.5888499999999
 31
0.0
  0
LINE
  5
B4
330
1E
100
AcDbEntity
  8
0
100
AcDbLine
 10
110.4309999999999
 20
152.58885
 30
0.0
 11
112.4109999999999
 21
152.58885
 31
0.0
  0
LINE
  5
B5
330
1E
100
AcDbEntity
  8
0
100
AcDbLine
 10
99.83960000000001
 20
156.5888499999999
 30
0.0
 11
99.83960000000001
 21
170.58885
 31
0.0
  0
LINE
  5
B6
330
1E
100
AcDbEntity
  8
0
100
AcDbLine
 10
99.83960000000001
 20
145.58885
 30
0.0
 11
99.83960000000001
 21
152.58885
 31
0.0
  0
LINE
  5
B7
330
1E
100
AcDbEntity
  8
0
100
AcDbLine
 10
96.35100000000001
 20
170.58885
 30
0.0
 11
105.151
 21
170.58885
 31
0.0
  0
LINE
  5
B8
330
1E
100
AcDbEntity
  8
0
100
AcDbLine
 10
105.151
 20
170.58885
 30
0.0
 11
110.4309999999999
 21
170.58885
 31
0.0
  0
LINE
  5
B9
330
1E
100
AcDbEntity
  8
0
100
AcDbLine
 10
112.4109999999999
 20
156.5888499999999
 30
0.0
 11
112.4109999999999
 21
152.58885
 31
0.0
  0
LINE
  5
D3
330
1E
100
AcDbEntity
  8
0
100
AcDbLine
 10
264.733
 20
-0.0888499999999914
 30
0.0
 11
300.089
 21
35.26655
 31
0.0
  0
LINE
  5
D4
330
1E
100
AcDbEntity
  8
0
100
AcDbLine
 10
137.4109999999999
 20
85.58885
 30
0.0
 11
137.4109999999999
 21
86.52485
 31
0.0
  0
LINE
  5
D5
330
1E
100
AcDbEntity
  8
0
100
AcDbLine
 10
137.4109999999999
 20
85.58885
 30
0.0
 11
139.4109999999999
 21
85.58885
 31
0.0
  0
LINE
  5
D6
330
1E
100
AcDbEntity
  8
0
100
AcDbLine
 10
113.610496328637
 20
91.58884999999999
 30
0.0
 11
137.4109999999999
 21
91.58884999999999
 31
0.0
  0
LINE
  5
D7
330
1E
100
AcDbEntity
  8
0
100
AcDbLine
 10
137.4109999999999
 20
92.30885
 30
0.0
 11
137.4109999999999
 21
94.22884999999999
 31
0.0
  0
LINE
  5
D8
330
1E
100
AcDbEntity
  8
0
100
AcDbLine
 10
137.4109999999999
 20
91.58884999999999
 30
0.0
 11
137.4109999999999
 21
89.02084999999999
 31
0.0
  0
LINE
  5
D9
330
1E
100
AcDbEntity
  8
0
100
AcDbLine
 10
137.4109999999999
 20
91.58884999999999
 30
0.0
 11
137.4109999999999
 21
92.30885
 31
0.0
  0
LINE
  5
DA
330
1E
100
AcDbEntity
  8
0
100
AcDbLine
 10
137.4109999999999
 20
86.52485
 30
0.0
 11
137.4109999999999
 21
89.02084999999999
 31
0.0
  0
LINE
  5
DB
330
1E
100
AcDbEntity
  8
0
100
AcDbLine
 10
137.4109999999999
 20
86.52485
 30
0.0
 11
137.4109999999999
 21
85.58885
 31
0.0
  0
LINE
  5
DC
330
1E
100
AcDbEntity
  8
0
100
AcDbLine
 10
137.4109999999999
 20
89.02084999999999
 30
0.0
 11
137.4109999999999
 21
93.18085000000001
 31
0.0
  0
LINE
  5
DD
330
1E
100
AcDbEntity
  8
0
100
AcDbLine
 10
137.4109999999999
 20
89.02084999999999
 30
0.0
 11
137.4109999999999
 21
86.52485
 31
0.0
  0
LINE
  5
DE
330
1E
100
AcDbEntity
  8
0
100
AcDbLine
 10
137.4109999999999
 20
89.02084999999999
 30
0.0
 11
137.4109999999999
 21
91.58884999999999
 31
0.0
  0
LINE
  5
DF
330
1E
100
AcDbEntity
  8
0
100
AcDbLine
 10
137.4109999999999
 20
94.22884999999999
 30
0.0
 11
137.4109999999999
 21
97.42885000000001
 31
0.0
  0
LINE
  5
E0
330
1E
100
AcDbEntity
  8
0
100
AcDbLine
 10
137.4109999999999
 20
97.42885000000001
 30
0.0
 11
137.4109999999999
 21
101.66885
 31
0.0
  0
LINE
  5
E1
330
1E
100
AcDbEntity
  8
0
100
AcDbLine
 10
137.4109999999999
 20
101.66885
 30
0.0
 11
137.4109999999999
 21
106.46885
 31
0.0
  0
LINE
  5
E2
330
1E
100
AcDbEntity
  8
0
100
AcDbLine
 10
137.4109999999999
 20
93.18085000000001
 30
0.0
 11
137.4109999999999
 21
98.69285000000001
 31
0.0
  0
LINE
  5
E3
330
1E
100
AcDbEntity
  8
0
100
AcDbLine
 10
137.4109999999999
 20
93.18085000000001
 30
0.0
 11
137.4109999999999
 21
89.02084999999999
 31
0.0
  0
LINE
  5
E4
330
1E
100
AcDbEntity
  8
0
100
AcDbLine
 10
139.4109999999999
 20
85.58885
 30
0.0
 11
139.4109999999999
 21
86.52485
 31
0.0
  0
LINE
  5
E5
330
1E
100
AcDbEntity
  8
0
100
AcDbLine
 10
139.4109999999999
 20
90.00525000000001
 30
0.0
 11
153.411
 21
90.00525000000001
 31
0.0
  0
LINE
  5
E6
330
1E
100
AcDbEntity
  8
0
100
AcDbLine
 10
139.4109999999999
 20
89.00525
 30
0.0
 11
153.411
 21
89.00525
 31
0.0
  0
LINE
  5
E7
330
1E
100
AcDbEntity
  8
0
100
AcDbLine
 10
139.4109999999999
 20
88.58884999999999
 30
0.0
 11
153.411
 21
88.58884999999999
 31
0.0
  0
LINE
  5
E8
330
1E
100
AcDbEntity
  8
0
100
AcDbLine
 10
139.4109999999999
 20
86.52485
 30
0.0
 11
139.4109999999999
 21
89.02084999999999
 31
0.0
  0
LINE
  5
E9
330
1E
100
AcDbEntity
  8
0
100
AcDbLine
 10
139.4109999999999
 20
86.52485
 30
0.0
 11
139.4109999999999
 21
85.58885
 31
0.0
  0
LINE
  5
EA
330
1E
100
AcDbEntity
  8
0
100
AcDbLine
 10
139.4109999999999
 20
89.02084999999999
 30
0.0
 11
139.4109999999999
 21
93.18085000000001
 31
0.0
  0
LINE
  5
EB
330
1E
100
AcDbEntity
  8
0
100
AcDbLine
 10
139.4109999999999
 20
89.02084999999999
 30
0.0
 11
139.4109999999999
 21
86.52485
 31
0.0
  0
LINE
  5
EC
330
1E
100
AcDbEntity
  8
0
100
AcDbLine
 10
139.4109999999999
 20
93.18085000000001
 30
0.0
 11
139.4109999999999
 21
98.69285000000001
 31
0.0
  0
LINE
  5
ED
330
1E
100
AcDbEntity
  8
0
100
AcDbLine
 10
139.4109999999999
 20
93.18085000000001
 30
0.0
 11
139.4109999999999
 21
89.02084999999999
 31
0.0
  0
LINE
  5
EE
330
1E
100
AcDbEntity
  8
0
100
AcDbLine
 10
153.411
 20
91.58884999999999
 30
0.0
 11
175.4109999999999
 21
91.58884999999999
 31
0.0
  0
LINE
  5
EF
330
1E
100
AcDbEntity
  8
0
100
AcDbLine
 10
153.411
 20
90.00525000000001
 30
0.0
 11
153.411
 21
92.60324999999999
 31
0.0
  0
LINE
  5
F0
330
1E
100
AcDbEntity
  8
0
100
AcDbLine
 10
153.411
 20
90.00525000000001
 30
0.0
 11
153.411
 21
89.00525
 31
0.0
  0
LINE
  5
F1
330
1E
100
AcDbEntity
  8
0
100
AcDbLine
 10
153.411
 20
89.00525
 30
0.0
 11
153.411
 21
88.58884999999999
 31
0.0
  0
LINE
  5
F2
330
1E
100
AcDbEntity
  8
0
100
AcDbLine
 10
153.411
 20
89.00525
 30
0.0
 11
153.411
 21
90.00525000000001
 31
0.0
  0
LINE
  5
F3
330
1E
100
AcDbEntity
  8
0
100
AcDbLine
 10
153.411
 20
88.58884999999999
 30
0.0
 11
153.411
 21
89.00525
 31
0.0
  0
LINE
  5
F4
330
1E
100
AcDbEntity
  8
0
100
AcDbLine
 10
153.411
 20
92.60324999999999
 30
0.0
 11
153.411
 21
95.30485
 31
0.0
  0
LINE
  5
F5
330
1E
100
AcDbEntity
  8
0
100
AcDbLine
 10
153.411
 20
92.60324999999999
 30
0.0
 11
153.411
 21
90.00525000000001
 31
0.0
  0
LINE
  5
F6
330
1E
100
AcDbEntity
  8
0
100
AcDbLine
 10
183.189
 20
88.36705
 30
0.0
 11
229.349
 21
41.63734999999999
 31
0.0
  0
LINE
  5
F7
330
1E
100
AcDbEntity
  8
0
100
AcDbLine
 10
178.2579999999999
 20
91.21405000000001
 30
0.0
 11
180.9109999999999
 21
90.11515000000001
 31
0.0
  0
LINE
  5
F8
330
1E
100
AcDbEntity
  8
0
100
AcDbLine
 10
175.4109999999999
 20
91.58884999999999
 30
0.0
 11
178.2579999999999
 21
91.21405000000001
 31
0.0
  0
LINE
  5
F9
330
1E
100
AcDbEntity
  8
0
100
AcDbLine
 10
180.9109999999999
 20
90.11515000000001
 30
0.0
 11
183.189
 21
88.36705
 31
0.0
  0
LINE
  5
FA
330
1E
100
AcDbEntity
  8
0
100
AcDbLine
 10
153.411
 20
95.30485
 30
0.0
 11
153.411
 21
100.18085
 31
0.0
  0
LINE
  5
FB
330
1E
100
AcDbEntity
  8
0
100
AcDbLine
 10
153.411
 20
95.30485
 30
0.0
 11
153.411
 21
92.60324999999999
 31
0.0
  0
LINE
  5
FC
330
1E
100
AcDbEntity
  8
0
100
AcDbLine
 10
153.411
 20
100.18085
 30
0.0
 11
153.411
 21
105.70085
 31
0.0
  0
LINE
  5
FD
330
1E
100
AcDbEntity
  8
0
100
AcDbLine
 10
153.411
 20
100.18085
 30
0.0
 11
153.411
 21
95.30485
 31
0.0
  0
LINE
  5
FE
330
1E
100
AcDbEntity
  8
0
100
AcDbLine
 10
139.4109999999999
 20
98.69285000000001
 30
0.0
 11
139.4109999999999
 21
104.93285
 31
0.0
  0
LINE
  5
FF
330
1E
100
AcDbEntity
  8
0
100
AcDbLine
 10
139.4109999999999
 20
98.69285000000001
 30
0.0
 11
139.4109999999999
 21
93.18085000000001
 31
0.0
  0
LINE
  5
100
330
1E
100
AcDbEntity
  8
0
100
AcDbLine
 10
139.4109999999999
 20
104.93285
 30
0.0
 11
139.4109999999999
 21
111.58885
 31
0.0
  0
LINE
  5
101
330
1E
100
AcDbEntity
  8
0
100
AcDbLine
 10
139.4109999999999
 20
104.93285
 30
0.0
 11
139.4109999999999
 21
98.69285000000001
 31
0.0
  0
LINE
  5
102
330
1E
100
AcDbEntity
  8
0
100
AcDbLine
 10
137.4109999999999
 20
98.69285000000001
 30
0.0
 11
137.4109999999999
 21
104.93285
 31
0.0
  0
LINE
  5
103
330
1E
100
AcDbEntity
  8
0
100
AcDbLine
 10
137.4109999999999
 20
98.69285000000001
 30
0.0
 11
137.4109999999999
 21
93.18085000000001
 31
0.0
  0
LINE
  5
104
330
1E
100
AcDbEntity
  8
0
100
AcDbLine
 10
137.4109999999999
 20
106.46885
 30
0.0
 11
137.4109999999999
 21
111.58885
 31
0.0
  0
LINE
  5
105
330
1E
100
AcDbEntity
  8
0
100
AcDbLine
 10
137.4109999999999
 20
116.7088499999999
 30
0.0
 11
137.4109999999999
 21
121.50885
 31
0.0
  0
LINE
  5
106
330
1E
100
AcDbEntity
  8
0
100
AcDbLine
 10
137.4109999999999
 20
128.94885
 30
0.0
 11
137.4109999999999
 21
130.86885
 31
0.0
  0
LINE
  5
107
330
1E
100
AcDbEntity
  8
0
100
AcDbLine
 10
137.4109999999999
 20
125.74885
 30
0.0
 11
137.4109999999999
 21
128.94885
 31
0.0
  0
LINE
  5
108
330
1E
100
AcDbEntity
  8
0
100
AcDbLine
 10
137.4109999999999
 20
121.50885
 30
0.0
 11
137.4109999999999
 21
125.74885
 31
0.0
  0
LINE
  5
109
330
1E
100
AcDbEntity
  8
0
100
AcDbLine
 10
130.382123302194
 20
131.58885
 30
0.0
 11
137.4109999999999
 21
131.58885
 31
0.0
  0
LINE
  5
10A
330
1E
100
AcDbEntity
  8
0
100
AcDbLine
 10
130.382123302194
 20
131.58885
 30
0.0
 11
131.557
 21
138.00555
 31
0.0
  0
LINE
  5
10B
330
1E
100
AcDbEntity
  8
0
100
AcDbLine
 10
137.4109999999999
 20
130.86885
 30
0.0
 11
137.4109999999999
 21
131.58885
 31
0.0
  0
LINE
  5
10C
330
1E
100
AcDbEntity
  8
0
100
AcDbLine
 10
137.4109999999999
 20
129.99685
 30
0.0
 11
137.4109999999999
 21
134.1568499999999
 31
0.0
  0
LINE
  5
10D
330
1E
100
AcDbEntity
  8
0
100
AcDbLine
 10
137.4109999999999
 20
129.99685
 30
0.0
 11
137.4109999999999
 21
124.48485
 31
0.0
  0
LINE
  5
10E
330
1E
100
AcDbEntity
  8
0
100
AcDbLine
 10
137.4109999999999
 20
124.48485
 30
0.0
 11
137.4109999999999
 21
129.99685
 31
0.0
  0
LINE
  5
10F
330
1E
100
AcDbEntity
  8
0
100
AcDbLine
 10
137.4109999999999
 20
124.48485
 30
0.0
 11
137.4109999999999
 21
118.24485
 31
0.0
  0
LINE
  5
110
330
1E
100
AcDbEntity
  8
0
100
AcDbLine
 10
137.4109999999999
 20
118.24485
 30
0.0
 11
137.4109999999999
 21
124.48485
 31
0.0
  0
LINE
  5
111
330
1E
100
AcDbEntity
  8
0
100
AcDbLine
 10
137.4109999999999
 20
118.24485
 30
0.0
 11
137.4109999999999
 21
111.58885
 31
0.0
  0
LINE
  5
112
330
1E
100
AcDbEntity
  8
0
100
AcDbLine
 10
137.4109999999999
 20
131.58885
 30
0.0
 11
137.4109999999999
 21
134.1568499999999
 31
0.0
  0
LINE
  5
113
330
1E
100
AcDbEntity
  8
0
100
AcDbLine
 10
114.771
 20
143.4221499999999
 30
0.0
 11
122.191
 21
143.4221499999999
 31
0.0
  0
LINE
  5
114
330
1E
100
AcDbEntity
  8
0
100
AcDbLine
 10
122.191
 20
143.4221499999999
 30
0.0
 11
127.791
 21
143.4221499999999
 31
0.0
  0
LINE
  5
115
330
1E
100
AcDbEntity
  8
0
100
AcDbLine
 10
114.348
 20
143.4221499999999
 30
0.0
 11
121.587
 21
143.4221499999999
 31
0.0
  0
LINE
  5
116
330
1E
100
AcDbEntity
  8
0
100
AcDbLine
 10
121.587
 20
143.4221499999999
 30
0.0
 11
127.0499999999999
 21
143.4221499999999
 31
0.0
  0
LINE
  5
117
330
1E
100
AcDbEntity
  8
0
100
AcDbLine
 10
131.557
 20
143.4221499999999
 30
0.0
 11
131.557
 21
138.00555
 31
0.0
  0
LINE
  5
118
330
1E
100
AcDbEntity
  8
0
100
AcDbLine
 10
131.557
 20
143.4221499999999
 30
0.0
 11
132.411
 21
143.4221499999999
 31
0.0
  0
LINE
  5
119
330
1E
100
AcDbEntity
  8
0
100
AcDbLine
 10
127.791
 20
143.4221499999999
 30
0.0
 11
131.151
 21
143.4221499999999
 31
0.0
  0
LINE
  5
11A
330
1E
100
AcDbEntity
  8
0
100
AcDbLine
 10
131.151
 20
143.4221499999999
 30
0.0
 11
132.411
 21
143.4221499999999
 31
0.0
  0
LINE
  5
11B
330
1E
100
AcDbEntity
  8
0
100
AcDbLine
 10
127.0499999999999
 20
143.4221499999999
 30
0.0
 11
130.3279999999999
 21
143.4221499999999
 31
0.0
  0
LINE
  5
11C
330
1E
100
AcDbEntity
  8
0
100
AcDbLine
 10
114.771
 20
145.58885
 30
0.0
 11
122.191
 21
145.58885
 31
0.0
  0
LINE
  5
11D
330
1E
100
AcDbEntity
  8
0
100
AcDbLine
 10
122.191
 20
145.58885
 30
0.0
 11
127.791
 21
145.58885
 31
0.0
  0
LINE
  5
11E
330
1E
100
AcDbEntity
  8
0
100
AcDbLine
 10
127.791
 20
145.58885
 30
0.0
 11
131.151
 21
145.58885
 31
0.0
  0
LINE
  5
11F
330
1E
100
AcDbEntity
  8
0
100
AcDbLine
 10
131.151
 20
145.58885
 30
0.0
 11
132.411
 21
145.58885
 31
0.0
  0
LINE
  5
120
330
1E
100
AcDbEntity
  8
0
100
AcDbLine
 10
130.3279999999999
 20
143.4221499999999
 30
0.0
 11
131.557
 21
143.4221499999999
 31
0.0
  0
LINE
  5
121
330
1E
100
AcDbEntity
  8
0
100
AcDbLine
 10
132.411
 20
143.4221499999999
 30
0.0
 11
132.411
 21
145.58885
 31
0.0
  0
LINE
  5
122
330
1E
100
AcDbEntity
  8
0
100
AcDbLine
 10
132.411
 20
145.58885
 30
0.0
 11
132.411
 21
143.4221499999999
 31
0.0
  0
LINE
  5
123
330
1E
100
AcDbEntity
  8
0
100
AcDbLine
 10
131.557
 20
138.00555
 30
0.0
 11
131.557
 21
143.4221499999999
 31
0.0
  0
LINE
  5
124
330
1E
100
AcDbEntity
  8
0
100
AcDbLine
 10
137.4109999999999
 20
137.58885
 30
0.0
 11
137.4109999999999
 21
136.65285
 31
0.0
  0
LINE
  5
125
330
1E
100
AcDbEntity
  8
0
100
AcDbLine
 10
137.4109999999999
 20
137.58885
 30
0.0
 11
139.4109999999999
 21
137.58885
 31
0.0
  0
LINE
  5
126
330
1E
100
AcDbEntity
  8
0
100
AcDbLine
 10
137.4109999999999
 20
136.65285
 30
0.0
 11
137.4109999999999
 21
134.1568499999999
 31
0.0
  0
LINE
  5
127
330
1E
100
AcDbEntity
  8
0
100
AcDbLine
 10
137.4109999999999
 20
136.65285
 30
0.0
 11
137.4109999999999
 21
137.58885
 31
0.0
  0
LINE
  5
128
330
1E
100
AcDbEntity
  8
0
100
AcDbLine
 10
137.4109999999999
 20
134.1568499999999
 30
0.0
 11
137.4109999999999
 21
131.58885
 31
0.0
  0
LINE
  5
129
330
1E
100
AcDbEntity
  8
0
100
AcDbLine
 10
137.4109999999999
 20
134.1568499999999
 30
0.0
 11
137.4109999999999
 21
136.65285
 31
0.0
  0
LINE
  5
12A
330
1E
100
AcDbEntity
  8
0
100
AcDbLine
 10
137.4109999999999
 20
134.1568499999999
 30
0.0
 11
137.4109999999999
 21
129.99685
 31
0.0
  0
LINE
  5
12B
330
1E
100
AcDbEntity
  8
0
100
AcDbLine
 10
139.4109999999999
 20
110.58885
 30
0.0
 11
153.411
 21
110.58885
 31
0.0
  0
LINE
  5
12C
330
1E
100
AcDbEntity
  8
0
100
AcDbLine
 10
153.411
 20
110.58885
 30
0.0
 11
153.411
 21
105.70085
 31
0.0
  0
LINE
  5
12D
330
1E
100
AcDbEntity
  8
0
100
AcDbLine
 10
153.411
 20
110.58885
 30
0.0
 11
153.411
 21
112.58885
 31
0.0
  0
LINE
  5
12E
330
1E
100
AcDbEntity
  8
0
100
AcDbLine
 10
153.411
 20
105.70085
 30
0.0
 11
153.411
 21
110.58885
 31
0.0
  0
LINE
  5
12F
330
1E
100
AcDbEntity
  8
0
100
AcDbLine
 10
153.411
 20
105.70085
 30
0.0
 11
153.411
 21
100.18085
 31
0.0
  0
LINE
  5
130
330
1E
100
AcDbEntity
  8
0
100
AcDbLine
 10
139.4109999999999
 20
112.58885
 30
0.0
 11
153.411
 21
112.58885
 31
0.0
  0
LINE
  5
131
330
1E
100
AcDbEntity
  8
0
100
AcDbLine
 10
139.4109999999999
 20
133.1724499999999
 30
0.0
 11
153.411
 21
133.1724499999999
 31
0.0
  0
LINE
  5
132
330
1E
100
AcDbEntity
  8
0
100
AcDbLine
 10
139.4109999999999
 20
134.1724499999999
 30
0.0
 11
153.411
 21
134.1724499999999
 31
0.0
  0
LINE
  5
133
330
1E
100
AcDbEntity
  8
0
100
AcDbLine
 10
139.4109999999999
 20
134.58885
 30
0.0
 11
153.411
 21
134.58885
 31
0.0
  0
LINE
  5
134
330
1E
100
AcDbEntity
  8
0
100
AcDbLine
 10
139.4109999999999
 20
137.58885
 30
0.0
 11
139.4109999999999
 21
136.65285
 31
0.0
  0
LINE
  5
135
330
1E
100
AcDbEntity
  8
0
100
AcDbLine
 10
139.4109999999999
 20
136.65285
 30
0.0
 11
139.4109999999999
 21
137.58885
 31
0.0
  0
LINE
  5
136
330
1E
100
AcDbEntity
  8
0
100
AcDbLine
 10
139.4109999999999
 20
136.65285
 30
0.0
 11
139.4109999999999
 21
134.1568499999999
 31
0.0
  0
LINE
  5
137
330
1E
100
AcDbEntity
  8
0
100
AcDbLine
 10
139.4109999999999
 20
134.1568499999999
 30
0.0
 11
139.4109999999999
 21
136.65285
 31
0.0
  0
LINE
  5
138
330
1E
100
AcDbEntity
  8
0
100
AcDbLine
 10
139.4109999999999
 20
134.1568499999999
 30
0.0
 11
139.4109999999999
 21
129.99685
 31
0.0
  0
LINE
  5
139
330
1E
100
AcDbEntity
  8
0
100
AcDbLine
 10
139.4109999999999
 20
129.99685
 30
0.0
 11
139.4109999999999
 21
134.1568499999999
 31
0.0
  0
LINE
  5
13A
330
1E
100
AcDbEntity
  8
0
100
AcDbLine
 10
139.4109999999999
 20
129.99685
 30
0.0
 11
139.4109999999999
 21
124.48485
 31
0.0
  0
LINE
  5
13B
330
1E
100
AcDbEntity
  8
0
100
AcDbLine
 10
139.4109999999999
 20
124.48485
 30
0.0
 11
139.4109999999999
 21
129.99685
 31
0.0
  0
LINE
  5
13C
330
1E
100
AcDbEntity
  8
0
100
AcDbLine
 10
139.4109999999999
 20
124.48485
 30
0.0
 11
139.4109999999999
 21
118.24485
 31
0.0
  0
LINE
  5
13D
330
1E
100
AcDbEntity
  8
0
100
AcDbLine
 10
153.411
 20
131.58885
 30
0.0
 11
175.4109999999999
 21
131.58885
 31
0.0
  0
LINE
  5
13E
330
1E
100
AcDbEntity
  8
0
100
AcDbLine
 10
153.411
 20
133.1724499999999
 30
0.0
 11
153.411
 21
130.57445
 31
0.0
  0
LINE
  5
13F
330
1E
100
AcDbEntity
  8
0
100
AcDbLine
 10
153.411
 20
133.1724499999999
 30
0.0
 11
153.411
 21
134.1724499999999
 31
0.0
  0
LINE
  5
140
330
1E
100
AcDbEntity
  8
0
100
AcDbLine
 10
153.411
 20
130.57445
 30
0.0
 11
153.411
 21
127.8728499999999
 31
0.0
  0
LINE
  5
141
330
1E
100
AcDbEntity
  8
0
100
AcDbLine
 10
153.411
 20
130.57445
 30
0.0
 11
153.411
 21
133.1724499999999
 31
0.0
  0
LINE
  5
142
330
1E
100
AcDbEntity
  8
0
100
AcDbLine
 10
153.411
 20
134.58885
 30
0.0
 11
153.411
 21
134.1724499999999
 31
0.0
  0
LINE
  5
143
330
1E
100
AcDbEntity
  8
0
100
AcDbLine
 10
153.411
 20
134.1724499999999
 30
0.0
 11
153.411
 21
134.58885
 31
0.0
  0
LINE
  5
144
330
1E
100
AcDbEntity
  8
0
100
AcDbLine
 10
153.411
 20
134.1724499999999
 30
0.0
 11
153.411
 21
133.1724499999999
 31
0.0
  0
LINE
  5
145
330
1E
100
AcDbEntity
  8
0
100
AcDbLine
 10
153.411
 20
127.8728499999999
 30
0.0
 11
153.411
 21
130.57445
 31
0.0
  0
LINE
  5
146
330
1E
100
AcDbEntity
  8
0
100
AcDbLine
 10
153.411
 20
127.8728499999999
 30
0.0
 11
153.411
 21
122.99685
 31
0.0
  0
LINE
  5
147
330
1E
100
AcDbEntity
  8
0
100
AcDbLine
 10
153.411
 20
122.99685
 30
0.0
 11
153.411
 21
127.8728499999999
 31
0.0
  0
LINE
  5
148
330
1E
100
AcDbEntity
  8
0
100
AcDbLine
 10
153.411
 20
122.99685
 30
0.0
 11
153.411
 21
117.47685
 31
0.0
  0
LINE
  5
149
330
1E
100
AcDbEntity
  8
0
100
AcDbLine
 10
211.4729999999999
 20
116.65125
 30
0.0
 11
257.633
 21
69.9216
 31
0.0
  0
LINE
  5
14A
330
1E
100
AcDbEntity
  8
0
100
AcDbLine
 10
188.611
 20
129.8510499999999
 30
0.0
 11
200.9109999999999
 21
124.7561499999999
 31
0.0
  0
LINE
  5
14B
330
1E
100
AcDbEntity
  8
0
100
AcDbLine
 10
175.4109999999999
 20
131.58885
 30
0.0
 11
188.611
 21
129.8510499999999
 31
0.0
  0
LINE
  5
14C
330
1E
100
AcDbEntity
  8
0
100
AcDbLine
 10
200.9109999999999
 20
124.7561499999999
 30
0.0
 11
211.4729999999999
 21
116.65125
 31
0.0
  0
LINE
  5
14D
330
1E
100
AcDbEntity
  8
0
100
AcDbLine
 10
153.411
 20
117.47685
 30
0.0
 11
153.411
 21
122.99685
 31
0.0
  0
LINE
  5
14E
330
1E
100
AcDbEntity
  8
0
100
AcDbLine
 10
153.411
 20
117.47685
 30
0.0
 11
153.411
 21
112.58885
 31
0.0
  0
LINE
  5
14F
330
1E
100
AcDbEntity
  8
0
100
AcDbLine
 10
153.411
 20
112.58885
 30
0.0
 11
153.411
 21
117.47685
 31
0.0
  0
LINE
  5
150
330
1E
100
AcDbEntity
  8
0
100
AcDbLine
 10
153.411
 20
112.58885
 30
0.0
 11
153.411
 21
110.58885
 31
0.0
  0
LINE
  5
151
330
1E
100
AcDbEntity
  8
0
100
AcDbLine
 10
139.4109999999999
 20
118.24485
 30
0.0
 11
139.4109999999999
 21
124.48485
 31
0.0
  0
LINE
  5
152
330
1E
100
AcDbEntity
  8
0
100
AcDbLine
 10
139.4109999999999
 20
118.24485
 30
0.0
 11
139.4109999999999
 21
111.58885
 31
0.0
  0
LINE
  5
153
330
1E
100
AcDbEntity
  8
0
100
AcDbLine
 10
139.4109999999999
 20
111.58885
 30
0.0
 11
139.4109999999999
 21
104.93285
 31
0.0
  0
LINE
  5
154
330
1E
100
AcDbEntity
  8
0
100
AcDbLine
 10
139.4109999999999
 20
111.58885
 30
0.0
 11
139.4109999999999
 21
118.24485
 31
0.0
  0
LINE
  5
155
330
1E
100
AcDbEntity
  8
0
100
AcDbLine
 10
137.4109999999999
 20
111.58885
 30
0.0
 11
137.4109999999999
 21
104.93285
 31
0.0
  0
LINE
  5
156
330
1E
100
AcDbEntity
  8
0
100
AcDbLine
 10
137.4109999999999
 20
111.58885
 30
0.0
 11
137.4109999999999
 21
118.24485
 31
0.0
  0
LINE
  5
157
330
1E
100
AcDbEntity
  8
0
100
AcDbLine
 10
137.4109999999999
 20
111.58885
 30
0.0
 11
137.4109999999999
 21
116.7088499999999
 31
0.0
  0
LINE
  5
158
330
1E
100
AcDbEntity
  8
0
100
AcDbLine
 10
137.4109999999999
 20
104.93285
 30
0.0
 11
137.4109999999999
 21
111.58885
 31
0.0
  0
LINE
  5
159
330
1E
100
AcDbEntity
  8
0
100
AcDbLine
 10
137.4109999999999
 20
104.93285
 30
0.0
 11
137.4109999999999
 21
98.69285000000001
 31
0.0
  0
LINE
  5
15A
330
1E
100
AcDbEntity
  8
0
100
AcDbLine
 10
229.349
 20
41.63734999999999
 30
0.0
 11
232.548655146166
 21
38.43715177233829
 31
0.0
  0
LINE
  5
15B
330
1E
100
AcDbEntity
  8
0
100
AcDbLine
 10
229.333
 20
35.22124999999999
 30
0.0
 11
231.0979999999999
 21
36.98624999999999
 31
0.0
  0
LINE
  5
15C
330
1E
100
AcDbEntity
  8
0
100
AcDbLine
 10
228.6709999999999
 20
34.55944999999999
 30
0.0
 11
229.3779999999999
 21
33.85235
 31
0.0
  0
LINE
  5
15D
330
1E
100
AcDbEntity
  8
0
100
AcDbLine
 10
228.6709999999999
 20
34.55944999999999
 30
0.0
 11
229.333
 21
35.22124999999999
 31
0.0
  0
LINE
  5
15E
330
1E
100
AcDbEntity
  8
0
100
AcDbLine
 10
230.085151278418
 20
34.559298720272
 30
0.0
 11
264.733
 21
-0.0888499999999914
 31
0.0
  0
LINE
  5
163
330
1E
100
AcDbEntity
  8
0
100
AcDbLine
 10
230.085151278418
 20
34.559298720272
 30
0.0
 11
264.733
 21
-0.0888499999999914
 31
0.0
  0
LINE
  5
194
330
1E
100
AcDbEntity
  8
0
100
AcDbLine
 10
257.633
 20
69.9216
 30
0.0
 11
260.833258794071
 21
66.7217575291889
 31
0.0
  0
LINE
  5
199
330
1E
100
AcDbEntity
  8
0
100
AcDbLine
 10
265.440369254523
 20
69.9143807540031
 30
0.0
 11
300.089
 21
35.26655
 31
0.0
  0
LINE
  5
19B
330
1E
100
AcDbEntity
  8
0
100
AcDbLine
 10
265.4399999999999
 20
71.32895999999999
 30
0.0
 11
266.1479999999999
 21
70.62186
 31
0.0
  0
LINE
  5
19C
330
1E
100
AcDbEntity
  8
0
100
AcDbLine
 10
264.779
 20
70.66710999999999
 30
0.0
 11
265.4399999999999
 21
71.32895999999999
 31
0.0
  0
LINE
  5
19D
330
1E
100
AcDbEntity
  8
0
100
AcDbLine
 10
265.4859999999999
 20
69.96000999999999
 30
0.0
 11
266.1479999999999
 21
70.62186
 31
0.0
  0
LINE
  5
1A4
330
1E
100
AcDbEntity
  8
0
100
AcDbLine
 10
229.3779999999999
 20
33.85235
 30
0.0
 11
230.0399999999999
 21
34.51415
 31
0.0
  0
LINE
  5
1A5
330
1E
100
AcDbEntity
  8
0
100
AcDbLine
 10
112.4109999999999
 20
152.58885
 30
0.0
 11
112.4109999999999
 21
156.5888499999999
 31
0.0
  0
LINE
  5
1A6
330
1E
100
AcDbEntity
  8
0
100
AcDbLine
 10
112.4109999999999
 20
170.58885
 30
0.0
 11
112.4109999999999
 21
172.58885
 31
0.0
  0
LINE
  5
1A7
330
1E
100
AcDbEntity
  8
0
100
AcDbLine
 10
110.4309999999999
 20
170.58885
 30
0.0
 11
112.4109999999999
 21
170.58885
 31
0.0
  0
LINE
  5
1A8
330
1E
100
AcDbEntity
  8
0
100
AcDbLine
 10
46.5493
 20
170.58885
 30
0.0
 11
57.411
 21
170.58885
 31
0.0
  0
LINE
  5
1A9
330
1E
100
AcDbEntity
  8
0
100
AcDbLine
 10
36.36639999999999
 20
170.58885
 30
0.0
 11
46.5493
 21
170.58885
 31
0.0
  0
LINE
  5
1AA
330
1E
100
AcDbEntity
  8
0
100
AcDbLine
 10
43.331
 20
170.58885
 30
0.0
 11
57.411
 21
170.58885
 31
0.0
  0
LINE
  5
1AB
330
1E
100
AcDbEntity
  8
0
100
AcDbLine
 10
30.131
 20
170.58885
 30
0.0
 11
43.331
 21
170.58885
 31
0.0
  0
LINE
  5
1AC
330
1E
100
AcDbEntity
  8
0
100
AcDbLine
 10
18.471
 20
170.58885
 30
0.0
 11
30.131
 21
170.58885
 31
0.0
  0
LINE
  5
1AD
330
1E
100
AcDbEntity
  8
0
100
AcDbLine
 10
9.67099999999999
 20
170.58885
 30
0.0
 11
18.471
 21
170.58885
 31
0.0
  0
LINE
  5
1AE
330
1E
100
AcDbEntity
  8
0
100
AcDbLine
 10
9.67099999999999
 20
170.58885
 30
0.0
 11
14.9824
 21
170.58885
 31
0.0
  0
LINE
  5
1AF
330
1E
100
AcDbEntity
  8
0
100
AcDbLine
 10
3.961639999999979
 20
180.08885
 30
0.0
 11
7.615709999999981
 21
180.08885
 31
0.0
  0
LINE
  5
1B0
330
1E
100
AcDbEntity
  8
0
100
AcDbLine
 10
3.961639999999979
 20
181.08885
 30
0.0
 11
7.615709999999981
 21
181.08885
 31
0.0
  0
LINE
  5
1B1
330
1E
100
AcDbEntity
  8
0
100
AcDbLine
 10
17.45949999999999
 20
172.58885
 30
0.0
 11
19.58079999999999
 21
172.58885
 31
0.0
  0
LINE
  5
1B2
330
1E
100
AcDbEntity
  8
0
100
AcDbLine
 10
4.390999999999979
 20
172.58885
 30
0.0
 11
9.67099999999999
 21
172.58885
 31
0.0
  0
LINE
  5
1B3
330
1E
100
AcDbEntity
  8
0
100
AcDbLine
 10
55.911
 20
172.58885
 30
0.0
 11
55.911
 21
180.08885
 31
0.0
  0
LINE
  5
1B4
330
1E
100
AcDbEntity
  8
0
100
AcDbLine
 10
55.911
 20
172.58885
 30
0.0
 11
58.911
 21
172.58885
 31
0.0
  0
LINE
  5
1B5
330
1E
100
AcDbEntity
  8
0
100
AcDbLine
 10
58.911
 20
172.58885
 30
0.0
 11
58.911
 21
180.08885
 31
0.0
  0
LINE
  5
1B6
330
1E
100
AcDbEntity
  8
0
100
AcDbLine
 10
57.411
 20
172.58885
 30
0.0
 11
71.491
 21
172.58885
 31
0.0
  0
LINE
  5
1B7
330
1E
100
AcDbEntity
  8
0
100
AcDbLine
 10
71.491
 20
172.58885
 30
0.0
 11
84.691
 21
172.58885
 31
0.0
  0
LINE
  5
1B8
330
1E
100
AcDbEntity
  8
0
100
AcDbLine
 10
97.3625
 20
172.58885
 30
0.0
 11
98.4232
 21
180.08885
 31
0.0
  0
LINE
  5
1B9
330
1E
100
AcDbEntity
  8
0
100
AcDbLine
 10
95.24120000000001
 20
172.58885
 30
0.0
 11
96.3019
 21
180.08885
 31
0.0
  0
LINE
  5
1BA
330
1E
100
AcDbEntity
  8
0
100
AcDbLine
 10
95.24120000000001
 20
172.58885
 30
0.0
 11
97.3625
 21
172.58885
 31
0.0
  0
LINE
  5
1BB
330
1E
100
AcDbEntity
  8
0
100
AcDbLine
 10
84.691
 20
172.58885
 30
0.0
 11
96.35100000000001
 21
172.58885
 31
0.0
  0
LINE
  5
1BC
330
1E
100
AcDbEntity
  8
0
100
AcDbLine
 10
96.35100000000001
 20
172.58885
 30
0.0
 11
105.151
 21
172.58885
 31
0.0
  0
LINE
  5
1BD
330
1E
100
AcDbEntity
  8
0
100
AcDbLine
 10
112.4109999999999
 20
172.58885
 30
0.0
 11
112.4109999999999
 21
170.58885
 31
0.0
  0
LINE
  5
1BE
330
1E
100
AcDbEntity
  8
0
100
AcDbLine
 10
112.4109999999999
 20
172.58885
 30
0.0
 11
113.911
 21
180.08885
 31
0.0
  0
LINE
  5
1BF
330
1E
100
AcDbEntity
  8
0
100
AcDbLine
 10
105.151
 20
172.58885
 30
0.0
 11
110.4309999999999
 21
172.58885
 31
0.0
  0
LINE
  5
1C0
330
1E
100
AcDbEntity
  8
0
100
AcDbLine
 10
110.4309999999999
 20
172.58885
 30
0.0
 11
112.4109999999999
 21
172.58885
 31
0.0
  0
LINE
  5
1C1
330
1E
100
AcDbEntity
  8
0
100
AcDbLine
 10
43.331
 20
172.58885
 30
0.0
 11
57.411
 21
172.58885
 31
0.0
  0
LINE
  5
1C2
330
1E
100
AcDbEntity
  8
0
100
AcDbLine
 10
30.131
 20
172.58885
 30
0.0
 11
43.331
 21
172.58885
 31
0.0
  0
LINE
  5
1C3
330
1E
100
AcDbEntity
  8
0
100
AcDbLine
 10
18.471
 20
172.58885
 30
0.0
 11
30.131
 21
172.58885
 31
0.0
  0
LINE
  5
1C4
330
1E
100
AcDbEntity
  8
0
100
AcDbLine
 10
5.618199999999981
 20
181.72585
 30
0.0
 11
15.0351
 21
182.56985
 31
0.0
  0
LINE
  5
1C5
330
1E
100
AcDbEntity
  8
0
100
AcDbLine
 10
7.615709999999981
 20
180.08885
 30
0.0
 11
11.7534
 21
180.08885
 31
0.0
  0
LINE
  5
1C6
330
1E
100
AcDbEntity
  8
0
100
AcDbLine
 10
5.618199999999981
 20
181.72585
 30
0.0
 11
15.0351
 21
182.56985
 31
0.0
  0
LINE
  5
1C7
330
1E
100
AcDbEntity
  8
0
100
AcDbLine
 10
16.3988
 20
180.08885
 30
0.0
 11
17.45949999999999
 21
172.58885
 31
0.0
  0
LINE
  5
1C8
330
1E
100
AcDbEntity
  8
0
100
AcDbLine
 10
16.3988
 20
180.08885
 30
0.0
 11
18.52009999999999
 21
180.08885
 31
0.0
  0
LINE
  5
1C9
330
1E
100
AcDbEntity
  8
0
100
AcDbLine
 10
18.52009999999999
 20
180.08885
 30
0.0
 11
55.911
 21
180.08885
 31
0.0
  0
LINE
  5
1CA
330
1E
100
AcDbEntity
  8
0
100
AcDbLine
 10
18.52009999999999
 20
180.08885
 30
0.0
 11
55.911
 21
180.08885
 31
0.0
  0
LINE
  5
1CB
330
1E
100
AcDbEntity
  8
0
100
AcDbLine
 10
18.52009999999999
 20
180.08885
 30
0.0
 11
19.58079999999999
 21
172.58885
 31
0.0
  0
LINE
  5
1CC
330
1E
100
AcDbEntity
  8
0
100
AcDbLine
 10
16.6045
 20
180.08885
 30
0.0
 11
22.3117
 21
180.08885
 31
0.0
  0
LINE
  5
1CD
330
1E
100
AcDbEntity
  8
0
100
AcDbLine
 10
22.3117
 20
180.08885
 30
0.0
 11
28.8749
 21
180.08885
 31
0.0
  0
LINE
  5
1CE
330
1E
100
AcDbEntity
  8
0
100
AcDbLine
 10
11.7534
 20
180.08885
 30
0.0
 11
16.6045
 21
180.08885
 31
0.0
  0
LINE
  5
1CF
330
1E
100
AcDbEntity
  8
0
100
AcDbLine
 10
16.6045
 20
181.08885
 30
0.0
 11
22.3117
 21
181.08885
 31
0.0
  0
LINE
  5
1D0
330
1E
100
AcDbEntity
  8
0
100
AcDbLine
 10
28.8749
 20
180.08885
 30
0.0
 11
35.6073
 21
180.08885
 31
0.0
  0
LINE
  5
1D1
330
1E
100
AcDbEntity
  8
0
100
AcDbLine
 10
35.6073
 20
180.08885
 30
0.0
 11
42.7149
 21
180.08885
 31
0.0
  0
LINE
  5
1D2
330
1E
100
AcDbEntity
  8
0
100
AcDbLine
 10
22.3117
 20
181.08885
 30
0.0
 11
28.8749
 21
181.08885
 31
0.0
  0
LINE
  5
1D3
330
1E
100
AcDbEntity
  8
0
100
AcDbLine
 10
28.8749
 20
181.08885
 30
0.0
 11
35.6073
 21
181.08885
 31
0.0
  0
LINE
  5
1D4
330
1E
100
AcDbEntity
  8
0
100
AcDbLine
 10
42.7149
 20
180.08885
 30
0.0
 11
49.9917
 21
180.08885
 31
0.0
  0
LINE
  5
1D5
330
1E
100
AcDbEntity
  8
0
100
AcDbLine
 10
49.9917
 20
180.08885
 30
0.0
 11
57.411
 21
180.08885
 31
0.0
  0
LINE
  5
1D6
330
1E
100
AcDbEntity
  8
0
100
AcDbLine
 10
35.6073
 20
181.08885
 30
0.0
 11
42.7149
 21
181.08885
 31
0.0
  0
LINE
  5
1D7
330
1E
100
AcDbEntity
  8
0
100
AcDbLine
 10
42.7149
 20
181.08885
 30
0.0
 11
49.9917
 21
181.08885
 31
0.0
  0
LINE
  5
1D8
330
1E
100
AcDbEntity
  8
0
100
AcDbLine
 10
58.911
 20
180.08885
 30
0.0
 11
96.3019
 21
180.08885
 31
0.0
  0
LINE
  5
1D9
330
1E
100
AcDbEntity
  8
0
100
AcDbLine
 10
58.911
 20
180.08885
 30
0.0
 11
58.911
 21
172.58885
 31
0.0
  0
LINE
  5
1DA
330
1E
100
AcDbEntity
  8
0
100
AcDbLine
 10
58.911
 20
180.08885
 30
0.0
 11
96.3019
 21
180.08885
 31
0.0
  0
LINE
  5
1DB
330
1E
100
AcDbEntity
  8
0
100
AcDbLine
 10
55.911
 20
180.08885
 30
0.0
 11
55.911
 21
172.58885
 31
0.0
  0
LINE
  5
1DC
330
1E
100
AcDbEntity
  8
0
100
AcDbLine
 10
55.911
 20
180.08885
 30
0.0
 11
58.911
 21
180.08885
 31
0.0
  0
LINE
  5
1DD
330
1E
100
AcDbEntity
  8
0
100
AcDbLine
 10
64.83029999999999
 20
180.08885
 30
0.0
 11
72.1071
 21
180.08885
 31
0.0
  0
LINE
  5
1DE
330
1E
100
AcDbEntity
  8
0
100
AcDbLine
 10
57.411
 20
180.08885
 30
0.0
 11
64.83029999999999
 21
180.08885
 31
0.0
  0
LINE
  5
1DF
330
1E
100
AcDbEntity
  8
0
100
AcDbLine
 10
79.21469999999999
 20
180.08885
 30
0.0
 11
85.9471
 21
180.08885
 31
0.0
  0
LINE
  5
1E0
330
1E
100
AcDbEntity
  8
0
100
AcDbLine
 10
72.1071
 20
180.08885
 30
0.0
 11
79.21469999999999
 21
180.08885
 31
0.0
  0
LINE
  5
1E1
330
1E
100
AcDbEntity
  8
0
100
AcDbLine
 10
92.5103
 20
180.08885
 30
0.0
 11
98.21750000000001
 21
180.08885
 31
0.0
  0
LINE
  5
1E2
330
1E
100
AcDbEntity
  8
0
100
AcDbLine
 10
85.9471
 20
180.08885
 30
0.0
 11
92.5103
 21
180.08885
 31
0.0
  0
LINE
  5
1E3
330
1E
100
AcDbEntity
  8
0
100
AcDbLine
 10
96.3019
 20
180.08885
 30
0.0
 11
98.4232
 21
180.08885
 31
0.0
  0
LINE
  5
1E4
330
1E
100
AcDbEntity
  8
0
100
AcDbLine
 10
98.21750000000001
 20
180.08885
 30
0.0
 11
103.069
 21
180.08885
 31
0.0
  0
LINE
  5
1E5
330
1E
100
AcDbEntity
  8
0
100
AcDbLine
 10
92.5103
 20
181.08885
 30
0.0
 11
98.21750000000001
 21
181.08885
 31
0.0
  0
LINE
  5
1E6
330
1E
100
AcDbEntity
  8
0
100
AcDbLine
 10
85.9471
 20
181.08885
 30
0.0
 11
92.5103
 21
181.08885
 31
0.0
  0
LINE
  5
1E7
330
1E
100
AcDbEntity
  8
0
100
AcDbLine
 10
79.21469999999999
 20
181.08885
 30
0.0
 11
85.9471
 21
181.08885
 31
0.0
  0
LINE
  5
1E8
330
1E
100
AcDbEntity
  8
0
100
AcDbLine
 10
72.1071
 20
181.08885
 30
0.0
 11
79.21469999999999
 21
181.08885
 31
0.0
  0
LINE
  5
1E9
330
1E
100
AcDbEntity
  8
0
100
AcDbLine
 10
64.83029999999999
 20
181.08885
 30
0.0
 11
72.1071
 21
181.08885
 31
0.0
  0
LINE
  5
1EA
330
1E
100
AcDbEntity
  8
0
100
AcDbLine
 10
57.411
 20
181.08885
 30
0.0
 11
64.83029999999999
 21
181.08885
 31
0.0
  0
LINE
  5
1EB
330
1E
100
AcDbEntity
  8
0
100
AcDbLine
 10
98.4232
 20
180.08885
 30
0.0
 11
113.911
 21
180.08885
 31
0.0
  0
LINE
  5
1EC
330
1E
100
AcDbEntity
  8
0
100
AcDbLine
 10
103.069
 20
180.08885
 30
0.0
 11
107.206
 21
180.08885
 31
0.0
  0
LINE
  5
1ED
330
1E
100
AcDbEntity
  8
0
100
AcDbLine
 10
107.206
 20
180.08885
 30
0.0
 11
110.86
 21
180.08885
 31
0.0
  0
LINE
  5
1EE
330
1E
100
AcDbEntity
  8
0
100
AcDbLine
 10
98.21750000000001
 20
181.08885
 30
0.0
 11
103.069
 21
181.08885
 31
0.0
  0
LINE
  5
1EF
330
1E
100
AcDbEntity
  8
0
100
AcDbLine
 10
103.069
 20
181.08885
 30
0.0
 11
107.206
 21
181.08885
 31
0.0
  0
LINE
  5
1F0
330
1E
100
AcDbEntity
  8
0
100
AcDbLine
 10
110.86
 20
180.08885
 30
0.0
 11
112.9129999999999
 21
180.08885
 31
0.0
  0
LINE
  5
1F1
330
1E
100
AcDbEntity
  8
0
100
AcDbLine
 10
112.9129999999999
 20
180.08885
 30
0.0
 11
114.483
 21
180.08885
 31
0.0
  0
LINE
  5
1F2
330
1E
100
AcDbEntity
  8
0
100
AcDbLine
 10
107.206
 20
181.08885
 30
0.0
 11
110.86
 21
181.08885
 31
0.0
  0
LINE
  5
1F3
330
1E
100
AcDbEntity
  8
0
100
AcDbLine
 10
110.86
 20
181.08885
 30
0.0
 11
112.9129999999999
 21
181.08885
 31
0.0
  0
LINE
  5
1F4
330
1E
100
AcDbEntity
  8
0
100
AcDbLine
 10
113.911
 20
180.08885
 30
0.0
 11
114.483
 21
180.08885
 31
0.0
  0
LINE
  5
1F5
330
1E
100
AcDbEntity
  8
0
100
AcDbLine
 10
114.911
 20
180.08885
 30
0.0
 11
114.911
 21
181.08885
 31
0.0
  0
LINE
  5
1F6
330
1E
100
AcDbEntity
  8
0
100
AcDbLine
 10
114.911
 20
181.08885
 30
0.0
 11
114.911
 21
180.08885
 31
0.0
  0
LINE
  5
1F7
330
1E
100
AcDbEntity
  8
0
100
AcDbLine
 10
114.483
 20
180.08885
 30
0.0
 11
114.911
 21
180.08885
 31
0.0
  0
LINE
  5
1F8
330
1E
100
AcDbEntity
  8
0
100
AcDbLine
 10
112.9129999999999
 20
181.08885
 30
0.0
 11
114.483
 21
181.08885
 31
0.0
  0
LINE
  5
1F9
330
1E
100
AcDbEntity
  8
0
100
AcDbLine
 10
114.483
 20
181.08885
 30
0.0
 11
114.911
 21
181.08885
 31
0.0
  0
LINE
  5
1FA
330
1E
100
AcDbEntity
  8
0
100
AcDbLine
 10
49.9917
 20
181.08885
 30
0.0
 11
57.411
 21
181.08885
 31
0.0
  0
LINE
  5
1FB
330
1E
100
AcDbEntity
  8
0
100
AcDbLine
 10
89.94200000000001
 20
183.1888499999999
 30
0.0
 11
99.7869
 21
182.56985
 31
0.0
  0
LINE
  5
1FC
330
1E
100
AcDbEntity
  8
0
100
AcDbLine
 10
99.7869
 20
182.56985
 30
0.0
 11
109.2039999999999
 21
181.72585
 31
0.0
  0
LINE
  5
1FD
330
1E
100
AcDbEntity
  8
0
100
AcDbLine
 10
109.2039999999999
 20
181.72585
 30
0.0
 11
114.911
 21
181.08885
 31
0.0
  0
LINE
  5
1FE
330
1E
100
AcDbEntity
  8
0
100
AcDbLine
 10
55.1905
 20
184.08885
 30
0.0
 11
55.8554
 21
184.08885
 31
0.0
  0
LINE
  5
1FF
330
1E
100
AcDbEntity
  8
0
100
AcDbLine
 10
55.8554
 20
184.08885
 30
0.0
 11
56.6081
 21
184.08885
 31
0.0
  0
LINE
  5
200
330
1E
100
AcDbEntity
  8
0
100
AcDbLine
 10
58.9666
 20
184.08885
 30
0.0
 11
59.6315
 21
184.08885
 31
0.0
  0
LINE
  5
201
330
1E
100
AcDbEntity
  8
0
100
AcDbLine
 10
58.2139
 20
184.08885
 30
0.0
 11
58.9666
 21
184.08885
 31
0.0
  0
LINE
  5
202
330
1E
100
AcDbEntity
  8
0
100
AcDbLine
 10
57.411
 20
184.08885
 30
0.0
 11
58.2139
 21
184.08885
 31
0.0
  0
LINE
  5
203
330
1E
100
AcDbEntity
  8
0
100
AcDbLine
 10
59.6315
 20
184.08885
 30
0.0
 11
60.1334
 21
184.08885
 31
0.0
  0
LINE
  5
204
330
1E
100
AcDbEntity
  8
0
100
AcDbLine
 10
60.1334
 20
184.08885
 30
0.0
 11
60.43449999999999
 21
184.08885
 31
0.0
  0
LINE
  5
205
330
1E
100
AcDbEntity
  8
0
100
AcDbLine
 10
60.43449999999999
 20
184.08885
 30
0.0
 11
60.5474
 21
184.08885
 31
0.0
  0
LINE
  5
206
330
1E
100
AcDbEntity
  8
0
100
AcDbLine
 10
68.5399
 20
183.97585
 30
0.0
 11
79.2411
 21
183.69485
 31
0.0
  0
LINE
  5
207
330
1E
100
AcDbEntity
  8
0
100
AcDbLine
 10
79.2411
 20
183.69485
 30
0.0
 11
89.94200000000001
 21
183.1888499999999
 31
0.0
  0
LINE
  5
208
330
1E
100
AcDbEntity
  8
0
100
AcDbLine
 10
56.6081
 20
184.08885
 30
0.0
 11
57.411
 21
184.08885
 31
0.0
  0
LINE
  5
209
330
1E
100
AcDbEntity
  8
0
100
AcDbLine
 10
54.6886
 20
184.08885
 30
0.0
 11
55.1905
 21
184.08885
 31
0.0
  0
LINE
  5
20A
330
1E
100
AcDbEntity
  8
0
100
AcDbLine
 10
54.3875
 20
184.08885
 30
0.0
 11
54.6886
 21
184.08885
 31
0.0
  0
LINE
  5
20B
330
1E
100
AcDbEntity
  8
0
100
AcDbLine
 10
54.27459999999999
 20
184.08885
 30
0.0
 11
54.3875
 21
184.08885
 31
0.0
  0
LINE
  5
20C
330
1E
100
AcDbEntity
  8
0
100
AcDbLine
 10
35.58089999999999
 20
183.69485
 30
0.0
 11
46.2821
 21
183.97585
 31
0.0
  0
LINE
  5
20D
330
1E
100
AcDbEntity
  8
0
100
AcDbLine
 10
24.87999999999999
 20
183.1888499999999
 30
0.0
 11
35.58089999999999
 21
183.69485
 31
0.0
  0
LINE
  5
20E
330
1E
100
AcDbEntity
  8
0
100
AcDbLine
 10
15.0351
 20
182.56985
 30
0.0
 11
24.87999999999999
 21
183.1888499999999
 31
0.0
  0
LINE
  5
20F
330
1E
100
AcDbEntity
  8
0
100
AcDbLine
 10
11.7534
 20
181.08885
 30
0.0
 11
16.6045
 21
181.08885
 31
0.0
  0
LINE
  5
210
330
1E
100
AcDbEntity
  8
0
100
AcDbLine
 10
7.615709999999981
 20
181.08885
 30
0.0
 11
11.7534
 21
181.08885
 31
0.0
  0
LINE
  5
211
330
1E
100
AcDbEntity
  8
0
100
AcDbLine
 10
9.67099999999999
 20
172.58885
 30
0.0
 11
18.471
 21
172.58885
 31
0.0
  0
LINE
  5
212
330
1E
100
AcDbEntity
  8
0
100
AcDbLine
 10
4.390999999999979
 20
172.58885
 30
0.0
 11
9.67099999999999
 21
172.58885
 31
0.0
  0
LINE
  5
213
330
1E
100
AcDbEntity
  8
0
100
AcDbLine
 10
4.390999999999979
 20
170.58885
 30
0.0
 11
9.67099999999999
 21
170.58885
 31
0.0
  0
LINE
  5
214
330
1E
100
AcDbEntity
  8
0
100
AcDbLine
 10
2.41099999999998
 20
170.58885
 30
0.0
 11
4.390999999999979
 21
170.58885
 31
0.0
  0
LINE
  5
215
330
1E
100
AcDbEntity
  8
0
100
AcDbLine
 10
2.41099999999998
 20
170.58885
 30
0.0
 11
2.41099999999998
 21
172.58885
 31
0.0
  0
LINE
  5
21A
330
1E
100
AcDbEntity
  8
0
100
AcDbLine
 10
68.5399
 20
183.97585
 30
0.0
 11
60.5474
 21
184.08885
 31
0.0
  0
LINE
  5
21B
330
1E
100
AcDbEntity
  8
0
100
AcDbLine
 10
54.27459999999999
 20
184.08885
 30
0.0
 11
46.2821
 21
183.97585
 31
0.0
  0
LINE
  5
21C
330
1E
100
AcDbEntity
  8
0
100
AcDbLine
 10
264.779
 20
70.66710999999999
 30
0.0
 11
260.833258794071
 21
66.7217575291889
 31
0.0
  0
LINE
  5
21D
330
1E
100
AcDbEntity
  8
0
100
AcDbLine
 10
260.833258794071
 20
66.7217575291889
 30
0.0
 11
231.0979999999999
 21
36.98624999999999
 31
0.0
  0
LINE
  5
21E
330
1E
100
AcDbEntity
  8
0
100
AcDbLine
 10
265.440369254523
 20
69.9143807540031
 30
0.0
 11
230.085151278418
 21
34.559298720272
 31
0.0
  0
ENDSEC
  0
SECTION
  2
OBJECTS
  0
DICTIONARY
  5
C
330
0
100
AcDbDictionary
281
     1
  3
ACAD_GROUP
350
D
  3
ACAD_LAYOUT
350
19
  3
ACAD_MLINESTYLE
350
16
  3
ACAD_PLOTSETTINGS
350
18
  3
ACAD_PLOTSTYLENAME
350
E
  3
AcDbVariableDictionary
350
21F
  0
DICTIONARY
  5
D
102
{ACAD_REACTORS
330
C
102
}
330
C
100
AcDbDictionary
281
     1
  0
DICTIONARY
  5
19
102
{ACAD_REACTORS
330
C
102
}
330
C
100
AcDbDictionary
281
     1
  3
Layout1
350
1D
  3
Model
350
21
  0
DICTIONARY
  5
16
102
{ACAD_REACTORS
330
C
102
}
330
C
100
AcDbDictionary
281
     1
  3
Standard
350
17
  0
DICTIONARY
  5
18
102
{ACAD_REACTORS
330
C
102
}
330
C
100
AcDbDictionary
281
     1
  0
ACDBDICTIONARYWDFLT
  5
E
102
{ACAD_REACTORS
330
C
102
}
330
C
100
AcDbDictionary
281
     1
  3
Normal
350
F
100
AcDbDictionaryWithDefault
340
F
  0
DICTIONARY
  5
21F
102
{ACAD_REACTORS
330
C
102
}
330
C
100
AcDbDictionary
281
     1
  3
DIMASSOC
350
220
  0
LAYOUT
  5
1D
102
{ACAD_REACTORS
330
19
102
}
330
19
100
AcDbPlotSettings
  1

  2
hp deskjet 980c series
  4

  6

 40
0.0
 41
0.0
 42
0.0
 43
0.0
 44
0.0
 45
0.0
 46
0.0
 47
0.0
 48
0.0
 49
0.0
140
0.0
141
0.0
142
1.0
143
1.0
 70
   688
 72
     0
 73
     0
 74
     5
  7

 75
    16
147
1.0
148
0.0
149
0.0
100
AcDbLayout
  1
Layout1
 70
     1
 71
     1
 10
0.0
 20
0.0
 11
12.0
 21
9.0
 12
0.0
 22
0.0
 32
0.0
 14
1.000000000000000E+20
 24
1.000000000000000E+20
 34
1.000000000000000E+20
 15
-1.000000000000000E+20
 25
-1.000000000000000E+20
 35
-1.000000000000000E+20
146
0.0
 13
0.0
 23
0.0
 33
0.0
 16
1.0
 26
0.0
 36
0.0
 17
0.0
 27
1.0
 37
0.0
 76
     0
330
1A
  0
LAYOUT
  5
21
102
{ACAD_REACTORS
330
19
102
}
330
19
100
AcDbPlotSettings
  1

  2
hp deskjet 980c series
  4

  6

 40
0.0
 41
0.0
 42
0.0
 43
0.0
 44
0.0
 45
0.0
 46
0.0
 47
0.0
 48
0.0
 49
0.0
140
0.0
141
0.0
142
1.0
143
1.0
 70
  1712
 72
     0
 73
     0
 74
     0
  7

 75
     0
147
1.0
148
0.0
149
0.0
100
AcDbLayout
  1
Model
 70
     1
 71
     0
 10
0.0
 20
0.0
 11
12.0
 21
9.0
 12
0.0
 22
0.0
 32
0.0
 14
0.0
 24
0.0
 34
0.0
 15
0.0
 25
0.0
 35
0.0
146
0.0
 13
0.0
 23
0.0
 33
0.0
 16
1.0
 26
0.0
 36
0.0
 17
0.0
 27
1.0
 37
0.0
 76
     0
330
1E
  0
MLINESTYLE
  5
17
102
{ACAD_REACTORS
330
16
102
}
330
16
100
AcDbMlineStyle
  2
STANDARD
 70
     0
  3

 62
   256
 51
90.0
 52
90.0
 71
     2
 49
0.5
 62
   256
  6
BYLAYER
 49
-0.5
 62
   256
  6
BYLAYER
  0
ACDBPLACEHOLDER
  5
F
102
{ACAD_REACTORS
330
E
102
}
330
E
  0
DICTIONARYVAR
  5
220
102
{ACAD_REACTORS
330
21F
102
}
330
21F
100
DictionaryVariables
280
     0
  1
1
  0
ENDSEC
  0
EOF
