  0
SECTION
  2
HEADER
  9
$ACADVER
  1
AC1015
  9
$ACADMAINTVER
 70
    13
  9
$DWGCODEPAGE
  3
ANSI_1252
  9
$INSBASE
 10
0.0
 20
0.0
 30
0.0
  9
$EXTMIN
 10
0.188500000000013
 20
0.0876000000000253
 30
0.0
  9
$EXTMAX
 10
262.8115
 20
917.9123999999999
 30
0.0
  9
$LIMMIN
 10
0.0
 20
0.0
  9
$LIMMAX
 10
12.0
 20
9.0
  9
$ORTHOMODE
 70
     0
  9
$REGENMODE
 70
     1
  9
$FILLMODE
 70
     1
  9
$QTEXTMODE
 70
     0
  9
$MIRRTEXT
 70
     1
  9
$LTSCALE
 40
1.0
  9
$ATTMODE
 70
     1
  9
$TEXTSIZE
 40
0.2
  9
$TRACEWID
 40
0.05
  9
$TEXTSTYLE
  7
Standard
  9
$CLAYER
  8
0
  9
$CELTYPE
  6
Continuous
  9
$CECOLOR
 62
   256
  9
$CELTSCALE
 40
1.0
  9
$DISPSILH
 70
     0
  9
$DIMSCALE
 40
1.0
  9
$DIMASZ
 40
0.18
  9
$DIMEXO
 40
0.0625
  9
$DIMDLI
 40
0.38
  9
$DIMRND
 40
0.0
  9
$DIMDLE
 40
0.0
  9
$DIMEXE
 40
0.18
  9
$DIMTP
 40
0.0
  9
$DIMTM
 40
0.0
  9
$DIMTXT
 40
0.18
  9
$DIMCEN
 40
0.09
  9
$DIMTSZ
 40
0.0
  9
$DIMTOL
 70
     0
  9
$DIMLIM
 70
     0
  9
$DIMTIH
 70
     1
  9
$DIMTOH
 70
     1
  9
$DIMSE1
 70
     0
  9
$DIMSE2
 70
     0
  9
$DIMTAD
 70
     0
  9
$DIMZIN
 70
     0
  9
$DIMBLK
  1

  9
$DIMASO
 70
     1
  9
$DIMSHO
 70
     1
  9
$DIMPOST
  1

  9
$DIMAPOST
  1

  9
$DIMALT
 70
     0
  9
$DIMALTD
 70
     2
  9
$DIMALTF
 40
25.4
  9
$DIMLFAC
 40
1.0
  9
$DIMTOFL
 70
     0
  9
$DIMTVP
 40
0.0
  9
$DIMTIX
 70
     0
  9
$DIMSOXD
 70
     0
  9
$DIMSAH
 70
     0
  9
$DIMBLK1
  1

  9
$DIMBLK2
  1

  9
$DIMSTYLE
  2
Standard
  9
$DIMCLRD
 70
     0
  9
$DIMCLRE
 70
     0
  9
$DIMCLRT
 70
     0
  9
$DIMTFAC
 40
1.0
  9
$DIMGAP
 40
0.09
  9
$DIMJUST
 70
     0
  9
$DIMSD1
 70
     0
  9
$DIMSD2
 70
     0
  9
$DIMTOLJ
 70
     1
  9
$DIMTZIN
 70
     0
  9
$DIMALTZ
 70
     0
  9
$DIMALTTZ
 70
     0
  9
$DIMUPT
 70
     0
  9
$DIMDEC
 70
     4
  9
$DIMTDEC
 70
     4
  9
$DIMALTU
 70
     2
  9
$DIMALTTD
 70
     2
  9
$DIMTXSTY
  7
Standard
  9
$DIMAUNIT
 70
     0
  9
$DIMADEC
 70
     0
  9
$DIMALTRND
 40
0.0
  9
$DIMAZIN
 70
     0
  9
$DIMDSEP
 70
    46
  9
$DIMATFIT
 70
     3
  9
$DIMFRAC
 70
     0
  9
$DIMLDRBLK
  1

  9
$DIMLUNIT
 70
     2
  9
$DIMLWD
 70
    -2
  9
$DIMLWE
 70
    -2
  9
$DIMTMOVE
 70
     0
  9
$LUNITS
 70
     2
  9
$LUPREC
 70
     4
  9
$SKETCHINC
 40
0.1
  9
$FILLETRAD
 40
0.0
  9
$AUNITS
 70
     0
  9
$AUPREC
 70
     0
  9
$MENU
  1
.
  9
$ELEVATION
 40
0.0
  9
$PELEVATION
 40
0.0
  9
$THICKNESS
 40
0.0
  9
$LIMCHECK
 70
     0
  9
$CHAMFERA
 40
0.0
  9
$CHAMFERB
 40
0.0
  9
$CHAMFERC
 40
0.0
  9
$CHAMFERD
 40
0.0
  9
$SKPOLY
 70
     0
  9
$TDCREATE
 40
2454834.856274410
  9
$TDUCREATE
 40
2454834.814607743
  9
$TDUPDATE
 40
2454834.865053888
  9
$TDUUPDATE
 40
2454834.823387222
  9
$TDINDWG
 40
0.0087794792
  9
$TDUSRTIMER
 40
0.0087794792
  9
$USRTIMER
 70
     1
  9
$ANGBASE
 50
0.0
  9
$ANGDIR
 70
     0
  9
$PDMODE
 70
     0
  9
$PDSIZE
 40
0.0
  9
$PLINEWID
 40
0.0
  9
$SPLFRAME
 70
     0
  9
$SPLINETYPE
 70
     6
  9
$SPLINESEGS
 70
     8
  9
$HANDSEED
  5
4EE
  9
$SURFTAB1
 70
     6
  9
$SURFTAB2
 70
     6
  9
$SURFTYPE
 70
     6
  9
$SURFU
 70
     6
  9
$SURFV
 70
     6
  9
$UCSBASE
  2

  9
$UCSNAME
  2

  9
$UCSORG
 10
0.0
 20
0.0
 30
0.0
  9
$UCSXDIR
 10
1.0
 20
0.0
 30
0.0
  9
$UCSYDIR
 10
0.0
 20
1.0
 30
0.0
  9
$UCSORTHOREF
  2

  9
$UCSORTHOVIEW
 70
     1
  9
$UCSORGTOP
 10
0.0
 20
0.0
 30
0.0
  9
$UCSORGBOTTOM
 10
0.0
 20
0.0
 30
0.0
  9
$UCSORGLEFT
 10
0.0
 20
0.0
 30
0.0
  9
$UCSORGRIGHT
 10
0.0
 20
0.0
 30
0.0
  9
$UCSORGFRONT
 10
0.0
 20
0.0
 30
0.0
  9
$UCSORGBACK
 10
0.0
 20
0.0
 30
0.0
  9
$PUCSBASE
  2

  9
$PUCSNAME
  2

  9
$PUCSORG
 10
0.0
 20
0.0
 30
0.0
  9
$PUCSXDIR
 10
1.0
 20
0.0
 30
0.0
  9
$PUCSYDIR
 10
0.0
 20
1.0
 30
0.0
  9
$PUCSORTHOREF
  2

  9
$PUCSORTHOVIEW
 70
     0
  9
$PUCSORGTOP
 10
0.0
 20
0.0
 30
0.0
  9
$PUCSORGBOTTOM
 10
0.0
 20
0.0
 30
0.0
  9
$PUCSORGLEFT
 10
0.0
 20
0.0
 30
0.0
  9
$PUCSORGRIGHT
 10
0.0
 20
0.0
 30
0.0
  9
$PUCSORGFRONT
 10
0.0
 20
0.0
 30
0.0
  9
$PUCSORGBACK
 10
0.0
 20
0.0
 30
0.0
  9
$USERI1
 70
     0
  9
$USERI2
 70
     0
  9
$USERI3
 70
     0
  9
$USERI4
 70
     0
  9
$USERI5
 70
     0
  9
$USERR1
 40
0.0
  9
$USERR2
 40
0.0
  9
$USERR3
 40
0.0
  9
$USERR4
 40
0.0
  9
$USERR5
 40
0.0
  9
$WORLDVIEW
 70
     1
  9
$SHADEDGE
 70
     3
  9
$SHADEDIF
 70
    70
  9
$TILEMODE
 70
     1
  9
$MAXACTVP
 70
    64
  9
$PINSBASE
 10
0.0
 20
0.0
 30
0.0
  9
$PLIMCHECK
 70
     0
  9
$PEXTMIN
 10
1.000000000000000E+20
 20
1.000000000000000E+20
 30
1.000000000000000E+20
  9
$PEXTMAX
 10
-1.000000000000000E+20
 20
-1.000000000000000E+20
 30
-1.000000000000000E+20
  9
$PLIMMIN
 10
0.0
 20
0.0
  9
$PLIMMAX
 10
12.0
 20
9.0
  9
$UNITMODE
 70
     0
  9
$VISRETAIN
 70
     1
  9
$PLINEGEN
 70
     0
  9
$PSLTSCALE
 70
     1
  9
$TREEDEPTH
 70
  3020
  9
$CMLSTYLE
  2
Standard
  9
$CMLJUST
 70
     0
  9
$CMLSCALE
 40
1.0
  9
$PROXYGRAPHICS
 70
     1
  9
$MEASUREMENT
 70
     0
  9
$CELWEIGHT
370
    -1
  9
$ENDCAPS
280
     0
  9
$JOINSTYLE
280
     0
  9
$LWDISPLAY
290
     0
  9
$INSUNITS
 70
     0
  9
$HYPERLINKBASE
  1

  9
$STYLESHEET
  1

  9
$XEDIT
290
     1
  9
$CEPSNTYPE
380
     0
  9
$PSTYLEMODE
290
     1
  9
$FINGERPRINTGUID
  2
{A45ED9E4-F805-4929-95DF-4F3DCFE966C7}
  9
$VERSIONGUID
  2
{A219AFE1-526B-48A5-ACBE-9120E06E9D33}
  9
$EXTNAMES
290
     1
  9
$PSVPSCALE
 40
0.0
  9
$OLESTARTUP
290
     0
  0
ENDSEC
  0
SECTION
  2
CLASSES
  0
CLASS
  1
ACDBDICTIONARYWDFLT
  2
AcDbDictionaryWithDefault
  3
AutoCAD 2000
 90
        0
280
     0
281
     0
  0
CLASS
  1
ACDBPLACEHOLDER
  2
AcDbPlaceHolder
  3
AutoCAD 2000
 90
        0
280
     0
281
     0
  0
CLASS
  1
LAYOUT
  2
AcDbLayout
  3
AutoCAD 2000
 90
        0
280
     0
281
     0
  0
CLASS
  1
DICTIONARYVAR
  2
AcDbDictionaryVar
  3
AutoCAD 2000
 90
        0
280
     0
281
     0
  0
ENDSEC
  0
SECTION
  2
TABLES
  0
TABLE
  2
VPORT
  5
8
330
0
100
AcDbSymbolTable
 70
     3
  0
VPORT
  5
4ED
330
8
100
AcDbSymbolTableRecord
100
AcDbViewportTableRecord
  2
*Active
 70
     0
 10
0.0
 20
0.0
 11
1.0
 21
1.0
 12
131.4999999999999
 22
459.0
 13
0.0
 23
0.0
 14
1.0
 24
1.0
 15
0.0
 25
0.0
 16
0.0
 26
0.0
 36
1.0
 17
0.0
 27
0.0
 37
0.0
 40
924.8669340153453
 41
2.078104993597951
 42
50.0
 43
0.0
 44
0.0
 50
0.0
 51
0.0
 71
     0
 72
   100
 73
     1
 74
     3
 75
     0
 76
     0
 77
     0
 78
     0
281
     0
 65
     1
110
0.0
120
0.0
130
0.0
111
1.0
121
0.0
131
0.0
112
0.0
122
1.0
132
0.0
 79
     1
146
0.0
  0
ENDTAB
  0
TABLE
  2
LTYPE
  5
5
330
0
100
AcDbSymbolTable
 70
     1
  0
LTYPE
  5
13
330
5
100
AcDbSymbolTableRecord
100
AcDbLinetypeTableRecord
  2
ByBlock
 70
     0
  3

 72
    65
 73
     0
 40
0.0
  0
LTYPE
  5
14
330
5
100
AcDbSymbolTableRecord
100
AcDbLinetypeTableRecord
  2
ByLayer
 70
     0
  3

 72
    65
 73
     0
 40
0.0
  0
LTYPE
  5
15
330
5
100
AcDbSymbolTableRecord
100
AcDbLinetypeTableRecord
  2
Continuous
 70
     0
  3
Solid line
 72
    65
 73
     0
 40
0.0
  0
ENDTAB
  0
TABLE
  2
LAYER
  5
2
330
0
100
AcDbSymbolTable
 70
     1
  0
LAYER
  5
10
330
2
100
AcDbSymbolTableRecord
100
AcDbLayerTableRecord
  2
0
 70
     0
 62
     7
  6
Continuous
370
    -3
390
F
  0
ENDTAB
  0
TABLE
  2
STYLE
  5
3
330
0
100
AcDbSymbolTable
 70
     1
  0
STYLE
  5
11
330
3
100
AcDbSymbolTableRecord
100
AcDbTextStyleTableRecord
  2
Standard
 70
     0
 40
0.0
 41
1.0
 50
0.0
 71
     0
 42
0.2
  3
txt
  4

  0
ENDTAB
  0
TABLE
  2
VIEW
  5
6
330
0
100
AcDbSymbolTable
 70
     0
  0
ENDTAB
  0
TABLE
  2
UCS
  5
7
330
0
100
AcDbSymbolTable
 70
     0
  0
ENDTAB
  0
TABLE
  2
APPID
  5
9
330
0
100
AcDbSymbolTable
 70
     1
  0
APPID
  5
12
330
9
100
AcDbSymbolTableRecord
100
AcDbRegAppTableRecord
  2
ACAD
 70
     0
  0
ENDTAB
  0
TABLE
  2
DIMSTYLE
  5
A
330
0
100
AcDbSymbolTable
 70
     1
100
AcDbDimStyleTable
 71
     0
  0
DIMSTYLE
105
4D7
330
A
100
AcDbSymbolTableRecord
100
AcDbDimStyleTableRecord
  2
Standard
 70
     0
340
11
  0
ENDTAB
  0
TABLE
  2
BLOCK_RECORD
  5
1
330
0
100
AcDbSymbolTable
 70
     0
  0
BLOCK_RECORD
  5
1E
330
1
100
AcDbSymbolTableRecord
100
AcDbBlockTableRecord
  2
*Model_Space
340
21
  0
BLOCK_RECORD
  5
1A
330
1
100
AcDbSymbolTableRecord
100
AcDbBlockTableRecord
  2
*Paper_Space
340
1D
  0
ENDTAB
  0
ENDSEC
  0
SECTION
  2
BLOCKS
  0
BLOCK
  5
1F
330
1E
100
AcDbEntity
  8
0
100
AcDbBlockBegin
  2
*Model_Space
 70
     0
 10
0.0
 20
0.0
 30
0.0
  3
*Model_Space
  1

  0
ENDBLK
  5
20
330
1E
100
AcDbEntity
  8
0
100
AcDbBlockEnd
  0
BLOCK
  5
1B
330
1A
100
AcDbEntity
 67
     1
  8
0
100
AcDbBlockBegin
  2
*Paper_Space
 70
     0
 10
0.0
 20
0.0
 30
0.0
  3
*Paper_Space
  1

  0
ENDBLK
  5
1C
330
1A
100
AcDbEntity
 67
     1
  8
0
100
AcDbBlockEnd
  0
ENDSEC
  0
SECTION
  2
ENTITIES
  0
LINE
  5
22
330
1E
100
AcDbEntity
  8
0
100
AcDbLine
 10
198.8115
 20
262.9124
 30
0.0
 11
198.8115
 21
261.7124
 31
0.0
  0
LINE
  5
23
330
1E
100
AcDbEntity
  8
0
100
AcDbLine
 10
198.8115
 20
262.9124
 30
0.0
 11
198.8115
 21
264.4124
 31
0.0
  0
LINE
  5
24
330
1E
100
AcDbEntity
  8
0
100
AcDbLine
 10
198.8115
 20
264.4124
 30
0.0
 11
198.8115
 21
262.9124
 31
0.0
  0
LINE
  5
25
330
1E
100
AcDbEntity
  8
0
100
AcDbLine
 10
198.8115
 20
264.4124
 30
0.0
 11
198.8115
 21
265.9123999999999
 31
0.0
  0
LINE
  5
26
330
1E
100
AcDbEntity
  8
0
100
AcDbLine
 10
198.8115
 20
261.7124
 30
0.0
 11
198.8115
 21
260.7124
 31
0.0
  0
LINE
  5
27
330
1E
100
AcDbEntity
  8
0
100
AcDbLine
 10
198.8115
 20
261.7124
 30
0.0
 11
198.8115
 21
262.9124
 31
0.0
  0
LINE
  5
28
330
1E
100
AcDbEntity
  8
0
100
AcDbLine
 10
198.8115
 20
260.7124
 30
0.0
 11
198.8115
 21
260.1123999999999
 31
0.0
  0
LINE
  5
29
330
1E
100
AcDbEntity
  8
0
100
AcDbLine
 10
198.8115
 20
260.7124
 30
0.0
 11
198.8115
 21
261.7124
 31
0.0
  0
LINE
  5
2A
330
1E
100
AcDbEntity
  8
0
100
AcDbLine
 10
198.8115
 20
260.1123999999999
 30
0.0
 11
198.8115
 21
259.9123999999999
 31
0.0
  0
LINE
  5
2B
330
1E
100
AcDbEntity
  8
0
100
AcDbLine
 10
198.8115
 20
260.1123999999999
 30
0.0
 11
198.8115
 21
260.7124
 31
0.0
  0
LINE
  5
2C
330
1E
100
AcDbEntity
  8
0
100
AcDbLine
 10
198.8115
 20
265.9123999999999
 30
0.0
 11
198.8115
 21
267.4123999999999
 31
0.0
  0
LINE
  5
2D
330
1E
100
AcDbEntity
  8
0
100
AcDbLine
 10
198.8115
 20
265.9123999999999
 30
0.0
 11
198.8115
 21
264.4124
 31
0.0
  0
LINE
  5
2E
330
1E
100
AcDbEntity
  8
0
100
AcDbLine
 10
198.8115
 20
271.1123999999999
 30
0.0
 11
198.8115
 21
270.1123999999999
 31
0.0
  0
LINE
  5
2F
330
1E
100
AcDbEntity
  8
0
100
AcDbLine
 10
198.8115
 20
271.1123999999999
 30
0.0
 11
198.8115
 21
271.7124
 31
0.0
  0
LINE
  5
30
330
1E
100
AcDbEntity
  8
0
100
AcDbLine
 10
198.8115
 20
271.7124
 30
0.0
 11
198.8115
 21
271.1123999999999
 31
0.0
  0
LINE
  5
31
330
1E
100
AcDbEntity
  8
0
100
AcDbLine
 10
198.8115
 20
271.7124
 30
0.0
 11
198.8115
 21
271.9123999999999
 31
0.0
  0
LINE
  5
32
330
1E
100
AcDbEntity
  8
0
100
AcDbLine
 10
198.8115
 20
270.1123999999999
 30
0.0
 11
198.8115
 21
268.9124
 31
0.0
  0
LINE
  5
33
330
1E
100
AcDbEntity
  8
0
100
AcDbLine
 10
198.8115
 20
270.1123999999999
 30
0.0
 11
198.8115
 21
271.1123999999999
 31
0.0
  0
LINE
  5
34
330
1E
100
AcDbEntity
  8
0
100
AcDbLine
 10
198.8115
 20
268.9124
 30
0.0
 11
198.8115
 21
267.4123999999999
 31
0.0
  0
LINE
  5
35
330
1E
100
AcDbEntity
  8
0
100
AcDbLine
 10
198.8115
 20
268.9124
 30
0.0
 11
198.8115
 21
270.1123999999999
 31
0.0
  0
LINE
  5
36
330
1E
100
AcDbEntity
  8
0
100
AcDbLine
 10
198.8115
 20
267.4123999999999
 30
0.0
 11
198.8115
 21
265.9123999999999
 31
0.0
  0
LINE
  5
37
330
1E
100
AcDbEntity
  8
0
100
AcDbLine
 10
198.8115
 20
267.4123999999999
 30
0.0
 11
198.8115
 21
268.9124
 31
0.0
  0
LINE
  5
38
330
1E
100
AcDbEntity
  8
0
100
AcDbLine
 10
10.79105555548169
 20
848.9785111111629
 30
0.0
 11
10.98249999999999
 21
848.8443999999999
 31
0.0
  0
LINE
  5
39
330
1E
100
AcDbEntity
  8
0
100
AcDbLine
 10
10.7910555554821
 20
848.978511111162
 30
0.0
 11
10.98249999999999
 21
848.8443999999999
 31
0.0
  0
LINE
  5
3A
330
1E
100
AcDbEntity
  8
0
100
AcDbLine
 10
6.96749999999999
 20
853.0734
 30
0.0
 11
10.5165
 21
850.5874
 31
0.0
  0
LINE
  5
3B
330
1E
100
AcDbEntity
  8
0
100
AcDbLine
 10
6.80049999999999
 20
852.8354
 30
0.0
 11
10.3505
 21
850.3504000000001
 31
0.0
  0
LINE
  5
3D
330
1E
100
AcDbEntity
  8
0
100
AcDbLine
 10
4.50149999999999
 20
853.3834
 30
0.0
 11
7.27849999999999
 21
851.4383999999999
 31
0.0
  0
LINE
  5
3E
330
1E
100
AcDbEntity
  8
0
100
AcDbLine
 10
10.5165
 20
850.5874
 30
0.0
 11
14.63049999999999
 21
847.7073999999999
 31
0.0
  0
LINE
  5
41
330
1E
100
AcDbEntity
  8
0
100
AcDbLine
 10
10.3505
 20
850.3504000000001
 30
0.0
 11
14.4655
 21
847.4683999999999
 31
0.0
  0
LINE
  5
49
330
1E
100
AcDbEntity
  8
0
100
AcDbLine
 10
7.27849999999999
 20
851.4383999999999
 30
0.0
 11
10.7255
 21
849.0244
 31
0.0
  0
LINE
  5
4A
330
1E
100
AcDbEntity
  8
0
100
AcDbLine
 10
19.7955
 20
842.4884
 30
0.0
 11
19.8867361378616
 21
842.6098155869059
 31
0.0
  0
LINE
  5
4B
330
1E
100
AcDbEntity
  8
0
100
AcDbLine
 10
20.0575
 20
842.3604
 30
0.0
 11
20.1212620349681
 21
842.445619824301
 31
0.0
  0
LINE
  5
4C
330
1E
100
AcDbEntity
  8
0
100
AcDbLine
 10
20.0575
 20
842.3604
 30
0.0
 11
20.5575
 21
842.0023999999999
 31
0.0
  0
LINE
  5
4D
330
1E
100
AcDbEntity
  8
0
100
AcDbLine
 10
20.5575
 20
842.0023999999999
 30
0.0
 11
21.2535
 21
841.4953999999999
 31
0.0
  0
LINE
  5
4E
330
1E
100
AcDbEntity
  8
0
100
AcDbLine
 10
20.5575
 20
842.0023999999999
 30
0.0
 11
20.62516113174969
 21
842.0928310811689
 31
0.0
  0
LINE
  5
4F
330
1E
100
AcDbEntity
  8
0
100
AcDbLine
 10
20.0625
 20
842.3493999999999
 30
0.0
 11
20.5445
 21
841.9914
 31
0.0
  0
LINE
  5
50
330
1E
100
AcDbEntity
  8
0
100
AcDbLine
 10
20.5445
 20
841.9914
 30
0.0
 11
21.24049999999999
 21
841.4854
 31
0.0
  0
LINE
  5
51
330
1E
100
AcDbEntity
  8
0
100
AcDbLine
 10
21.7405
 20
841.1263999999999
 30
0.0
 11
21.8316117361618
 21
841.248173499722
 31
0.0
  0
LINE
  5
52
330
1E
100
AcDbEntity
  8
0
100
AcDbLine
 10
21.73649999999999
 20
841.1383999999999
 30
0.0
 11
21.8230402371113
 21
841.254174559053
 31
0.0
  0
LINE
  5
53
330
1E
100
AcDbEntity
  8
0
100
AcDbLine
 10
21.2535
 20
841.4953999999999
 30
0.0
 11
21.73649999999999
 21
841.1383999999999
 31
0.0
  0
LINE
  5
54
330
1E
100
AcDbEntity
  8
0
100
AcDbLine
 10
21.2535
 20
841.4953999999999
 30
0.0
 11
21.330794046284
 21
841.598804894933
 31
0.0
  0
LINE
  5
55
330
1E
100
AcDbEntity
  8
0
100
AcDbLine
 10
21.24049999999999
 20
841.4854
 30
0.0
 11
21.7405
 21
841.1263999999999
 31
0.0
  0
LINE
  5
56
330
1E
100
AcDbEntity
  8
0
100
AcDbLine
 10
19.0115
 20
843.0654
 30
0.0
 11
19.60849999999999
 21
842.6273999999999
 31
0.0
  0
LINE
  5
57
330
1E
100
AcDbEntity
  8
0
100
AcDbLine
 10
19.0115
 20
843.0654
 30
0.0
 11
19.0890015830972
 21
843.1684637687268
 31
0.0
  0
LINE
  5
58
330
1E
100
AcDbEntity
  8
0
100
AcDbLine
 10
18.77049999999999
 20
843.2344
 30
0.0
 11
19.4395
 21
842.7464
 31
0.0
  0
LINE
  5
59
330
1E
100
AcDbEntity
  8
0
100
AcDbLine
 10
19.60849999999999
 20
842.6273999999999
 30
0.0
 11
19.7955
 21
842.4884
 31
0.0
  0
LINE
  5
5A
330
1E
100
AcDbEntity
  8
0
100
AcDbLine
 10
19.60849999999999
 20
842.6273999999999
 30
0.0
 11
19.6957617286829
 21
842.7435265070039
 31
0.0
  0
LINE
  5
5B
330
1E
100
AcDbEntity
  8
0
100
AcDbLine
 10
19.4395
 20
842.7464
 30
0.0
 11
19.7955
 21
842.4884
 31
0.0
  0
LINE
  5
5C
330
1E
100
AcDbEntity
  8
0
100
AcDbLine
 10
18.3425
 20
843.5534
 30
0.0
 11
19.0115
 21
843.0654
 31
0.0
  0
LINE
  5
5D
330
1E
100
AcDbEntity
  8
0
100
AcDbLine
 10
18.3425
 20
843.5534
 30
0.0
 11
18.41040936499369
 21
843.6437077693179
 31
0.0
  0
LINE
  5
5E
330
1E
100
AcDbEntity
  8
0
100
AcDbLine
 10
18.3425
 20
843.5534
 30
0.0
 11
18.41040936499369
 21
843.6437077693179
 31
0.0
  0
LINE
  5
5F
330
1E
100
AcDbEntity
  8
0
100
AcDbLine
 10
17.9875
 20
843.8103999999999
 30
0.0
 11
18.1735
 21
843.6714
 31
0.0
  0
LINE
  5
60
330
1E
100
AcDbEntity
  8
0
100
AcDbLine
 10
17.9875
 20
843.8103999999999
 30
0.0
 11
18.0512516192551
 21
843.895239630978
 31
0.0
  0
LINE
  5
61
330
1E
100
AcDbEntity
  8
0
100
AcDbLine
 10
17.9875
 20
843.8103999999999
 30
0.0
 11
18.3425
 21
843.5534
 31
0.0
  0
LINE
  5
62
330
1E
100
AcDbEntity
  8
0
100
AcDbLine
 10
18.1735
 20
843.6714
 30
0.0
 11
18.77049999999999
 21
843.2344
 31
0.0
  0
LINE
  5
63
330
1E
100
AcDbEntity
  8
0
100
AcDbLine
 10
19.4645
 20
844.3224
 30
0.0
 11
24.7625
 21
840.6124
 31
0.0
  0
LINE
  5
65
330
1E
100
AcDbEntity
  8
0
100
AcDbLine
 10
19.2975
 20
844.0853999999999
 30
0.0
 11
24.5955
 21
840.3754000000001
 31
0.0
  0
LINE
  5
6B
330
1E
100
AcDbEntity
  8
0
100
AcDbLine
 10
19.7245
 20
842.7234
 30
0.0
 11
24.8165
 21
839.1583999999999
 31
0.0
  0
LINE
  5
6E
330
1E
100
AcDbEntity
  8
0
100
AcDbLine
 10
19.8867361378616
 20
842.6098155869059
 30
0.0
 11
20.1212620349681
 21
842.445619824301
 31
0.0
  0
LINE
  5
6F
330
1E
100
AcDbEntity
  8
0
100
AcDbLine
 10
29.7135
 20
835.5993999999999
 30
0.0
 11
30.3925
 21
835.1154000000001
 31
0.0
  0
LINE
  5
70
330
1E
100
AcDbEntity
  8
0
100
AcDbLine
 10
29.7135
 20
835.5993999999999
 30
0.0
 11
29.7763621173284
 21
835.68531563701
 31
0.0
  0
LINE
  5
71
330
1E
100
AcDbEntity
  8
0
100
AcDbLine
 10
30.1345
 20
835.2574
 30
0.0
 11
30.8135
 21
834.7734
 31
0.0
  0
LINE
  5
72
330
1E
100
AcDbEntity
  8
0
100
AcDbLine
 10
29.52949999999999
 20
835.7003999999999
 30
0.0
 11
30.1345
 21
835.2574
 31
0.0
  0
LINE
  5
73
330
1E
100
AcDbEntity
  8
0
100
AcDbLine
 10
29.3645
 20
835.8354
 30
0.0
 11
29.52949999999999
 21
835.7003999999999
 31
0.0
  0
LINE
  5
74
330
1E
100
AcDbEntity
  8
0
100
AcDbLine
 10
29.3645
 20
835.8354
 30
0.0
 11
29.4314231880356
 21
835.9268660303399
 31
0.0
  0
LINE
  5
75
330
1E
100
AcDbEntity
  8
0
100
AcDbLine
 10
29.3645
 20
835.8354
 30
0.0
 11
29.7135
 21
835.5993999999999
 31
0.0
  0
LINE
  5
76
330
1E
100
AcDbEntity
  8
0
100
AcDbLine
 10
27.06749999999999
 20
837.3044
 30
0.0
 11
27.2042154618605
 21
837.4865128448899
 31
0.0
  0
LINE
  5
77
330
1E
100
AcDbEntity
  8
0
100
AcDbLine
 10
26.9715
 20
837.3803999999999
 30
0.0
 11
27.06749999999999
 21
837.3044
 31
0.0
  0
LINE
  5
78
330
1E
100
AcDbEntity
  8
0
100
AcDbLine
 10
26.9715
 20
837.3803999999999
 30
0.0
 11
27.1038982060773
 21
837.556762012306
 31
0.0
  0
LINE
  5
79
330
1E
100
AcDbEntity
  8
0
100
AcDbLine
 10
31.1625
 20
834.5374000000001
 30
0.0
 11
31.2482664160972
 21
834.654619664024
 31
0.0
  0
LINE
  5
7A
330
1E
100
AcDbEntity
  8
0
100
AcDbLine
 10
30.9975
 20
834.6724
 30
0.0
 11
31.1625
 21
834.5374000000001
 31
0.0
  0
LINE
  5
7B
330
1E
100
AcDbEntity
  8
0
100
AcDbLine
 10
30.9975
 20
834.6724
 30
0.0
 11
31.0738871421087
 21
834.7767264080941
 31
0.0
  0
LINE
  5
7C
330
1E
100
AcDbEntity
  8
0
100
AcDbLine
 10
30.3925
 20
835.1154000000001
 30
0.0
 11
30.9975
 21
834.6724
 31
0.0
  0
LINE
  5
7D
330
1E
100
AcDbEntity
  8
0
100
AcDbLine
 10
30.3925
 20
835.1154000000001
 30
0.0
 11
30.4594863274406
 21
835.206952324955
 31
0.0
  0
LINE
  5
7E
330
1E
100
AcDbEntity
  8
0
100
AcDbLine
 10
30.8135
 20
834.7734
 30
0.0
 11
31.1625
 21
834.5374000000001
 31
0.0
  0
LINE
  5
7F
330
1E
100
AcDbEntity
  8
0
100
AcDbLine
 10
31.2085
 20
834.4523999999999
 30
0.0
 11
31.4615
 21
834.2553999999999
 31
0.0
  0
LINE
  5
80
330
1E
100
AcDbEntity
  8
0
100
AcDbLine
 10
31.2085
 20
834.4523999999999
 30
0.0
 11
31.3203734463528
 21
834.604127684744
 31
0.0
  0
LINE
  5
81
330
1E
100
AcDbEntity
  8
0
100
AcDbLine
 10
31.2085
 20
834.4523999999999
 30
0.0
 11
31.4745
 21
834.2743999999999
 31
0.0
  0
LINE
  5
82
330
1E
100
AcDbEntity
  8
0
100
AcDbLine
 10
30.4715
 20
836.6153999999999
 30
0.0
 11
36.5095
 21
832.3873999999999
 31
0.0
  0
LINE
  5
83
330
1E
100
AcDbEntity
  8
0
100
AcDbLine
 10
30.30549999999999
 20
836.3773999999999
 30
0.0
 11
36.34349999999999
 21
832.1493999999999
 31
0.0
  0
LINE
  5
84
330
1E
100
AcDbEntity
  8
0
100
AcDbLine
 10
30.2175
 20
835.3763999999999
 30
0.0
 11
36.1355
 21
831.2324
 31
0.0
  0
LINE
  5
85
330
1E
100
AcDbEntity
  8
0
100
AcDbLine
 10
24.0575
 20
839.5604
 30
0.0
 11
24.6675
 21
839.1244
 31
0.0
  0
LINE
  5
86
330
1E
100
AcDbEntity
  8
0
100
AcDbLine
 10
24.0575
 20
839.5604
 30
0.0
 11
24.1206310038627
 21
839.645590292857
 31
0.0
  0
LINE
  5
87
330
1E
100
AcDbEntity
  8
0
100
AcDbLine
 10
23.8795
 20
839.6763999999999
 30
0.0
 11
24.2145
 21
839.4224000000001
 31
0.0
  0
LINE
  5
88
330
1E
100
AcDbEntity
  8
0
100
AcDbLine
 10
23.8795
 20
839.6763999999999
 30
0.0
 11
23.9468373036294
 21
839.767266361461
 31
0.0
  0
LINE
  5
89
330
1E
100
AcDbEntity
  8
0
100
AcDbLine
 10
23.8795
 20
839.6763999999999
 30
0.0
 11
24.0575
 21
839.5604
 31
0.0
  0
LINE
  5
8A
330
1E
100
AcDbEntity
  8
0
100
AcDbLine
 10
24.2145
 20
839.4224000000001
 30
0.0
 11
24.8885
 21
838.9303999999999
 31
0.0
  0
LINE
  5
8B
330
1E
100
AcDbEntity
  8
0
100
AcDbLine
 10
24.5955
 20
840.3754000000001
 30
0.0
 11
30.30549999999999
 21
836.3773999999999
 31
0.0
  0
LINE
  5
8C
330
1E
100
AcDbEntity
  8
0
100
AcDbLine
 10
24.6675
 20
839.1244
 30
0.0
 11
25.3415
 21
838.6334000000001
 31
0.0
  0
LINE
  5
8D
330
1E
100
AcDbEntity
  8
0
100
AcDbLine
 10
24.6675
 20
839.1244
 30
0.0
 11
24.73503004140989
 21
839.2154385707719
 31
0.0
  0
LINE
  5
8E
330
1E
100
AcDbEntity
  8
0
100
AcDbLine
 10
24.8885
 20
838.9303999999999
 30
0.0
 11
25.3255292207916
 21
838.6187480146809
 31
0.0
  0
LINE
  5
8F
330
1E
100
AcDbEntity
  8
0
100
AcDbLine
 10
24.8885
 20
838.9303999999999
 30
0.0
 11
25.4985
 21
838.4954
 31
0.0
  0
LINE
  5
90
330
1E
100
AcDbEntity
  8
0
100
AcDbLine
 10
24.7625
 20
840.6124
 30
0.0
 11
30.4715
 21
836.6153999999999
 31
0.0
  0
LINE
  5
91
330
1E
100
AcDbEntity
  8
0
100
AcDbLine
 10
24.6625
 20
839.2663999999999
 30
0.0
 11
30.2175
 21
835.3763999999999
 31
0.0
  0
LINE
  5
94
330
1E
100
AcDbEntity
  8
0
100
AcDbLine
 10
26.4265
 20
837.7803999999999
 30
0.0
 11
26.9715
 21
837.3803999999999
 31
0.0
  0
LINE
  5
95
330
1E
100
AcDbEntity
  8
0
100
AcDbLine
 10
26.4265
 20
837.7803999999999
 30
0.0
 11
26.5498096927815
 21
837.9447735904729
 31
0.0
  0
LINE
  5
96
330
1E
100
AcDbEntity
  8
0
100
AcDbLine
 10
25.3415
 20
838.6334000000001
 30
0.0
 11
25.6765
 21
838.3784
 31
0.0
  0
LINE
  5
97
330
1E
100
AcDbEntity
  8
0
100
AcDbLine
 10
25.3415
 20
838.6334000000001
 30
0.0
 11
25.4183086976983
 21
838.737047258091
 31
0.0
  0
LINE
  5
98
330
1E
100
AcDbEntity
  8
0
100
AcDbLine
 10
25.3065
 20
838.5934
 30
0.0
 11
25.4035
 21
838.5173999999999
 31
0.0
  0
LINE
  5
99
330
1E
100
AcDbEntity
  8
0
100
AcDbLine
 10
25.3065
 20
838.5934
 30
0.0
 11
25.7385
 21
838.2824000000001
 31
0.0
  0
LINE
  5
9A
330
1E
100
AcDbEntity
  8
0
100
AcDbLine
 10
25.7385
 20
838.2824000000001
 30
0.0
 11
26.4265
 21
837.7803999999999
 31
0.0
  0
LINE
  5
9B
330
1E
100
AcDbEntity
  8
0
100
AcDbLine
 10
25.7385
 20
838.2824000000001
 30
0.0
 11
25.85190767803919
 21
838.433465538594
 31
0.0
  0
LINE
  5
9C
330
1E
100
AcDbEntity
  8
0
100
AcDbLine
 10
25.6765
 20
838.3784
 30
0.0
 11
25.7633015564625
 21
838.495502581958
 31
0.0
  0
LINE
  5
9D
330
1E
100
AcDbEntity
  8
0
100
AcDbLine
 10
25.4985
 20
838.4954
 30
0.0
 11
25.6765
 21
838.3784
 31
0.0
  0
LINE
  5
9E
330
1E
100
AcDbEntity
  8
0
100
AcDbLine
 10
25.4035
 20
838.5173999999999
 30
0.0
 11
25.9475
 21
838.1164
 31
0.0
  0
LINE
  5
9F
330
1E
100
AcDbEntity
  8
0
100
AcDbLine
 10
25.9475
 20
838.1164
 30
0.0
 11
26.6365
 21
837.6153999999999
 31
0.0
  0
LINE
  5
A0
330
1E
100
AcDbEntity
  8
0
100
AcDbLine
 10
26.6365
 20
837.6153999999999
 30
0.0
 11
27.06749999999999
 21
837.3044
 31
0.0
  0
LINE
  5
A1
330
1E
100
AcDbEntity
  8
0
100
AcDbLine
 10
27.2042154618605
 20
837.4865128448899
 30
0.0
 11
29.4314231880356
 21
835.9268660303399
 31
0.0
  0
LINE
  5
A2
330
1E
100
AcDbEntity
  8
0
100
AcDbLine
 10
21.8316117361618
 20
841.248173499722
 30
0.0
 11
23.9468373036294
 21
839.767266361461
 31
0.0
  0
LINE
  5
A3
330
1E
100
AcDbEntity
  8
0
100
AcDbLine
 10
21.8316117361618
 20
841.248173499722
 30
0.0
 11
23.9468373036294
 21
839.767266361461
 31
0.0
  0
LINE
  5
A6
330
1E
100
AcDbEntity
  8
0
100
AcDbLine
 10
14.99249999999999
 20
846.0373999999999
 30
0.0
 11
18.0512516192551
 21
843.895239630978
 31
0.0
  0
LINE
  5
A7
330
1E
100
AcDbEntity
  8
0
100
AcDbLine
 10
14.99249999999999
 20
846.0373999999999
 30
0.0
 11
19.7245
 21
842.7234
 31
0.0
  0
LINE
  5
A8
330
1E
100
AcDbEntity
  8
0
100
AcDbLine
 10
84.6865
 20
788.0203999999999
 30
0.0
 11
85.1195
 21
787.9573999999999
 31
0.0
  0
LINE
  5
A9
330
1E
100
AcDbEntity
  8
0
100
AcDbLine
 10
85.1195
 20
787.9573999999999
 30
0.0
 11
86.00749999999999
 21
788.0533999999999
 31
0.0
  0
LINE
  5
AA
330
1E
100
AcDbEntity
  8
0
100
AcDbLine
 10
84.14149999999999
 20
788.2204
 30
0.0
 11
84.42449999999999
 21
788.1054
 31
0.0
  0
LINE
  5
AB
330
1E
100
AcDbEntity
  8
0
100
AcDbLine
 10
84.42449999999999
 20
788.1054
 30
0.0
 11
84.6865
 21
788.0203999999999
 31
0.0
  0
LINE
  5
AC
330
1E
100
AcDbEntity
  8
0
100
AcDbLine
 10
83.6965
 20
788.5044
 30
0.0
 11
84.14149999999999
 21
788.2204
 31
0.0
  0
LINE
  5
AD
330
1E
100
AcDbEntity
  8
0
100
AcDbLine
 10
83.1685
 20
789.0273999999999
 30
0.0
 11
83.6965
 21
788.5044
 31
0.0
  0
LINE
  5
AE
330
1E
100
AcDbEntity
  8
0
100
AcDbLine
 10
86.00749999999999
 20
788.0533999999999
 30
0.0
 11
86.7065
 21
788.5384
 31
0.0
  0
LINE
  5
AF
330
1E
100
AcDbEntity
  8
0
100
AcDbLine
 10
86.7065
 20
788.5384
 30
0.0
 11
87.3815
 21
789.5324
 31
0.0
  0
LINE
  5
B0
330
1E
100
AcDbEntity
  8
0
100
AcDbLine
 10
82.5295
 20
789.9754
 30
0.0
 11
83.1685
 21
789.0273999999999
 31
0.0
  0
LINE
  5
B1
330
1E
100
AcDbEntity
  8
0
100
AcDbLine
 10
87.3815
 20
789.5324
 30
0.0
 11
87.8105
 21
790.7744
 31
0.0
  0
LINE
  5
B2
330
1E
100
AcDbEntity
  8
0
100
AcDbLine
 10
87.8105
 20
790.7744
 30
0.0
 11
88.4275
 21
793.1504
 31
0.0
  0
LINE
  5
B3
330
1E
100
AcDbEntity
  8
0
100
AcDbLine
 10
94.33150000000001
 20
790.4834
 30
0.0
 11
95.56749999999999
 21
789.6174
 31
0.0
  0
LINE
  5
B4
330
1E
100
AcDbEntity
  8
0
100
AcDbLine
 10
121.2189999999999
 20
781.2874
 30
0.0
 11
121.2863
 21
781.3683999999999
 31
0.0
  0
LINE
  5
B5
330
1E
100
AcDbEntity
  8
0
100
AcDbLine
 10
121.2863
 20
781.3683999999999
 30
0.0
 11
124.3662
 21
785.0374
 31
0.0
  0
LINE
  5
B6
330
1E
100
AcDbEntity
  8
0
100
AcDbLine
 10
120.6410999999999
 20
781.3754
 30
0.0
 11
120.9034
 21
781.6893999999999
 31
0.0
  0
LINE
  5
B7
330
1E
100
AcDbEntity
  8
0
100
AcDbLine
 10
120.9034
 20
781.6893999999999
 30
0.0
 11
123.9832999999999
 21
785.3594000000001
 31
0.0
  0
LINE
  5
B8
330
1E
100
AcDbEntity
  8
0
100
AcDbLine
 10
121.480519752115
 20
781.599768638757
 30
0.0
 11
133.2145999999999
 21
766.0783999999999
 31
0.0
  0
LINE
  5
B9
330
1E
100
AcDbEntity
  8
0
100
AcDbLine
 10
133.2145999999999
 20
766.0783999999999
 30
0.0
 11
142.6691999999999
 21
753.4493999999999
 31
0.0
  0
LINE
  5
BA
330
1E
100
AcDbEntity
  8
0
100
AcDbLine
 10
142.6691999999999
 20
753.4493999999999
 30
0.0
 11
151.0704
 21
741.4184
 31
0.0
  0
LINE
  5
BB
330
1E
100
AcDbEntity
  8
0
100
AcDbLine
 10
151.0704
 20
741.4184
 30
0.0
 11
158.6171
 21
729.8954
 31
0.0
  0
LINE
  5
BC
330
1E
100
AcDbEntity
  8
0
100
AcDbLine
 10
161.9912
 20
770.8473999999999
 30
0.0
 11
171.2765
 21
757.7804
 31
0.0
  0
LINE
  5
BD
330
1E
100
AcDbEntity
  8
0
100
AcDbLine
 10
158.6171
 20
729.8954
 30
0.0
 11
166.5855
 21
716.8343999999999
 31
0.0
  0
LINE
  5
BE
330
1E
100
AcDbEntity
  8
0
100
AcDbLine
 10
166.5855
 20
716.8343999999999
 30
0.0
 11
175.9282195936119
 21
700.1951113118581
 31
0.0
  0
LINE
  5
BF
330
1E
100
AcDbEntity
  8
0
100
AcDbLine
 10
166.5855
 20
716.8343999999999
 30
0.0
 11
175.9282195936119
 21
700.1951113118581
 31
0.0
  0
LINE
  5
C0
330
1E
100
AcDbEntity
  8
0
100
AcDbLine
 10
120.4894
 20
781.1954
 30
0.0
 11
120.6410999999999
 21
781.3754
 31
0.0
  0
LINE
  5
C1
330
1E
100
AcDbEntity
  8
0
100
AcDbLine
 10
118.1297
 20
783.8283999999999
 30
0.0
 11
118.1917
 21
783.1233999999999
 31
0.0
  0
LINE
  5
C2
330
1E
100
AcDbEntity
  8
0
100
AcDbLine
 10
118.1297
 20
783.8283999999999
 30
0.0
 11
119.1413927261219
 21
785.033967467253
 31
0.0
  0
LINE
  5
C3
330
1E
100
AcDbEntity
  8
0
100
AcDbLine
 10
118.1555
 20
783.8583999999999
 30
0.0
 11
118.2228
 21
783.9383999999999
 31
0.0
  0
LINE
  5
C4
330
1E
100
AcDbEntity
  8
0
100
AcDbLine
 10
118.3426
 20
783.3044
 30
0.0
 11
118.6058
 21
783.6173999999999
 31
0.0
  0
LINE
  5
C5
330
1E
100
AcDbEntity
  8
0
100
AcDbLine
 10
118.6058
 20
783.6173999999999
 30
0.0
 11
121.6847999999999
 21
787.2874
 31
0.0
  0
LINE
  5
C6
330
1E
100
AcDbEntity
  8
0
100
AcDbLine
 10
124.3662
 20
785.0374
 30
0.0
 11
129.872
 21
791.5983999999999
 31
0.0
  0
LINE
  5
C7
330
1E
100
AcDbEntity
  8
0
100
AcDbLine
 10
123.9832999999999
 20
785.3594000000001
 30
0.0
 11
129.4883
 21
791.9203999999999
 31
0.0
  0
LINE
  5
C8
330
1E
100
AcDbEntity
  8
0
100
AcDbLine
 10
121.3017999999999
 20
787.6094000000001
 30
0.0
 11
126.8076999999999
 21
794.1694
 31
0.0
  0
LINE
  5
C9
330
1E
100
AcDbEntity
  8
0
100
AcDbLine
 10
121.6847999999999
 20
787.2874
 30
0.0
 11
127.1907
 21
793.8483999999999
 31
0.0
  0
LINE
  5
CA
330
1E
100
AcDbEntity
  8
0
100
AcDbLine
 10
151.5995
 20
784.4624
 30
0.0
 11
161.9912
 21
770.8473999999999
 31
0.0
  0
LINE
  5
CB
330
1E
100
AcDbEntity
  8
0
100
AcDbLine
 10
118.2228
 20
783.9383999999999
 30
0.0
 11
119.1415464034919
 21
785.033793974414
 31
0.0
  0
LINE
  5
CC
330
1E
100
AcDbEntity
  8
0
100
AcDbLine
 10
118.2228
 20
783.9383999999999
 30
0.0
 11
121.3017999999999
 21
787.6094000000001
 31
0.0
  0
LINE
  5
CD
330
1E
100
AcDbEntity
  8
0
100
AcDbLine
 10
118.1917
 20
783.1233999999999
 30
0.0
 11
120.4894
 21
781.1954
 31
0.0
  0
LINE
  5
CE
330
1E
100
AcDbEntity
  8
0
100
AcDbLine
 10
118.1917
 20
783.1233999999999
 30
0.0
 11
118.3426
 21
783.3044
 31
0.0
  0
LINE
  5
CF
330
1E
100
AcDbEntity
  8
0
100
AcDbLine
 10
177.6023999999999
 20
696.5434
 30
0.0
 11
177.6939
 21
696.5954
 31
0.0
  0
LINE
  5
D0
330
1E
100
AcDbEntity
  8
0
100
AcDbLine
 10
177.6023999999999
 20
696.5434
 30
0.0
 11
177.6930371790029
 21
696.595725592829
 31
0.0
  0
LINE
  5
D1
330
1E
100
AcDbEntity
  8
0
100
AcDbLine
 10
177.6023999999999
 20
696.5434
 30
0.0
 11
177.6930371790029
 21
696.595725592829
 31
0.0
  0
LINE
  5
D2
330
1E
100
AcDbEntity
  8
0
100
AcDbLine
 10
177.6939
 20
696.5954
 30
0.0
 11
178.001855824205
 21
696.7732073753829
 31
0.0
  0
LINE
  5
D3
330
1E
100
AcDbEntity
  8
0
100
AcDbLine
 10
177.6939
 20
696.5954
 30
0.0
 11
200.8260299999999
 21
709.9514
 31
0.0
  0
LINE
  5
D4
330
1E
100
AcDbEntity
  8
0
100
AcDbLine
 10
177.6939
 20
696.5954
 30
0.0
 11
179.2343512147709
 21
697.4848249300529
 31
0.0
  0
LINE
  5
D5
330
1E
100
AcDbEntity
  8
0
100
AcDbLine
 10
177.5689
 20
696.5234
 30
0.0
 11
177.6750682077149
 21
696.584697779248
 31
0.0
  0
LINE
  5
D6
330
1E
100
AcDbEntity
  8
0
100
AcDbLine
 10
177.5689
 20
696.5234
 30
0.0
 11
177.6750682077149
 21
696.584697779248
 31
0.0
  0
LINE
  5
D7
330
1E
100
AcDbEntity
  8
0
100
AcDbLine
 10
175.5895999999999
 20
699.4213999999999
 30
0.0
 11
175.9439
 21
699.6264
 31
0.0
  0
LINE
  5
D8
330
1E
100
AcDbEntity
  8
0
100
AcDbLine
 10
175.6026
 20
700.0073999999999
 30
0.0
 11
175.6931999999999
 21
700.0593999999999
 31
0.0
  0
LINE
  5
D9
330
1E
100
AcDbEntity
  8
0
100
AcDbLine
 10
175.6026
 20
700.0073999999999
 30
0.0
 11
175.9281040960189
 21
700.195317011898
 31
0.0
  0
LINE
  5
DA
330
1E
100
AcDbEntity
  8
0
100
AcDbLine
 10
175.6026
 20
700.0073999999999
 30
0.0
 11
176.150441722326
 21
700.3236749123959
 31
0.0
  0
LINE
  5
DB
330
1E
100
AcDbEntity
  8
0
100
AcDbLine
 10
177.0896999999999
 20
696.8233999999999
 30
0.0
 11
177.4432
 21
697.0284
 31
0.0
  0
LINE
  5
DC
330
1E
100
AcDbEntity
  8
0
100
AcDbLine
 10
177.4432
 20
697.0284
 30
0.0
 11
181.5924
 21
699.4244
 31
0.0
  0
LINE
  5
DD
330
1E
100
AcDbEntity
  8
0
100
AcDbLine
 10
175.9439
 20
699.6264
 30
0.0
 11
180.0923
 21
702.0223999999999
 31
0.0
  0
LINE
  5
DE
330
1E
100
AcDbEntity
  8
0
100
AcDbLine
 10
175.9439
 20
699.6264
 30
0.0
 11
180.0924
 21
702.0223999999999
 31
0.0
  0
LINE
  5
DF
330
1E
100
AcDbEntity
  8
0
100
AcDbLine
 10
175.6931999999999
 20
700.0593999999999
 30
0.0
 11
175.9282195936119
 21
700.1951113118581
 31
0.0
  0
LINE
  5
E0
330
1E
100
AcDbEntity
  8
0
100
AcDbLine
 10
175.6931999999999
 20
700.0593999999999
 30
0.0
 11
179.8424999999999
 21
702.4554000000001
 31
0.0
  0
LINE
  5
E1
330
1E
100
AcDbEntity
  8
0
100
AcDbLine
 10
176.8854
 20
696.7064
 30
0.0
 11
177.5689
 21
696.5234
 31
0.0
  0
LINE
  5
E2
330
1E
100
AcDbEntity
  8
0
100
AcDbLine
 10
176.8854
 20
696.7064
 30
0.0
 11
177.0896999999999
 21
696.8233999999999
 31
0.0
  0
LINE
  5
E3
330
1E
100
AcDbEntity
  8
0
100
AcDbLine
 10
175.3854
 20
699.3044
 30
0.0
 11
176.8854
 21
696.7064
 31
0.0
  0
LINE
  5
E4
330
1E
100
AcDbEntity
  8
0
100
AcDbLine
 10
175.3854
 20
699.3044
 30
0.0
 11
175.5682999999999
 21
699.9874
 31
0.0
  0
LINE
  5
E5
330
1E
100
AcDbEntity
  8
0
100
AcDbLine
 10
175.3854
 20
699.3044
 30
0.0
 11
175.5895999999999
 21
699.4213999999999
 31
0.0
  0
LINE
  5
E6
330
1E
100
AcDbEntity
  8
0
100
AcDbLine
 10
97.66750000000001
 20
789.2094
 30
0.0
 11
97.83450000000001
 21
789.4474
 31
0.0
  0
LINE
  5
E7
330
1E
100
AcDbEntity
  8
0
100
AcDbLine
 10
96.9715
 20
788.9894
 30
0.0
 11
97.66750000000001
 21
789.2094
 31
0.0
  0
LINE
  5
E8
330
1E
100
AcDbEntity
  8
0
100
AcDbLine
 10
97.3245
 20
789.8043999999999
 30
0.0
 11
97.83450000000001
 21
789.4474
 31
0.0
  0
LINE
  5
E9
330
1E
100
AcDbEntity
  8
0
100
AcDbLine
 10
97.15850000000001
 20
789.5664
 30
0.0
 11
97.66750000000001
 21
789.2094
 31
0.0
  0
LINE
  5
EA
330
1E
100
AcDbEntity
  8
0
100
AcDbLine
 10
96.0885
 20
790.6693999999999
 30
0.0
 11
97.3245
 21
789.8043999999999
 31
0.0
  0
LINE
  5
EB
330
1E
100
AcDbEntity
  8
0
100
AcDbLine
 10
129.872
 20
791.5983999999999
 30
0.0
 11
135.377
 21
798.1594
 31
0.0
  0
LINE
  5
EC
330
1E
100
AcDbEntity
  8
0
100
AcDbLine
 10
97.04450000000001
 20
791.4163999999999
 30
0.0
 11
97.8035
 21
790.1774
 31
0.0
  0
LINE
  5
ED
330
1E
100
AcDbEntity
  8
0
100
AcDbLine
 10
97.8035
 20
790.1774
 30
0.0
 11
97.83450000000001
 21
789.4474
 31
0.0
  0
LINE
  5
EE
330
1E
100
AcDbEntity
  8
0
100
AcDbLine
 10
95.92249999999999
 20
790.4324
 30
0.0
 11
97.15850000000001
 21
789.5664
 31
0.0
  0
LINE
  5
EF
330
1E
100
AcDbEntity
  8
0
100
AcDbLine
 10
96.07750000000001
 20
789.2604
 30
0.0
 11
96.9715
 21
788.9894
 31
0.0
  0
LINE
  5
F0
330
1E
100
AcDbEntity
  8
0
100
AcDbLine
 10
95.56749999999999
 20
789.6174
 30
0.0
 11
96.07750000000001
 21
789.2604
 31
0.0
  0
LINE
  5
F1
330
1E
100
AcDbEntity
  8
0
100
AcDbLine
 10
81.45850000000001
 20
792.1094
 30
0.0
 11
82.5295
 21
789.9754
 31
0.0
  0
LINE
  5
F2
330
1E
100
AcDbEntity
  8
0
100
AcDbLine
 10
80.6835
 20
794.4474
 30
0.0
 11
81.45850000000001
 21
792.1094
 31
0.0
  0
LINE
  5
F3
330
1E
100
AcDbEntity
  8
0
100
AcDbLine
 10
88.4275
 20
793.1504
 30
0.0
 11
88.6660783086315
 21
794.450214198222
 31
0.0
  0
LINE
  5
F4
330
1E
100
AcDbEntity
  8
0
100
AcDbLine
 10
91.22150000000001
 20
794.0774
 30
0.0
 11
94.0515
 21
792.0964
 31
0.0
  0
LINE
  5
F5
330
1E
100
AcDbEntity
  8
0
100
AcDbLine
 10
91.05549999999999
 20
793.8393999999999
 30
0.0
 11
93.8845
 21
791.8584
 31
0.0
  0
LINE
  5
F6
330
1E
100
AcDbEntity
  8
0
100
AcDbLine
 10
89.3215
 20
793.9913999999999
 30
0.0
 11
91.99749999999999
 21
792.1173999999999
 31
0.0
  0
LINE
  5
F7
330
1E
100
AcDbEntity
  8
0
100
AcDbLine
 10
76.6785
 20
802.7143999999999
 30
0.0
 11
76.73666876911791
 21
802.803270648306
 31
0.0
  0
LINE
  5
F8
330
1E
100
AcDbEntity
  8
0
100
AcDbLine
 10
77.0835
 20
802.3834
 30
0.0
 11
77.69849999999999
 21
801.9724
 31
0.0
  0
LINE
  5
F9
330
1E
100
AcDbEntity
  8
0
100
AcDbLine
 10
77.0835
 20
802.3834
 30
0.0
 11
77.16265136505879
 21
802.504959833285
 31
0.0
  0
LINE
  5
FA
330
1E
100
AcDbEntity
  8
0
100
AcDbLine
 10
77.25249999999999
 20
802.2653999999999
 30
0.0
 11
77.93949999999999
 21
801.8034
 31
0.0
  0
LINE
  5
FB
330
1E
100
AcDbEntity
  8
0
100
AcDbLine
 10
76.88849999999999
 20
802.5114
 30
0.0
 11
77.25249999999999
 21
802.2653999999999
 31
0.0
  0
LINE
  5
FC
330
1E
100
AcDbEntity
  8
0
100
AcDbLine
 10
76.88849999999999
 20
802.5114
 30
0.0
 11
76.9714778430815
 21
802.638836497954
 31
0.0
  0
LINE
  5
FD
330
1E
100
AcDbEntity
  8
0
100
AcDbLine
 10
76.88849999999999
 20
802.5114
 30
0.0
 11
76.9714778430815
 21
802.638836497954
 31
0.0
  0
LINE
  5
FE
330
1E
100
AcDbEntity
  8
0
100
AcDbLine
 10
76.88849999999999
 20
802.5114
 30
0.0
 11
77.0835
 21
802.3834
 31
0.0
  0
LINE
  5
FF
330
1E
100
AcDbEntity
  8
0
100
AcDbLine
 10
77.69849999999999
 20
801.9724
 30
0.0
 11
78.38549999999999
 21
801.5104
 31
0.0
  0
LINE
  5
100
330
1E
100
AcDbEntity
  8
0
100
AcDbLine
 10
77.69849999999999
 20
801.9724
 30
0.0
 11
77.76881711499401
 21
802.0805060809019
 31
0.0
  0
LINE
  5
101
330
1E
100
AcDbEntity
  8
0
100
AcDbLine
 10
77.93949999999999
 20
801.8034
 30
0.0
 11
78.55450000000001
 21
801.3923999999999
 31
0.0
  0
LINE
  5
102
330
1E
100
AcDbEntity
  8
0
100
AcDbLine
 10
78.7495
 20
801.2643999999999
 30
0.0
 11
78.80739032188699
 21
801.3533073469819
 31
0.0
  0
LINE
  5
103
330
1E
100
AcDbEntity
  8
0
100
AcDbLine
 10
78.38549999999999
 20
801.5104
 30
0.0
 11
78.7495
 21
801.2643999999999
 31
0.0
  0
LINE
  5
104
330
1E
100
AcDbEntity
  8
0
100
AcDbLine
 10
78.38549999999999
 20
801.5104
 30
0.0
 11
78.4473569126515
 21
801.6053991953251
 31
0.0
  0
LINE
  5
105
330
1E
100
AcDbEntity
  8
0
100
AcDbLine
 10
78.55450000000001
 20
801.3923999999999
 30
0.0
 11
78.7495
 21
801.2643999999999
 31
0.0
  0
LINE
  5
10B
330
1E
100
AcDbEntity
  8
0
100
AcDbLine
 10
78.5585
 20
802.5904
 30
0.0
 11
83.3905
 21
799.2064
 31
0.0
  0
LINE
  5
10C
330
1E
100
AcDbEntity
  8
0
100
AcDbLine
 10
77.3905
 20
802.3454
 30
0.0
 11
82.1235
 21
799.0313999999999
 31
0.0
  0
LINE
  5
10E
330
1E
100
AcDbEntity
  8
0
100
AcDbLine
 10
72.06050000000001
 20
805.9393999999999
 30
0.0
 11
72.6785
 21
805.5144
 31
0.0
  0
LINE
  5
10F
330
1E
100
AcDbEntity
  8
0
100
AcDbLine
 10
72.06050000000001
 20
805.9393999999999
 30
0.0
 11
72.1231018153619
 21
806.034085245735
 31
0.0
  0
LINE
  5
110
330
1E
100
AcDbEntity
  8
0
100
AcDbLine
 10
71.8035
 20
806.0804
 30
0.0
 11
72.49550000000001
 21
805.6154000000001
 31
0.0
  0
LINE
  5
111
330
1E
100
AcDbEntity
  8
0
100
AcDbLine
 10
67.3635
 20
809.2283999999999
 30
0.0
 11
67.42637085503391
 21
809.322219666026
 31
0.0
  0
LINE
  5
112
330
1E
100
AcDbEntity
  8
0
100
AcDbLine
 10
70.1965
 20
807.1334
 30
0.0
 11
70.90349999999999
 21
806.6574000000001
 31
0.0
  0
LINE
  5
113
330
1E
100
AcDbEntity
  8
0
100
AcDbLine
 10
70.1965
 20
807.1334
 30
0.0
 11
70.3082134477613
 21
807.3046704593441
 31
0.0
  0
LINE
  5
114
330
1E
100
AcDbEntity
  8
0
100
AcDbLine
 10
71.36849999999999
 20
806.4044
 30
0.0
 11
72.06050000000001
 21
805.9393999999999
 31
0.0
  0
LINE
  5
115
330
1E
100
AcDbEntity
  8
0
100
AcDbLine
 10
71.36849999999999
 20
806.4044
 30
0.0
 11
71.43989797106609
 21
806.5123894312369
 31
0.0
  0
LINE
  5
116
330
1E
100
AcDbEntity
  8
0
100
AcDbLine
 10
70.90349999999999
 20
806.6574000000001
 30
0.0
 11
71.3425
 21
806.3584
 31
0.0
  0
LINE
  5
117
330
1E
100
AcDbEntity
  8
0
100
AcDbLine
 10
70.90349999999999
 20
806.6574000000001
 30
0.0
 11
71.0067218099077
 21
806.8156517338021
 31
0.0
  0
LINE
  5
118
330
1E
100
AcDbEntity
  8
0
100
AcDbLine
 10
71.1845
 20
806.5053999999999
 30
0.0
 11
71.8035
 21
806.0804
 31
0.0
  0
LINE
  5
119
330
1E
100
AcDbEntity
  8
0
100
AcDbLine
 10
71.01449999999999
 20
806.6323999999999
 30
0.0
 11
71.36849999999999
 21
806.4044
 31
0.0
  0
LINE
  5
11A
330
1E
100
AcDbEntity
  8
0
100
AcDbLine
 10
71.01449999999999
 20
806.6323999999999
 30
0.0
 11
71.1845
 21
806.5053999999999
 31
0.0
  0
LINE
  5
11B
330
1E
100
AcDbEntity
  8
0
100
AcDbLine
 10
71.01449999999999
 20
806.6323999999999
 30
0.0
 11
71.0948233449288
 21
806.753972729356
 31
0.0
  0
LINE
  5
11C
330
1E
100
AcDbEntity
  8
0
100
AcDbLine
 10
71.2385
 20
806.4234
 30
0.0
 11
71.3425
 21
806.3584
 31
0.0
  0
LINE
  5
11D
330
1E
100
AcDbEntity
  8
0
100
AcDbLine
 10
70.6755
 20
806.7974000000001
 30
0.0
 11
71.2385
 21
806.4234
 31
0.0
  0
LINE
  5
11E
330
1E
100
AcDbEntity
  8
0
100
AcDbLine
 10
69.6335
 20
807.5073999999998
 30
0.0
 11
70.1965
 21
807.1334
 31
0.0
  0
LINE
  5
11F
330
1E
100
AcDbEntity
  8
0
100
AcDbLine
 10
69.6335
 20
807.5073999999998
 30
0.0
 11
69.7542366241131
 21
807.692504098798
 31
0.0
  0
LINE
  5
120
330
1E
100
AcDbEntity
  8
0
100
AcDbLine
 10
69.9695
 20
807.2723999999999
 30
0.0
 11
70.6755
 21
806.7974000000001
 31
0.0
  0
LINE
  5
121
330
1E
100
AcDbEntity
  8
0
100
AcDbLine
 10
69.5295
 20
807.5724000000001
 30
0.0
 11
69.9695
 21
807.2723999999999
 31
0.0
  0
LINE
  5
122
330
1E
100
AcDbEntity
  8
0
100
AcDbLine
 10
69.5295
 20
807.5724000000001
 30
0.0
 11
69.653733541248
 21
807.762865302986
 31
0.0
  0
LINE
  5
123
330
1E
100
AcDbEntity
  8
0
100
AcDbLine
 10
69.5295
 20
807.5724000000001
 30
0.0
 11
69.6335
 21
807.5073999999998
 31
0.0
  0
LINE
  5
124
330
1E
100
AcDbEntity
  8
0
100
AcDbLine
 10
71.3598529441477
 20
806.3850041982828
 30
0.0
 11
71.8035
 21
806.0804
 31
0.0
  0
LINE
  5
125
330
1E
100
AcDbEntity
  8
0
100
AcDbLine
 10
72.6785
 20
805.5144
 30
0.0
 11
72.84950000000001
 21
805.3874
 31
0.0
  0
LINE
  5
126
330
1E
100
AcDbEntity
  8
0
100
AcDbLine
 10
72.6785
 20
805.5144
 30
0.0
 11
72.7375652918285
 21
805.6037977802359
 31
0.0
  0
LINE
  5
127
330
1E
100
AcDbEntity
  8
0
100
AcDbLine
 10
72.49550000000001
 20
805.6154000000001
 30
0.0
 11
72.84950000000001
 21
805.3874
 31
0.0
  0
LINE
  5
128
330
1E
100
AcDbEntity
  8
0
100
AcDbLine
 10
72.84950000000001
 20
805.3874
 30
0.0
 11
72.9118253656505
 21
805.4817654128509
 31
0.0
  0
LINE
  5
12A
330
1E
100
AcDbEntity
  8
0
100
AcDbLine
 10
72.19549999999999
 20
805.9834
 30
0.0
 11
77.3905
 21
802.3454
 31
0.0
  0
LINE
  5
12B
330
1E
100
AcDbEntity
  8
0
100
AcDbLine
 10
49.2825
 20
820.6103999999999
 30
0.0
 11
49.81049999999999
 21
820.2403999999999
 31
0.0
  0
LINE
  5
12C
330
1E
100
AcDbEntity
  8
0
100
AcDbLine
 10
49.81049999999999
 20
820.2403999999999
 30
0.0
 11
50.4325
 21
819.8043999999999
 31
0.0
  0
LINE
  5
12D
330
1E
100
AcDbEntity
  8
0
100
AcDbLine
 10
50.4325
 20
819.8043999999999
 30
0.0
 11
51.0965
 21
819.3404000000001
 31
0.0
  0
LINE
  5
12E
330
1E
100
AcDbEntity
  8
0
100
AcDbLine
 10
50.4325
 20
819.8043999999999
 30
0.0
 11
51.0314999999039
 21
819.3858216868139
 31
0.0
  0
LINE
  5
12F
330
1E
100
AcDbEntity
  8
0
100
AcDbLine
 10
48.8555
 20
820.9094
 30
0.0
 11
49.2825
 21
820.6103999999999
 31
0.0
  0
LINE
  5
130
330
1E
100
AcDbEntity
  8
0
100
AcDbLine
 10
48.6085
 20
821.0824
 30
0.0
 11
48.8555
 21
820.9094
 31
0.0
  0
LINE
  5
131
330
1E
100
AcDbEntity
  8
0
100
AcDbLine
 10
48.6085
 20
821.0824
 30
0.0
 11
48.777060810814
 21
820.9643391891869
 31
0.0
  0
LINE
  5
132
330
1E
100
AcDbEntity
  8
0
100
AcDbLine
 10
48.51449999999999
 20
821.1473999999999
 30
0.0
 11
48.6085
 21
821.0824
 31
0.0
  0
LINE
  5
133
330
1E
100
AcDbEntity
  8
0
100
AcDbLine
 10
48.777060810814
 20
820.9643391891869
 30
0.0
 11
48.8595
 21
820.9063999999999
 31
0.0
  0
LINE
  5
134
330
1E
100
AcDbEntity
  8
0
100
AcDbLine
 10
50.90849999999999
 20
820.8884000000001
 30
0.0
 11
51.3899698756962
 21
820.551235133437
 31
0.0
  0
LINE
  5
135
330
1E
100
AcDbEntity
  8
0
100
AcDbLine
 10
48.8595
 20
820.9063999999999
 30
0.0
 11
49.2725
 21
820.6174
 31
0.0
  0
LINE
  5
136
330
1E
100
AcDbEntity
  8
0
100
AcDbLine
 10
51.7605
 20
818.8753999999999
 30
0.0
 11
52.3955
 21
818.4303999999999
 31
0.0
  0
LINE
  5
137
330
1E
100
AcDbEntity
  8
0
100
AcDbLine
 10
51.7675
 20
818.8703999999999
 30
0.0
 11
52.38949999999999
 21
818.4343999999999
 31
0.0
  0
LINE
  5
138
330
1E
100
AcDbEntity
  8
0
100
AcDbLine
 10
51.3165
 20
820.4454
 30
0.0
 11
51.4985
 21
820.2984
 31
0.0
  0
LINE
  5
139
330
1E
100
AcDbEntity
  8
0
100
AcDbLine
 10
51.3165
 20
820.4454
 30
0.0
 11
51.68549999999999
 21
820.2064
 31
0.0
  0
LINE
  5
13A
330
1E
100
AcDbEntity
  8
0
100
AcDbLine
 10
51.3165
 20
820.4454
 30
0.0
 11
51.3901590811413
 21
820.5515076884589
 31
0.0
  0
LINE
  5
13B
330
1E
100
AcDbEntity
  8
0
100
AcDbLine
 10
51.68549999999999
 20
820.2064
 30
0.0
 11
52.3675
 21
819.7364
 31
0.0
  0
LINE
  5
13C
330
1E
100
AcDbEntity
  8
0
100
AcDbLine
 10
51.68549999999999
 20
820.2064
 30
0.0
 11
51.7500877050786
 21
820.299505260345
 31
0.0
  0
LINE
  5
13D
330
1E
100
AcDbEntity
  8
0
100
AcDbLine
 10
51.4985
 20
820.2984
 30
0.0
 11
52.10049999999999
 21
819.8684
 31
0.0
  0
LINE
  5
13E
330
1E
100
AcDbEntity
  8
0
100
AcDbLine
 10
51.0965
 20
819.3404000000001
 30
0.0
 11
51.7605
 21
818.8753999999999
 31
0.0
  0
LINE
  5
13F
330
1E
100
AcDbEntity
  8
0
100
AcDbLine
 10
51.1035
 20
819.3354000000001
 30
0.0
 11
51.7675
 21
818.8703999999999
 31
0.0
  0
LINE
  5
140
330
1E
100
AcDbEntity
  8
0
100
AcDbLine
 10
51.03149999990379
 20
819.3858216868139
 30
0.0
 11
51.1035
 21
819.3354000000001
 31
0.0
  0
LINE
  5
141
330
1E
100
AcDbEntity
  8
0
100
AcDbLine
 10
42.9395
 20
825.0524
 30
0.0
 11
43.3535
 21
824.7614
 31
0.0
  0
LINE
  5
142
330
1E
100
AcDbEntity
  8
0
100
AcDbLine
 10
43.3535
 20
824.7614
 30
0.0
 11
43.6045
 21
824.5864
 31
0.0
  0
LINE
  5
143
330
1E
100
AcDbEntity
  8
0
100
AcDbLine
 10
46.7565
 20
823.5044
 30
0.0
 11
47.1065
 21
823.2394000000001
 31
0.0
  0
LINE
  5
144
330
1E
100
AcDbEntity
  8
0
100
AcDbLine
 10
46.7565
 20
823.5044
 30
0.0
 11
46.89425473429929
 21
823.6993695990429
 31
0.0
  0
LINE
  5
145
330
1E
100
AcDbEntity
  8
0
100
AcDbLine
 10
47.1065
 20
823.2394000000001
 30
0.0
 11
47.25377455367239
 21
823.447635960964
 31
0.0
  0
LINE
  5
146
330
1E
100
AcDbEntity
  8
0
100
AcDbLine
 10
46.9075
 20
823.3594
 30
0.0
 11
47.1065
 21
823.2394000000001
 31
0.0
  0
LINE
  5
147
330
1E
100
AcDbEntity
  8
0
100
AcDbLine
 10
46.0815
 20
823.9844000000001
 30
0.0
 11
46.7565
 21
823.5044
 31
0.0
  0
LINE
  5
148
330
1E
100
AcDbEntity
  8
0
100
AcDbLine
 10
46.0815
 20
823.9844000000001
 30
0.0
 11
46.215657684161
 21
824.174089621087
 31
0.0
  0
LINE
  5
149
330
1E
100
AcDbEntity
  8
0
100
AcDbLine
 10
46.0815
 20
823.9844000000001
 30
0.0
 11
46.215657684161
 21
824.174089621087
 31
0.0
  0
LINE
  5
14A
330
1E
100
AcDbEntity
  8
0
100
AcDbLine
 10
46.2975
 20
823.7784000000001
 30
0.0
 11
46.9075
 21
823.3594
 31
0.0
  0
LINE
  5
14B
330
1E
100
AcDbEntity
  8
0
100
AcDbLine
 10
45.6225
 20
824.2594
 30
0.0
 11
46.2975
 21
823.7784000000001
 31
0.0
  0
LINE
  5
14C
330
1E
100
AcDbEntity
  8
0
100
AcDbLine
 10
45.94949999999999
 20
824.3604000000001
 30
0.0
 11
48.4295
 21
822.6244000000001
 31
0.0
  0
LINE
  5
14D
330
1E
100
AcDbEntity
  8
0
100
AcDbLine
 10
45.4715
 20
824.4034
 30
0.0
 11
46.0815
 21
823.9844000000001
 31
0.0
  0
LINE
  5
14E
330
1E
100
AcDbEntity
  8
0
100
AcDbLine
 10
45.4715
 20
824.4034
 30
0.0
 11
45.60970094870929
 21
824.598806515538
 31
0.0
  0
LINE
  5
14F
330
1E
100
AcDbEntity
  8
0
100
AcDbLine
 10
48.3059337885043
 20
822.7108963480471
 30
0.0
 11
48.51449999999999
 21
821.1473999999999
 31
0.0
  0
LINE
  5
150
330
1E
100
AcDbEntity
  8
0
100
AcDbLine
 10
45.04249999999999
 20
824.8573999999999
 30
0.0
 11
45.3935
 21
824.5924
 31
0.0
  0
LINE
  5
151
330
1E
100
AcDbEntity
  8
0
100
AcDbLine
 10
45.04249999999999
 20
824.8573999999999
 30
0.0
 11
45.10803883237489
 21
824.950067344084
 31
0.0
  0
LINE
  5
152
330
1E
100
AcDbEntity
  8
0
100
AcDbLine
 10
44.5835
 20
825.1314
 30
0.0
 11
45.1935
 21
824.7123999999999
 31
0.0
  0
LINE
  5
153
330
1E
100
AcDbEntity
  8
0
100
AcDbLine
 10
45.2715
 20
824.5243999999999
 30
0.0
 11
45.4715
 21
824.4034
 31
0.0
  0
LINE
  5
154
330
1E
100
AcDbEntity
  8
0
100
AcDbLine
 10
45.2715
 20
824.5243999999999
 30
0.0
 11
45.6225
 21
824.2594
 31
0.0
  0
LINE
  5
155
330
1E
100
AcDbEntity
  8
0
100
AcDbLine
 10
45.2715
 20
824.5243999999999
 30
0.0
 11
45.34161166007909
 21
824.623533003953
 31
0.0
  0
LINE
  5
156
330
1E
100
AcDbEntity
  8
0
100
AcDbLine
 10
45.4678786327985
 20
824.697670953393
 30
0.0
 11
45.94949999999999
 21
824.3604000000001
 31
0.0
  0
LINE
  5
157
330
1E
100
AcDbEntity
  8
0
100
AcDbLine
 10
45.3935
 20
824.5924
 30
0.0
 11
45.4680860055254
 21
824.697964456028
 31
0.0
  0
LINE
  5
158
330
1E
100
AcDbEntity
  8
0
100
AcDbLine
 10
45.1935
 20
824.7123999999999
 30
0.0
 11
45.34161166007909
 21
824.623533003953
 31
0.0
  0
LINE
  5
159
330
1E
100
AcDbEntity
  8
0
100
AcDbLine
 10
45.1935
 20
824.7123999999999
 30
0.0
 11
45.3935
 21
824.5924
 31
0.0
  0
LINE
  5
15A
330
1E
100
AcDbEntity
  8
0
100
AcDbLine
 10
45.04342704097989
 20
824.81548290136
 30
0.0
 11
45.1935
 21
824.7123999999999
 31
0.0
  0
LINE
  5
15B
330
1E
100
AcDbEntity
  8
0
100
AcDbLine
 10
43.70849999999999
 20
824.5134
 30
0.0
 11
45.04342704097989
 21
824.81548290136
 31
0.0
  0
LINE
  5
15C
330
1E
100
AcDbEntity
  8
0
100
AcDbLine
 10
43.6045
 20
824.5864
 30
0.0
 11
43.70849999999999
 21
824.5134
 31
0.0
  0
LINE
  5
15D
330
1E
100
AcDbEntity
  8
0
100
AcDbLine
 10
38.3905
 20
829.3224
 30
0.0
 11
39.0695
 21
828.8394
 31
0.0
  0
LINE
  5
15E
330
1E
100
AcDbEntity
  8
0
100
AcDbLine
 10
36.1275
 20
831.0804
 30
0.0
 11
36.6225
 21
830.7143999999999
 31
0.0
  0
LINE
  5
15F
330
1E
100
AcDbEntity
  8
0
100
AcDbLine
 10
36.1275
 20
831.0804
 30
0.0
 11
36.20287444527599
 21
831.1852268613929
 31
0.0
  0
LINE
  5
160
330
1E
100
AcDbEntity
  8
0
100
AcDbLine
 10
36.14549999999999
 20
831.0874
 30
0.0
 11
36.6415
 21
830.7483999999998
 31
0.0
  0
LINE
  5
161
330
1E
100
AcDbEntity
  8
0
100
AcDbLine
 10
36.14549999999999
 20
831.0874
 30
0.0
 11
36.2114991349687
 21
831.179188167038
 31
0.0
  0
LINE
  5
162
330
1E
100
AcDbEntity
  8
0
100
AcDbLine
 10
35.6695
 20
831.2284
 30
0.0
 11
36.2795
 21
830.7923999999999
 31
0.0
  0
LINE
  5
163
330
1E
100
AcDbEntity
  8
0
100
AcDbLine
 10
35.6695
 20
831.2284
 30
0.0
 11
35.83049190012639
 21
831.445645826618
 31
0.0
  0
LINE
  5
164
330
1E
100
AcDbEntity
  8
0
100
AcDbLine
 10
37.96949999999999
 20
829.6654
 30
0.0
 11
38.6485
 21
829.1814
 31
0.0
  0
LINE
  5
165
330
1E
100
AcDbEntity
  8
0
100
AcDbLine
 10
37.96949999999999
 20
829.6654
 30
0.0
 11
38.10634824050289
 21
829.852483670561
 31
0.0
  0
LINE
  5
166
330
1E
100
AcDbEntity
  8
0
100
AcDbLine
 10
37.7855
 20
829.7663999999999
 30
0.0
 11
38.3905
 21
829.3224
 31
0.0
  0
LINE
  5
167
330
1E
100
AcDbEntity
  8
0
100
AcDbLine
 10
37.6205
 20
829.9013999999999
 30
0.0
 11
37.96949999999999
 21
829.6654
 31
0.0
  0
LINE
  5
168
330
1E
100
AcDbEntity
  8
0
100
AcDbLine
 10
37.6205
 20
829.9013999999999
 30
0.0
 11
37.7855
 21
829.7663999999999
 31
0.0
  0
LINE
  5
169
330
1E
100
AcDbEntity
  8
0
100
AcDbLine
 10
37.6205
 20
829.9013999999999
 30
0.0
 11
37.6746716988427
 21
829.9753854719599
 31
0.0
  0
LINE
  5
16A
330
1E
100
AcDbEntity
  8
0
100
AcDbLine
 10
37.83749999999999
 20
829.8834000000001
 30
0.0
 11
37.9127760296006
 21
829.9880158994058
 31
0.0
  0
LINE
  5
16B
330
1E
100
AcDbEntity
  8
0
100
AcDbLine
 10
37.3425
 20
830.2494000000001
 30
0.0
 11
37.83749999999999
 21
829.8834000000001
 31
0.0
  0
LINE
  5
16C
330
1E
100
AcDbEntity
  8
0
100
AcDbLine
 10
37.3425
 20
830.2494000000001
 30
0.0
 11
37.4084843265272
 21
830.3411026270239
 31
0.0
  0
LINE
  5
16D
330
1E
100
AcDbEntity
  8
0
100
AcDbLine
 10
37.3235
 20
830.2153999999999
 30
0.0
 11
37.6746716988427
 21
829.9753854719599
 31
0.0
  0
LINE
  5
16E
330
1E
100
AcDbEntity
  8
0
100
AcDbLine
 10
37.3235
 20
830.2153999999999
 30
0.0
 11
37.8195
 21
829.8764
 31
0.0
  0
LINE
  5
16F
330
1E
100
AcDbEntity
  8
0
100
AcDbLine
 10
36.6415
 20
830.7483999999998
 30
0.0
 11
37.3425
 21
830.2494000000001
 31
0.0
  0
LINE
  5
170
330
1E
100
AcDbEntity
  8
0
100
AcDbLine
 10
36.6415
 20
830.7483999999998
 30
0.0
 11
36.7035677934121
 21
830.834659571159
 31
0.0
  0
LINE
  5
171
330
1E
100
AcDbEntity
  8
0
100
AcDbLine
 10
36.6225
 20
830.7143999999999
 30
0.0
 11
37.3235
 21
830.2153999999999
 31
0.0
  0
LINE
  5
172
330
1E
100
AcDbEntity
  8
0
100
AcDbLine
 10
36.53414621035649
 20
830.7797282565848
 30
0.0
 11
36.6225
 21
830.7143999999999
 31
0.0
  0
LINE
  5
173
330
1E
100
AcDbEntity
  8
0
100
AcDbLine
 10
36.4575
 20
830.6763999999999
 30
0.0
 11
36.53414621035649
 21
830.7797282565848
 31
0.0
  0
LINE
  5
174
330
1E
100
AcDbEntity
  8
0
100
AcDbLine
 10
36.2795
 20
830.7923999999999
 30
0.0
 11
36.4575
 21
830.6763999999999
 31
0.0
  0
LINE
  5
175
330
1E
100
AcDbEntity
  8
0
100
AcDbLine
 10
36.2795
 20
830.7923999999999
 30
0.0
 11
36.3635861790574
 21
830.9058393100299
 31
0.0
  0
LINE
  5
176
330
1E
100
AcDbEntity
  8
0
100
AcDbLine
 10
38.37373099386929
 20
829.3347065102839
 30
0.0
 11
38.5255
 21
828.1423999999999
 31
0.0
  0
LINE
  5
177
330
1E
100
AcDbEntity
  8
0
100
AcDbLine
 10
41.1165
 20
826.3284
 30
0.0
 11
41.7905
 21
825.8563999999999
 31
0.0
  0
LINE
  5
178
330
1E
100
AcDbEntity
  8
0
100
AcDbLine
 10
42.15749999999999
 20
826.7943999999999
 30
0.0
 11
42.8505
 21
826.3004
 31
0.0
  0
LINE
  5
179
330
1E
100
AcDbEntity
  8
0
100
AcDbLine
 10
42.15749999999999
 20
826.7943999999999
 30
0.0
 11
42.2629227910095
 21
826.9422006654149
 31
0.0
  0
LINE
  5
17A
330
1E
100
AcDbEntity
  8
0
100
AcDbLine
 10
41.7905
 20
825.8563999999999
 30
0.0
 11
42.41249999999999
 21
825.4203999999999
 31
0.0
  0
LINE
  5
17B
330
1E
100
AcDbEntity
  8
0
100
AcDbLine
 10
41.4895
 20
827.2333999999998
 30
0.0
 11
41.5995
 21
827.1763999999999
 31
0.0
  0
LINE
  5
17C
330
1E
100
AcDbEntity
  8
0
100
AcDbLine
 10
41.4895
 20
827.2333999999998
 30
0.0
 11
41.9165
 21
826.9154
 31
0.0
  0
LINE
  5
17D
330
1E
100
AcDbEntity
  8
0
100
AcDbLine
 10
41.4895
 20
827.2333999999998
 30
0.0
 11
41.6086027369172
 21
827.4003323226621
 31
0.0
  0
LINE
  5
17E
330
1E
100
AcDbEntity
  8
0
100
AcDbLine
 10
41.9165
 20
826.9154
 30
0.0
 11
42.6095
 21
826.4213999999999
 31
0.0
  0
LINE
  5
17F
330
1E
100
AcDbEntity
  8
0
100
AcDbLine
 10
41.5995
 20
827.1763999999999
 30
0.0
 11
42.15749999999999
 21
826.7943999999999
 31
0.0
  0
LINE
  5
180
330
1E
100
AcDbEntity
  8
0
100
AcDbLine
 10
41.5995
 20
827.1763999999999
 30
0.0
 11
41.7090059717305
 21
827.330033625685
 31
0.0
  0
LINE
  5
181
330
1E
100
AcDbEntity
  8
0
100
AcDbLine
 10
40.4435
 20
826.7993999999999
 30
0.0
 11
41.1165
 21
826.3284
 31
0.0
  0
LINE
  5
182
330
1E
100
AcDbEntity
  8
0
100
AcDbLine
 10
39.8215
 20
827.2353999999999
 30
0.0
 11
40.4435
 21
826.7993999999999
 31
0.0
  0
LINE
  5
183
330
1E
100
AcDbEntity
  8
0
100
AcDbLine
 10
39.2945
 20
827.6044
 30
0.0
 11
39.8215
 21
827.2353999999999
 31
0.0
  0
LINE
  5
184
330
1E
100
AcDbEntity
  8
0
100
AcDbLine
 10
38.8795
 20
827.8944
 30
0.0
 11
39.2945
 21
827.6044
 31
0.0
  0
LINE
  5
185
330
1E
100
AcDbEntity
  8
0
100
AcDbLine
 10
39.57840389122729
 20
828.8217901393799
 30
0.0
 11
41.6085772271259
 21
827.4002965685831
 31
0.0
  0
LINE
  5
186
330
1E
100
AcDbEntity
  8
0
100
AcDbLine
 10
39.5782781075774
 20
828.8216183492599
 30
0.0
 11
41.6084819466407
 21
827.400163025114
 31
0.0
  0
LINE
  5
187
330
1E
100
AcDbEntity
  8
0
100
AcDbLine
 10
39.4185
 20
828.6033999999999
 30
0.0
 11
39.5784104984623
 21
828.8217991632699
 31
0.0
  0
LINE
  5
188
330
1E
100
AcDbEntity
  8
0
100
AcDbLine
 10
39.2535
 20
828.7383999999999
 30
0.0
 11
39.4185
 21
828.6033999999999
 31
0.0
  0
LINE
  5
189
330
1E
100
AcDbEntity
  8
0
100
AcDbLine
 10
39.2535
 20
828.7383999999999
 30
0.0
 11
39.4039846870707
 21
828.94392577884
 31
0.0
  0
LINE
  5
18A
330
1E
100
AcDbEntity
  8
0
100
AcDbLine
 10
38.6485
 20
829.1814
 30
0.0
 11
39.2535
 21
828.7383999999999
 31
0.0
  0
LINE
  5
18B
330
1E
100
AcDbEntity
  8
0
100
AcDbLine
 10
38.6485
 20
829.1814
 30
0.0
 11
38.78943658495529
 21
829.374210031025
 31
0.0
  0
LINE
  5
18C
330
1E
100
AcDbEntity
  8
0
100
AcDbLine
 10
39.0695
 20
828.8394
 30
0.0
 11
39.4185
 21
828.6033999999999
 31
0.0
  0
LINE
  5
18D
330
1E
100
AcDbEntity
  8
0
100
AcDbLine
 10
38.6295
 20
828.0694
 30
0.0
 11
38.8795
 21
827.8944
 31
0.0
  0
LINE
  5
18E
330
1E
100
AcDbEntity
  8
0
100
AcDbLine
 10
38.5255
 20
828.1423999999999
 30
0.0
 11
38.6295
 21
828.0694
 31
0.0
  0
LINE
  5
18F
330
1E
100
AcDbEntity
  8
0
100
AcDbLine
 10
33.1115
 20
833.0384
 30
0.0
 11
33.8065
 21
832.5324
 31
0.0
  0
LINE
  5
190
330
1E
100
AcDbEntity
  8
0
100
AcDbLine
 10
33.1245
 20
833.0493999999999
 30
0.0
 11
33.81949999999999
 21
832.5423999999999
 31
0.0
  0
LINE
  5
191
330
1E
100
AcDbEntity
  8
0
100
AcDbLine
 10
33.1245
 20
833.0493999999999
 30
0.0
 11
33.2675759983149
 21
833.2406252556578
 31
0.0
  0
LINE
  5
192
330
1E
100
AcDbEntity
  8
0
100
AcDbLine
 10
33.0225
 20
833.1433999999999
 30
0.0
 11
33.1531429793265
 21
833.320755439958
 31
0.0
  0
LINE
  5
193
330
1E
100
AcDbEntity
  8
0
100
AcDbLine
 10
33.8065
 20
832.5324
 30
0.0
 11
34.30749999999999
 21
832.1734000000001
 31
0.0
  0
LINE
  5
194
330
1E
100
AcDbEntity
  8
0
100
AcDbLine
 10
34.30749999999999
 20
832.1734000000001
 30
0.0
 11
34.4739562719477
 21
832.395873675067
 31
0.0
  0
LINE
  5
195
330
1E
100
AcDbEntity
  8
0
100
AcDbLine
 10
34.3025
 20
832.1854
 30
0.0
 11
34.46478356974969
 21
832.4022967365589
 31
0.0
  0
LINE
  5
196
330
1E
100
AcDbEntity
  8
0
100
AcDbLine
 10
33.81949999999999
 20
832.5423999999999
 30
0.0
 11
34.3025
 21
832.1854
 31
0.0
  0
LINE
  5
197
330
1E
100
AcDbEntity
  8
0
100
AcDbLine
 10
33.81949999999999
 20
832.5423999999999
 30
0.0
 11
33.97256025190809
 21
832.74696950255
 31
0.0
  0
LINE
  5
198
330
1E
100
AcDbEntity
  8
0
100
AcDbLine
 10
32.10649999999999
 20
833.7844
 30
0.0
 11
32.7565
 21
833.3213999999999
 31
0.0
  0
LINE
  5
199
330
1E
100
AcDbEntity
  8
0
100
AcDbLine
 10
32.1245
 20
833.8103999999999
 30
0.0
 11
32.7695
 21
833.3394
 31
0.0
  0
LINE
  5
19A
330
1E
100
AcDbEntity
  8
0
100
AcDbLine
 10
32.1245
 20
833.8103999999999
 30
0.0
 11
32.2366570888021
 21
833.9625123731
 31
0.0
  0
LINE
  5
19B
330
1E
100
AcDbEntity
  8
0
100
AcDbLine
 10
33.1705
 20
833.3083999999999
 30
0.0
 11
34.79249999999999
 21
832.1723999999999
 31
0.0
  0
LINE
  5
19C
330
1E
100
AcDbEntity
  8
0
100
AcDbLine
 10
32.7565
 20
833.3213999999999
 30
0.0
 11
33.0225
 21
833.1433999999999
 31
0.0
  0
LINE
  5
19D
330
1E
100
AcDbEntity
  8
0
100
AcDbLine
 10
32.6285
 20
833.3963999999999
 30
0.0
 11
33.1115
 21
833.0384
 31
0.0
  0
LINE
  5
19E
330
1E
100
AcDbEntity
  8
0
100
AcDbLine
 10
32.62449999999999
 20
833.4084
 30
0.0
 11
33.1245
 21
833.0493999999999
 31
0.0
  0
LINE
  5
19F
330
1E
100
AcDbEntity
  8
0
100
AcDbLine
 10
32.7695
 20
833.3394
 30
0.0
 11
33.0225
 21
833.1433999999999
 31
0.0
  0
LINE
  5
1A0
330
1E
100
AcDbEntity
  8
0
100
AcDbLine
 10
32.7695
 20
833.3394
 30
0.0
 11
32.89106511115679
 21
833.504271946496
 31
0.0
  0
LINE
  5
1A1
330
1E
100
AcDbEntity
  8
0
100
AcDbLine
 10
32.2615
 20
833.6344
 30
0.0
 11
32.9305
 21
833.1464
 31
0.0
  0
LINE
  5
1A2
330
1E
100
AcDbEntity
  8
0
100
AcDbLine
 10
32.9305
 20
833.1464
 30
0.0
 11
33.28649999999999
 21
832.8884
 31
0.0
  0
LINE
  5
1A3
330
1E
100
AcDbEntity
  8
0
100
AcDbLine
 10
34.79449999999999
 20
832.1714
 30
0.0
 11
35.11838681722469
 21
831.944619842754
 31
0.0
  0
LINE
  5
1A4
330
1E
100
AcDbEntity
  8
0
100
AcDbLine
 10
34.79449999999999
 20
832.1714
 30
0.0
 11
35.1183868172361
 21
831.944619842746
 31
0.0
  0
LINE
  5
1A5
330
1E
100
AcDbEntity
  8
0
100
AcDbLine
 10
34.6605
 20
831.9744
 30
0.0
 11
34.9955
 21
831.7193999999998
 31
0.0
  0
LINE
  5
1A6
330
1E
100
AcDbEntity
  8
0
100
AcDbLine
 10
34.6605
 20
831.9744
 30
0.0
 11
34.8021978395066
 21
832.165610018948
 31
0.0
  0
LINE
  5
1A7
330
1E
100
AcDbEntity
  8
0
100
AcDbLine
 10
34.9955
 20
831.7193999999998
 30
0.0
 11
35.6695
 21
831.2284
 31
0.0
  0
LINE
  5
1A8
330
1E
100
AcDbEntity
  8
0
100
AcDbLine
 10
34.9955
 20
831.7193999999998
 30
0.0
 11
35.147199683662
 21
831.9240556002339
 31
0.0
  0
LINE
  5
1A9
330
1E
100
AcDbEntity
  8
0
100
AcDbLine
 10
34.79249999999999
 20
832.1723999999999
 30
0.0
 11
36.2027280201392
 21
831.185023220922
 31
0.0
  0
LINE
  5
1AA
330
1E
100
AcDbEntity
  8
0
100
AcDbLine
 10
34.47377205480349
 20
832.3956274634669
 30
0.0
 11
34.79249999999999
 21
832.1723999999999
 31
0.0
  0
LINE
  5
1AB
330
1E
100
AcDbEntity
  8
0
100
AcDbLine
 10
31.4745
 20
834.2743999999999
 30
0.0
 11
32.1245
 21
833.8103999999999
 31
0.0
  0
LINE
  5
1AC
330
1E
100
AcDbEntity
  8
0
100
AcDbLine
 10
31.4745
 20
834.2743999999999
 30
0.0
 11
31.5822865714132
 21
834.4207265373539
 31
0.0
  0
LINE
  5
1AD
330
1E
100
AcDbEntity
  8
0
100
AcDbLine
 10
31.4775
 20
834.2104
 30
0.0
 11
31.6645
 21
834.0714
 31
0.0
  0
LINE
  5
1AE
330
1E
100
AcDbEntity
  8
0
100
AcDbLine
 10
31.6645
 20
834.0714
 30
0.0
 11
32.2615
 21
833.6344
 31
0.0
  0
LINE
  5
1AF
330
1E
100
AcDbEntity
  8
0
100
AcDbLine
 10
31.4615
 20
834.2553999999999
 30
0.0
 11
32.10649999999999
 21
833.7844
 31
0.0
  0
LINE
  5
1B0
330
1E
100
AcDbEntity
  8
0
100
AcDbLine
 10
36.5095
 20
832.3873999999999
 30
0.0
 11
42.7655
 21
828.0063999999999
 31
0.0
  0
LINE
  5
1B1
330
1E
100
AcDbEntity
  8
0
100
AcDbLine
 10
36.34349999999999
 20
832.1493999999999
 30
0.0
 11
42.59949999999999
 21
827.7694
 31
0.0
  0
LINE
  5
1B2
330
1E
100
AcDbEntity
  8
0
100
AcDbLine
 10
36.1355
 20
831.2324
 30
0.0
 11
42.24549999999999
 21
826.9543999999999
 31
0.0
  0
LINE
  5
1B3
330
1E
100
AcDbEntity
  8
0
100
AcDbLine
 10
44.36849999999999
 20
825.3384
 30
0.0
 11
45.04249999999999
 21
824.8573999999999
 31
0.0
  0
LINE
  5
1B4
330
1E
100
AcDbEntity
  8
0
100
AcDbLine
 10
44.36849999999999
 20
825.3384
 30
0.0
 11
44.4297082403487
 21
825.4250303879839
 31
0.0
  0
LINE
  5
1B5
330
1E
100
AcDbEntity
  8
0
100
AcDbLine
 10
43.9095
 20
825.6123999999999
 30
0.0
 11
44.5835
 21
825.1314
 31
0.0
  0
LINE
  5
1B6
330
1E
100
AcDbEntity
  8
0
100
AcDbLine
 10
42.8505
 20
826.3004
 30
0.0
 11
43.2775
 21
825.9824
 31
0.0
  0
LINE
  5
1B7
330
1E
100
AcDbEntity
  8
0
100
AcDbLine
 10
42.8505
 20
826.3004
 30
0.0
 11
42.96016487470001
 21
826.453995907592
 31
0.0
  0
LINE
  5
1B8
330
1E
100
AcDbEntity
  8
0
100
AcDbLine
 10
43.39610292445239
 20
826.148514481726
 30
0.0
 11
43.4705
 21
826.0963999999999
 31
0.0
  0
LINE
  5
1B9
330
1E
100
AcDbEntity
  8
0
100
AcDbLine
 10
43.4705
 20
826.0963999999999
 30
0.0
 11
43.6328872130125
 21
825.9826830973009
 31
0.0
  0
LINE
  5
1BA
330
1E
100
AcDbEntity
  8
0
100
AcDbLine
 10
43.2775
 20
825.9824
 30
0.0
 11
43.3962172613976
 21
826.148674621305
 31
0.0
  0
LINE
  5
1BB
330
1E
100
AcDbEntity
  8
0
100
AcDbLine
 10
43.16749999999999
 20
826.0393999999999
 30
0.0
 11
43.2775
 21
825.9824
 31
0.0
  0
LINE
  5
1BC
330
1E
100
AcDbEntity
  8
0
100
AcDbLine
 10
42.6095
 20
826.4213999999999
 30
0.0
 11
43.16749999999999
 21
826.0393999999999
 31
0.0
  0
LINE
  5
1BD
330
1E
100
AcDbEntity
  8
0
100
AcDbLine
 10
43.5585
 20
825.8773999999998
 30
0.0
 11
43.75849999999999
 21
825.7564
 31
0.0
  0
LINE
  5
1BE
330
1E
100
AcDbEntity
  8
0
100
AcDbLine
 10
43.5585
 20
825.8773999999998
 30
0.0
 11
43.9095
 21
825.6123999999999
 31
0.0
  0
LINE
  5
1BF
330
1E
100
AcDbEntity
  8
0
100
AcDbLine
 10
43.5585
 20
825.8773999999998
 30
0.0
 11
43.6330179754764
 21
825.98286817047
 31
0.0
  0
LINE
  5
1C0
330
1E
100
AcDbEntity
  8
0
100
AcDbLine
 10
43.75849999999999
 20
825.7564
 30
0.0
 11
44.36849999999999
 21
825.3384
 31
0.0
  0
LINE
  5
1C1
330
1E
100
AcDbEntity
  8
0
100
AcDbLine
 10
43.75849999999999
 20
825.7564
 30
0.0
 11
43.8240184408057
 21
825.8491307812599
 31
0.0
  0
LINE
  5
1C2
330
1E
100
AcDbEntity
  8
0
100
AcDbLine
 10
42.41249999999999
 20
825.4203999999999
 30
0.0
 11
42.9395
 21
825.0524
 31
0.0
  0
LINE
  5
1C4
330
1E
100
AcDbEntity
  8
0
100
AcDbLine
 10
47.0145
 20
843.7943999999999
 30
0.0
 11
52.4835
 21
840.0014
 31
0.0
  0
LINE
  5
1C5
330
1E
100
AcDbEntity
  8
0
100
AcDbLine
 10
42.7655
 20
828.0063999999999
 30
0.0
 11
49.09449999999999
 21
823.5754
 31
0.0
  0
LINE
  5
1C6
330
1E
100
AcDbEntity
  8
0
100
AcDbLine
 10
42.59949999999999
 20
827.7694
 30
0.0
 11
48.9285
 21
823.3373999999999
 31
0.0
  0
LINE
  5
1C8
330
1E
100
AcDbEntity
  8
0
100
AcDbLine
 10
42.24549999999999
 20
826.9543999999999
 30
0.0
 11
48.4295
 21
822.6244000000001
 31
0.0
  0
LINE
  5
1C9
330
1E
100
AcDbEntity
  8
0
100
AcDbLine
 10
49.09449999999999
 20
823.5754
 30
0.0
 11
55.4234999999999
 21
819.1434
 31
0.0
  0
LINE
  5
1CA
330
1E
100
AcDbEntity
  8
0
100
AcDbLine
 10
48.9285
 20
823.3373999999999
 30
0.0
 11
55.2575
 21
818.9064
 31
0.0
  0
LINE
  5
1CC
330
1E
100
AcDbEntity
  8
0
100
AcDbLine
 10
48.4295
 20
822.6244000000001
 30
0.0
 11
54.61249999999999
 21
818.2954
 31
0.0
  0
LINE
  5
1CD
330
1E
100
AcDbEntity
  8
0
100
AcDbLine
 10
48.4295
 20
822.6244000000001
 30
0.0
 11
50.90849999999999
 21
820.8884000000001
 31
0.0
  0
LINE
  5
1CE
330
1E
100
AcDbEntity
  8
0
100
AcDbLine
 10
53.5915
 20
817.5933999999999
 30
0.0
 11
53.68549999999999
 21
817.5273999999999
 31
0.0
  0
LINE
  5
1CF
330
1E
100
AcDbEntity
  8
0
100
AcDbLine
 10
60.2595
 20
814.0014
 30
0.0
 11
60.8785
 21
813.5773999999999
 31
0.0
  0
LINE
  5
1D0
330
1E
100
AcDbEntity
  8
0
100
AcDbLine
 10
60.0895
 20
814.1294
 30
0.0
 11
60.4435
 21
813.9013999999999
 31
0.0
  0
LINE
  5
1D1
330
1E
100
AcDbEntity
  8
0
100
AcDbLine
 10
60.0895
 20
814.1294
 30
0.0
 11
60.2595
 21
814.0014
 31
0.0
  0
LINE
  5
1D2
330
1E
100
AcDbEntity
  8
0
100
AcDbLine
 10
60.0895
 20
814.1294
 30
0.0
 11
60.16050516002029
 21
814.2369072912931
 31
0.0
  0
LINE
  5
1D3
330
1E
100
AcDbEntity
  8
0
100
AcDbLine
 10
60.5835
 20
813.9763999999999
 30
0.0
 11
60.647082572289
 21
814.069792991779
 31
0.0
  0
LINE
  5
1D4
330
1E
100
AcDbEntity
  8
0
100
AcDbLine
 10
60.58250000000001
 20
813.9564
 30
0.0
 11
60.6556417964905
 21
814.063799025663
 31
0.0
  0
LINE
  5
1D5
330
1E
100
AcDbEntity
  8
0
100
AcDbLine
 10
60.4435
 20
813.9013999999999
 30
0.0
 11
61.1355
 21
813.4354
 31
0.0
  0
LINE
  5
1D6
330
1E
100
AcDbEntity
  8
0
100
AcDbLine
 10
60.4435
 20
813.9013999999999
 30
0.0
 11
60.5111501205808
 21
814.003827502694
 31
0.0
  0
LINE
  5
1D7
330
1E
100
AcDbEntity
  8
0
100
AcDbLine
 10
58.9635
 20
814.9563999999999
 30
0.0
 11
59.0148076593432
 21
815.0330434663329
 31
0.0
  0
LINE
  5
1D8
330
1E
100
AcDbEntity
  8
0
100
AcDbLine
 10
55.2755
 20
817.5194000000001
 30
0.0
 11
55.4192229677202
 21
817.730506871891
 31
0.0
  0
LINE
  5
1D9
330
1E
100
AcDbEntity
  8
0
100
AcDbLine
 10
55.83149999999999
 20
817.4414
 30
0.0
 11
58.0395
 21
815.8953999999999
 31
0.0
  0
LINE
  5
1DA
330
1E
100
AcDbEntity
  8
0
100
AcDbLine
 10
55.2755
 20
817.5384000000001
 30
0.0
 11
55.4104932583247
 21
817.736619692581
 31
0.0
  0
LINE
  5
1DB
330
1E
100
AcDbEntity
  8
0
100
AcDbLine
 10
57.1285
 20
816.2024
 30
0.0
 11
57.4695
 21
815.9553999999999
 31
0.0
  0
LINE
  5
1DC
330
1E
100
AcDbEntity
  8
0
100
AcDbLine
 10
57.1285
 20
816.2024
 30
0.0
 11
57.2793137147707
 21
816.4274532833418
 31
0.0
  0
LINE
  5
1DD
330
1E
100
AcDbEntity
  8
0
100
AcDbLine
 10
58.04912782340339
 20
815.888896748806
 30
0.0
 11
58.9453872206412
 21
815.2613508400841
 31
0.0
  0
LINE
  5
1DE
330
1E
100
AcDbEntity
  8
0
100
AcDbLine
 10
58.0395
 20
815.8953999999999
 30
0.0
 11
58.9453735526628
 21
815.261330784417
 31
0.0
  0
LINE
  5
1DF
330
1E
100
AcDbEntity
  8
0
100
AcDbLine
 10
58.04912782340339
 20
815.888896748806
 30
0.0
 11
58.9453872206412
 21
815.2613508400841
 31
0.0
  0
LINE
  5
1E0
330
1E
100
AcDbEntity
  8
0
100
AcDbLine
 10
57.4695
 20
815.9553999999999
 30
0.0
 11
58.1565
 21
815.4823999999999
 31
0.0
  0
LINE
  5
1E1
330
1E
100
AcDbEntity
  8
0
100
AcDbLine
 10
57.4695
 20
815.9553999999999
 30
0.0
 11
57.62406285246939
 21
816.1860479717971
 31
0.0
  0
LINE
  5
1E2
330
1E
100
AcDbEntity
  8
0
100
AcDbLine
 10
58.1565
 20
815.4823999999999
 30
0.0
 11
58.7805
 21
815.0653999999999
 31
0.0
  0
LINE
  5
1E3
330
1E
100
AcDbEntity
  8
0
100
AcDbLine
 10
58.1565
 20
815.4823999999999
 30
0.0
 11
58.30738610757499
 21
815.707561312233
 31
0.0
  0
LINE
  5
1E4
330
1E
100
AcDbEntity
  8
0
100
AcDbLine
 10
58.8725
 20
815.1543999999999
 30
0.0
 11
59.38649999999999
 21
814.8144
 31
0.0
  0
LINE
  5
1E5
330
1E
100
AcDbEntity
  8
0
100
AcDbLine
 10
58.8725
 20
815.1543999999999
 30
0.0
 11
58.9453980443291
 21
815.261366722189
 31
0.0
  0
LINE
  5
1E6
330
1E
100
AcDbEntity
  8
0
100
AcDbLine
 10
58.8725
 20
815.1353999999999
 30
0.0
 11
59.3605
 21
814.7844
 31
0.0
  0
LINE
  5
1E7
330
1E
100
AcDbEntity
  8
0
100
AcDbLine
 10
58.7805
 20
815.0653999999999
 30
0.0
 11
58.9635
 21
814.9563999999999
 31
0.0
  0
LINE
  5
1E8
330
1E
100
AcDbEntity
  8
0
100
AcDbLine
 10
58.7805
 20
815.0653999999999
 30
0.0
 11
58.9221888752899
 21
815.2770550761038
 31
0.0
  0
LINE
  5
1E9
330
1E
100
AcDbEntity
  8
0
100
AcDbLine
 10
59.0148076593432
 20
815.0330434663329
 30
0.0
 11
59.3605
 21
814.7844
 31
0.0
  0
LINE
  5
1EA
330
1E
100
AcDbEntity
  8
0
100
AcDbLine
 10
59.38649999999999
 20
814.8144
 30
0.0
 11
60.0945
 21
814.3264
 31
0.0
  0
LINE
  5
1EB
330
1E
100
AcDbEntity
  8
0
100
AcDbLine
 10
59.38649999999999
 20
814.8144
 30
0.0
 11
59.4501644237776
 21
814.9079132189909
 31
0.0
  0
LINE
  5
1EC
330
1E
100
AcDbEntity
  8
0
100
AcDbLine
 10
60.0945
 20
814.3264
 30
0.0
 11
60.5835
 21
813.9763999999999
 31
0.0
  0
LINE
  5
1ED
330
1E
100
AcDbEntity
  8
0
100
AcDbLine
 10
60.0945
 20
814.3264
 30
0.0
 11
60.1546264953512
 21
814.4146264288931
 31
0.0
  0
LINE
  5
1EE
330
1E
100
AcDbEntity
  8
0
100
AcDbLine
 10
59.3605
 20
814.7844
 30
0.0
 11
60.06949999999999
 21
814.2974
 31
0.0
  0
LINE
  5
1EF
330
1E
100
AcDbEntity
  8
0
100
AcDbLine
 10
60.06949999999999
 20
814.2974
 30
0.0
 11
60.16050516002029
 21
814.2369072912931
 31
0.0
  0
LINE
  5
1F0
330
1E
100
AcDbEntity
  8
0
100
AcDbLine
 10
60.06949999999999
 20
814.2974
 30
0.0
 11
60.58250000000001
 21
813.9564
 31
0.0
  0
LINE
  5
1F1
330
1E
100
AcDbEntity
  8
0
100
AcDbLine
 10
53.68549999999999
 20
817.5273999999999
 30
0.0
 11
54.86975691872439
 21
817.7877903650459
 31
0.0
  0
LINE
  5
1F2
330
1E
100
AcDbEntity
  8
0
100
AcDbLine
 10
55.13349999999999
 20
817.6804
 30
0.0
 11
55.24961436950871
 21
817.8492722169119
 31
0.0
  0
LINE
  5
1F3
330
1E
100
AcDbEntity
  8
0
100
AcDbLine
 10
54.7615
 20
817.8594
 30
0.0
 11
55.2755
 21
817.5194000000001
 31
0.0
  0
LINE
  5
1F4
330
1E
100
AcDbEntity
  8
0
100
AcDbLine
 10
54.7875
 20
817.8893999999999
 30
0.0
 11
55.2755
 21
817.5384000000001
 31
0.0
  0
LINE
  5
1F5
330
1E
100
AcDbEntity
  8
0
100
AcDbLine
 10
54.68849999999999
 20
817.9724
 30
0.0
 11
55.13349999999999
 21
817.6804
 31
0.0
  0
LINE
  5
1F6
330
1E
100
AcDbEntity
  8
0
100
AcDbLine
 10
55.2493801288661
 20
817.8489315464439
 30
0.0
 11
55.83149999999999
 21
817.4414
 31
0.0
  0
LINE
  5
1F7
330
1E
100
AcDbEntity
  8
0
100
AcDbLine
 10
55.4189677956999
 20
817.730132063551
 30
0.0
 11
58.9451380717576
 21
815.2609852522321
 31
0.0
  0
LINE
  5
1F8
330
1E
100
AcDbEntity
  8
0
100
AcDbLine
 10
55.04249999999999
 20
817.7634000000001
 30
0.0
 11
55.13349999999999
 21
817.6804
 31
0.0
  0
LINE
  5
1F9
330
1E
100
AcDbEntity
  8
0
100
AcDbLine
 10
55.04249999999999
 20
817.7634000000001
 30
0.0
 11
55.1495931645709
 21
817.9193102517709
 31
0.0
  0
LINE
  5
1FA
330
1E
100
AcDbEntity
  8
0
100
AcDbLine
 10
53.4229391891524
 20
817.7114608108359
 30
0.0
 11
53.5895
 21
817.5943999999999
 31
0.0
  0
LINE
  5
1FB
330
1E
100
AcDbEntity
  8
0
100
AcDbLine
 10
53.3445
 20
817.7664
 30
0.0
 11
53.4229391891524
 21
817.7114608108359
 31
0.0
  0
LINE
  5
1FC
330
1E
100
AcDbEntity
  8
0
100
AcDbLine
 10
53.5895
 20
817.5943999999999
 30
0.0
 11
53.68549999999999
 21
817.5273999999999
 31
0.0
  0
LINE
  5
1FD
330
1E
100
AcDbEntity
  8
0
100
AcDbLine
 10
53.3405
 20
817.7694
 30
0.0
 11
53.5895
 21
817.5943999999999
 31
0.0
  0
LINE
  5
1FE
330
1E
100
AcDbEntity
  8
0
100
AcDbLine
 10
54.4925
 20
818.1574000000001
 30
0.0
 11
55.04249999999999
 21
817.7634000000001
 31
0.0
  0
LINE
  5
1FF
330
1E
100
AcDbEntity
  8
0
100
AcDbLine
 10
54.4925
 20
818.1574000000001
 30
0.0
 11
54.5954773678616
 21
818.307318320318
 31
0.0
  0
LINE
  5
200
330
1E
100
AcDbEntity
  8
0
100
AcDbLine
 10
52.92512499995051
 20
818.0600607143201
 30
0.0
 11
53.3445
 21
817.7664
 31
0.0
  0
LINE
  5
201
330
1E
100
AcDbEntity
  8
0
100
AcDbLine
 10
52.9275
 20
818.0583999999999
 30
0.0
 11
53.3405
 21
817.7694
 31
0.0
  0
LINE
  5
202
330
1E
100
AcDbEntity
  8
0
100
AcDbLine
 10
65.7125
 20
810.3654
 30
0.0
 11
66.33549999999999
 21
809.9484
 31
0.0
  0
LINE
  5
203
330
1E
100
AcDbEntity
  8
0
100
AcDbLine
 10
65.7125
 20
810.3654
 30
0.0
 11
65.78401328926371
 21
810.4722266697059
 31
0.0
  0
LINE
  5
204
330
1E
100
AcDbEntity
  8
0
100
AcDbLine
 10
64.9195
 20
810.7863999999999
 30
0.0
 11
65.1135
 21
810.6583999999999
 31
0.0
  0
LINE
  5
205
330
1E
100
AcDbEntity
  8
0
100
AcDbLine
 10
64.7505
 20
810.9044
 30
0.0
 11
65.1135
 21
810.6583999999999
 31
0.0
  0
LINE
  5
206
330
1E
100
AcDbEntity
  8
0
100
AcDbLine
 10
64.49850000000001
 20
811.1034
 30
0.0
 11
65.16249999999999
 21
810.6583999999999
 31
0.0
  0
LINE
  5
207
330
1E
100
AcDbEntity
  8
0
100
AcDbLine
 10
63.6165
 20
811.6594
 30
0.0
 11
64.3045
 21
811.1974
 31
0.0
  0
LINE
  5
208
330
1E
100
AcDbEntity
  8
0
100
AcDbLine
 10
63.8405
 20
811.5553999999999
 30
0.0
 11
64.49850000000001
 21
811.1034
 31
0.0
  0
LINE
  5
209
330
1E
100
AcDbEntity
  8
0
100
AcDbLine
 10
63.2535
 20
811.9054
 30
0.0
 11
63.4475
 21
811.7773999999998
 31
0.0
  0
LINE
  5
20A
330
1E
100
AcDbEntity
  8
0
100
AcDbLine
 10
63.2535
 20
811.9054
 30
0.0
 11
63.6165
 21
811.6594
 31
0.0
  0
LINE
  5
20B
330
1E
100
AcDbEntity
  8
0
100
AcDbLine
 10
63.2535
 20
811.9054
 30
0.0
 11
63.4050815663474
 21
812.138197374001
 31
0.0
  0
LINE
  5
20C
330
1E
100
AcDbEntity
  8
0
100
AcDbLine
 10
63.4475
 20
811.7773999999998
 30
0.0
 11
64.0625
 21
811.3663999999999
 31
0.0
  0
LINE
  5
20D
330
1E
100
AcDbEntity
  8
0
100
AcDbLine
 10
63.4475
 20
811.7773999999998
 30
0.0
 11
63.59556135070461
 21
812.004791063871
 31
0.0
  0
LINE
  5
20E
330
1E
100
AcDbEntity
  8
0
100
AcDbLine
 10
63.5825
 20
811.7444
 30
0.0
 11
63.85349999999999
 21
811.5743999999999
 31
0.0
  0
LINE
  5
20F
330
1E
100
AcDbEntity
  8
0
100
AcDbLine
 10
63.5825
 20
811.7444
 30
0.0
 11
63.8405
 21
811.5553999999999
 31
0.0
  0
LINE
  5
210
330
1E
100
AcDbEntity
  8
0
100
AcDbLine
 10
63.5825
 20
811.7444
 30
0.0
 11
63.7048633547085
 21
811.928325830884
 31
0.0
  0
LINE
  5
211
330
1E
100
AcDbEntity
  8
0
100
AcDbLine
 10
64.3045
 20
811.1974
 30
0.0
 11
64.9195
 21
810.7863999999999
 31
0.0
  0
LINE
  5
212
330
1E
100
AcDbEntity
  8
0
100
AcDbLine
 10
64.0625
 20
811.3663999999999
 30
0.0
 11
64.7505
 21
810.9044
 31
0.0
  0
LINE
  5
213
330
1E
100
AcDbEntity
  8
0
100
AcDbLine
 10
63.85349999999999
 20
811.5743999999999
 30
0.0
 11
64.51649999999999
 21
811.1294
 31
0.0
  0
LINE
  5
214
330
1E
100
AcDbEntity
  8
0
100
AcDbLine
 10
63.85349999999999
 20
811.5743999999999
 30
0.0
 11
63.9668817482467
 21
811.744825470134
 31
0.0
  0
LINE
  5
215
330
1E
100
AcDbEntity
  8
0
100
AcDbLine
 10
64.51649999999999
 20
811.1294
 30
0.0
 11
65.17549999999999
 21
810.6773999999999
 31
0.0
  0
LINE
  5
216
330
1E
100
AcDbEntity
  8
0
100
AcDbLine
 10
64.51649999999999
 20
811.1294
 30
0.0
 11
64.6211130424906
 21
811.2866451229971
 31
0.0
  0
LINE
  5
217
330
1E
100
AcDbEntity
  8
0
100
AcDbLine
 10
62.74049999999999
 20
812.2723999999999
 30
0.0
 11
63.2635205912163
 21
811.92078951851
 31
0.0
  0
LINE
  5
218
330
1E
100
AcDbEntity
  8
0
100
AcDbLine
 10
62.74049999999999
 20
812.2723999999999
 30
0.0
 11
62.88909430354429
 21
812.4995793287139
 31
0.0
  0
LINE
  5
219
330
1E
100
AcDbEntity
  8
0
100
AcDbLine
 10
61.9235
 20
812.8834000000001
 30
0.0
 11
62.0554782520963
 21
813.083017106296
 31
0.0
  0
LINE
  5
21A
330
1E
100
AcDbEntity
  8
0
100
AcDbLine
 10
61.7535
 20
813.0114
 30
0.0
 11
61.9235
 21
812.8834000000001
 31
0.0
  0
LINE
  5
21B
330
1E
100
AcDbEntity
  8
0
100
AcDbLine
 10
61.7535
 20
813.0114
 30
0.0
 11
61.8814289190602
 21
813.2048924900789
 31
0.0
  0
LINE
  5
21C
330
1E
100
AcDbEntity
  8
0
100
AcDbLine
 10
61.5695
 20
813.1123999999999
 30
0.0
 11
61.9235
 21
812.8834000000001
 31
0.0
  0
LINE
  5
21D
330
1E
100
AcDbEntity
  8
0
100
AcDbLine
 10
60.65537994644841
 20
814.0634145336109
 30
0.0
 11
62.0635
 21
813.0774
 31
0.0
  0
LINE
  5
21E
330
1E
100
AcDbEntity
  8
0
100
AcDbLine
 10
60.8785
 20
813.5773999999999
 30
0.0
 11
61.5695
 21
813.1123999999999
 31
0.0
  0
LINE
  5
21F
330
1E
100
AcDbEntity
  8
0
100
AcDbLine
 10
61.1355
 20
813.4354
 30
0.0
 11
61.7535
 21
813.0114
 31
0.0
  0
LINE
  5
220
330
1E
100
AcDbEntity
  8
0
100
AcDbLine
 10
61.1355
 20
813.4354
 30
0.0
 11
61.2672250995701
 21
813.634979321872
 31
0.0
  0
LINE
  5
221
330
1E
100
AcDbEntity
  8
0
100
AcDbLine
 10
62.2325
 20
812.6203999999999
 30
0.0
 11
62.74049999999999
 21
812.2723999999999
 31
0.0
  0
LINE
  5
222
330
1E
100
AcDbEntity
  8
0
100
AcDbLine
 10
62.2325
 20
812.6203999999999
 30
0.0
 11
62.38458785494021
 21
812.8529204665769
 31
0.0
  0
LINE
  5
223
330
1E
100
AcDbEntity
  8
0
100
AcDbLine
 10
65.5367728597308
 20
810.6451337901969
 30
0.0
 11
65.60903028856849
 21
810.594572133405
 31
0.0
  0
LINE
  5
224
330
1E
100
AcDbEntity
  8
0
100
AcDbLine
 10
65.4325
 20
810.4884
 30
0.0
 11
65.5368834734023
 21
810.6453000549381
 31
0.0
  0
LINE
  5
225
330
1E
100
AcDbEntity
  8
0
100
AcDbLine
 10
65.17549999999999
 20
810.6773999999999
 30
0.0
 11
65.4325
 21
810.4884
 31
0.0
  0
LINE
  5
226
330
1E
100
AcDbEntity
  8
0
100
AcDbLine
 10
65.17549999999999
 20
810.6773999999999
 30
0.0
 11
65.2757215276082
 21
810.8282006163079
 31
0.0
  0
LINE
  5
227
330
1E
100
AcDbEntity
  8
0
100
AcDbLine
 10
65.16249999999999
 20
810.6583999999999
 30
0.0
 11
65.4325
 21
810.4884
 31
0.0
  0
LINE
  5
228
330
1E
100
AcDbEntity
  8
0
100
AcDbLine
 10
65.52849999999999
 20
810.4744
 30
0.0
 11
65.8695
 21
810.2263999999999
 31
0.0
  0
LINE
  5
229
330
1E
100
AcDbEntity
  8
0
100
AcDbLine
 10
65.52849999999999
 20
810.4744
 30
0.0
 11
65.60903028856849
 21
810.594572133405
 31
0.0
  0
LINE
  5
22A
330
1E
100
AcDbEntity
  8
0
100
AcDbLine
 10
65.52849999999999
 20
810.4744
 30
0.0
 11
65.7125
 21
810.3654
 31
0.0
  0
LINE
  5
22B
330
1E
100
AcDbEntity
  8
0
100
AcDbLine
 10
65.52849999999999
 20
810.4744
 30
0.0
 11
65.609121989008
 21
810.5947089743089
 31
0.0
  0
LINE
  5
22C
330
1E
100
AcDbEntity
  8
0
100
AcDbLine
 10
66.33549999999999
 20
809.9484
 30
0.0
 11
67.02249999999999
 21
809.4754
 31
0.0
  0
LINE
  5
22D
330
1E
100
AcDbEntity
  8
0
100
AcDbLine
 10
66.33549999999999
 20
809.9484
 30
0.0
 11
66.39825755539909
 21
810.042050593506
 31
0.0
  0
LINE
  5
22E
330
1E
100
AcDbEntity
  8
0
100
AcDbLine
 10
65.8695
 20
810.2263999999999
 30
0.0
 11
66.5565
 21
809.7544
 31
0.0
  0
LINE
  5
22F
330
1E
100
AcDbEntity
  8
0
100
AcDbLine
 10
66.5565
 20
809.7544
 30
0.0
 11
67.18049999999999
 21
809.3374
 31
0.0
  0
LINE
  5
230
330
1E
100
AcDbEntity
  8
0
100
AcDbLine
 10
67.02249999999999
 20
809.4754
 30
0.0
 11
67.3635
 21
809.2283999999999
 31
0.0
  0
LINE
  5
231
330
1E
100
AcDbEntity
  8
0
100
AcDbLine
 10
67.02249999999999
 20
809.4754
 30
0.0
 11
67.08155743606759
 21
809.5636200956128
 31
0.0
  0
LINE
  5
232
330
1E
100
AcDbEntity
  8
0
100
AcDbLine
 10
67.52849999999999
 20
809.2503999999999
 30
0.0
 11
67.60062345675869
 21
809.200227160516
 31
0.0
  0
LINE
  5
233
330
1E
100
AcDbEntity
  8
0
100
AcDbLine
 10
67.52849999999999
 20
809.2503999999999
 30
0.0
 11
67.60062345675869
 21
809.200227160516
 31
0.0
  0
LINE
  5
234
330
1E
100
AcDbEntity
  8
0
100
AcDbLine
 10
67.18049999999999
 20
809.3374
 30
0.0
 11
67.3635
 21
809.2283999999999
 31
0.0
  0
LINE
  5
235
330
1E
100
AcDbEntity
  8
0
100
AcDbLine
 10
67.7175
 20
810.5354
 30
0.0
 11
73.42749999999999
 21
806.5374
 31
0.0
  0
LINE
  5
236
330
1E
100
AcDbEntity
  8
0
100
AcDbLine
 10
67.5515
 20
810.2973999999999
 30
0.0
 11
73.26049999999999
 21
806.2993999999999
 31
0.0
  0
LINE
  5
237
330
1E
100
AcDbEntity
  8
0
100
AcDbLine
 10
66.6405
 20
809.8724
 30
0.0
 11
72.19549999999999
 21
805.9834
 31
0.0
  0
LINE
  5
238
330
1E
100
AcDbEntity
  8
0
100
AcDbLine
 10
61.6795
 20
814.7634
 30
0.0
 11
67.7175
 21
810.5354
 31
0.0
  0
LINE
  5
239
330
1E
100
AcDbEntity
  8
0
100
AcDbLine
 10
61.5135
 20
814.5253999999999
 30
0.0
 11
67.5515
 21
810.2973999999999
 31
0.0
  0
LINE
  5
23B
330
1E
100
AcDbEntity
  8
0
100
AcDbLine
 10
60.6505
 20
814.0674
 30
0.0
 11
66.6405
 21
809.8724
 31
0.0
  0
LINE
  5
23C
330
1E
100
AcDbEntity
  8
0
100
AcDbLine
 10
52.10049999999999
 20
819.8684
 30
0.0
 11
52.78249999999999
 21
819.3993999999999
 31
0.0
  0
LINE
  5
23D
330
1E
100
AcDbEntity
  8
0
100
AcDbLine
 10
52.3675
 20
819.7364
 30
0.0
 11
52.96949999999999
 21
819.3064000000001
 31
0.0
  0
LINE
  5
23E
330
1E
100
AcDbEntity
  8
0
100
AcDbLine
 10
52.3675
 20
819.7364
 30
0.0
 11
52.4285861176162
 21
819.824457609064
 31
0.0
  0
LINE
  5
23F
330
1E
100
AcDbEntity
  8
0
100
AcDbLine
 10
52.38949999999999
 20
818.4343999999999
 30
0.0
 11
52.89794444456419
 21
818.079066666583
 31
0.0
  0
LINE
  5
240
330
1E
100
AcDbEntity
  8
0
100
AcDbLine
 10
54.07849999999999
 20
818.3764
 30
0.0
 11
54.7875
 21
817.8893999999999
 31
0.0
  0
LINE
  5
241
330
1E
100
AcDbEntity
  8
0
100
AcDbLine
 10
54.0535
 20
818.3474
 30
0.0
 11
54.7615
 21
817.8594
 31
0.0
  0
LINE
  5
242
330
1E
100
AcDbEntity
  8
0
100
AcDbLine
 10
53.3875
 20
819.1523999999999
 30
0.0
 11
53.461262380334
 21
819.100760297565
 31
0.0
  0
LINE
  5
243
330
1E
100
AcDbEntity
  8
0
100
AcDbLine
 10
53.22492682115059
 20
819.2662471312958
 30
0.0
 11
53.3875
 21
819.1523999999999
 31
0.0
  0
LINE
  5
244
330
1E
100
AcDbEntity
  8
0
100
AcDbLine
 10
53.3455
 20
818.9324
 30
0.0
 11
53.4375
 21
818.8483999999998
 31
0.0
  0
LINE
  5
245
330
1E
100
AcDbEntity
  8
0
100
AcDbLine
 10
53.3455
 20
818.9324
 30
0.0
 11
53.7905
 21
818.6393999999999
 31
0.0
  0
LINE
  5
246
330
1E
100
AcDbEntity
  8
0
100
AcDbLine
 10
53.3455
 20
818.9324
 30
0.0
 11
53.4615750323416
 21
819.1012150064679
 31
0.0
  0
LINE
  5
247
330
1E
100
AcDbEntity
  8
0
100
AcDbLine
 10
53.5655
 20
818.7174
 30
0.0
 11
54.07849999999999
 21
818.3764
 31
0.0
  0
LINE
  5
248
330
1E
100
AcDbEntity
  8
0
100
AcDbLine
 10
53.5645
 20
818.6974000000001
 30
0.0
 11
54.0535
 21
818.3474
 31
0.0
  0
LINE
  5
249
330
1E
100
AcDbEntity
  8
0
100
AcDbLine
 10
53.7905
 20
818.6393999999999
 30
0.0
 11
54.4925
 21
818.1574000000001
 31
0.0
  0
LINE
  5
24A
330
1E
100
AcDbEntity
  8
0
100
AcDbLine
 10
53.7905
 20
818.6393999999999
 30
0.0
 11
53.8979583150613
 21
818.795683188436
 31
0.0
  0
LINE
  5
24B
330
1E
100
AcDbEntity
  8
0
100
AcDbLine
 10
53.4375
 20
818.8483999999998
 30
0.0
 11
53.98749999999999
 21
818.4554
 31
0.0
  0
LINE
  5
24C
330
1E
100
AcDbEntity
  8
0
100
AcDbLine
 10
53.98749999999999
 20
818.4554
 30
0.0
 11
54.68849999999999
 21
817.9724
 31
0.0
  0
LINE
  5
24D
330
1E
100
AcDbEntity
  8
0
100
AcDbLine
 10
53.1515
 20
819.1603999999999
 30
0.0
 11
53.2252331555631
 21
819.266688722233
 31
0.0
  0
LINE
  5
24E
330
1E
100
AcDbEntity
  8
0
100
AcDbLine
 10
52.78249999999999
 20
819.3993999999999
 30
0.0
 11
53.1515
 21
819.1603999999999
 31
0.0
  0
LINE
  5
24F
330
1E
100
AcDbEntity
  8
0
100
AcDbLine
 10
52.96949999999999
 20
819.3064000000001
 30
0.0
 11
53.1515
 21
819.1603999999999
 31
0.0
  0
LINE
  5
250
330
1E
100
AcDbEntity
  8
0
100
AcDbLine
 10
52.96949999999999
 20
819.3064000000001
 30
0.0
 11
53.03456074562101
 21
819.400187163546
 31
0.0
  0
LINE
  5
251
330
1E
100
AcDbEntity
  8
0
100
AcDbLine
 10
52.3955
 20
818.4303999999999
 30
0.0
 11
52.9275
 21
818.0583999999999
 31
0.0
  0
LINE
  5
253
330
1E
100
AcDbEntity
  8
0
100
AcDbLine
 10
52.4835
 20
840.0014
 30
0.0
 11
57.9135
 21
836.1693999999999
 31
0.0
  0
LINE
  5
255
330
1E
100
AcDbEntity
  8
0
100
AcDbLine
 10
68.80549999999999
 20
828.5353999999999
 30
0.0
 11
74.04749999999999
 21
824.8903999999999
 31
0.0
  0
LINE
  5
257
330
1E
100
AcDbEntity
  8
0
100
AcDbLine
 10
63.3715
 20
832.3774
 30
0.0
 11
68.80549999999999
 21
828.5353999999999
 31
0.0
  0
LINE
  5
259
330
1E
100
AcDbEntity
  8
0
100
AcDbLine
 10
57.9135
 20
836.1693999999999
 30
0.0
 11
63.3715
 21
832.3774
 31
0.0
  0
LINE
  5
25A
330
1E
100
AcDbEntity
  8
0
100
AcDbLine
 10
55.4234999999999
 20
819.1434
 30
0.0
 11
61.6795
 21
814.7634
 31
0.0
  0
LINE
  5
25B
330
1E
100
AcDbEntity
  8
0
100
AcDbLine
 10
55.2575
 20
818.9064
 30
0.0
 11
61.5135
 21
814.5253999999999
 31
0.0
  0
LINE
  5
25D
330
1E
100
AcDbEntity
  8
0
100
AcDbLine
 10
54.61249999999999
 20
818.2954
 30
0.0
 11
60.6505
 21
814.0674
 31
0.0
  0
LINE
  5
25E
330
1E
100
AcDbEntity
  8
0
100
AcDbLine
 10
67.5464380101647
 20
809.2381618503099
 30
0.0
 11
69.653733541248
 21
807.762865302986
 31
0.0
  0
LINE
  5
25F
330
1E
100
AcDbEntity
  8
0
100
AcDbLine
 10
74.9555
 20
803.8733999999999
 30
0.0
 11
75.45650000000001
 21
803.5424
 31
0.0
  0
LINE
  5
260
330
1E
100
AcDbEntity
  8
0
100
AcDbLine
 10
74.9555
 20
803.8733999999999
 30
0.0
 11
75.03499374368499
 21
803.9949345063471
 31
0.0
  0
LINE
  5
261
330
1E
100
AcDbEntity
  8
0
100
AcDbLine
 10
75.45650000000001
 20
803.5424
 30
0.0
 11
76.1705
 21
803.0613999999999
 31
0.0
  0
LINE
  5
262
330
1E
100
AcDbEntity
  8
0
100
AcDbLine
 10
75.45650000000001
 20
803.5424
 30
0.0
 11
75.5271754242937
 21
803.6502652177901
 31
0.0
  0
LINE
  5
263
330
1E
100
AcDbEntity
  8
0
100
AcDbLine
 10
76.1705
 20
803.0613999999999
 30
0.0
 11
76.6785
 21
802.7143999999999
 31
0.0
  0
LINE
  5
264
330
1E
100
AcDbEntity
  8
0
100
AcDbLine
 10
76.1705
 20
803.0613999999999
 30
0.0
 11
76.232565169771
 21
803.1562887223049
 31
0.0
  0
LINE
  5
265
330
1E
100
AcDbEntity
  8
0
100
AcDbLine
 10
76.1655
 20
803.0464
 30
0.0
 11
76.6665
 21
802.7143999999999
 31
0.0
  0
LINE
  5
266
330
1E
100
AcDbEntity
  8
0
100
AcDbLine
 10
75.45149999999999
 20
803.5263999999999
 30
0.0
 11
76.1655
 21
803.0464
 31
0.0
  0
LINE
  5
267
330
1E
100
AcDbEntity
  8
0
100
AcDbLine
 10
74.9435
 20
803.8733999999999
 30
0.0
 11
75.45149999999999
 21
803.5263999999999
 31
0.0
  0
LINE
  5
268
330
1E
100
AcDbEntity
  8
0
100
AcDbLine
 10
74.9435
 20
803.8733999999999
 30
0.0
 11
75.0267635589889
 21
804.0006980120109
 31
0.0
  0
LINE
  5
269
330
1E
100
AcDbEntity
  8
0
100
AcDbLine
 10
78.7255
 20
802.8273999999999
 30
0.0
 11
83.5585
 21
799.4434
 31
0.0
  0
LINE
  5
272
330
1E
100
AcDbEntity
  8
0
100
AcDbLine
 10
74.04749999999999
 20
824.8903999999999
 30
0.0
 11
78.8745
 21
821.5223999999999
 31
0.0
  0
LINE
  5
275
330
1E
100
AcDbEntity
  8
0
100
AcDbLine
 10
73.42749999999999
 20
806.5374
 30
0.0
 11
78.7255
 21
802.8273999999999
 31
0.0
  0
LINE
  5
276
330
1E
100
AcDbEntity
  8
0
100
AcDbLine
 10
73.26049999999999
 20
806.2993999999999
 30
0.0
 11
78.5585
 21
802.5904
 31
0.0
  0
LINE
  5
277
330
1E
100
AcDbEntity
  8
0
100
AcDbLine
 10
72.9118253656505
 20
805.4817654128509
 30
0.0
 11
75.0267635589889
 21
804.0006980120109
 31
0.0
  0
LINE
  5
278
330
1E
100
AcDbEntity
  8
0
100
AcDbLine
 10
76.73666876911791
 20
802.803270648306
 30
0.0
 11
76.9714778430815
 21
802.638836497954
 31
0.0
  0
LINE
  5
279
330
1E
100
AcDbEntity
  8
0
100
AcDbLine
 10
76.73666876911791
 20
802.803270648306
 30
0.0
 11
76.9714778430815
 21
802.638836497954
 31
0.0
  0
LINE
  5
27A
330
1E
100
AcDbEntity
  8
0
100
AcDbLine
 10
80.3425
 20
797.4034
 30
0.0
 11
80.6835
 21
794.4474
 31
0.0
  0
LINE
  5
27D
330
1E
100
AcDbEntity
  8
0
100
AcDbLine
 10
87.5065
 20
796.3243999999999
 30
0.0
 11
91.05549999999999
 21
793.8393999999999
 31
0.0
  0
LINE
  5
27F
330
1E
100
AcDbEntity
  8
0
100
AcDbLine
 10
85.8745
 20
796.4044
 30
0.0
 11
89.3215
 21
793.9913999999999
 31
0.0
  0
LINE
  5
281
330
1E
100
AcDbEntity
  8
0
100
AcDbLine
 10
87.6725
 20
796.5624
 30
0.0
 11
91.22150000000001
 21
794.0774
 31
0.0
  0
LINE
  5
288
330
1E
100
AcDbEntity
  8
0
100
AcDbLine
 10
82.1235
 20
799.0313999999999
 30
0.0
 11
85.8745
 21
796.4044
 31
0.0
  0
LINE
  5
289
330
1E
100
AcDbEntity
  8
0
100
AcDbLine
 10
82.1235
 20
799.0313999999999
 30
0.0
 11
85.8745
 21
796.4044
 31
0.0
  0
LINE
  5
28A
330
1E
100
AcDbEntity
  8
0
100
AcDbLine
 10
83.3905
 20
799.2064
 30
0.0
 11
87.5065
 21
796.3243999999999
 31
0.0
  0
LINE
  5
28C
330
1E
100
AcDbEntity
  8
0
100
AcDbLine
 10
83.5585
 20
799.4434
 30
0.0
 11
87.6725
 21
796.5624
 31
0.0
  0
LINE
  5
294
330
1E
100
AcDbEntity
  8
0
100
AcDbLine
 10
80.33885932714069
 20
800.280987827986
 30
0.0
 11
80.3425
 21
797.4034
 31
0.0
  0
LINE
  5
297
330
1E
100
AcDbEntity
  8
0
100
AcDbLine
 10
78.8745
 20
821.5223999999999
 30
0.0
 11
83.4515
 21
818.2684
 31
0.0
  0
LINE
  5
298
330
1E
100
AcDbEntity
  8
0
100
AcDbLine
 10
83.4515
 20
818.2684
 30
0.0
 11
87.5745
 21
815.3693999999999
 31
0.0
  0
LINE
  5
2A6
330
1E
100
AcDbEntity
  8
0
100
AcDbLine
 10
78.80739032188699
 20
801.3533073469819
 30
0.0
 11
80.33885932714069
 21
800.280987827986
 31
0.0
  0
LINE
  5
2A7
330
1E
100
AcDbEntity
  8
0
100
AcDbLine
 10
88.6660783086315
 20
794.450214198222
 30
0.0
 11
89.3215
 21
793.9913999999999
 31
0.0
  0
LINE
  5
2A8
330
1E
100
AcDbEntity
  8
0
100
AcDbLine
 10
129.4883
 20
791.9203999999999
 30
0.0
 11
134.9941
 21
798.4814
 31
0.0
  0
LINE
  5
2A9
330
1E
100
AcDbEntity
  8
0
100
AcDbLine
 10
127.1907
 20
793.8483999999999
 30
0.0
 11
132.6956999999999
 21
800.4094
 31
0.0
  0
LINE
  5
2AA
330
1E
100
AcDbEntity
  8
0
100
AcDbLine
 10
126.8076999999999
 20
794.1694
 30
0.0
 11
132.3127
 21
800.7314
 31
0.0
  0
LINE
  5
2AB
330
1E
100
AcDbEntity
  8
0
100
AcDbLine
 10
94.0515
 20
792.0964
 30
0.0
 11
96.0885
 21
790.6693999999999
 31
0.0
  0
LINE
  5
2AC
330
1E
100
AcDbEntity
  8
0
100
AcDbLine
 10
93.8845
 20
791.8584
 30
0.0
 11
95.92249999999999
 21
790.4324
 31
0.0
  0
LINE
  5
2AD
330
1E
100
AcDbEntity
  8
0
100
AcDbLine
 10
92.9315
 20
837.7523999999999
 30
0.0
 11
104.5274
 21
829.3243999999999
 31
0.0
  0
LINE
  5
2AF
330
1E
100
AcDbEntity
  8
0
100
AcDbLine
 10
134.9941
 20
798.4814
 30
0.0
 11
138.0732
 21
802.1513999999999
 31
0.0
  0
LINE
  5
2B0
330
1E
100
AcDbEntity
  8
0
100
AcDbLine
 10
135.377
 20
798.1594
 30
0.0
 11
138.4568999999999
 21
801.8293999999999
 31
0.0
  0
LINE
  5
2B1
330
1E
100
AcDbEntity
  8
0
100
AcDbLine
 10
109.9067
 20
795.4594
 30
0.0
 11
119.1415464034919
 21
785.033793974414
 31
0.0
  0
LINE
  5
2B2
330
1E
100
AcDbEntity
  8
0
100
AcDbLine
 10
132.3127
 20
800.7314
 30
0.0
 11
135.3925
 21
804.4003999999999
 31
0.0
  0
LINE
  5
2B3
330
1E
100
AcDbEntity
  8
0
100
AcDbLine
 10
138.0732
 20
802.1513999999999
 30
0.0
 11
138.3362999999999
 21
802.4644
 31
0.0
  0
LINE
  5
2B4
330
1E
100
AcDbEntity
  8
0
100
AcDbLine
 10
137.749745314865
 20
800.986652899437
 30
0.0
 11
138.4568999999999
 21
801.8293999999999
 31
0.0
  0
LINE
  5
2B5
330
1E
100
AcDbEntity
  8
0
100
AcDbLine
 10
132.6956999999999
 20
800.4094
 30
0.0
 11
135.7755
 21
804.0793999999999
 31
0.0
  0
LINE
  5
2B6
330
1E
100
AcDbEntity
  8
0
100
AcDbLine
 10
138.3362999999999
 20
802.4644
 30
0.0
 11
138.488
 21
802.6443999999999
 31
0.0
  0
LINE
  5
2B7
330
1E
100
AcDbEntity
  8
0
100
AcDbLine
 10
138.4568999999999
 20
801.8293999999999
 30
0.0
 11
138.5243
 21
801.9104
 31
0.0
  0
LINE
  5
2B8
330
1E
100
AcDbEntity
  8
0
100
AcDbLine
 10
138.1986718165439
 20
801.5216582039469
 30
0.0
 11
138.4568999999999
 21
801.8293999999999
 31
0.0
  0
LINE
  5
2B9
330
1E
100
AcDbEntity
  8
0
100
AcDbLine
 10
101.1791
 20
804.6113999999999
 30
0.0
 11
109.9067
 21
795.4594
 31
0.0
  0
LINE
  5
2BA
330
1E
100
AcDbEntity
  8
0
100
AcDbLine
 10
99.9542241701776
 20
805.592627514587
 30
0.0
 11
101.1791
 21
804.6113999999999
 31
0.0
  0
LINE
  5
2BB
330
1E
100
AcDbEntity
  8
0
100
AcDbLine
 10
136.0387
 20
804.3924
 30
0.0
 11
136.1895
 21
804.5733999999999
 31
0.0
  0
LINE
  5
2BC
330
1E
100
AcDbEntity
  8
0
100
AcDbLine
 10
135.7755
 20
804.0793999999999
 30
0.0
 11
136.0387
 21
804.3924
 31
0.0
  0
LINE
  5
2BD
330
1E
100
AcDbEntity
  8
0
100
AcDbLine
 10
135.4848
 20
804.5113999999999
 30
0.0
 11
136.1895
 21
804.5733999999999
 31
0.0
  0
LINE
  5
2BE
330
1E
100
AcDbEntity
  8
0
100
AcDbLine
 10
135.3925
 20
804.4003999999999
 30
0.0
 11
135.4599
 21
804.4814
 31
0.0
  0
LINE
  5
2BF
330
1E
100
AcDbEntity
  8
0
100
AcDbLine
 10
134.550995172276
 20
803.3979059377498
 30
0.0
 11
135.3925
 21
804.4003999999999
 31
0.0
  0
LINE
  5
2C0
330
1E
100
AcDbEntity
  8
0
100
AcDbLine
 10
104.5274
 20
829.3243999999999
 30
0.0
 11
113.6848999999999
 21
821.9894
 31
0.0
  0
LINE
  5
2C3
330
1E
100
AcDbEntity
  8
0
100
AcDbLine
 10
98.62850000000001
 20
803.0564
 30
0.0
 11
99.9542241701776
 21
805.592627514587
 31
0.0
  0
LINE
  5
2C4
330
1E
100
AcDbEntity
  8
0
100
AcDbLine
 10
97.22450000000002
 20
799.0814
 30
0.0
 11
98.62850000000001
 21
803.0564
 31
0.0
  0
LINE
  5
2C5
330
1E
100
AcDbEntity
  8
0
100
AcDbLine
 10
96.74550000000001
 20
794.4593999999999
 30
0.0
 11
97.04450000000001
 21
791.4163999999999
 31
0.0
  0
LINE
  5
2C6
330
1E
100
AcDbEntity
  8
0
100
AcDbLine
 10
96.74550000000001
 20
794.4593999999999
 30
0.0
 11
97.22450000000002
 21
799.0814
 31
0.0
  0
LINE
  5
2C7
330
1E
100
AcDbEntity
  8
0
100
AcDbLine
 10
91.99749999999999
 20
792.1173999999999
 30
0.0
 11
94.33150000000001
 21
790.4834
 31
0.0
  0
LINE
  5
2C8
330
1E
100
AcDbEntity
  8
0
100
AcDbLine
 10
91.99749999999999
 20
792.1173999999999
 30
0.0
 11
94.33150000000001
 21
790.4834
 31
0.0
  0
LINE
  5
2C9
330
1E
100
AcDbEntity
  8
0
100
AcDbLine
 10
31.2482664160972
 20
834.654619664024
 30
0.0
 11
31.3203734463528
 21
834.604127684744
 31
0.0
  0
LINE
  5
2D0
330
1E
100
AcDbEntity
  8
0
100
AcDbLine
 10
78.50249999999999
 20
847.2394000000001
 30
0.0
 11
92.9315
 21
837.7523999999999
 31
0.0
  0
LINE
  5
2D2
330
1E
100
AcDbEntity
  8
0
100
AcDbLine
 10
41.7965
 20
847.4724
 30
0.0
 11
47.0145
 21
843.7943999999999
 31
0.0
  0
LINE
  5
2D3
330
1E
100
AcDbEntity
  8
0
100
AcDbLine
 10
14.4655
 20
847.4683999999999
 30
0.0
 11
19.2975
 21
844.0853999999999
 31
0.0
  0
LINE
  5
2D9
330
1E
100
AcDbEntity
  8
0
100
AcDbLine
 10
68.99049999999999
 20
853.1004000000001
 30
0.0
 11
78.50249999999999
 21
847.2394000000001
 31
0.0
  0
LINE
  5
2DF
330
1E
100
AcDbEntity
  8
0
100
AcDbLine
 10
36.9805
 20
850.8573999999999
 30
0.0
 11
41.7965
 21
847.4724
 31
0.0
  0
LINE
  5
2E9
330
1E
100
AcDbEntity
  8
0
100
AcDbLine
 10
14.63049999999999
 20
847.7073999999999
 30
0.0
 11
19.4645
 21
844.3224
 31
0.0
  0
LINE
  5
2F1
330
1E
100
AcDbEntity
  8
0
100
AcDbLine
 10
10.98249999999999
 20
848.8443999999999
 30
0.0
 11
14.99249999999999
 21
846.0373999999999
 31
0.0
  0
LINE
  5
2F2
330
1E
100
AcDbEntity
  8
0
100
AcDbLine
 10
0.6975000000000301
 20
857.1083999999999
 30
0.0
 11
1.9345
 21
856.2424
 31
0.0
  0
LINE
  5
2F3
330
1E
100
AcDbEntity
  8
0
100
AcDbLine
 10
0.355499999999984
 20
857.7033999999999
 30
0.0
 11
1.05149999999999
 21
857.9233999999999
 31
0.0
  0
LINE
  5
2F4
330
1E
100
AcDbEntity
  8
0
100
AcDbLine
 10
0.355499999999984
 20
857.7033999999999
 30
0.0
 11
0.864500000000001
 21
857.3463999999999
 31
0.0
  0
LINE
  5
2F5
330
1E
100
AcDbEntity
  8
0
100
AcDbLine
 10
0.188500000000013
 20
857.4654
 30
0.0
 11
0.21949999999997
 21
856.7353999999999
 31
0.0
  0
LINE
  5
2F6
330
1E
100
AcDbEntity
  8
0
100
AcDbLine
 10
0.188500000000013
 20
857.4654
 30
0.0
 11
0.355499999999984
 21
857.7033999999999
 31
0.0
  0
LINE
  5
2F7
330
1E
100
AcDbEntity
  8
0
100
AcDbLine
 10
0.188500000000013
 20
857.4654
 30
0.0
 11
0.6975000000000301
 21
857.1083999999999
 31
0.0
  0
LINE
  5
2F8
330
1E
100
AcDbEntity
  8
0
100
AcDbLine
 10
0.21949999999997
 20
856.7353999999999
 30
0.0
 11
0.78049999999998
 21
855.9884
 31
0.0
  0
LINE
  5
2FA
330
1E
100
AcDbEntity
  8
0
100
AcDbLine
 10
32.3575
 20
854.0454
 30
0.0
 11
36.9805
 21
850.8573999999999
 31
0.0
  0
LINE
  5
2FC
330
1E
100
AcDbEntity
  8
0
100
AcDbLine
 10
4.137500000000009
 20
855.0544
 30
0.0
 11
6.96749999999999
 21
853.0734
 31
0.0
  0
LINE
  5
2FD
330
1E
100
AcDbEntity
  8
0
100
AcDbLine
 10
3.97149999999999
 20
854.8163999999999
 30
0.0
 11
6.80049999999999
 21
852.8354
 31
0.0
  0
LINE
  5
2FE
330
1E
100
AcDbEntity
  8
0
100
AcDbLine
 10
2.52649999999999
 20
854.7653999999999
 30
0.0
 11
4.50149999999999
 21
853.3834
 31
0.0
  0
LINE
  5
2FF
330
1E
100
AcDbEntity
  8
0
100
AcDbLine
 10
0.864500000000001
 20
857.3463999999999
 30
0.0
 11
2.100500000000019
 21
856.4804
 31
0.0
  0
LINE
  5
300
330
1E
100
AcDbEntity
  8
0
100
AcDbLine
 10
63.4615
 20
856.6644
 30
0.0
 11
69.0208983589088
 21
853.1425968087139
 31
0.0
  0
LINE
  5
301
330
1E
100
AcDbEntity
  8
0
100
AcDbLine
 10
28.2235
 20
856.9274
 30
0.0
 11
32.3575
 21
854.0454
 31
0.0
  0
LINE
  5
302
330
1E
100
AcDbEntity
  8
0
100
AcDbLine
 10
2.100500000000019
 20
856.4804
 30
0.0
 11
4.137500000000009
 21
855.0544
 31
0.0
  0
LINE
  5
303
330
1E
100
AcDbEntity
  8
0
100
AcDbLine
 10
1.9345
 20
856.2424
 30
0.0
 11
3.97149999999999
 21
854.8163999999999
 31
0.0
  0
LINE
  5
304
330
1E
100
AcDbEntity
  8
0
100
AcDbLine
 10
57.3035
 20
859.9593999999999
 30
0.0
 11
63.4615
 21
856.6644
 31
0.0
  0
LINE
  5
305
330
1E
100
AcDbEntity
  8
0
100
AcDbLine
 10
50.7635
 20
862.7074
 30
0.0
 11
57.3035
 21
859.9593999999999
 31
0.0
  0
LINE
  5
306
330
1E
100
AcDbEntity
  8
0
100
AcDbLine
 10
44.48749999999999
 20
864.8644
 30
0.0
 11
50.7635
 21
862.7074
 31
0.0
  0
LINE
  5
309
330
1E
100
AcDbEntity
  8
0
100
AcDbLine
 10
38.0555
 20
866.3154
 30
0.0
 11
44.48749999999999
 21
864.8644
 31
0.0
  0
LINE
  5
30A
330
1E
100
AcDbEntity
  8
0
100
AcDbLine
 10
31.8865
 20
867.1763999999999
 30
0.0
 11
38.0555
 21
866.3154
 31
0.0
  0
LINE
  5
30B
330
1E
100
AcDbEntity
  8
0
100
AcDbLine
 10
26.1125
 20
867.1504
 30
0.0
 11
31.8865
 21
867.1763999999999
 31
0.0
  0
LINE
  5
30C
330
1E
100
AcDbEntity
  8
0
100
AcDbLine
 10
20.6015
 20
866.5324
 30
0.0
 11
26.1125
 21
867.1504
 31
0.0
  0
LINE
  5
30D
330
1E
100
AcDbEntity
  8
0
100
AcDbLine
 10
16.7205
 20
865.3844000000001
 30
0.0
 11
20.6015
 21
866.5324
 31
0.0
  0
LINE
  5
30E
330
1E
100
AcDbEntity
  8
0
100
AcDbLine
 10
15.96049999999999
 20
865.5454
 30
0.0
 11
16.7205
 21
865.3844000000001
 31
0.0
  0
LINE
  5
30F
330
1E
100
AcDbEntity
  8
0
100
AcDbLine
 10
14.8445
 20
865.2644
 30
0.0
 11
15.96049999999999
 21
865.5454
 31
0.0
  0
LINE
  5
310
330
1E
100
AcDbEntity
  8
0
100
AcDbLine
 10
12.8715
 20
863.1044000000001
 30
0.0
 11
14.8445
 21
865.2644
 31
0.0
  0
LINE
  5
311
330
1E
100
AcDbEntity
  8
0
100
AcDbLine
 10
9.616500000000009
 20
860.4253999999999
 30
0.0
 11
12.8715
 21
863.1044000000001
 31
0.0
  0
LINE
  5
312
330
1E
100
AcDbEntity
  8
0
100
AcDbLine
 10
5.436500000000009
 20
858.3944
 30
0.0
 11
9.616500000000009
 21
860.4253999999999
 31
0.0
  0
LINE
  5
313
330
1E
100
AcDbEntity
  8
0
100
AcDbLine
 10
2.47549999999999
 20
857.6344
 30
0.0
 11
5.436500000000009
 21
858.3944
 31
0.0
  0
LINE
  5
314
330
1E
100
AcDbEntity
  8
0
100
AcDbLine
 10
1.05149999999999
 20
857.9233999999999
 30
0.0
 11
2.47549999999999
 21
857.6344
 31
0.0
  0
LINE
  5
315
330
1E
100
AcDbEntity
  8
0
100
AcDbLine
 10
1.289499999999969
 20
855.6314
 30
0.0
 11
2.52649999999999
 21
854.7653999999999
 31
0.0
  0
LINE
  5
316
330
1E
100
AcDbEntity
  8
0
100
AcDbLine
 10
0.78049999999998
 20
855.9884
 30
0.0
 11
1.289499999999969
 21
855.6314
 31
0.0
  0
LINE
  5
317
330
1E
100
AcDbEntity
  8
0
100
AcDbLine
 10
193.472960565942
 20
672.822906324308
 30
0.0
 11
200.19003795733
 21
661.188622960725
 31
0.0
  0
LINE
  5
319
330
1E
100
AcDbEntity
  8
0
100
AcDbLine
 10
181.5924
 20
699.4244
 30
0.0
 11
189.01008
 21
703.7064
 31
0.0
  0
LINE
  5
31C
330
1E
100
AcDbEntity
  8
0
100
AcDbLine
 10
180.0924
 20
702.0223999999999
 30
0.0
 11
187.5099999999999
 21
706.3043999999999
 31
0.0
  0
LINE
  5
31D
330
1E
100
AcDbEntity
  8
0
100
AcDbLine
 10
179.8424999999999
 20
702.4554000000001
 30
0.0
 11
187.2600999999999
 21
706.7374
 31
0.0
  0
LINE
  5
31E
330
1E
100
AcDbEntity
  8
0
100
AcDbLine
 10
180.0923
 20
702.0223999999999
 30
0.0
 11
187.5099999999999
 21
706.3043999999999
 31
0.0
  0
LINE
  5
31F
330
1E
100
AcDbEntity
  8
0
100
AcDbLine
 10
187.5099999999999
 20
706.3043999999999
 30
0.0
 11
194.9276799999999
 21
710.5864
 31
0.0
  0
LINE
  5
320
330
1E
100
AcDbEntity
  8
0
100
AcDbLine
 10
187.2600999999999
 20
706.7374
 30
0.0
 11
198.9512259999999
 21
713.4873999999999
 31
0.0
  0
LINE
  5
321
330
1E
100
AcDbEntity
  8
0
100
AcDbLine
 10
189.01008
 20
703.7064
 30
0.0
 11
196.42777
 21
707.9883999999999
 31
0.0
  0
LINE
  5
322
330
1E
100
AcDbEntity
  8
0
100
AcDbLine
 10
196.42777
 20
707.9883999999999
 30
0.0
 11
200.57615
 21
710.3844
 31
0.0
  0
LINE
  5
323
330
1E
100
AcDbEntity
  8
0
100
AcDbLine
 10
194.9276799999999
 20
710.5864
 30
0.0
 11
199.0761129999999
 21
712.9824
 31
0.0
  0
LINE
  5
32C
330
1E
100
AcDbEntity
  8
0
100
AcDbLine
 10
193.472960565942
 20
672.822906324308
 30
0.0
 11
200.19003795733
 21
661.188622960725
 31
0.0
  0
LINE
  5
32D
330
1E
100
AcDbEntity
  8
0
100
AcDbLine
 10
178.001827922326
 20
696.77325056935
 30
0.0
 11
193.472960565942
 21
672.822906324308
 31
0.0
  0
LINE
  5
32E
330
1E
100
AcDbEntity
  8
0
100
AcDbLine
 10
198.8115
 20
888.9124
 30
0.0
 11
198.8115
 21
887.7124
 31
0.0
  0
LINE
  5
32F
330
1E
100
AcDbEntity
  8
0
100
AcDbLine
 10
198.8115
 20
888.9124
 30
0.0
 11
198.8115
 21
890.4124000000001
 31
0.0
  0
LINE
  5
330
330
1E
100
AcDbEntity
  8
0
100
AcDbLine
 10
198.8115
 20
890.4124000000001
 30
0.0
 11
198.8115
 21
888.9124
 31
0.0
  0
LINE
  5
331
330
1E
100
AcDbEntity
  8
0
100
AcDbLine
 10
198.8115
 20
890.4124000000001
 30
0.0
 11
198.8115
 21
891.9124
 31
0.0
  0
LINE
  5
332
330
1E
100
AcDbEntity
  8
0
100
AcDbLine
 10
198.8115
 20
887.7124
 30
0.0
 11
198.8115
 21
886.7124
 31
0.0
  0
LINE
  5
333
330
1E
100
AcDbEntity
  8
0
100
AcDbLine
 10
198.8115
 20
887.7124
 30
0.0
 11
198.8115
 21
888.9124
 31
0.0
  0
LINE
  5
334
330
1E
100
AcDbEntity
  8
0
100
AcDbLine
 10
198.8115
 20
886.7124
 30
0.0
 11
198.8115
 21
886.1124
 31
0.0
  0
LINE
  5
335
330
1E
100
AcDbEntity
  8
0
100
AcDbLine
 10
198.8115
 20
886.7124
 30
0.0
 11
198.8115
 21
887.7124
 31
0.0
  0
LINE
  5
336
330
1E
100
AcDbEntity
  8
0
100
AcDbLine
 10
198.8115
 20
886.1124
 30
0.0
 11
198.8115
 21
885.9124000000001
 31
0.0
  0
LINE
  5
337
330
1E
100
AcDbEntity
  8
0
100
AcDbLine
 10
198.8115
 20
886.1124
 30
0.0
 11
198.8115
 21
886.7124
 31
0.0
  0
LINE
  5
338
330
1E
100
AcDbEntity
  8
0
100
AcDbLine
 10
198.8115
 20
891.9124
 30
0.0
 11
198.8115
 21
893.4124
 31
0.0
  0
LINE
  5
339
330
1E
100
AcDbEntity
  8
0
100
AcDbLine
 10
198.8115
 20
891.9124
 30
0.0
 11
198.8115
 21
890.4124000000001
 31
0.0
  0
LINE
  5
33A
330
1E
100
AcDbEntity
  8
0
100
AcDbLine
 10
198.8115
 20
897.1123999999999
 30
0.0
 11
198.8115
 21
896.1123999999999
 31
0.0
  0
LINE
  5
33B
330
1E
100
AcDbEntity
  8
0
100
AcDbLine
 10
198.8115
 20
897.1123999999999
 30
0.0
 11
198.8115
 21
897.7123999999999
 31
0.0
  0
LINE
  5
33C
330
1E
100
AcDbEntity
  8
0
100
AcDbLine
 10
198.8115
 20
897.7123999999999
 30
0.0
 11
198.8115
 21
897.1123999999999
 31
0.0
  0
LINE
  5
33D
330
1E
100
AcDbEntity
  8
0
100
AcDbLine
 10
198.8115
 20
897.7123999999999
 30
0.0
 11
198.8115
 21
897.9124
 31
0.0
  0
LINE
  5
33E
330
1E
100
AcDbEntity
  8
0
100
AcDbLine
 10
198.8115
 20
896.1123999999999
 30
0.0
 11
198.8115
 21
894.9124000000001
 31
0.0
  0
LINE
  5
33F
330
1E
100
AcDbEntity
  8
0
100
AcDbLine
 10
198.8115
 20
896.1123999999999
 30
0.0
 11
198.8115
 21
897.1123999999999
 31
0.0
  0
LINE
  5
340
330
1E
100
AcDbEntity
  8
0
100
AcDbLine
 10
198.8115
 20
894.9124000000001
 30
0.0
 11
198.8115
 21
893.4124
 31
0.0
  0
LINE
  5
341
330
1E
100
AcDbEntity
  8
0
100
AcDbLine
 10
198.8115
 20
894.9124000000001
 30
0.0
 11
198.8115
 21
896.1123999999999
 31
0.0
  0
LINE
  5
342
330
1E
100
AcDbEntity
  8
0
100
AcDbLine
 10
198.8115
 20
893.4124
 30
0.0
 11
198.8115
 21
891.9124
 31
0.0
  0
LINE
  5
343
330
1E
100
AcDbEntity
  8
0
100
AcDbLine
 10
198.8115
 20
893.4124
 30
0.0
 11
198.8115
 21
894.9124000000001
 31
0.0
  0
LINE
  5
344
330
1E
100
AcDbEntity
  8
0
100
AcDbLine
 10
198.8115
 20
897.9124
 30
0.0
 11
199.3114999999999
 21
902.9124000000001
 31
0.0
  0
LINE
  5
345
330
1E
100
AcDbEntity
  8
0
100
AcDbLine
 10
198.8115
 20
897.9124
 30
0.0
 11
198.8115
 21
897.7123999999999
 31
0.0
  0
LINE
  5
346
330
1E
100
AcDbEntity
  8
0
100
AcDbLine
 10
199.0761129999999
 20
712.9824
 30
0.0
 11
199.430394
 21
713.1864
 31
0.0
  0
LINE
  5
34B
330
1E
100
AcDbEntity
  8
0
100
AcDbLine
 10
198.8115
 20
885.9124000000001
 30
0.0
 11
199.3114999999999
 21
880.9124
 31
0.0
  0
LINE
  5
34C
330
1E
100
AcDbEntity
  8
0
100
AcDbLine
 10
198.8115
 20
885.9124000000001
 30
0.0
 11
198.8115
 21
886.1124
 31
0.0
  0
LINE
  5
34D
330
1E
100
AcDbEntity
  8
0
100
AcDbLine
 10
198.8115
 20
271.9123999999999
 30
0.0
 11
199.3114999999999
 21
276.9124
 31
0.0
  0
LINE
  5
34E
330
1E
100
AcDbEntity
  8
0
100
AcDbLine
 10
198.8115
 20
271.9123999999999
 30
0.0
 11
198.8115
 21
271.7124
 31
0.0
  0
LINE
  5
34F
330
1E
100
AcDbEntity
  8
0
100
AcDbLine
 10
199.3114999999999
 20
276.9124
 30
0.0
 11
199.8115
 21
278.9124
 31
0.0
  0
LINE
  5
350
330
1E
100
AcDbEntity
  8
0
100
AcDbLine
 10
198.8115
 20
259.9123999999999
 30
0.0
 11
199.3114999999999
 21
254.9123999999999
 31
0.0
  0
LINE
  5
351
330
1E
100
AcDbEntity
  8
0
100
AcDbLine
 10
198.8115
 20
259.9123999999999
 30
0.0
 11
198.8115
 21
260.1123999999999
 31
0.0
  0
LINE
  5
352
330
1E
100
AcDbEntity
  8
0
100
AcDbLine
 10
199.8115
 20
259.4123999999999
 30
0.0
 11
199.8115
 21
256.7124
 31
0.0
  0
LINE
  5
353
330
1E
100
AcDbEntity
  8
0
100
AcDbLine
 10
199.8115
 20
259.4123999999999
 30
0.0
 11
199.8115
 21
262.6123999999999
 31
0.0
  0
LINE
  5
354
330
1E
100
AcDbEntity
  8
0
100
AcDbLine
 10
199.8115
 20
262.6123999999999
 30
0.0
 11
199.8115
 21
259.4123999999999
 31
0.0
  0
LINE
  5
355
330
1E
100
AcDbEntity
  8
0
100
AcDbLine
 10
199.8115
 20
262.6123999999999
 30
0.0
 11
199.8115
 21
265.9123999999999
 31
0.0
  0
LINE
  5
356
330
1E
100
AcDbEntity
  8
0
100
AcDbLine
 10
199.8115
 20
256.7124
 30
0.0
 11
199.8115
 21
254.6124
 31
0.0
  0
LINE
  5
357
330
1E
100
AcDbEntity
  8
0
100
AcDbLine
 10
199.8115
 20
256.7124
 30
0.0
 11
199.8115
 21
259.4123999999999
 31
0.0
  0
LINE
  5
358
330
1E
100
AcDbEntity
  8
0
100
AcDbLine
 10
199.8115
 20
254.6124
 30
0.0
 11
199.8115
 21
253.4123999999999
 31
0.0
  0
LINE
  5
359
330
1E
100
AcDbEntity
  8
0
100
AcDbLine
 10
199.8115
 20
254.6124
 30
0.0
 11
199.8115
 21
256.7124
 31
0.0
  0
LINE
  5
35A
330
1E
100
AcDbEntity
  8
0
100
AcDbLine
 10
199.8115
 20
253.4123999999999
 30
0.0
 11
199.8115
 21
252.9123999999999
 31
0.0
  0
LINE
  5
35B
330
1E
100
AcDbEntity
  8
0
100
AcDbLine
 10
199.8115
 20
253.4123999999999
 30
0.0
 11
199.8115
 21
254.6124
 31
0.0
  0
LINE
  5
35C
330
1E
100
AcDbEntity
  8
0
100
AcDbLine
 10
199.8115
 20
265.9123999999999
 30
0.0
 11
199.8115
 21
269.2124
 31
0.0
  0
LINE
  5
35D
330
1E
100
AcDbEntity
  8
0
100
AcDbLine
 10
199.8115
 20
265.9123999999999
 30
0.0
 11
199.8115
 21
262.6123999999999
 31
0.0
  0
LINE
  5
35E
330
1E
100
AcDbEntity
  8
0
100
AcDbLine
 10
199.8115
 20
277.2124
 30
0.0
 11
199.8115
 21
275.1123999999999
 31
0.0
  0
LINE
  5
35F
330
1E
100
AcDbEntity
  8
0
100
AcDbLine
 10
199.8115
 20
277.2124
 30
0.0
 11
199.8115
 21
278.4123999999999
 31
0.0
  0
LINE
  5
360
330
1E
100
AcDbEntity
  8
0
100
AcDbLine
 10
199.8115
 20
278.4123999999999
 30
0.0
 11
199.8115
 21
277.2124
 31
0.0
  0
LINE
  5
361
330
1E
100
AcDbEntity
  8
0
100
AcDbLine
 10
199.8115
 20
278.4123999999999
 30
0.0
 11
199.8115
 21
278.9124
 31
0.0
  0
LINE
  5
362
330
1E
100
AcDbEntity
  8
0
100
AcDbLine
 10
199.8115
 20
275.1123999999999
 30
0.0
 11
199.8115
 21
272.4123999999999
 31
0.0
  0
LINE
  5
363
330
1E
100
AcDbEntity
  8
0
100
AcDbLine
 10
199.8115
 20
275.1123999999999
 30
0.0
 11
199.8115
 21
277.2124
 31
0.0
  0
LINE
  5
364
330
1E
100
AcDbEntity
  8
0
100
AcDbLine
 10
199.8115
 20
272.4123999999999
 30
0.0
 11
199.8115
 21
269.2124
 31
0.0
  0
LINE
  5
365
330
1E
100
AcDbEntity
  8
0
100
AcDbLine
 10
199.8115
 20
272.4123999999999
 30
0.0
 11
199.8115
 21
275.1123999999999
 31
0.0
  0
LINE
  5
366
330
1E
100
AcDbEntity
  8
0
100
AcDbLine
 10
199.8115
 20
269.2124
 30
0.0
 11
199.8115
 21
265.9123999999999
 31
0.0
  0
LINE
  5
367
330
1E
100
AcDbEntity
  8
0
100
AcDbLine
 10
199.8115
 20
269.2124
 30
0.0
 11
199.8115
 21
272.4123999999999
 31
0.0
  0
LINE
  5
368
330
1E
100
AcDbEntity
  8
0
100
AcDbLine
 10
199.430394
 20
713.1864
 30
0.0
 11
199.634653
 21
713.3043999999999
 31
0.0
  0
LINE
  5
369
330
1E
100
AcDbEntity
  8
0
100
AcDbLine
 10
199.3114999999999
 20
880.9124
 30
0.0
 11
199.8115
 21
878.9124000000001
 31
0.0
  0
LINE
  5
36A
330
1E
100
AcDbEntity
  8
0
100
AcDbLine
 10
199.8115
 20
880.6124
 30
0.0
 11
199.8115
 21
882.7123999999999
 31
0.0
  0
LINE
  5
36B
330
1E
100
AcDbEntity
  8
0
100
AcDbLine
 10
199.8115
 20
880.6124
 30
0.0
 11
199.8115
 21
879.4124
 31
0.0
  0
LINE
  5
36C
330
1E
100
AcDbEntity
  8
0
100
AcDbLine
 10
199.8115
 20
879.4124
 30
0.0
 11
199.8115
 21
880.6124
 31
0.0
  0
LINE
  5
36D
330
1E
100
AcDbEntity
  8
0
100
AcDbLine
 10
199.8115
 20
879.4124
 30
0.0
 11
199.8115
 21
878.9124000000001
 31
0.0
  0
LINE
  5
36E
330
1E
100
AcDbEntity
  8
0
100
AcDbLine
 10
199.8115
 20
878.9124000000001
 30
0.0
 11
199.8115
 21
879.4124
 31
0.0
  0
LINE
  5
36F
330
1E
100
AcDbEntity
  8
0
100
AcDbLine
 10
199.8115
 20
878.9124000000001
 30
0.0
 11
209.8114999999999
 21
878.9124000000001
 31
0.0
  0
LINE
  5
370
330
1E
100
AcDbEntity
  8
0
100
AcDbLine
 10
199.8115
 20
882.7123999999999
 30
0.0
 11
199.8115
 21
885.4124
 31
0.0
  0
LINE
  5
371
330
1E
100
AcDbEntity
  8
0
100
AcDbLine
 10
199.8115
 20
882.7123999999999
 30
0.0
 11
199.8115
 21
880.6124
 31
0.0
  0
LINE
  5
372
330
1E
100
AcDbEntity
  8
0
100
AcDbLine
 10
199.8115
 20
898.4124000000001
 30
0.0
 11
199.8115
 21
901.1124
 31
0.0
  0
LINE
  5
373
330
1E
100
AcDbEntity
  8
0
100
AcDbLine
 10
199.8115
 20
898.4124000000001
 30
0.0
 11
199.8115
 21
895.2123999999999
 31
0.0
  0
LINE
  5
374
330
1E
100
AcDbEntity
  8
0
100
AcDbLine
 10
199.8115
 20
895.2123999999999
 30
0.0
 11
199.8115
 21
898.4124000000001
 31
0.0
  0
LINE
  5
375
330
1E
100
AcDbEntity
  8
0
100
AcDbLine
 10
199.8115
 20
895.2123999999999
 30
0.0
 11
199.8115
 21
891.9124
 31
0.0
  0
LINE
  5
376
330
1E
100
AcDbEntity
  8
0
100
AcDbLine
 10
199.3114999999999
 20
902.9124000000001
 30
0.0
 11
199.8115
 21
904.9124
 31
0.0
  0
LINE
  5
377
330
1E
100
AcDbEntity
  8
0
100
AcDbLine
 10
199.8115
 20
901.1124
 30
0.0
 11
199.8115
 21
903.2123999999999
 31
0.0
  0
LINE
  5
378
330
1E
100
AcDbEntity
  8
0
100
AcDbLine
 10
199.8115
 20
901.1124
 30
0.0
 11
199.8115
 21
898.4124000000001
 31
0.0
  0
LINE
  5
379
330
1E
100
AcDbEntity
  8
0
100
AcDbLine
 10
199.8115
 20
903.2123999999999
 30
0.0
 11
199.8115
 21
904.4124
 31
0.0
  0
LINE
  5
37A
330
1E
100
AcDbEntity
  8
0
100
AcDbLine
 10
199.8115
 20
903.2123999999999
 30
0.0
 11
199.8115
 21
901.1124
 31
0.0
  0
LINE
  5
37B
330
1E
100
AcDbEntity
  8
0
100
AcDbLine
 10
199.8115
 20
904.9124
 30
0.0
 11
220.3114999999999
 21
904.9124
 31
0.0
  0
LINE
  5
37C
330
1E
100
AcDbEntity
  8
0
100
AcDbLine
 10
199.8115
 20
904.9124
 30
0.0
 11
199.8115
 21
904.4124
 31
0.0
  0
LINE
  5
37D
330
1E
100
AcDbEntity
  8
0
100
AcDbLine
 10
199.8115
 20
904.4124
 30
0.0
 11
199.8115
 21
904.9124
 31
0.0
  0
LINE
  5
37E
330
1E
100
AcDbEntity
  8
0
100
AcDbLine
 10
199.8115
 20
904.4124
 30
0.0
 11
199.8115
 21
903.2123999999999
 31
0.0
  0
LINE
  5
37F
330
1E
100
AcDbEntity
  8
0
100
AcDbLine
 10
199.8115
 20
891.9124
 30
0.0
 11
199.8115
 21
888.6124
 31
0.0
  0
LINE
  5
380
330
1E
100
AcDbEntity
  8
0
100
AcDbLine
 10
199.8115
 20
891.9124
 30
0.0
 11
199.8115
 21
895.2123999999999
 31
0.0
  0
LINE
  5
381
330
1E
100
AcDbEntity
  8
0
100
AcDbLine
 10
199.8115
 20
885.4124
 30
0.0
 11
199.8115
 21
888.6124
 31
0.0
  0
LINE
  5
382
330
1E
100
AcDbEntity
  8
0
100
AcDbLine
 10
199.8115
 20
885.4124
 30
0.0
 11
199.8115
 21
882.7123999999999
 31
0.0
  0
LINE
  5
383
330
1E
100
AcDbEntity
  8
0
100
AcDbLine
 10
201.0943
 20
659.6223999999999
 30
0.0
 11
202.3625999999999
 21
660.3554
 31
0.0
  0
LINE
  5
384
330
1E
100
AcDbEntity
  8
0
100
AcDbLine
 10
201.0943
 20
659.6223999999999
 30
0.0
 11
212.1757
 21
640.4294
 31
0.0
  0
LINE
  5
385
330
1E
100
AcDbEntity
  8
0
100
AcDbLine
 10
200.19003795733
 20
661.188622960725
 30
0.0
 11
204.93334
 21
650.1284
 31
0.0
  0
LINE
  5
387
330
1E
100
AcDbEntity
  8
0
100
AcDbLine
 10
202.8166999999999
 20
647.8324
 30
0.0
 11
203.4387
 21
643.2033999999999
 31
0.0
  0
LINE
  5
388
330
1E
100
AcDbEntity
  8
0
100
AcDbLine
 10
202.8166999999999
 20
647.8324
 30
0.0
 11
203.3976999999999
 21
652.5743999999999
 31
0.0
  0
LINE
  5
389
330
1E
100
AcDbEntity
  8
0
100
AcDbLine
 10
202.3625999999999
 20
660.3554
 30
0.0
 11
204.8925
 21
661.8153999999999
 31
0.0
  0
LINE
  5
38D
330
1E
100
AcDbEntity
  8
0
100
AcDbLine
 10
200.57615
 20
710.3844
 30
0.0
 11
200.93049
 21
710.5883999999999
 31
0.0
  0
LINE
  5
38E
330
1E
100
AcDbEntity
  8
0
100
AcDbLine
 10
200.8260299999999
 20
709.9514
 30
0.0
 11
200.91749
 21
710.0034
 31
0.0
  0
LINE
  5
38F
330
1E
100
AcDbEntity
  8
0
100
AcDbLine
 10
200.93049
 20
710.5883999999999
 30
0.0
 11
201.1346899999999
 21
710.7064
 31
0.0
  0
LINE
  5
390
330
1E
100
AcDbEntity
  8
0
100
AcDbLine
 10
200.884918616645
 20
709.984881391488
 30
0.0
 11
222.7449
 21
672.1223999999999
 31
0.0
  0
LINE
  5
391
330
1E
100
AcDbEntity
  8
0
100
AcDbLine
 10
200.884918616645
 20
709.984881391488
 30
0.0
 11
222.7449
 21
672.1223999999999
 31
0.0
  0
LINE
  5
393
330
1E
100
AcDbEntity
  8
0
100
AcDbLine
 10
199.8115
 20
888.6124
 30
0.0
 11
199.8115
 21
891.9124
 31
0.0
  0
LINE
  5
394
330
1E
100
AcDbEntity
  8
0
100
AcDbLine
 10
199.8115
 20
888.6124
 30
0.0
 11
199.8115
 21
885.4124
 31
0.0
  0
LINE
  5
395
330
1E
100
AcDbEntity
  8
0
100
AcDbLine
 10
199.8115
 20
278.9124
 30
0.0
 11
228.6772325793395
 21
278.9124
 31
0.0
  0
LINE
  5
396
330
1E
100
AcDbEntity
  8
0
100
AcDbLine
 10
199.8115
 20
278.9124
 30
0.0
 11
199.8115
 21
278.4123999999999
 31
0.0
  0
LINE
  5
397
330
1E
100
AcDbEntity
  8
0
100
AcDbLine
 10
199.3114999999999
 20
254.9123999999999
 30
0.0
 11
199.8115
 21
252.9123999999999
 31
0.0
  0
LINE
  5
398
330
1E
100
AcDbEntity
  8
0
100
AcDbLine
 10
199.8115
 20
252.9123999999999
 30
0.0
 11
220.3114999999999
 21
252.9123999999999
 31
0.0
  0
LINE
  5
399
330
1E
100
AcDbEntity
  8
0
100
AcDbLine
 10
199.8115
 20
252.9123999999999
 30
0.0
 11
199.8115
 21
253.4123999999999
 31
0.0
  0
LINE
  5
39A
330
1E
100
AcDbEntity
  8
0
100
AcDbLine
 10
237.6513
 20
0.0876000000000253
 30
0.0
 11
240.5572999999999
 21
0.5959000000000251
 31
0.0
  0
LINE
  5
39B
330
1E
100
AcDbEntity
  8
0
100
AcDbLine
 10
242.9492999999999
 20
1.546900000000019
 30
0.0
 11
244.3782999999999
 21
2.920700000000019
 31
0.0
  0
LINE
  5
39C
330
1E
100
AcDbEntity
  8
0
100
AcDbLine
 10
240.5572999999999
 20
0.5959000000000251
 30
0.0
 11
242.9492999999999
 21
1.546900000000019
 31
0.0
  0
LINE
  5
39D
330
1E
100
AcDbEntity
  8
0
100
AcDbLine
 10
234.5082999999999
 20
0.216500000000013
 30
0.0
 11
237.6513
 21
0.0876000000000253
 31
0.0
  0
LINE
  5
39E
330
1E
100
AcDbEntity
  8
0
100
AcDbLine
 10
231.7093
 20
0.9192000000000192
 30
0.0
 11
234.5082999999999
 21
0.216500000000013
 31
0.0
  0
LINE
  5
39F
330
1E
100
AcDbEntity
  8
0
100
AcDbLine
 10
243.6113
 20
5.890100000000018
 30
0.0
 11
244.6413
 21
4.46250000000003
 31
0.0
  0
LINE
  5
3A0
330
1E
100
AcDbEntity
  8
0
100
AcDbLine
 10
241.6752999999999
 20
7.066200000000029
 30
0.0
 11
243.6113
 21
5.890100000000018
 31
0.0
  0
LINE
  5
3A1
330
1E
100
AcDbEntity
  8
0
100
AcDbLine
 10
238.8813
 20
7.770000000000019
 30
0.0
 11
241.6752999999999
 21
7.066200000000029
 31
0.0
  0
LINE
  5
3A2
330
1E
100
AcDbEntity
  8
0
100
AcDbLine
 10
235.7383
 20
7.901100000000019
 30
0.0
 11
238.8813
 21
7.770000000000019
 31
0.0
  0
LINE
  5
3A3
330
1E
100
AcDbEntity
  8
0
100
AcDbLine
 10
232.8283
 20
7.395900000000018
 30
0.0
 11
235.7383
 21
7.901100000000019
 31
0.0
  0
LINE
  5
3A4
330
1E
100
AcDbEntity
  8
0
100
AcDbLine
 10
230.4333
 20
6.443800000000019
 30
0.0
 11
232.8283
 21
7.395900000000018
 31
0.0
  0
LINE
  5
3A5
330
1E
100
AcDbEntity
  8
0
100
AcDbLine
 10
229.0003
 20
5.070100000000019
 30
0.0
 11
230.4333
 21
6.443800000000019
 31
0.0
  0
LINE
  5
3A6
330
1E
100
AcDbEntity
  8
0
100
AcDbLine
 10
244.3782999999999
 20
2.920700000000019
 30
0.0
 11
244.6413
 21
4.46250000000003
 31
0.0
  0
LINE
  5
3A7
330
1E
100
AcDbEntity
  8
0
100
AcDbLine
 10
229.7692999999999
 20
2.095400000000029
 30
0.0
 11
231.7093
 21
0.9192000000000192
 31
0.0
  0
LINE
  5
3A8
330
1E
100
AcDbEntity
  8
0
100
AcDbLine
 10
228.7352999999999
 20
3.525100000000029
 30
0.0
 11
229.7692999999999
 21
2.095400000000029
 31
0.0
  0
LINE
  5
3A9
330
1E
100
AcDbEntity
  8
0
100
AcDbLine
 10
228.7352999999999
 20
3.525100000000029
 30
0.0
 11
229.0003
 21
5.070100000000019
 31
0.0
  0
LINE
  5
3AA
330
1E
100
AcDbEntity
  8
0
100
AcDbLine
 10
260.8115
 20
243.4124
 30
0.0
 11
260.8115
 21
240.8123999999999
 31
0.0
  0
LINE
  5
3AB
330
1E
100
AcDbEntity
  8
0
100
AcDbLine
 10
260.8115
 20
243.4124
 30
0.0
 11
260.8115
 21
247.6123999999999
 31
0.0
  0
LINE
  5
3AC
330
1E
100
AcDbEntity
  8
0
100
AcDbLine
 10
260.8115
 20
240.8123999999999
 30
0.0
 11
260.8115
 21
239.9124
 31
0.0
  0
LINE
  5
3AD
330
1E
100
AcDbEntity
  8
0
100
AcDbLine
 10
260.8115
 20
240.8123999999999
 30
0.0
 11
260.8115
 21
243.4124
 31
0.0
  0
LINE
  5
3AE
330
1E
100
AcDbEntity
  8
0
100
AcDbLine
 10
220.3114999999999
 20
253.4123999999999
 30
0.0
 11
220.3114999999999
 21
252.9123999999999
 31
0.0
  0
LINE
  5
3AF
330
1E
100
AcDbEntity
  8
0
100
AcDbLine
 10
220.3114999999999
 20
253.4123999999999
 30
0.0
 11
220.3114999999999
 21
254.6124
 31
0.0
  0
LINE
  5
3B0
330
1E
100
AcDbEntity
  8
0
100
AcDbLine
 10
221.3115
 20
253.4123999999999
 30
0.0
 11
221.3115
 21
252.9123999999999
 31
0.0
  0
LINE
  5
3B1
330
1E
100
AcDbEntity
  8
0
100
AcDbLine
 10
221.3115
 20
253.4123999999999
 30
0.0
 11
221.3115
 21
254.6124
 31
0.0
  0
LINE
  5
3B2
330
1E
100
AcDbEntity
  8
0
100
AcDbLine
 10
220.3114999999999
 20
252.9123999999999
 30
0.0
 11
220.8114999999999
 21
253.4123999999999
 31
0.0
  0
LINE
  5
3B3
330
1E
100
AcDbEntity
  8
0
100
AcDbLine
 10
220.3114999999999
 20
252.9123999999999
 30
0.0
 11
220.3114999999999
 21
253.4123999999999
 31
0.0
  0
LINE
  5
3B4
330
1E
100
AcDbEntity
  8
0
100
AcDbLine
 10
220.3114999999999
 20
259.4123999999999
 30
0.0
 11
220.3114999999999
 21
256.7124
 31
0.0
  0
LINE
  5
3B5
330
1E
100
AcDbEntity
  8
0
100
AcDbLine
 10
220.3114999999999
 20
259.4123999999999
 30
0.0
 11
220.3114999999999
 21
262.6123999999999
 31
0.0
  0
LINE
  5
3B6
330
1E
100
AcDbEntity
  8
0
100
AcDbLine
 10
220.3114999999999
 20
262.6123999999999
 30
0.0
 11
220.3114999999999
 21
259.4123999999999
 31
0.0
  0
LINE
  5
3B7
330
1E
100
AcDbEntity
  8
0
100
AcDbLine
 10
220.3114999999999
 20
262.6123999999999
 30
0.0
 11
220.3114999999999
 21
265.9123999999999
 31
0.0
  0
LINE
  5
3B8
330
1E
100
AcDbEntity
  8
0
100
AcDbLine
 10
220.3114999999999
 20
256.7124
 30
0.0
 11
220.3114999999999
 21
254.6124
 31
0.0
  0
LINE
  5
3B9
330
1E
100
AcDbEntity
  8
0
100
AcDbLine
 10
220.3114999999999
 20
256.7124
 30
0.0
 11
220.3114999999999
 21
259.4123999999999
 31
0.0
  0
LINE
  5
3BA
330
1E
100
AcDbEntity
  8
0
100
AcDbLine
 10
220.3114999999999
 20
254.6124
 30
0.0
 11
220.3114999999999
 21
253.4123999999999
 31
0.0
  0
LINE
  5
3BB
330
1E
100
AcDbEntity
  8
0
100
AcDbLine
 10
220.3114999999999
 20
254.6124
 30
0.0
 11
220.3114999999999
 21
256.7124
 31
0.0
  0
LINE
  5
3BC
330
1E
100
AcDbEntity
  8
0
100
AcDbLine
 10
220.3114999999999
 20
265.9123999999999
 30
0.0
 11
220.3114999999999
 21
269.2124
 31
0.0
  0
LINE
  5
3BD
330
1E
100
AcDbEntity
  8
0
100
AcDbLine
 10
220.3114999999999
 20
265.9123999999999
 30
0.0
 11
220.3114999999999
 21
262.6123999999999
 31
0.0
  0
LINE
  5
3BE
330
1E
100
AcDbEntity
  8
0
100
AcDbLine
 10
209.8114999999999
 20
278.9124
 30
0.0
 11
209.8114999999999
 21
633.8598601406165
 31
0.0
  0
LINE
  5
3BF
330
1E
100
AcDbEntity
  8
0
100
AcDbLine
 10
208.0467
 20
635.2214
 30
0.0
 11
210.8491162439599
 21
633.0593411725209
 31
0.0
  0
LINE
  5
3C0
330
1E
100
AcDbEntity
  8
0
100
AcDbLine
 10
205.2229999999999
 20
638.9124
 30
0.0
 11
208.0467
 21
635.2214
 31
0.0
  0
LINE
  5
3C1
330
1E
100
AcDbEntity
  8
0
100
AcDbLine
 10
212.1757
 20
640.4294
 30
0.0
 11
215.3919999999999
 21
642.3383999999999
 31
0.0
  0
LINE
  5
3C2
330
1E
100
AcDbEntity
  8
0
100
AcDbLine
 10
212.1757
 20
640.4294
 30
0.0
 11
212.8918
 21
642.1173999999999
 31
0.0
  0
LINE
  5
3C3
330
1E
100
AcDbEntity
  8
0
100
AcDbLine
 10
215.3919999999999
 20
642.3383999999999
 30
0.0
 11
216.7731999999999
 21
644.1663999999999
 31
0.0
  0
LINE
  5
3C4
330
1E
100
AcDbEntity
  8
0
100
AcDbLine
 10
212.8918
 20
642.1173999999999
 30
0.0
 11
214.6274
 21
644.9543999999999
 31
0.0
  0
LINE
  5
3C5
330
1E
100
AcDbEntity
  8
0
100
AcDbLine
 10
219.0342999999999
 20
602.9353999999999
 30
0.0
 11
223.6333
 21
578.7274
 31
0.0
  0
LINE
  5
3C6
330
1E
100
AcDbEntity
  8
0
100
AcDbLine
 10
212.8343
 20
627.3314
 30
0.0
 11
219.0342999999999
 21
602.9353999999999
 31
0.0
  0
LINE
  5
3C8
330
1E
100
AcDbEntity
  8
0
100
AcDbLine
 10
220.3114999999999
 20
278.9124
 30
0.0
 11
220.3114999999999
 21
269.2124
 31
0.0
  0
LINE
  5
3C9
330
1E
100
AcDbEntity
  8
0
100
AcDbLine
 10
220.3114999999999
 20
269.2124
 30
0.0
 11
220.3114999999999
 21
265.9123999999999
 31
0.0
  0
LINE
  5
3CA
330
1E
100
AcDbEntity
  8
0
100
AcDbLine
 10
220.3114999999999
 20
269.2124
 30
0.0
 11
220.3114999999999
 21
278.9124
 31
0.0
  0
LINE
  5
3CB
330
1E
100
AcDbEntity
  8
0
100
AcDbLine
 10
220.8114999999999
 20
259.7123999999999
 30
0.0
 11
220.8114999999999
 21
257.1123999999999
 31
0.0
  0
LINE
  5
3CC
330
1E
100
AcDbEntity
  8
0
100
AcDbLine
 10
220.8114999999999
 20
259.7123999999999
 30
0.0
 11
220.8114999999999
 21
262.7124
 31
0.0
  0
LINE
  5
3CD
330
1E
100
AcDbEntity
  8
0
100
AcDbLine
 10
220.8114999999999
 20
262.7124
 30
0.0
 11
220.8114999999999
 21
259.7123999999999
 31
0.0
  0
LINE
  5
3CE
330
1E
100
AcDbEntity
  8
0
100
AcDbLine
 10
220.8114999999999
 20
262.7124
 30
0.0
 11
220.8114999999999
 21
265.9123999999999
 31
0.0
  0
LINE
  5
3CF
330
1E
100
AcDbEntity
  8
0
100
AcDbLine
 10
220.8114999999999
 20
257.1123999999999
 30
0.0
 11
220.8114999999999
 21
255.1124
 31
0.0
  0
LINE
  5
3D0
330
1E
100
AcDbEntity
  8
0
100
AcDbLine
 10
220.8114999999999
 20
257.1123999999999
 30
0.0
 11
220.8114999999999
 21
259.7123999999999
 31
0.0
  0
LINE
  5
3D1
330
1E
100
AcDbEntity
  8
0
100
AcDbLine
 10
220.8114999999999
 20
255.1124
 30
0.0
 11
220.8114999999999
 21
253.9124
 31
0.0
  0
LINE
  5
3D2
330
1E
100
AcDbEntity
  8
0
100
AcDbLine
 10
220.8114999999999
 20
255.1124
 30
0.0
 11
220.8114999999999
 21
257.1123999999999
 31
0.0
  0
LINE
  5
3D3
330
1E
100
AcDbEntity
  8
0
100
AcDbLine
 10
220.8114999999999
 20
253.9124
 30
0.0
 11
220.8114999999999
 21
253.4123999999999
 31
0.0
  0
LINE
  5
3D4
330
1E
100
AcDbEntity
  8
0
100
AcDbLine
 10
220.8114999999999
 20
253.9124
 30
0.0
 11
220.8114999999999
 21
255.1124
 31
0.0
  0
LINE
  5
3D5
330
1E
100
AcDbEntity
  8
0
100
AcDbLine
 10
221.3115
 20
259.4123999999999
 30
0.0
 11
221.3115
 21
256.7124
 31
0.0
  0
LINE
  5
3D6
330
1E
100
AcDbEntity
  8
0
100
AcDbLine
 10
221.3115
 20
259.4123999999999
 30
0.0
 11
221.3115
 21
262.6123999999999
 31
0.0
  0
LINE
  5
3D7
330
1E
100
AcDbEntity
  8
0
100
AcDbLine
 10
221.3115
 20
262.6123999999999
 30
0.0
 11
221.3115
 21
259.4123999999999
 31
0.0
  0
LINE
  5
3D8
330
1E
100
AcDbEntity
  8
0
100
AcDbLine
 10
221.3115
 20
262.6123999999999
 30
0.0
 11
221.3115
 21
265.9123999999999
 31
0.0
  0
LINE
  5
3D9
330
1E
100
AcDbEntity
  8
0
100
AcDbLine
 10
221.3115
 20
256.7124
 30
0.0
 11
221.3115
 21
254.6124
 31
0.0
  0
LINE
  5
3DA
330
1E
100
AcDbEntity
  8
0
100
AcDbLine
 10
221.3115
 20
256.7124
 30
0.0
 11
221.3115
 21
259.4123999999999
 31
0.0
  0
LINE
  5
3DB
330
1E
100
AcDbEntity
  8
0
100
AcDbLine
 10
221.3115
 20
254.6124
 30
0.0
 11
221.3115
 21
253.4123999999999
 31
0.0
  0
LINE
  5
3DC
330
1E
100
AcDbEntity
  8
0
100
AcDbLine
 10
221.3115
 20
254.6124
 30
0.0
 11
221.3115
 21
256.7124
 31
0.0
  0
LINE
  5
3DD
330
1E
100
AcDbEntity
  8
0
100
AcDbLine
 10
220.8114999999999
 20
265.9123999999999
 30
0.0
 11
220.8114999999999
 21
269.1123999999999
 31
0.0
  0
LINE
  5
3DE
330
1E
100
AcDbEntity
  8
0
100
AcDbLine
 10
220.8114999999999
 20
265.9123999999999
 30
0.0
 11
220.8114999999999
 21
262.7124
 31
0.0
  0
LINE
  5
3DF
330
1E
100
AcDbEntity
  8
0
100
AcDbLine
 10
220.8114999999999
 20
269.1123999999999
 30
0.0
 11
220.8114999999999
 21
265.9123999999999
 31
0.0
  0
LINE
  5
3E0
330
1E
100
AcDbEntity
  8
0
100
AcDbLine
 10
220.8114999999999
 20
269.1123999999999
 30
0.0
 11
220.8114999999999
 21
278.9124
 31
0.0
  0
LINE
  5
3E1
330
1E
100
AcDbEntity
  8
0
100
AcDbLine
 10
221.3115
 20
265.9123999999999
 30
0.0
 11
221.3115
 21
269.2124
 31
0.0
  0
LINE
  5
3E2
330
1E
100
AcDbEntity
  8
0
100
AcDbLine
 10
221.3115
 20
265.9123999999999
 30
0.0
 11
221.3115
 21
262.6123999999999
 31
0.0
  0
LINE
  5
3E3
330
1E
100
AcDbEntity
  8
0
100
AcDbLine
 10
221.3115
 20
278.9124
 30
0.0
 11
221.3115
 21
269.2124
 31
0.0
  0
LINE
  5
3E4
330
1E
100
AcDbEntity
  8
0
100
AcDbLine
 10
221.3115
 20
269.2124
 30
0.0
 11
221.3115
 21
265.9123999999999
 31
0.0
  0
LINE
  5
3E5
330
1E
100
AcDbEntity
  8
0
100
AcDbLine
 10
221.3115
 20
269.2124
 30
0.0
 11
221.3115
 21
278.9124
 31
0.0
  0
LINE
  5
3E6
330
1E
100
AcDbEntity
  8
0
100
AcDbLine
 10
220.8114999999999
 20
253.4123999999999
 30
0.0
 11
221.3115
 21
252.9123999999999
 31
0.0
  0
LINE
  5
3E7
330
1E
100
AcDbEntity
  8
0
100
AcDbLine
 10
220.8114999999999
 20
253.4123999999999
 30
0.0
 11
220.8114999999999
 21
253.9124
 31
0.0
  0
LINE
  5
3E8
330
1E
100
AcDbEntity
  8
0
100
AcDbLine
 10
244.596585279394
 20
280.095983611342
 30
0.0
 11
246.8115
 21
280.4123999999999
 31
0.0
  0
LINE
  5
3E9
330
1E
100
AcDbEntity
  8
0
100
AcDbLine
 10
228.3333
 20
525.4303999999999
 30
0.0
 11
228.7352999999999
 21
3.52510000000008
 31
0.0
  0
LINE
  5
3EA
330
1E
100
AcDbEntity
  8
0
100
AcDbLine
 10
228.3333
 20
525.4303999999999
 30
0.0
 11
228.7352999999999
 21
3.525100000000029
 31
0.0
  0
LINE
  5
3EB
330
1E
100
AcDbEntity
  8
0
100
AcDbLine
 10
227.750734825652
 20
631.491897867962
 30
0.0
 11
229.8115
 21
632.3243999999999
 31
0.0
  0
LINE
  5
3EC
330
1E
100
AcDbEntity
  8
0
100
AcDbLine
 10
229.8115
 20
632.3243999999999
 30
0.0
 11
233.4780999999999
 21
635.1893999999999
 31
0.0
  0
LINE
  5
3ED
330
1E
100
AcDbEntity
  8
0
100
AcDbLine
 10
226.5322999999999
 20
557.0313999999999
 30
0.0
 11
228.3333
 21
525.4303999999999
 31
0.0
  0
LINE
  5
3EE
330
1E
100
AcDbEntity
  8
0
100
AcDbLine
 10
223.6333
 20
578.7274
 30
0.0
 11
226.5322999999999
 21
557.0313999999999
 31
0.0
  0
LINE
  5
3EF
330
1E
100
AcDbEntity
  8
0
100
AcDbLine
 10
225.8115
 20
639.2523999999999
 30
0.0
 11
228.1484999999999
 21
640.7473999999999
 31
0.0
  0
LINE
  5
3F0
330
1E
100
AcDbEntity
  8
0
100
AcDbLine
 10
225.408223252989
 20
639.043534825999
 30
0.0
 11
225.8115
 21
639.2523999999999
 31
0.0
  0
LINE
  5
3F3
330
1E
100
AcDbEntity
  8
0
100
AcDbLine
 10
230.2385
 20
642.3243999999999
 30
0.0
 11
231.9565
 21
643.9394
 31
0.0
  0
LINE
  5
3F4
330
1E
100
AcDbEntity
  8
0
100
AcDbLine
 10
228.1484999999999
 20
640.7473999999999
 30
0.0
 11
230.2385
 21
642.3243999999999
 31
0.0
  0
LINE
  5
3F5
330
1E
100
AcDbEntity
  8
0
100
AcDbLine
 10
226.7333
 20
635.3384
 30
0.0
 11
233.5332999999999
 21
609.6303999999999
 31
0.0
  0
LINE
  5
3F6
330
1E
100
AcDbEntity
  8
0
100
AcDbLine
 10
231.8115
 20
633.8871556864669
 30
0.0
 11
231.8115
 21
616.1398168235299
 31
0.0
  0
LINE
  5
3F7
330
1E
100
AcDbEntity
  8
0
100
AcDbLine
 10
244.3332999999999
 20
525.4343999999999
 30
0.0
 11
244.6413
 21
4.46250000000003
 31
0.0
  0
LINE
  5
3F8
330
1E
100
AcDbEntity
  8
0
100
AcDbLine
 10
244.3332999999999
 20
525.4343999999999
 30
0.0
 11
244.6413
 21
4.46250000000005
 31
0.0
  0
LINE
  5
3F9
330
1E
100
AcDbEntity
  8
0
100
AcDbLine
 10
242.3332999999999
 20
559.8343999999999
 30
0.0
 11
244.3332999999999
 21
525.4343999999999
 31
0.0
  0
LINE
  5
3FA
330
1E
100
AcDbEntity
  8
0
100
AcDbLine
 10
238.6333
 20
584.2323999999999
 30
0.0
 11
242.3332999999999
 21
559.8343999999999
 31
0.0
  0
LINE
  5
3FB
330
1E
100
AcDbEntity
  8
0
100
AcDbLine
 10
233.4780999999999
 20
635.1893999999999
 30
0.0
 11
236.3554
 21
638.8454
 31
0.0
  0
LINE
  5
3FC
330
1E
100
AcDbEntity
  8
0
100
AcDbLine
 10
236.3554
 20
638.8454
 30
0.0
 11
238.2201
 21
643.2474
 31
0.0
  0
LINE
  5
3FD
330
1E
100
AcDbEntity
  8
0
100
AcDbLine
 10
233.5332999999999
 20
609.6303999999999
 30
0.0
 11
238.6333
 21
584.2323999999999
 31
0.0
  0
LINE
  5
3FE
330
1E
100
AcDbEntity
  8
0
100
AcDbLine
 10
231.8115
 20
616.1398168235299
 30
0.0
 11
231.8115
 21
633.8871556864669
 31
0.0
  0
LINE
  5
3FF
330
1E
100
AcDbEntity
  8
0
100
AcDbLine
 10
246.8115
 20
280.4123999999999
 30
0.0
 11
253.3115
 21
282.4123999999999
 31
0.0
  0
LINE
  5
400
330
1E
100
AcDbEntity
  8
0
100
AcDbLine
 10
221.3115
 20
252.9123999999999
 30
0.0
 11
228.6972592010269
 21
252.9123999999999
 31
0.0
  0
LINE
  5
401
330
1E
100
AcDbEntity
  8
0
100
AcDbLine
 10
221.3115
 20
252.9123999999999
 30
0.0
 11
221.3115
 21
253.4123999999999
 31
0.0
  0
LINE
  5
402
330
1E
100
AcDbEntity
  8
0
100
AcDbLine
 10
244.613357442114
 20
251.7264203654123
 30
0.0
 11
246.8115
 21
251.4123999999999
 31
0.0
  0
LINE
  5
403
330
1E
100
AcDbEntity
  8
0
100
AcDbLine
 10
253.3115
 20
282.4123999999999
 30
0.0
 11
257.3115
 21
284.9123999999999
 31
0.0
  0
LINE
  5
404
330
1E
100
AcDbEntity
  8
0
100
AcDbLine
 10
257.3115
 20
284.9123999999999
 30
0.0
 11
259.8115
 21
288.4123999999999
 31
0.0
  0
LINE
  5
405
330
1E
100
AcDbEntity
  8
0
100
AcDbLine
 10
246.8115
 20
251.4123999999999
 30
0.0
 11
253.3115
 21
249.4123999999999
 31
0.0
  0
LINE
  5
406
330
1E
100
AcDbEntity
  8
0
100
AcDbLine
 10
253.3115
 20
249.4123999999999
 30
0.0
 11
257.3115
 21
246.9123999999999
 31
0.0
  0
LINE
  5
407
330
1E
100
AcDbEntity
  8
0
100
AcDbLine
 10
260.8115
 20
253.0124
 30
0.0
 11
260.8115
 21
247.6123999999999
 31
0.0
  0
LINE
  5
408
330
1E
100
AcDbEntity
  8
0
100
AcDbLine
 10
260.8115
 20
253.0124
 30
0.0
 11
260.8115
 21
259.2124
 31
0.0
  0
LINE
  5
409
330
1E
100
AcDbEntity
  8
0
100
AcDbLine
 10
260.8115
 20
259.2124
 30
0.0
 11
260.8115
 21
253.0124
 31
0.0
  0
LINE
  5
40A
330
1E
100
AcDbEntity
  8
0
100
AcDbLine
 10
260.8115
 20
259.2124
 30
0.0
 11
260.8115
 21
265.9123999999999
 31
0.0
  0
LINE
  5
40B
330
1E
100
AcDbEntity
  8
0
100
AcDbLine
 10
260.8115
 20
247.6123999999999
 30
0.0
 11
260.8115
 21
243.4124
 31
0.0
  0
LINE
  5
40C
330
1E
100
AcDbEntity
  8
0
100
AcDbLine
 10
260.8115
 20
247.6123999999999
 30
0.0
 11
260.8115
 21
253.0124
 31
0.0
  0
LINE
  5
40D
330
1E
100
AcDbEntity
  8
0
100
AcDbLine
 10
260.8115
 20
265.9123999999999
 30
0.0
 11
260.8115
 21
272.6123999999999
 31
0.0
  0
LINE
  5
40E
330
1E
100
AcDbEntity
  8
0
100
AcDbLine
 10
260.8115
 20
265.9123999999999
 30
0.0
 11
260.8115
 21
259.2124
 31
0.0
  0
LINE
  5
40F
330
1E
100
AcDbEntity
  8
0
100
AcDbLine
 10
260.8115
 20
288.4123999999999
 30
0.0
 11
260.8115
 21
284.2124
 31
0.0
  0
LINE
  5
410
330
1E
100
AcDbEntity
  8
0
100
AcDbLine
 10
260.8115
 20
288.4123999999999
 30
0.0
 11
260.8115
 21
291.0124
 31
0.0
  0
LINE
  5
411
330
1E
100
AcDbEntity
  8
0
100
AcDbLine
 10
260.8115
 20
291.0124
 30
0.0
 11
260.8115
 21
288.4123999999999
 31
0.0
  0
LINE
  5
412
330
1E
100
AcDbEntity
  8
0
100
AcDbLine
 10
260.8115
 20
291.0124
 30
0.0
 11
260.8115
 21
291.9124
 31
0.0
  0
LINE
  5
413
330
1E
100
AcDbEntity
  8
0
100
AcDbLine
 10
260.8115
 20
284.2124
 30
0.0
 11
260.8115
 21
278.8124
 31
0.0
  0
LINE
  5
414
330
1E
100
AcDbEntity
  8
0
100
AcDbLine
 10
260.8115
 20
284.2124
 30
0.0
 11
260.8115
 21
288.4123999999999
 31
0.0
  0
LINE
  5
415
330
1E
100
AcDbEntity
  8
0
100
AcDbLine
 10
260.8115
 20
278.8124
 30
0.0
 11
260.8115
 21
272.6123999999999
 31
0.0
  0
LINE
  5
416
330
1E
100
AcDbEntity
  8
0
100
AcDbLine
 10
260.8115
 20
278.8124
 30
0.0
 11
260.8115
 21
284.2124
 31
0.0
  0
LINE
  5
417
330
1E
100
AcDbEntity
  8
0
100
AcDbLine
 10
260.8115
 20
272.6123999999999
 30
0.0
 11
260.8115
 21
265.9123999999999
 31
0.0
  0
LINE
  5
418
330
1E
100
AcDbEntity
  8
0
100
AcDbLine
 10
260.8115
 20
272.6123999999999
 30
0.0
 11
260.8115
 21
278.8124
 31
0.0
  0
LINE
  5
419
330
1E
100
AcDbEntity
  8
0
100
AcDbLine
 10
259.8115
 20
288.4123999999999
 30
0.0
 11
260.8115
 21
291.9124
 31
0.0
  0
LINE
  5
41A
330
1E
100
AcDbEntity
  8
0
100
AcDbLine
 10
260.8115
 20
291.9124
 30
0.0
 11
262.8115
 21
291.9124
 31
0.0
  0
LINE
  5
41B
330
1E
100
AcDbEntity
  8
0
100
AcDbLine
 10
260.8115
 20
291.9124
 30
0.0
 11
260.8115
 21
291.0124
 31
0.0
  0
LINE
  5
41C
330
1E
100
AcDbEntity
  8
0
100
AcDbLine
 10
257.3115
 20
246.9123999999999
 30
0.0
 11
259.8115
 21
243.4124
 31
0.0
  0
LINE
  5
41D
330
1E
100
AcDbEntity
  8
0
100
AcDbLine
 10
259.8115
 20
243.4124
 30
0.0
 11
260.8115
 21
239.9124
 31
0.0
  0
LINE
  5
41E
330
1E
100
AcDbEntity
  8
0
100
AcDbLine
 10
262.8115
 20
239.9124
 30
0.0
 11
262.8115
 21
240.8123999999999
 31
0.0
  0
LINE
  5
41F
330
1E
100
AcDbEntity
  8
0
100
AcDbLine
 10
262.8115
 20
253.0124
 30
0.0
 11
262.8115
 21
247.6123999999999
 31
0.0
  0
LINE
  5
420
330
1E
100
AcDbEntity
  8
0
100
AcDbLine
 10
262.8115
 20
253.0124
 30
0.0
 11
262.8115
 21
259.2124
 31
0.0
  0
LINE
  5
421
330
1E
100
AcDbEntity
  8
0
100
AcDbLine
 10
262.8115
 20
259.2124
 30
0.0
 11
262.8115
 21
253.0124
 31
0.0
  0
LINE
  5
422
330
1E
100
AcDbEntity
  8
0
100
AcDbLine
 10
262.8115
 20
259.2124
 30
0.0
 11
262.8115
 21
265.9123999999999
 31
0.0
  0
LINE
  5
423
330
1E
100
AcDbEntity
  8
0
100
AcDbLine
 10
262.8115
 20
247.6123999999999
 30
0.0
 11
262.8115
 21
243.4124
 31
0.0
  0
LINE
  5
424
330
1E
100
AcDbEntity
  8
0
100
AcDbLine
 10
262.8115
 20
247.6123999999999
 30
0.0
 11
262.8115
 21
253.0124
 31
0.0
  0
LINE
  5
425
330
1E
100
AcDbEntity
  8
0
100
AcDbLine
 10
262.8115
 20
243.4124
 30
0.0
 11
262.8115
 21
240.8123999999999
 31
0.0
  0
LINE
  5
426
330
1E
100
AcDbEntity
  8
0
100
AcDbLine
 10
262.8115
 20
243.4124
 30
0.0
 11
262.8115
 21
247.6123999999999
 31
0.0
  0
LINE
  5
427
330
1E
100
AcDbEntity
  8
0
100
AcDbLine
 10
262.8115
 20
240.8123999999999
 30
0.0
 11
262.8115
 21
239.9124
 31
0.0
  0
LINE
  5
428
330
1E
100
AcDbEntity
  8
0
100
AcDbLine
 10
262.8115
 20
240.8123999999999
 30
0.0
 11
262.8115
 21
243.4124
 31
0.0
  0
LINE
  5
429
330
1E
100
AcDbEntity
  8
0
100
AcDbLine
 10
262.8115
 20
265.9123999999999
 30
0.0
 11
262.8115
 21
272.6123999999999
 31
0.0
  0
LINE
  5
42A
330
1E
100
AcDbEntity
  8
0
100
AcDbLine
 10
262.8115
 20
265.9123999999999
 30
0.0
 11
262.8115
 21
259.2124
 31
0.0
  0
LINE
  5
42B
330
1E
100
AcDbEntity
  8
0
100
AcDbLine
 10
262.8115
 20
288.4123999999999
 30
0.0
 11
262.8115
 21
284.2124
 31
0.0
  0
LINE
  5
42C
330
1E
100
AcDbEntity
  8
0
100
AcDbLine
 10
262.8115
 20
288.4123999999999
 30
0.0
 11
262.8115
 21
291.0124
 31
0.0
  0
LINE
  5
42D
330
1E
100
AcDbEntity
  8
0
100
AcDbLine
 10
262.8115
 20
291.0124
 30
0.0
 11
262.8115
 21
288.4123999999999
 31
0.0
  0
LINE
  5
42E
330
1E
100
AcDbEntity
  8
0
100
AcDbLine
 10
262.8115
 20
291.0124
 30
0.0
 11
262.8115
 21
291.9124
 31
0.0
  0
LINE
  5
42F
330
1E
100
AcDbEntity
  8
0
100
AcDbLine
 10
262.8115
 20
291.9124
 30
0.0
 11
262.8115
 21
291.0124
 31
0.0
  0
LINE
  5
430
330
1E
100
AcDbEntity
  8
0
100
AcDbLine
 10
262.8115
 20
284.2124
 30
0.0
 11
262.8115
 21
278.8124
 31
0.0
  0
LINE
  5
431
330
1E
100
AcDbEntity
  8
0
100
AcDbLine
 10
262.8115
 20
284.2124
 30
0.0
 11
262.8115
 21
288.4123999999999
 31
0.0
  0
LINE
  5
432
330
1E
100
AcDbEntity
  8
0
100
AcDbLine
 10
262.8115
 20
278.8124
 30
0.0
 11
262.8115
 21
272.6123999999999
 31
0.0
  0
LINE
  5
433
330
1E
100
AcDbEntity
  8
0
100
AcDbLine
 10
262.8115
 20
278.8124
 30
0.0
 11
262.8115
 21
284.2124
 31
0.0
  0
LINE
  5
434
330
1E
100
AcDbEntity
  8
0
100
AcDbLine
 10
262.8115
 20
272.6123999999999
 30
0.0
 11
262.8115
 21
265.9123999999999
 31
0.0
  0
LINE
  5
435
330
1E
100
AcDbEntity
  8
0
100
AcDbLine
 10
262.8115
 20
272.6123999999999
 30
0.0
 11
262.8115
 21
278.8124
 31
0.0
  0
LINE
  5
436
330
1E
100
AcDbEntity
  8
0
100
AcDbLine
 10
260.8115
 20
239.9124
 30
0.0
 11
262.8115
 21
239.9124
 31
0.0
  0
LINE
  5
437
330
1E
100
AcDbEntity
  8
0
100
AcDbLine
 10
260.8115
 20
239.9124
 30
0.0
 11
260.8115
 21
240.8123999999999
 31
0.0
  0
LINE
  5
438
330
1E
100
AcDbEntity
  8
0
100
AcDbLine
 10
203.3976999999999
 20
652.5743999999999
 30
0.0
 11
203.639694516275
 21
653.1448656084339
 31
0.0
  0
LINE
  5
439
330
1E
100
AcDbEntity
  8
0
100
AcDbLine
 10
203.4387
 20
643.2033999999999
 30
0.0
 11
205.2229999999999
 21
638.9124
 31
0.0
  0
LINE
  5
43A
330
1E
100
AcDbEntity
  8
0
100
AcDbLine
 10
204.93334
 20
650.1284
 30
0.0
 11
212.8343
 21
627.3314
 31
0.0
  0
LINE
  5
43B
330
1E
100
AcDbEntity
  8
0
100
AcDbLine
 10
204.8925
 20
661.8153999999999
 30
0.0
 11
222.3152999999999
 21
671.8744
 31
0.0
  0
LINE
  5
43E
330
1E
100
AcDbEntity
  8
0
100
AcDbLine
 10
216.7731999999999
 20
644.1663999999999
 30
0.0
 11
218.7057999999999
 21
646.0163999999999
 31
0.0
  0
LINE
  5
43F
330
1E
100
AcDbEntity
  8
0
100
AcDbLine
 10
214.6274
 20
644.9543999999999
 30
0.0
 11
216.9996999999999
 21
647.4593999999999
 31
0.0
  0
LINE
  5
440
330
1E
100
AcDbEntity
  8
0
100
AcDbLine
 10
220.9473
 20
647.6774
 30
0.0
 11
223.4923999999999
 21
648.8124
 31
0.0
  0
LINE
  5
441
330
1E
100
AcDbEntity
  8
0
100
AcDbLine
 10
218.7057999999999
 20
646.0163999999999
 30
0.0
 11
220.9473
 21
647.6774
 31
0.0
  0
LINE
  5
442
330
1E
100
AcDbEntity
  8
0
100
AcDbLine
 10
216.9996999999999
 20
647.4593999999999
 30
0.0
 11
219.8115
 21
649.6444
 31
0.0
  0
LINE
  5
443
330
1E
100
AcDbEntity
  8
0
100
AcDbLine
 10
230.7798
 20
649.4424
 30
0.0
 11
232.3309999999999
 21
648.8343999999999
 31
0.0
  0
LINE
  5
444
330
1E
100
AcDbEntity
  8
0
100
AcDbLine
 10
228.6284999999999
 20
649.7034
 30
0.0
 11
230.7798
 21
649.4424
 31
0.0
  0
LINE
  5
445
330
1E
100
AcDbEntity
  8
0
100
AcDbLine
 10
226.102
 20
649.4894
 30
0.0
 11
228.6284999999999
 21
649.7034
 31
0.0
  0
LINE
  5
446
330
1E
100
AcDbEntity
  8
0
100
AcDbLine
 10
223.4923999999999
 20
648.8124
 30
0.0
 11
226.102
 21
649.4894
 31
0.0
  0
LINE
  5
447
330
1E
100
AcDbEntity
  8
0
100
AcDbLine
 10
229.7655
 20
651.9154
 30
0.0
 11
232.5728
 21
651.4624
 31
0.0
  0
LINE
  5
448
330
1E
100
AcDbEntity
  8
0
100
AcDbLine
 10
226.36
 20
651.9714
 30
0.0
 11
229.7655
 21
651.9154
 31
0.0
  0
LINE
  5
449
330
1E
100
AcDbEntity
  8
0
100
AcDbLine
 10
223.0714
 20
651.0533999999999
 30
0.0
 11
226.36
 21
651.9714
 31
0.0
  0
LINE
  5
44A
330
1E
100
AcDbEntity
  8
0
100
AcDbLine
 10
219.8115
 20
649.6444
 30
0.0
 11
223.0714
 21
651.0533999999999
 31
0.0
  0
LINE
  5
44B
330
1E
100
AcDbEntity
  8
0
100
AcDbLine
 10
222.131591849803
 20
648.205540839074
 30
0.0
 11
226.7333
 21
635.3384
 31
0.0
  0
LINE
  5
44C
330
1E
100
AcDbEntity
  8
0
100
AcDbLine
 10
238.2201
 20
643.2474
 30
0.0
 11
238.8062999999999
 21
647.9923999999999
 31
0.0
  0
LINE
  5
44D
330
1E
100
AcDbEntity
  8
0
100
AcDbLine
 10
231.9565
 20
643.9394
 30
0.0
 11
233.1595
 21
645.3203999999999
 31
0.0
  0
LINE
  5
44E
330
1E
100
AcDbEntity
  8
0
100
AcDbLine
 10
232.3309999999999
 20
648.8343999999999
 30
0.0
 11
233.3645
 21
647.8234
 31
0.0
  0
LINE
  5
44F
330
1E
100
AcDbEntity
  8
0
100
AcDbLine
 10
232.5728
 20
651.4624
 30
0.0
 11
234.5714999999999
 21
650.6464
 31
0.0
  0
LINE
  5
450
330
1E
100
AcDbEntity
  8
0
100
AcDbLine
 10
233.5347999999999
 20
660.5793999999999
 30
0.0
 11
236.4
 21
656.9124
 31
0.0
  0
LINE
  5
451
330
1E
100
AcDbEntity
  8
0
100
AcDbLine
 10
233.3645
 20
647.8234
 30
0.0
 11
233.5882
 21
646.6563999999999
 31
0.0
  0
LINE
  5
452
330
1E
100
AcDbEntity
  8
0
100
AcDbLine
 10
233.1595
 20
645.3203999999999
 30
0.0
 11
233.5882
 21
646.6563999999999
 31
0.0
  0
LINE
  5
453
330
1E
100
AcDbEntity
  8
0
100
AcDbLine
 10
234.5714999999999
 20
650.6464
 30
0.0
 11
235.8767999999999
 21
649.3774
 31
0.0
  0
LINE
  5
454
330
1E
100
AcDbEntity
  8
0
100
AcDbLine
 10
238.1428
 20
652.5973999999999
 30
0.0
 11
238.8062999999999
 21
647.9923999999999
 31
0.0
  0
LINE
  5
455
330
1E
100
AcDbEntity
  8
0
100
AcDbLine
 10
236.4
 20
656.9124
 30
0.0
 11
238.1428
 21
652.5973999999999
 31
0.0
  0
LINE
  5
456
330
1E
100
AcDbEntity
  8
0
100
AcDbLine
 10
235.8767999999999
 20
649.3774
 30
0.0
 11
236.2328999999999
 21
647.7684
 31
0.0
  0
LINE
  5
457
330
1E
100
AcDbEntity
  8
0
100
AcDbLine
 10
235.6485999999999
 20
646.1354
 30
0.0
 11
236.2328999999999
 21
647.7684
 31
0.0
  0
LINE
  5
458
330
1E
100
AcDbEntity
  8
0
100
AcDbLine
 10
234.1074
 20
644.3953999999999
 30
0.0
 11
235.6485999999999
 21
646.1354
 31
0.0
  0
LINE
  5
459
330
1E
100
AcDbEntity
  8
0
100
AcDbLine
 10
234.0612116645719
 20
644.3618614779349
 30
0.0
 11
234.1074
 21
644.3953999999999
 31
0.0
  0
LINE
  5
45A
330
1E
100
AcDbEntity
  8
0
100
AcDbLine
 10
231.8115
 20
661.9353234513879
 30
0.0
 11
231.8115
 21
878.9124000000001
 31
0.0
  0
LINE
  5
45F
330
1E
100
AcDbEntity
  8
0
100
AcDbLine
 10
227.058538996211
 20
664.650996854315
 30
0.0
 11
229.8782999999999
 21
663.4564
 31
0.0
  0
LINE
  5
460
330
1E
100
AcDbEntity
  8
0
100
AcDbLine
 10
229.8782999999999
 20
663.4564
 30
0.0
 11
233.5347999999999
 21
660.5793999999999
 31
0.0
  0
LINE
  5
461
330
1E
100
AcDbEntity
  8
0
100
AcDbLine
 10
222.7449
 20
672.1223999999999
 30
0.0
 11
235.8767999999999
 21
649.3774
 31
0.0
  0
LINE
  5
462
330
1E
100
AcDbEntity
  8
0
100
AcDbLine
 10
222.3152999999999
 20
671.8744
 30
0.0
 11
222.7449
 21
672.1223999999999
 31
0.0
  0
LINE
  5
465
330
1E
100
AcDbEntity
  8
0
100
AcDbLine
 10
209.8114999999999
 20
694.523636681818
 30
0.0
 11
209.8114999999999
 21
878.9124000000001
 31
0.0
  0
LINE
  5
466
330
1E
100
AcDbEntity
  8
0
100
AcDbLine
 10
259.8115
 20
869.4124
 30
0.0
 11
260.8115
 21
865.9124
 31
0.0
  0
LINE
  5
467
330
1E
100
AcDbEntity
  8
0
100
AcDbLine
 10
231.8115
 20
878.9124000000001
 30
0.0
 11
239.8115
 21
878.4124
 31
0.0
  0
LINE
  5
468
330
1E
100
AcDbEntity
  8
0
100
AcDbLine
 10
239.8115
 20
878.4124
 30
0.0
 11
246.8115
 21
877.4124
 31
0.0
  0
LINE
  5
469
330
1E
100
AcDbEntity
  8
0
100
AcDbLine
 10
246.8115
 20
877.4124
 30
0.0
 11
253.3115
 21
875.4124
 31
0.0
  0
LINE
  5
46A
330
1E
100
AcDbEntity
  8
0
100
AcDbLine
 10
253.3115
 20
875.4124
 30
0.0
 11
257.3115
 21
872.9124
 31
0.0
  0
LINE
  5
46B
330
1E
100
AcDbEntity
  8
0
100
AcDbLine
 10
257.3115
 20
872.9124
 30
0.0
 11
259.8115
 21
869.4124
 31
0.0
  0
LINE
  5
46C
330
1E
100
AcDbEntity
  8
0
100
AcDbLine
 10
260.8115
 20
869.4124
 30
0.0
 11
260.8115
 21
873.6124
 31
0.0
  0
LINE
  5
46D
330
1E
100
AcDbEntity
  8
0
100
AcDbLine
 10
260.8115
 20
869.4124
 30
0.0
 11
260.8115
 21
866.8124
 31
0.0
  0
LINE
  5
46E
330
1E
100
AcDbEntity
  8
0
100
AcDbLine
 10
260.8115
 20
866.8124
 30
0.0
 11
260.8115
 21
869.4124
 31
0.0
  0
LINE
  5
46F
330
1E
100
AcDbEntity
  8
0
100
AcDbLine
 10
260.8115
 20
866.8124
 30
0.0
 11
260.8115
 21
865.9124
 31
0.0
  0
LINE
  5
470
330
1E
100
AcDbEntity
  8
0
100
AcDbLine
 10
260.8115
 20
865.9124
 30
0.0
 11
260.8115
 21
866.8124
 31
0.0
  0
LINE
  5
471
330
1E
100
AcDbEntity
  8
0
100
AcDbLine
 10
260.8115
 20
865.9124
 30
0.0
 11
262.8115
 21
865.9124
 31
0.0
  0
LINE
  5
472
330
1E
100
AcDbEntity
  8
0
100
AcDbLine
 10
262.8115
 20
869.4124
 30
0.0
 11
262.8115
 21
873.6124
 31
0.0
  0
LINE
  5
473
330
1E
100
AcDbEntity
  8
0
100
AcDbLine
 10
262.8115
 20
869.4124
 30
0.0
 11
262.8115
 21
866.8124
 31
0.0
  0
LINE
  5
474
330
1E
100
AcDbEntity
  8
0
100
AcDbLine
 10
262.8115
 20
866.8124
 30
0.0
 11
262.8115
 21
869.4124
 31
0.0
  0
LINE
  5
475
330
1E
100
AcDbEntity
  8
0
100
AcDbLine
 10
262.8115
 20
866.8124
 30
0.0
 11
262.8115
 21
865.9124
 31
0.0
  0
LINE
  5
476
330
1E
100
AcDbEntity
  8
0
100
AcDbLine
 10
262.8115
 20
865.9124
 30
0.0
 11
262.8115
 21
866.8124
 31
0.0
  0
LINE
  5
477
330
1E
100
AcDbEntity
  8
0
100
AcDbLine
 10
260.8115
 20
873.6124
 30
0.0
 11
260.8115
 21
879.0124
 31
0.0
  0
LINE
  5
478
330
1E
100
AcDbEntity
  8
0
100
AcDbLine
 10
260.8115
 20
873.6124
 30
0.0
 11
260.8115
 21
869.4124
 31
0.0
  0
LINE
  5
479
330
1E
100
AcDbEntity
  8
0
100
AcDbLine
 10
260.8115
 20
879.0124
 30
0.0
 11
260.8115
 21
885.2123999999999
 31
0.0
  0
LINE
  5
47A
330
1E
100
AcDbEntity
  8
0
100
AcDbLine
 10
260.8115
 20
879.0124
 30
0.0
 11
260.8115
 21
873.6124
 31
0.0
  0
LINE
  5
47B
330
1E
100
AcDbEntity
  8
0
100
AcDbLine
 10
262.8115
 20
873.6124
 30
0.0
 11
262.8115
 21
879.0124
 31
0.0
  0
LINE
  5
47C
330
1E
100
AcDbEntity
  8
0
100
AcDbLine
 10
262.8115
 20
873.6124
 30
0.0
 11
262.8115
 21
869.4124
 31
0.0
  0
LINE
  5
47D
330
1E
100
AcDbEntity
  8
0
100
AcDbLine
 10
220.3114999999999
 20
878.9124000000001
 30
0.0
 11
220.3114999999999
 21
888.6124
 31
0.0
  0
LINE
  5
47E
330
1E
100
AcDbEntity
  8
0
100
AcDbLine
 10
220.3114999999999
 20
888.6124
 30
0.0
 11
220.3114999999999
 21
891.9124
 31
0.0
  0
LINE
  5
47F
330
1E
100
AcDbEntity
  8
0
100
AcDbLine
 10
220.3114999999999
 20
888.6124
 30
0.0
 11
220.3114999999999
 21
878.9124000000001
 31
0.0
  0
LINE
  5
480
330
1E
100
AcDbEntity
  8
0
100
AcDbLine
 10
220.8114999999999
 20
878.9124000000001
 30
0.0
 11
220.8114999999999
 21
888.7124
 31
0.0
  0
LINE
  5
481
330
1E
100
AcDbEntity
  8
0
100
AcDbLine
 10
220.3114999999999
 20
891.9124
 30
0.0
 11
220.3114999999999
 21
888.6124
 31
0.0
  0
LINE
  5
482
330
1E
100
AcDbEntity
  8
0
100
AcDbLine
 10
220.3114999999999
 20
891.9124
 30
0.0
 11
220.3114999999999
 21
895.2123999999999
 31
0.0
  0
LINE
  5
483
330
1E
100
AcDbEntity
  8
0
100
AcDbLine
 10
220.8114999999999
 20
891.9124
 30
0.0
 11
220.8114999999999
 21
888.7124
 31
0.0
  0
LINE
  5
484
330
1E
100
AcDbEntity
  8
0
100
AcDbLine
 10
220.8114999999999
 20
891.9124
 30
0.0
 11
220.8114999999999
 21
895.1124
 31
0.0
  0
LINE
  5
485
330
1E
100
AcDbEntity
  8
0
100
AcDbLine
 10
220.8114999999999
 20
888.7124
 30
0.0
 11
220.8114999999999
 21
891.9124
 31
0.0
  0
LINE
  5
486
330
1E
100
AcDbEntity
  8
0
100
AcDbLine
 10
220.8114999999999
 20
888.7124
 30
0.0
 11
220.8114999999999
 21
878.9124000000001
 31
0.0
  0
LINE
  5
487
330
1E
100
AcDbEntity
  8
0
100
AcDbLine
 10
221.3115
 20
891.9124
 30
0.0
 11
221.3115
 21
888.6124
 31
0.0
  0
LINE
  5
488
330
1E
100
AcDbEntity
  8
0
100
AcDbLine
 10
221.3115
 20
891.9124
 30
0.0
 11
221.3115
 21
895.2123999999999
 31
0.0
  0
LINE
  5
489
330
1E
100
AcDbEntity
  8
0
100
AcDbLine
 10
221.3115
 20
878.9124000000001
 30
0.0
 11
221.3115
 21
888.6124
 31
0.0
  0
LINE
  5
48A
330
1E
100
AcDbEntity
  8
0
100
AcDbLine
 10
221.3115
 20
888.6124
 30
0.0
 11
221.3115
 21
891.9124
 31
0.0
  0
LINE
  5
48B
330
1E
100
AcDbEntity
  8
0
100
AcDbLine
 10
221.3115
 20
888.6124
 30
0.0
 11
221.3115
 21
878.9124000000001
 31
0.0
  0
LINE
  5
48C
330
1E
100
AcDbEntity
  8
0
100
AcDbLine
 10
220.3114999999999
 20
895.2123999999999
 30
0.0
 11
220.3114999999999
 21
898.4124000000001
 31
0.0
  0
LINE
  5
48D
330
1E
100
AcDbEntity
  8
0
100
AcDbLine
 10
220.3114999999999
 20
895.2123999999999
 30
0.0
 11
220.3114999999999
 21
891.9124
 31
0.0
  0
LINE
  5
48E
330
1E
100
AcDbEntity
  8
0
100
AcDbLine
 10
220.3114999999999
 20
898.4124000000001
 30
0.0
 11
220.3114999999999
 21
901.1124
 31
0.0
  0
LINE
  5
48F
330
1E
100
AcDbEntity
  8
0
100
AcDbLine
 10
220.3114999999999
 20
898.4124000000001
 30
0.0
 11
220.3114999999999
 21
895.2123999999999
 31
0.0
  0
LINE
  5
490
330
1E
100
AcDbEntity
  8
0
100
AcDbLine
 10
220.8114999999999
 20
898.1123999999999
 30
0.0
 11
220.8114999999999
 21
900.7124000000001
 31
0.0
  0
LINE
  5
491
330
1E
100
AcDbEntity
  8
0
100
AcDbLine
 10
220.8114999999999
 20
898.1123999999999
 30
0.0
 11
220.8114999999999
 21
895.1124
 31
0.0
  0
LINE
  5
492
330
1E
100
AcDbEntity
  8
0
100
AcDbLine
 10
220.8114999999999
 20
895.1124
 30
0.0
 11
220.8114999999999
 21
898.1123999999999
 31
0.0
  0
LINE
  5
493
330
1E
100
AcDbEntity
  8
0
100
AcDbLine
 10
220.8114999999999
 20
895.1124
 30
0.0
 11
220.8114999999999
 21
891.9124
 31
0.0
  0
LINE
  5
494
330
1E
100
AcDbEntity
  8
0
100
AcDbLine
 10
220.3114999999999
 20
901.1124
 30
0.0
 11
220.3114999999999
 21
903.2123999999999
 31
0.0
  0
LINE
  5
495
330
1E
100
AcDbEntity
  8
0
100
AcDbLine
 10
220.3114999999999
 20
901.1124
 30
0.0
 11
220.3114999999999
 21
898.4124000000001
 31
0.0
  0
LINE
  5
496
330
1E
100
AcDbEntity
  8
0
100
AcDbLine
 10
221.3115
 20
898.4124000000001
 30
0.0
 11
221.3115
 21
901.1124
 31
0.0
  0
LINE
  5
497
330
1E
100
AcDbEntity
  8
0
100
AcDbLine
 10
221.3115
 20
898.4124000000001
 30
0.0
 11
221.3115
 21
895.2123999999999
 31
0.0
  0
LINE
  5
498
330
1E
100
AcDbEntity
  8
0
100
AcDbLine
 10
221.3115
 20
895.2123999999999
 30
0.0
 11
221.3115
 21
898.4124000000001
 31
0.0
  0
LINE
  5
499
330
1E
100
AcDbEntity
  8
0
100
AcDbLine
 10
221.3115
 20
895.2123999999999
 30
0.0
 11
221.3115
 21
891.9124
 31
0.0
  0
LINE
  5
49A
330
1E
100
AcDbEntity
  8
0
100
AcDbLine
 10
220.8114999999999
 20
900.7124000000001
 30
0.0
 11
220.8114999999999
 21
902.7124
 31
0.0
  0
LINE
  5
49B
330
1E
100
AcDbEntity
  8
0
100
AcDbLine
 10
220.8114999999999
 20
900.7124000000001
 30
0.0
 11
220.8114999999999
 21
898.1123999999999
 31
0.0
  0
LINE
  5
49C
330
1E
100
AcDbEntity
  8
0
100
AcDbLine
 10
220.3114999999999
 20
903.2123999999999
 30
0.0
 11
220.3114999999999
 21
904.4124
 31
0.0
  0
LINE
  5
49D
330
1E
100
AcDbEntity
  8
0
100
AcDbLine
 10
220.3114999999999
 20
903.2123999999999
 30
0.0
 11
220.3114999999999
 21
901.1124
 31
0.0
  0
LINE
  5
49E
330
1E
100
AcDbEntity
  8
0
100
AcDbLine
 10
220.8114999999999
 20
902.7124
 30
0.0
 11
220.8114999999999
 21
903.9124000000001
 31
0.0
  0
LINE
  5
49F
330
1E
100
AcDbEntity
  8
0
100
AcDbLine
 10
220.8114999999999
 20
902.7124
 30
0.0
 11
220.8114999999999
 21
900.7124000000001
 31
0.0
  0
LINE
  5
4A0
330
1E
100
AcDbEntity
  8
0
100
AcDbLine
 10
220.3114999999999
 20
904.9124
 30
0.0
 11
220.8114999999999
 21
904.4124
 31
0.0
  0
LINE
  5
4A1
330
1E
100
AcDbEntity
  8
0
100
AcDbLine
 10
220.3114999999999
 20
904.9124
 30
0.0
 11
220.3114999999999
 21
904.4124
 31
0.0
  0
LINE
  5
4A2
330
1E
100
AcDbEntity
  8
0
100
AcDbLine
 10
220.3114999999999
 20
904.4124
 30
0.0
 11
220.3114999999999
 21
904.9124
 31
0.0
  0
LINE
  5
4A3
330
1E
100
AcDbEntity
  8
0
100
AcDbLine
 10
220.3114999999999
 20
904.4124
 30
0.0
 11
220.3114999999999
 21
903.2123999999999
 31
0.0
  0
LINE
  5
4A4
330
1E
100
AcDbEntity
  8
0
100
AcDbLine
 10
220.8114999999999
 20
903.9124000000001
 30
0.0
 11
220.8114999999999
 21
904.4124
 31
0.0
  0
LINE
  5
4A5
330
1E
100
AcDbEntity
  8
0
100
AcDbLine
 10
220.8114999999999
 20
903.9124000000001
 30
0.0
 11
220.8114999999999
 21
902.7124
 31
0.0
  0
LINE
  5
4A6
330
1E
100
AcDbEntity
  8
0
100
AcDbLine
 10
220.8114999999999
 20
904.4124
 30
0.0
 11
221.3115
 21
904.9124
 31
0.0
  0
LINE
  5
4A7
330
1E
100
AcDbEntity
  8
0
100
AcDbLine
 10
220.8114999999999
 20
904.4124
 30
0.0
 11
220.8114999999999
 21
903.9124000000001
 31
0.0
  0
LINE
  5
4A8
330
1E
100
AcDbEntity
  8
0
100
AcDbLine
 10
221.3115
 20
901.1124
 30
0.0
 11
221.3115
 21
903.2123999999999
 31
0.0
  0
LINE
  5
4A9
330
1E
100
AcDbEntity
  8
0
100
AcDbLine
 10
221.3115
 20
901.1124
 30
0.0
 11
221.3115
 21
898.4124000000001
 31
0.0
  0
LINE
  5
4AA
330
1E
100
AcDbEntity
  8
0
100
AcDbLine
 10
221.3115
 20
903.2123999999999
 30
0.0
 11
221.3115
 21
904.4124
 31
0.0
  0
LINE
  5
4AB
330
1E
100
AcDbEntity
  8
0
100
AcDbLine
 10
221.3115
 20
903.2123999999999
 30
0.0
 11
221.3115
 21
901.1124
 31
0.0
  0
LINE
  5
4AC
330
1E
100
AcDbEntity
  8
0
100
AcDbLine
 10
221.3115
 20
904.9124
 30
0.0
 11
231.8115
 21
904.9124
 31
0.0
  0
LINE
  5
4AD
330
1E
100
AcDbEntity
  8
0
100
AcDbLine
 10
221.3115
 20
904.9124
 30
0.0
 11
221.3115
 21
904.4124
 31
0.0
  0
LINE
  5
4AE
330
1E
100
AcDbEntity
  8
0
100
AcDbLine
 10
221.3115
 20
904.4124
 30
0.0
 11
221.3115
 21
904.9124
 31
0.0
  0
LINE
  5
4AF
330
1E
100
AcDbEntity
  8
0
100
AcDbLine
 10
221.3115
 20
904.4124
 30
0.0
 11
221.3115
 21
903.2123999999999
 31
0.0
  0
LINE
  5
4B0
330
1E
100
AcDbEntity
  8
0
100
AcDbLine
 10
231.8115
 20
904.9124
 30
0.0
 11
239.8115
 21
905.4123999999999
 31
0.0
  0
LINE
  5
4B1
330
1E
100
AcDbEntity
  8
0
100
AcDbLine
 10
239.8115
 20
905.4123999999999
 30
0.0
 11
246.8115
 21
906.4124000000001
 31
0.0
  0
LINE
  5
4B2
330
1E
100
AcDbEntity
  8
0
100
AcDbLine
 10
246.8115
 20
906.4124000000001
 30
0.0
 11
253.3115
 21
908.4124
 31
0.0
  0
LINE
  5
4B3
330
1E
100
AcDbEntity
  8
0
100
AcDbLine
 10
260.8115
 20
904.8123999999999
 30
0.0
 11
260.8115
 21
910.2123999999999
 31
0.0
  0
LINE
  5
4B4
330
1E
100
AcDbEntity
  8
0
100
AcDbLine
 10
260.8115
 20
904.8123999999999
 30
0.0
 11
260.8115
 21
898.6124
 31
0.0
  0
LINE
  5
4B5
330
1E
100
AcDbEntity
  8
0
100
AcDbLine
 10
260.8115
 20
898.6124
 30
0.0
 11
260.8115
 21
904.8123999999999
 31
0.0
  0
LINE
  5
4B6
330
1E
100
AcDbEntity
  8
0
100
AcDbLine
 10
260.8115
 20
898.6124
 30
0.0
 11
260.8115
 21
891.9124
 31
0.0
  0
LINE
  5
4B7
330
1E
100
AcDbEntity
  8
0
100
AcDbLine
 10
253.3115
 20
908.4124
 30
0.0
 11
257.3115
 21
910.9124000000001
 31
0.0
  0
LINE
  5
4B8
330
1E
100
AcDbEntity
  8
0
100
AcDbLine
 10
257.3115
 20
910.9124000000001
 30
0.0
 11
259.8115
 21
914.4124000000001
 31
0.0
  0
LINE
  5
4B9
330
1E
100
AcDbEntity
  8
0
100
AcDbLine
 10
259.8115
 20
914.4124000000001
 30
0.0
 11
260.8115
 21
917.9123999999999
 31
0.0
  0
LINE
  5
4BA
330
1E
100
AcDbEntity
  8
0
100
AcDbLine
 10
260.8115
 20
910.2123999999999
 30
0.0
 11
260.8115
 21
914.4124000000001
 31
0.0
  0
LINE
  5
4BB
330
1E
100
AcDbEntity
  8
0
100
AcDbLine
 10
260.8115
 20
910.2123999999999
 30
0.0
 11
260.8115
 21
904.8123999999999
 31
0.0
  0
LINE
  5
4BC
330
1E
100
AcDbEntity
  8
0
100
AcDbLine
 10
260.8115
 20
914.4124000000001
 30
0.0
 11
260.8115
 21
917.0123999999999
 31
0.0
  0
LINE
  5
4BD
330
1E
100
AcDbEntity
  8
0
100
AcDbLine
 10
260.8115
 20
914.4124000000001
 30
0.0
 11
260.8115
 21
910.2123999999999
 31
0.0
  0
LINE
  5
4BE
330
1E
100
AcDbEntity
  8
0
100
AcDbLine
 10
260.8115
 20
917.9123999999999
 30
0.0
 11
262.8115
 21
917.9123999999999
 31
0.0
  0
LINE
  5
4BF
330
1E
100
AcDbEntity
  8
0
100
AcDbLine
 10
260.8115
 20
917.9123999999999
 30
0.0
 11
260.8115
 21
917.0123999999999
 31
0.0
  0
LINE
  5
4C0
330
1E
100
AcDbEntity
  8
0
100
AcDbLine
 10
260.8115
 20
917.0123999999999
 30
0.0
 11
260.8115
 21
917.9123999999999
 31
0.0
  0
LINE
  5
4C1
330
1E
100
AcDbEntity
  8
0
100
AcDbLine
 10
260.8115
 20
917.0123999999999
 30
0.0
 11
260.8115
 21
914.4124000000001
 31
0.0
  0
LINE
  5
4C2
330
1E
100
AcDbEntity
  8
0
100
AcDbLine
 10
260.8115
 20
891.9124
 30
0.0
 11
260.8115
 21
885.2123999999999
 31
0.0
  0
LINE
  5
4C3
330
1E
100
AcDbEntity
  8
0
100
AcDbLine
 10
260.8115
 20
891.9124
 30
0.0
 11
260.8115
 21
898.6124
 31
0.0
  0
LINE
  5
4C4
330
1E
100
AcDbEntity
  8
0
100
AcDbLine
 10
262.8115
 20
904.8123999999999
 30
0.0
 11
262.8115
 21
910.2123999999999
 31
0.0
  0
LINE
  5
4C5
330
1E
100
AcDbEntity
  8
0
100
AcDbLine
 10
262.8115
 20
904.8123999999999
 30
0.0
 11
262.8115
 21
898.6124
 31
0.0
  0
LINE
  5
4C6
330
1E
100
AcDbEntity
  8
0
100
AcDbLine
 10
262.8115
 20
898.6124
 30
0.0
 11
262.8115
 21
904.8123999999999
 31
0.0
  0
LINE
  5
4C7
330
1E
100
AcDbEntity
  8
0
100
AcDbLine
 10
262.8115
 20
898.6124
 30
0.0
 11
262.8115
 21
891.9124
 31
0.0
  0
LINE
  5
4C8
330
1E
100
AcDbEntity
  8
0
100
AcDbLine
 10
262.8115
 20
910.2123999999999
 30
0.0
 11
262.8115
 21
914.4124000000001
 31
0.0
  0
LINE
  5
4C9
330
1E
100
AcDbEntity
  8
0
100
AcDbLine
 10
262.8115
 20
910.2123999999999
 30
0.0
 11
262.8115
 21
904.8123999999999
 31
0.0
  0
LINE
  5
4CA
330
1E
100
AcDbEntity
  8
0
100
AcDbLine
 10
262.8115
 20
917.9123999999999
 30
0.0
 11
262.8115
 21
917.0123999999999
 31
0.0
  0
LINE
  5
4CB
330
1E
100
AcDbEntity
  8
0
100
AcDbLine
 10
262.8115
 20
914.4124000000001
 30
0.0
 11
262.8115
 21
917.0123999999999
 31
0.0
  0
LINE
  5
4CC
330
1E
100
AcDbEntity
  8
0
100
AcDbLine
 10
262.8115
 20
914.4124000000001
 30
0.0
 11
262.8115
 21
910.2123999999999
 31
0.0
  0
LINE
  5
4CD
330
1E
100
AcDbEntity
  8
0
100
AcDbLine
 10
262.8115
 20
917.0123999999999
 30
0.0
 11
262.8115
 21
917.9123999999999
 31
0.0
  0
LINE
  5
4CE
330
1E
100
AcDbEntity
  8
0
100
AcDbLine
 10
262.8115
 20
917.0123999999999
 30
0.0
 11
262.8115
 21
914.4124000000001
 31
0.0
  0
LINE
  5
4CF
330
1E
100
AcDbEntity
  8
0
100
AcDbLine
 10
262.8115
 20
891.9124
 30
0.0
 11
262.8115
 21
885.2123999999999
 31
0.0
  0
LINE
  5
4D0
330
1E
100
AcDbEntity
  8
0
100
AcDbLine
 10
262.8115
 20
891.9124
 30
0.0
 11
262.8115
 21
898.6124
 31
0.0
  0
LINE
  5
4D1
330
1E
100
AcDbEntity
  8
0
100
AcDbLine
 10
260.8115
 20
885.2123999999999
 30
0.0
 11
260.8115
 21
891.9124
 31
0.0
  0
LINE
  5
4D2
330
1E
100
AcDbEntity
  8
0
100
AcDbLine
 10
260.8115
 20
885.2123999999999
 30
0.0
 11
260.8115
 21
879.0124
 31
0.0
  0
LINE
  5
4D3
330
1E
100
AcDbEntity
  8
0
100
AcDbLine
 10
262.8115
 20
879.0124
 30
0.0
 11
262.8115
 21
885.2123999999999
 31
0.0
  0
LINE
  5
4D4
330
1E
100
AcDbEntity
  8
0
100
AcDbLine
 10
262.8115
 20
879.0124
 30
0.0
 11
262.8115
 21
873.6124
 31
0.0
  0
LINE
  5
4D5
330
1E
100
AcDbEntity
  8
0
100
AcDbLine
 10
262.8115
 20
885.2123999999999
 30
0.0
 11
262.8115
 21
891.9124
 31
0.0
  0
LINE
  5
4D6
330
1E
100
AcDbEntity
  8
0
100
AcDbLine
 10
262.8115
 20
885.2123999999999
 30
0.0
 11
262.8115
 21
879.0124
 31
0.0
  0
LINE
  5
4DB
330
1E
100
AcDbEntity
  8
0
100
AcDbLine
 10
209.8114999999999
 20
878.9124000000001
 30
0.0
 11
231.8115
 21
878.9124000000001
 31
0.0
  0
LINE
  5
4DC
330
1E
100
AcDbEntity
  8
0
100
AcDbLine
 10
151.5995
 20
784.4624
 30
0.0
 11
138.5243
 21
801.9104
 31
0.0
  0
LINE
  5
4DD
330
1E
100
AcDbEntity
  8
0
100
AcDbLine
 10
138.5243
 20
801.9104
 30
0.0
 11
138.488
 21
802.6443999999999
 31
0.0
  0
LINE
  5
4DE
330
1E
100
AcDbEntity
  8
0
100
AcDbLine
 10
138.488
 20
802.6443999999999
 30
0.0
 11
136.1895
 21
804.5733999999999
 31
0.0
  0
LINE
  5
4DF
330
1E
100
AcDbEntity
  8
0
100
AcDbLine
 10
120.4894
 20
781.1954
 30
0.0
 11
121.2189999999999
 21
781.2874
 31
0.0
  0
LINE
  5
4E0
330
1E
100
AcDbEntity
  8
0
100
AcDbLine
 10
200.8447258107279
 20
709.9620295884309
 30
0.0
 11
201.1346899999999
 21
710.7064
 31
0.0
  0
LINE
  5
4E1
330
1E
100
AcDbEntity
  8
0
100
AcDbLine
 10
201.1346899999999
 20
710.7064
 30
0.0
 11
199.634653
 21
713.3043999999999
 31
0.0
  0
LINE
  5
4E2
330
1E
100
AcDbEntity
  8
0
100
AcDbLine
 10
199.634653
 20
713.3043999999999
 30
0.0
 11
198.9512259999999
 21
713.4873999999999
 31
0.0
  0
LINE
  5
4E3
330
1E
100
AcDbEntity
  8
0
100
AcDbLine
 10
171.2765
 20
757.7804
 30
0.0
 11
178.4271123276321
 21
746.9213702755974
 31
0.0
  0
LINE
  5
4E4
330
1E
100
AcDbEntity
  8
0
100
AcDbLine
 10
178.4271123276321
 20
746.9213702755974
 30
0.0
 11
188.486477041195
 21
729.8491257134683
 31
0.0
  0
LINE
  5
4E5
330
1E
100
AcDbEntity
  8
0
100
AcDbLine
 10
188.486477041195
 20
729.8491257134683
 30
0.0
 11
198.3546797785456
 21
713.2247010340379
 31
0.0
  0
LINE
  5
4E6
330
1E
100
AcDbEntity
  8
0
100
AcDbLine
 10
134.8709900801095
 20
804.0250881917486
 30
0.0
 11
124.0906891941749
 21
813.6802678695254
 31
0.0
  0
LINE
  5
4E7
330
1E
100
AcDbEntity
  8
0
100
AcDbLine
 10
124.0906891941749
 20
813.6802678695254
 30
0.0
 11
113.6848999999999
 21
821.9894
 31
0.0
  0
LINE
  5
4E8
330
1E
100
AcDbEntity
  8
0
100
AcDbLine
 10
87.5745
 20
815.3693999999999
 30
0.0
 11
99.9542241701776
 21
805.592627514587
 31
0.0
  0
LINE
  5
4E9
330
1E
100
AcDbEntity
  8
0
100
AcDbLine
 10
28.2235
 20
856.9274
 30
0.0
 11
15.96049999999999
 21
865.5454
 31
0.0
  0
ENDSEC
  0
SECTION
  2
OBJECTS
  0
DICTIONARY
  5
C
330
0
100
AcDbDictionary
281
     1
  3
ACAD_GROUP
350
D
  3
ACAD_LAYOUT
350
19
  3
ACAD_MLINESTYLE
350
16
  3
ACAD_PLOTSETTINGS
350
18
  3
ACAD_PLOTSTYLENAME
350
E
  3
AcDbVariableDictionary
350
4EA
  0
DICTIONARY
  5
D
102
{ACAD_REACTORS
330
C
102
}
330
C
100
AcDbDictionary
281
     1
  0
DICTIONARY
  5
19
102
{ACAD_REACTORS
330
C
102
}
330
C
100
AcDbDictionary
281
     1
  3
Layout1
350
1D
  3
Model
350
21
  0
DICTIONARY
  5
16
102
{ACAD_REACTORS
330
C
102
}
330
C
100
AcDbDictionary
281
     1
  3
Standard
350
17
  0
DICTIONARY
  5
18
102
{ACAD_REACTORS
330
C
102
}
330
C
100
AcDbDictionary
281
     1
  0
ACDBDICTIONARYWDFLT
  5
E
102
{ACAD_REACTORS
330
C
102
}
330
C
100
AcDbDictionary
281
     1
  3
Normal
350
F
100
AcDbDictionaryWithDefault
340
F
  0
DICTIONARY
  5
4EA
102
{ACAD_REACTORS
330
C
102
}
330
C
100
AcDbDictionary
281
     1
  3
DIMASSOC
350
4EB
  0
LAYOUT
  5
1D
102
{ACAD_REACTORS
330
19
102
}
330
19
100
AcDbPlotSettings
  1

  2
hp deskjet 980c series
  4

  6

 40
0.0
 41
0.0
 42
0.0
 43
0.0
 44
0.0
 45
0.0
 46
0.0
 47
0.0
 48
0.0
 49
0.0
140
0.0
141
0.0
142
1.0
143
1.0
 70
   688
 72
     0
 73
     0
 74
     5
  7

 75
    16
147
1.0
148
0.0
149
0.0
100
AcDbLayout
  1
Layout1
 70
     1
 71
     1
 10
0.0
 20
0.0
 11
12.0
 21
9.0
 12
0.0
 22
0.0
 32
0.0
 14
1.000000000000000E+20
 24
1.000000000000000E+20
 34
1.000000000000000E+20
 15
-1.000000000000000E+20
 25
-1.000000000000000E+20
 35
-1.000000000000000E+20
146
0.0
 13
0.0
 23
0.0
 33
0.0
 16
1.0
 26
0.0
 36
0.0
 17
0.0
 27
1.0
 37
0.0
 76
     0
330
1A
  0
LAYOUT
  5
21
102
{ACAD_REACTORS
330
19
102
}
330
19
100
AcDbPlotSettings
  1

  2
hp deskjet 980c series
  4

  6

 40
0.0
 41
0.0
 42
0.0
 43
0.0
 44
0.0
 45
0.0
 46
0.0
 47
0.0
 48
0.0
 49
0.0
140
0.0
141
0.0
142
1.0
143
1.0
 70
  1712
 72
     0
 73
     0
 74
     0
  7

 75
     0
147
1.0
148
0.0
149
0.0
100
AcDbLayout
  1
Model
 70
     1
 71
     0
 10
0.0
 20
0.0
 11
12.0
 21
9.0
 12
0.0
 22
0.0
 32
0.0
 14
0.0
 24
0.0
 34
0.0
 15
0.0
 25
0.0
 35
0.0
146
0.0
 13
0.0
 23
0.0
 33
0.0
 16
1.0
 26
0.0
 36
0.0
 17
0.0
 27
1.0
 37
0.0
 76
     0
330
1E
  0
MLINESTYLE
  5
17
102
{ACAD_REACTORS
330
16
102
}
330
16
100
AcDbMlineStyle
  2
STANDARD
 70
     0
  3

 62
   256
 51
90.0
 52
90.0
 71
     2
 49
0.5
 62
   256
  6
BYLAYER
 49
-0.5
 62
   256
  6
BYLAYER
  0
ACDBPLACEHOLDER
  5
F
102
{ACAD_REACTORS
330
E
102
}
330
E
  0
DICTIONARYVAR
  5
4EB
102
{ACAD_REACTORS
330
4EA
102
}
330
4EA
100
DictionaryVariables
280
     0
  1
1
  0
ENDSEC
  0
EOF
