  0
SECTION
  2
HEADER
  9
$ACADVER
  1
AC1015
  9
$ACADMAINTVER
 70
    13
  9
$DWGCODEPAGE
  3
ANSI_1252
  9
$INSBASE
 10
0.0
 20
0.0
 30
0.0
  9
$EXTMIN
 10
0.250000000000003
 20
0.188500000000013
 30
0.0
  9
$EXTMAX
 10
143.75
 20
262.8115
 30
0.0
  9
$LIMMIN
 10
0.0
 20
0.0
  9
$LIMMAX
 10
12.0
 20
9.0
  9
$ORTHOMODE
 70
     0
  9
$REGENMODE
 70
     1
  9
$FILLMODE
 70
     1
  9
$QTEXTMODE
 70
     0
  9
$MIRRTEXT
 70
     1
  9
$LTSCALE
 40
1.0
  9
$ATTMODE
 70
     1
  9
$TEXTSIZE
 40
0.2
  9
$TRACEWID
 40
0.05
  9
$TEXTSTYLE
  7
Standard
  9
$CLAYER
  8
0
  9
$CELTYPE
  6
Continuous
  9
$CECOLOR
 62
   256
  9
$CELTSCALE
 40
1.0
  9
$DISPSILH
 70
     0
  9
$DIMSCALE
 40
1.0
  9
$DIMASZ
 40
0.18
  9
$DIMEXO
 40
0.0625
  9
$DIMDLI
 40
0.38
  9
$DIMRND
 40
0.0
  9
$DIMDLE
 40
0.0
  9
$DIMEXE
 40
0.18
  9
$DIMTP
 40
0.0
  9
$DIMTM
 40
0.0
  9
$DIMTXT
 40
0.18
  9
$DIMCEN
 40
0.09
  9
$DIMTSZ
 40
0.0
  9
$DIMTOL
 70
     0
  9
$DIMLIM
 70
     0
  9
$DIMTIH
 70
     1
  9
$DIMTOH
 70
     1
  9
$DIMSE1
 70
     0
  9
$DIMSE2
 70
     0
  9
$DIMTAD
 70
     0
  9
$DIMZIN
 70
     0
  9
$DIMBLK
  1

  9
$DIMASO
 70
     1
  9
$DIMSHO
 70
     1
  9
$DIMPOST
  1

  9
$DIMAPOST
  1

  9
$DIMALT
 70
     0
  9
$DIMALTD
 70
     2
  9
$DIMALTF
 40
25.4
  9
$DIMLFAC
 40
1.0
  9
$DIMTOFL
 70
     0
  9
$DIMTVP
 40
0.0
  9
$DIMTIX
 70
     0
  9
$DIMSOXD
 70
     0
  9
$DIMSAH
 70
     0
  9
$DIMBLK1
  1

  9
$DIMBLK2
  1

  9
$DIMSTYLE
  2
Standard
  9
$DIMCLRD
 70
     0
  9
$DIMCLRE
 70
     0
  9
$DIMCLRT
 70
     0
  9
$DIMTFAC
 40
1.0
  9
$DIMGAP
 40
0.09
  9
$DIMJUST
 70
     0
  9
$DIMSD1
 70
     0
  9
$DIMSD2
 70
     0
  9
$DIMTOLJ
 70
     1
  9
$DIMTZIN
 70
     0
  9
$DIMALTZ
 70
     0
  9
$DIMALTTZ
 70
     0
  9
$DIMUPT
 70
     0
  9
$DIMDEC
 70
     4
  9
$DIMTDEC
 70
     4
  9
$DIMALTU
 70
     2
  9
$DIMALTTD
 70
     2
  9
$DIMTXSTY
  7
Standard
  9
$DIMAUNIT
 70
     0
  9
$DIMADEC
 70
     0
  9
$DIMALTRND
 40
0.0
  9
$DIMAZIN
 70
     0
  9
$DIMDSEP
 70
    46
  9
$DIMATFIT
 70
     3
  9
$DIMFRAC
 70
     0
  9
$DIMLDRBLK
  1

  9
$DIMLUNIT
 70
     2
  9
$DIMLWD
 70
    -2
  9
$DIMLWE
 70
    -2
  9
$DIMTMOVE
 70
     0
  9
$LUNITS
 70
     2
  9
$LUPREC
 70
     4
  9
$SKETCHINC
 40
0.1
  9
$FILLETRAD
 40
0.0
  9
$AUNITS
 70
     0
  9
$AUPREC
 70
     0
  9
$MENU
  1
.
  9
$ELEVATION
 40
0.0
  9
$PELEVATION
 40
0.0
  9
$THICKNESS
 40
0.0
  9
$LIMCHECK
 70
     0
  9
$CHAMFERA
 40
0.0
  9
$CHAMFERB
 40
0.0
  9
$CHAMFERC
 40
0.0
  9
$CHAMFERD
 40
0.0
  9
$SKPOLY
 70
     0
  9
$TDCREATE
 40
2454834.856277303
  9
$TDUCREATE
 40
2454834.814610637
  9
$TDUPDATE
 40
2454834.860068356
  9
$TDUUPDATE
 40
2454834.818401689
  9
$TDINDWG
 40
0.0037910532
  9
$TDUSRTIMER
 40
0.0037910532
  9
$USRTIMER
 70
     1
  9
$ANGBASE
 50
0.0
  9
$ANGDIR
 70
     0
  9
$PDMODE
 70
     0
  9
$PDSIZE
 40
0.0
  9
$PLINEWID
 40
0.0
  9
$SPLFRAME
 70
     0
  9
$SPLINETYPE
 70
     6
  9
$SPLINESEGS
 70
     8
  9
$HANDSEED
  5
33D
  9
$SURFTAB1
 70
     6
  9
$SURFTAB2
 70
     6
  9
$SURFTYPE
 70
     6
  9
$SURFU
 70
     6
  9
$SURFV
 70
     6
  9
$UCSBASE
  2

  9
$UCSNAME
  2

  9
$UCSORG
 10
0.0
 20
0.0
 30
0.0
  9
$UCSXDIR
 10
1.0
 20
0.0
 30
0.0
  9
$UCSYDIR
 10
0.0
 20
1.0
 30
0.0
  9
$UCSORTHOREF
  2

  9
$UCSORTHOVIEW
 70
     1
  9
$UCSORGTOP
 10
0.0
 20
0.0
 30
0.0
  9
$UCSORGBOTTOM
 10
0.0
 20
0.0
 30
0.0
  9
$UCSORGLEFT
 10
0.0
 20
0.0
 30
0.0
  9
$UCSORGRIGHT
 10
0.0
 20
0.0
 30
0.0
  9
$UCSORGFRONT
 10
0.0
 20
0.0
 30
0.0
  9
$UCSORGBACK
 10
0.0
 20
0.0
 30
0.0
  9
$PUCSBASE
  2

  9
$PUCSNAME
  2

  9
$PUCSORG
 10
0.0
 20
0.0
 30
0.0
  9
$PUCSXDIR
 10
1.0
 20
0.0
 30
0.0
  9
$PUCSYDIR
 10
0.0
 20
1.0
 30
0.0
  9
$PUCSORTHOREF
  2

  9
$PUCSORTHOVIEW
 70
     0
  9
$PUCSORGTOP
 10
0.0
 20
0.0
 30
0.0
  9
$PUCSORGBOTTOM
 10
0.0
 20
0.0
 30
0.0
  9
$PUCSORGLEFT
 10
0.0
 20
0.0
 30
0.0
  9
$PUCSORGRIGHT
 10
0.0
 20
0.0
 30
0.0
  9
$PUCSORGFRONT
 10
0.0
 20
0.0
 30
0.0
  9
$PUCSORGBACK
 10
0.0
 20
0.0
 30
0.0
  9
$USERI1
 70
     0
  9
$USERI2
 70
     0
  9
$USERI3
 70
     0
  9
$USERI4
 70
     0
  9
$USERI5
 70
     0
  9
$USERR1
 40
0.0
  9
$USERR2
 40
0.0
  9
$USERR3
 40
0.0
  9
$USERR4
 40
0.0
  9
$USERR5
 40
0.0
  9
$WORLDVIEW
 70
     1
  9
$SHADEDGE
 70
     3
  9
$SHADEDIF
 70
    70
  9
$TILEMODE
 70
     1
  9
$MAXACTVP
 70
    64
  9
$PINSBASE
 10
0.0
 20
0.0
 30
0.0
  9
$PLIMCHECK
 70
     0
  9
$PEXTMIN
 10
1.000000000000000E+20
 20
1.000000000000000E+20
 30
1.000000000000000E+20
  9
$PEXTMAX
 10
-1.000000000000000E+20
 20
-1.000000000000000E+20
 30
-1.000000000000000E+20
  9
$PLIMMIN
 10
0.0
 20
0.0
  9
$PLIMMAX
 10
12.0
 20
9.0
  9
$UNITMODE
 70
     0
  9
$VISRETAIN
 70
     1
  9
$PLINEGEN
 70
     0
  9
$PSLTSCALE
 70
     1
  9
$TREEDEPTH
 70
  3020
  9
$CMLSTYLE
  2
Standard
  9
$CMLJUST
 70
     0
  9
$CMLSCALE
 40
1.0
  9
$PROXYGRAPHICS
 70
     1
  9
$MEASUREMENT
 70
     0
  9
$CELWEIGHT
370
    -1
  9
$ENDCAPS
280
     0
  9
$JOINSTYLE
280
     0
  9
$LWDISPLAY
290
     0
  9
$INSUNITS
 70
     0
  9
$HYPERLINKBASE
  1

  9
$STYLESHEET
  1

  9
$XEDIT
290
     1
  9
$CEPSNTYPE
380
     0
  9
$PSTYLEMODE
290
     1
  9
$FINGERPRINTGUID
  2
{93CAD023-AA67-4C44-A960-B705D87E6F1E}
  9
$VERSIONGUID
  2
{A926A258-EAD4-4345-924B-32E9C37178A2}
  9
$EXTNAMES
290
     1
  9
$PSVPSCALE
 40
0.0
  9
$OLESTARTUP
290
     0
  0
ENDSEC
  0
SECTION
  2
CLASSES
  0
CLASS
  1
ACDBDICTIONARYWDFLT
  2
AcDbDictionaryWithDefault
  3
AutoCAD 2000
 90
        0
280
     0
281
     0
  0
CLASS
  1
ACDBPLACEHOLDER
  2
AcDbPlaceHolder
  3
AutoCAD 2000
 90
        0
280
     0
281
     0
  0
CLASS
  1
LAYOUT
  2
AcDbLayout
  3
AutoCAD 2000
 90
        0
280
     0
281
     0
  0
CLASS
  1
DICTIONARYVAR
  2
AcDbDictionaryVar
  3
AutoCAD 2000
 90
        0
280
     0
281
     0
  0
ENDSEC
  0
SECTION
  2
TABLES
  0
TABLE
  2
VPORT
  5
8
330
0
100
AcDbSymbolTable
 70
     2
  0
VPORT
  5
33C
330
8
100
AcDbSymbolTableRecord
100
AcDbViewportTableRecord
  2
*Active
 70
     0
 10
0.0
 20
0.0
 11
1.0
 21
1.0
 12
72.0
 22
131.4999999999999
 13
0.0
 23
0.0
 14
1.0
 24
1.0
 15
0.0
 25
0.0
 16
0.0
 26
0.0
 36
1.0
 17
0.0
 27
0.0
 37
0.0
 40
264.638010230179
 41
2.078104993597951
 42
50.0
 43
0.0
 44
0.0
 50
0.0
 51
0.0
 71
     0
 72
   100
 73
     1
 74
     3
 75
     0
 76
     0
 77
     0
 78
     0
281
     0
 65
     1
110
0.0
120
0.0
130
0.0
111
1.0
121
0.0
131
0.0
112
0.0
122
1.0
132
0.0
 79
     1
146
0.0
  0
ENDTAB
  0
TABLE
  2
LTYPE
  5
5
330
0
100
AcDbSymbolTable
 70
     1
  0
LTYPE
  5
13
330
5
100
AcDbSymbolTableRecord
100
AcDbLinetypeTableRecord
  2
ByBlock
 70
     0
  3

 72
    65
 73
     0
 40
0.0
  0
LTYPE
  5
14
330
5
100
AcDbSymbolTableRecord
100
AcDbLinetypeTableRecord
  2
ByLayer
 70
     0
  3

 72
    65
 73
     0
 40
0.0
  0
LTYPE
  5
15
330
5
100
AcDbSymbolTableRecord
100
AcDbLinetypeTableRecord
  2
Continuous
 70
     0
  3
Solid line
 72
    65
 73
     0
 40
0.0
  0
ENDTAB
  0
TABLE
  2
LAYER
  5
2
330
0
100
AcDbSymbolTable
 70
     1
  0
LAYER
  5
10
330
2
100
AcDbSymbolTableRecord
100
AcDbLayerTableRecord
  2
0
 70
     0
 62
     7
  6
Continuous
370
    -3
390
F
  0
ENDTAB
  0
TABLE
  2
STYLE
  5
3
330
0
100
AcDbSymbolTable
 70
     1
  0
STYLE
  5
11
330
3
100
AcDbSymbolTableRecord
100
AcDbTextStyleTableRecord
  2
Standard
 70
     0
 40
0.0
 41
1.0
 50
0.0
 71
     0
 42
0.2
  3
txt
  4

  0
ENDTAB
  0
TABLE
  2
VIEW
  5
6
330
0
100
AcDbSymbolTable
 70
     0
  0
ENDTAB
  0
TABLE
  2
UCS
  5
7
330
0
100
AcDbSymbolTable
 70
     0
  0
ENDTAB
  0
TABLE
  2
APPID
  5
9
330
0
100
AcDbSymbolTable
 70
     1
  0
APPID
  5
12
330
9
100
AcDbSymbolTableRecord
100
AcDbRegAppTableRecord
  2
ACAD
 70
     0
  0
ENDTAB
  0
TABLE
  2
DIMSTYLE
  5
A
330
0
100
AcDbSymbolTable
 70
     1
100
AcDbDimStyleTable
 71
     0
  0
DIMSTYLE
105
319
330
A
100
AcDbSymbolTableRecord
100
AcDbDimStyleTableRecord
  2
Standard
 70
     0
340
11
  0
ENDTAB
  0
TABLE
  2
BLOCK_RECORD
  5
1
330
0
100
AcDbSymbolTable
 70
     0
  0
BLOCK_RECORD
  5
1E
330
1
100
AcDbSymbolTableRecord
100
AcDbBlockTableRecord
  2
*Model_Space
340
21
  0
BLOCK_RECORD
  5
1A
330
1
100
AcDbSymbolTableRecord
100
AcDbBlockTableRecord
  2
*Paper_Space
340
1D
  0
ENDTAB
  0
ENDSEC
  0
SECTION
  2
BLOCKS
  0
BLOCK
  5
1F
330
1E
100
AcDbEntity
  8
0
100
AcDbBlockBegin
  2
*Model_Space
 70
     0
 10
0.0
 20
0.0
 30
0.0
  3
*Model_Space
  1

  0
ENDBLK
  5
20
330
1E
100
AcDbEntity
  8
0
100
AcDbBlockEnd
  0
BLOCK
  5
1B
330
1A
100
AcDbEntity
 67
     1
  8
0
100
AcDbBlockBegin
  2
*Paper_Space
 70
     0
 10
0.0
 20
0.0
 30
0.0
  3
*Paper_Space
  1

  0
ENDBLK
  5
1C
330
1A
100
AcDbEntity
 67
     1
  8
0
100
AcDbBlockEnd
  0
ENDSEC
  0
SECTION
  2
ENTITIES
  0
LINE
  5
22
330
1E
100
AcDbEntity
  8
0
100
AcDbLine
 10
0.250000000000003
 20
203.8903499999999
 30
0.0
 11
0.250000000000003
 21
203.2988399999999
 31
0.0
  0
LINE
  5
23
330
1E
100
AcDbEntity
  8
0
100
AcDbLine
 10
0.250000000000003
 20
203.8903499999999
 30
0.0
 11
0.250000000000003
 21
205.59717
 31
0.0
  0
LINE
  5
24
330
1E
100
AcDbEntity
  8
0
100
AcDbLine
 10
0.250000000000003
 20
203.2988399999999
 30
0.0
 11
0.250000000000003
 21
203.8946399999999
 31
0.0
  0
LINE
  5
25
330
1E
100
AcDbEntity
  8
0
100
AcDbLine
 10
0.250000000000003
 20
203.2988399999999
 30
0.0
 11
1.00380000000001
 21
202.8167199999999
 31
0.0
  0
LINE
  5
26
330
1E
100
AcDbEntity
  8
0
100
AcDbLine
 10
0.250000000000003
 20
203.2988399999999
 30
0.0
 11
0.250000000000003
 21
203.8903499999999
 31
0.0
  0
LINE
  5
27
330
1E
100
AcDbEntity
  8
0
100
AcDbLine
 10
0.250000000000003
 20
203.8946399999999
 30
0.0
 11
0.250000000000003
 21
205.67069
 31
0.0
  0
LINE
  5
28
330
1E
100
AcDbEntity
  8
0
100
AcDbLine
 10
0.250000000000003
 20
203.8946399999999
 30
0.0
 11
0.250000000000003
 21
203.2988399999999
 31
0.0
  0
LINE
  5
29
330
1E
100
AcDbEntity
  8
0
100
AcDbLine
 10
0.250000000000003
 20
205.67069
 30
0.0
 11
0.250000000000003
 21
208.42321
 31
0.0
  0
LINE
  5
2A
330
1E
100
AcDbEntity
  8
0
100
AcDbLine
 10
0.250000000000003
 20
205.67069
 30
0.0
 11
0.250000000000003
 21
203.8946399999999
 31
0.0
  0
LINE
  5
2B
330
1E
100
AcDbEntity
  8
0
100
AcDbLine
 10
0.250000000000003
 20
208.42321
 30
0.0
 11
0.250000000000003
 21
212.0274999999999
 31
0.0
  0
LINE
  5
2C
330
1E
100
AcDbEntity
  8
0
100
AcDbLine
 10
0.250000000000003
 20
208.42321
 30
0.0
 11
0.250000000000003
 21
205.67069
 31
0.0
  0
LINE
  5
2D
330
1E
100
AcDbEntity
  8
0
100
AcDbLine
 10
0.250000000000003
 20
205.59717
 30
0.0
 11
0.250000000000003
 21
208.42635
 31
0.0
  0
LINE
  5
2E
330
1E
100
AcDbEntity
  8
0
100
AcDbLine
 10
0.250000000000003
 20
205.59717
 30
0.0
 11
0.250000000000003
 21
203.8903499999999
 31
0.0
  0
LINE
  5
2F
330
1E
100
AcDbEntity
  8
0
100
AcDbLine
 10
0.250000000000003
 20
208.42635
 30
0.0
 11
0.250000000000003
 21
205.59717
 31
0.0
  0
LINE
  5
30
330
1E
100
AcDbEntity
  8
0
100
AcDbLine
 10
0.250000000000003
 20
208.42635
 30
0.0
 11
0.250000000000003
 21
212.0108
 31
0.0
  0
LINE
  5
31
330
1E
100
AcDbEntity
  8
0
100
AcDbLine
 10
0.250000000000003
 20
220.7603
 30
0.0
 11
0.250000000000003
 21
225.3444
 31
0.0
  0
LINE
  5
32
330
1E
100
AcDbEntity
  8
0
100
AcDbLine
 10
0.250000000000003
 20
220.7603
 30
0.0
 11
0.250000000000003
 21
216.2797999999999
 31
0.0
  0
LINE
  5
33
330
1E
100
AcDbEntity
  8
0
100
AcDbLine
 10
0.250000000000003
 20
216.2797999999999
 30
0.0
 11
0.250000000000003
 21
220.7603
 31
0.0
  0
LINE
  5
34
330
1E
100
AcDbEntity
  8
0
100
AcDbLine
 10
0.250000000000003
 20
216.2797999999999
 30
0.0
 11
0.250000000000003
 21
212.0274999999999
 31
0.0
  0
LINE
  5
35
330
1E
100
AcDbEntity
  8
0
100
AcDbLine
 10
0.250000000000003
 20
212.0274999999999
 30
0.0
 11
0.250000000000003
 21
208.42321
 31
0.0
  0
LINE
  5
36
330
1E
100
AcDbEntity
  8
0
100
AcDbLine
 10
0.250000000000003
 20
212.0274999999999
 30
0.0
 11
0.250000000000003
 21
216.2797999999999
 31
0.0
  0
LINE
  5
37
330
1E
100
AcDbEntity
  8
0
100
AcDbLine
 10
0.250000000000003
 20
212.0108
 30
0.0
 11
0.250000000000003
 21
208.42635
 31
0.0
  0
LINE
  5
38
330
1E
100
AcDbEntity
  8
0
100
AcDbLine
 10
0.250000000000003
 20
212.0108
 30
0.0
 11
0.250000000000003
 21
216.2786
 31
0.0
  0
LINE
  5
39
330
1E
100
AcDbEntity
  8
0
100
AcDbLine
 10
0.250000000000003
 20
216.2786
 30
0.0
 11
0.250000000000003
 21
212.0108
 31
0.0
  0
LINE
  5
3A
330
1E
100
AcDbEntity
  8
0
100
AcDbLine
 10
0.250000000000003
 20
216.2786
 30
0.0
 11
0.250000000000003
 21
220.8626999999999
 31
0.0
  0
LINE
  5
3B
330
1E
100
AcDbEntity
  8
0
100
AcDbLine
 10
0.250000000000003
 20
225.3444
 30
0.0
 11
0.250000000000003
 21
229.6121999999999
 31
0.0
  0
LINE
  5
3C
330
1E
100
AcDbEntity
  8
0
100
AcDbLine
 10
0.250000000000003
 20
225.3444
 30
0.0
 11
0.250000000000003
 21
220.7603
 31
0.0
  0
LINE
  5
3D
330
1E
100
AcDbEntity
  8
0
100
AcDbLine
 10
0.250000000000003
 20
220.8626999999999
 30
0.0
 11
0.250000000000003
 21
216.2786
 31
0.0
  0
LINE
  5
3E
330
1E
100
AcDbEntity
  8
0
100
AcDbLine
 10
0.250000000000003
 20
220.8626999999999
 30
0.0
 11
0.250000000000003
 21
225.3432
 31
0.0
  0
LINE
  5
3F
330
1E
100
AcDbEntity
  8
0
100
AcDbLine
 10
25.37164
 20
42.7655
 30
0.0
 11
26.88134
 21
36.5095
 31
0.0
  0
LINE
  5
40
330
1E
100
AcDbEntity
  8
0
100
AcDbLine
 10
29.36790999999999
 20
30.4715
 30
0.0
 11
32.82197
 21
24.7625
 31
0.0
  0
LINE
  5
41
330
1E
100
AcDbEntity
  8
0
100
AcDbLine
 10
29.36790999999999
 20
30.30549999999999
 30
0.0
 11
32.82197
 21
24.5955
 31
0.0
  0
LINE
  5
42
330
1E
100
AcDbEntity
  8
0
100
AcDbLine
 10
26.88134
 20
36.5095
 30
0.0
 11
29.36790999999999
 21
30.4715
 31
0.0
  0
LINE
  5
43
330
1E
100
AcDbEntity
  8
0
100
AcDbLine
 10
26.88134
 20
36.34349999999999
 30
0.0
 11
29.36790999999999
 21
30.30549999999999
 31
0.0
  0
LINE
  5
44
330
1E
100
AcDbEntity
  8
0
100
AcDbLine
 10
25.37164
 20
42.59949999999999
 30
0.0
 11
26.88134
 21
36.34349999999999
 31
0.0
  0
LINE
  5
45
330
1E
100
AcDbEntity
  8
0
100
AcDbLine
 10
29.36790999999999
 20
67.7175
 30
0.0
 11
32.82197
 21
73.42749999999999
 31
0.0
  0
LINE
  5
46
330
1E
100
AcDbEntity
  8
0
100
AcDbLine
 10
26.88134
 20
61.6795
 30
0.0
 11
29.36790999999999
 21
67.7175
 31
0.0
  0
LINE
  5
47
330
1E
100
AcDbEntity
  8
0
100
AcDbLine
 10
25.37164
 20
55.4234999999999
 30
0.0
 11
26.88134
 21
61.6795
 31
0.0
  0
LINE
  5
48
330
1E
100
AcDbEntity
  8
0
100
AcDbLine
 10
24.75
 20
49.09449999999999
 30
0.0
 11
24.75
 21
48.9285
 31
0.0
  0
LINE
  5
49
330
1E
100
AcDbEntity
  8
0
100
AcDbLine
 10
24.75
 20
49.09449999999999
 30
0.0
 11
25.37164
 21
42.7655
 31
0.0
  0
LINE
  5
4A
330
1E
100
AcDbEntity
  8
0
100
AcDbLine
 10
24.75
 20
49.09449999999999
 30
0.0
 11
25.37164
 21
55.4234999999999
 31
0.0
  0
LINE
  5
4B
330
1E
100
AcDbEntity
  8
0
100
AcDbLine
 10
24.75
 20
48.9285
 30
0.0
 11
25.37164
 21
42.59949999999999
 31
0.0
  0
LINE
  5
4C
330
1E
100
AcDbEntity
  8
0
100
AcDbLine
 10
24.75
 20
48.9285
 30
0.0
 11
24.758152333702
 21
49.0115
 31
0.0
  0
LINE
  5
4D
330
1E
100
AcDbEntity
  8
0
100
AcDbLine
 10
24.75
 20
48.9285
 30
0.0
 11
24.75
 21
49.09449999999999
 31
0.0
  0
LINE
  5
4E
330
1E
100
AcDbEntity
  8
0
100
AcDbLine
 10
32.16279999999999
 20
202.8167199999999
 30
0.0
 11
32.91669999999999
 21
203.2988399999999
 31
0.0
  0
LINE
  5
4F
330
1E
100
AcDbEntity
  8
0
100
AcDbLine
 10
7.682599999999999
 20
217.9915
 30
0.0
 11
8.438599999999999
 21
217.8834999999999
 31
0.0
  0
LINE
  5
50
330
1E
100
AcDbEntity
  8
0
100
AcDbLine
 10
6.986600000000009
 20
218.2795
 30
0.0
 11
7.682599999999999
 21
217.9915
 31
0.0
  0
LINE
  5
51
330
1E
100
AcDbEntity
  8
0
100
AcDbLine
 10
8.438599999999999
 20
217.8834999999999
 30
0.0
 11
9.194599999999999
 21
217.9915
 31
0.0
  0
LINE
  5
52
330
1E
100
AcDbEntity
  8
0
100
AcDbLine
 10
9.194599999999999
 20
217.9915
 30
0.0
 11
9.890599999999999
 21
218.2795
 31
0.0
  0
LINE
  5
53
330
1E
100
AcDbEntity
  8
0
100
AcDbLine
 10
6.3746
 20
218.7475
 30
0.0
 11
6.986600000000009
 21
218.2795
 31
0.0
  0
LINE
  5
54
330
1E
100
AcDbEntity
  8
0
100
AcDbLine
 10
5.9066
 20
219.3595
 30
0.0
 11
6.3746
 21
218.7475
 31
0.0
  0
LINE
  5
55
330
1E
100
AcDbEntity
  8
0
100
AcDbLine
 10
9.890599999999999
 20
218.2795
 30
0.0
 11
10.50259999999999
 21
218.7475
 31
0.0
  0
LINE
  5
56
330
1E
100
AcDbEntity
  8
0
100
AcDbLine
 10
10.50259999999999
 20
218.7475
 30
0.0
 11
10.97059999999999
 21
219.3595
 31
0.0
  0
LINE
  5
57
330
1E
100
AcDbEntity
  8
0
100
AcDbLine
 10
5.618599999999999
 20
220.0555
 30
0.0
 11
5.9066
 21
219.3595
 31
0.0
  0
LINE
  5
58
330
1E
100
AcDbEntity
  8
0
100
AcDbLine
 10
10.97059999999999
 20
219.3595
 30
0.0
 11
11.2586
 21
220.0555
 31
0.0
  0
LINE
  5
59
330
1E
100
AcDbEntity
  8
0
100
AcDbLine
 10
11.2586
 20
220.0555
 30
0.0
 11
11.3666
 21
220.8114999999999
 31
0.0
  0
LINE
  5
5A
330
1E
100
AcDbEntity
  8
0
100
AcDbLine
 10
5.618599999999999
 20
221.5675
 30
0.0
 11
5.9066
 21
222.2634999999999
 31
0.0
  0
LINE
  5
5B
330
1E
100
AcDbEntity
  8
0
100
AcDbLine
 10
5.5106
 20
220.8114999999999
 30
0.0
 11
5.618599999999999
 21
221.5675
 31
0.0
  0
LINE
  5
5C
330
1E
100
AcDbEntity
  8
0
100
AcDbLine
 10
5.5106
 20
220.8114999999999
 30
0.0
 11
5.618599999999999
 21
220.0555
 31
0.0
  0
LINE
  5
5D
330
1E
100
AcDbEntity
  8
0
100
AcDbLine
 10
5.9066
 20
222.2634999999999
 30
0.0
 11
6.3746
 21
222.8755
 31
0.0
  0
LINE
  5
61
330
1E
100
AcDbEntity
  8
0
100
AcDbLine
 10
10.97059999999999
 20
222.2634999999999
 30
0.0
 11
11.2586
 21
221.5675
 31
0.0
  0
LINE
  5
62
330
1E
100
AcDbEntity
  8
0
100
AcDbLine
 10
11.2586
 20
221.5675
 30
0.0
 11
11.3666
 21
220.8114999999999
 31
0.0
  0
LINE
  5
63
330
1E
100
AcDbEntity
  8
0
100
AcDbLine
 10
6.986600000000009
 20
223.3435
 30
0.0
 11
7.682599999999999
 21
223.6314999999999
 31
0.0
  0
LINE
  5
64
330
1E
100
AcDbEntity
  8
0
100
AcDbLine
 10
6.3746
 20
222.8755
 30
0.0
 11
6.986600000000009
 21
223.3435
 31
0.0
  0
LINE
  5
67
330
1E
100
AcDbEntity
  8
0
100
AcDbLine
 10
9.890599999999999
 20
223.3435
 30
0.0
 11
10.50259999999999
 21
222.8755
 31
0.0
  0
LINE
  5
68
330
1E
100
AcDbEntity
  8
0
100
AcDbLine
 10
10.50259999999999
 20
222.8755
 30
0.0
 11
10.97059999999999
 21
222.2634999999999
 31
0.0
  0
LINE
  5
69
330
1E
100
AcDbEntity
  8
0
100
AcDbLine
 10
7.682599999999999
 20
223.6314999999999
 30
0.0
 11
8.438599999999999
 21
223.7394999999999
 31
0.0
  0
LINE
  5
6B
330
1E
100
AcDbEntity
  8
0
100
AcDbLine
 10
8.438599999999999
 20
223.7394999999999
 30
0.0
 11
9.194599999999999
 21
223.6314999999999
 31
0.0
  0
LINE
  5
6C
330
1E
100
AcDbEntity
  8
0
100
AcDbLine
 10
9.194599999999999
 20
223.6314999999999
 30
0.0
 11
9.890599999999999
 21
223.3435
 31
0.0
  0
LINE
  5
73
330
1E
100
AcDbEntity
  8
0
100
AcDbLine
 10
1.00380000000001
 20
202.8167199999999
 30
0.0
 11
32.16279999999999
 21
202.8167199999999
 31
0.0
  0
LINE
  5
74
330
1E
100
AcDbEntity
  8
0
100
AcDbLine
 10
0.250000000000003
 20
225.3432
 30
0.0
 11
0.250000000000003
 21
220.8626999999999
 31
0.0
  0
LINE
  5
75
330
1E
100
AcDbEntity
  8
0
100
AcDbLine
 10
0.250000000000003
 20
225.3432
 30
0.0
 11
0.250000000000003
 21
229.5954999999999
 31
0.0
  0
LINE
  5
76
330
1E
100
AcDbEntity
  8
0
100
AcDbLine
 10
0.250000000000003
 20
233.1967
 30
0.0
 11
0.250000000000003
 21
236.0257999999999
 31
0.0
  0
LINE
  5
77
330
1E
100
AcDbEntity
  8
0
100
AcDbLine
 10
0.250000000000003
 20
233.1967
 30
0.0
 11
0.250000000000003
 21
229.6121999999999
 31
0.0
  0
LINE
  5
78
330
1E
100
AcDbEntity
  8
0
100
AcDbLine
 10
0.250000000000003
 20
229.6121999999999
 30
0.0
 11
0.250000000000003
 21
233.1967
 31
0.0
  0
LINE
  5
79
330
1E
100
AcDbEntity
  8
0
100
AcDbLine
 10
0.250000000000003
 20
229.6121999999999
 30
0.0
 11
0.250000000000003
 21
225.3444
 31
0.0
  0
LINE
  5
7A
330
1E
100
AcDbEntity
  8
0
100
AcDbLine
 10
0.250000000000003
 20
236.0257999999999
 30
0.0
 11
0.250000000000003
 21
237.7327
 31
0.0
  0
LINE
  5
7B
330
1E
100
AcDbEntity
  8
0
100
AcDbLine
 10
0.250000000000003
 20
236.0257999999999
 30
0.0
 11
0.250000000000003
 21
233.1967
 31
0.0
  0
LINE
  5
7C
330
1E
100
AcDbEntity
  8
0
100
AcDbLine
 10
0.250000000000003
 20
237.7327
 30
0.0
 11
0.250000000000003
 21
238.3242
 31
0.0
  0
LINE
  5
7D
330
1E
100
AcDbEntity
  8
0
100
AcDbLine
 10
0.250000000000003
 20
237.7327
 30
0.0
 11
0.250000000000003
 21
236.0257999999999
 31
0.0
  0
LINE
  5
7E
330
1E
100
AcDbEntity
  8
0
100
AcDbLine
 10
0.250000000000003
 20
238.3242
 30
0.0
 11
1.00380000000001
 21
238.8062999999999
 31
0.0
  0
LINE
  5
7F
330
1E
100
AcDbEntity
  8
0
100
AcDbLine
 10
0.250000000000003
 20
238.3242
 30
0.0
 11
0.250000000000003
 21
237.7283999999999
 31
0.0
  0
LINE
  5
80
330
1E
100
AcDbEntity
  8
0
100
AcDbLine
 10
0.250000000000003
 20
238.3242
 30
0.0
 11
0.250000000000003
 21
237.7327
 31
0.0
  0
LINE
  5
81
330
1E
100
AcDbEntity
  8
0
100
AcDbLine
 10
0.250000000000003
 20
237.7283999999999
 30
0.0
 11
0.250000000000003
 21
235.9523
 31
0.0
  0
LINE
  5
82
330
1E
100
AcDbEntity
  8
0
100
AcDbLine
 10
0.250000000000003
 20
237.7283999999999
 30
0.0
 11
0.250000000000003
 21
238.3242
 31
0.0
  0
LINE
  5
83
330
1E
100
AcDbEntity
  8
0
100
AcDbLine
 10
0.250000000000003
 20
235.9523
 30
0.0
 11
0.250000000000003
 21
233.1998
 31
0.0
  0
LINE
  5
84
330
1E
100
AcDbEntity
  8
0
100
AcDbLine
 10
0.250000000000003
 20
235.9523
 30
0.0
 11
0.250000000000003
 21
237.7283999999999
 31
0.0
  0
LINE
  5
85
330
1E
100
AcDbEntity
  8
0
100
AcDbLine
 10
0.250000000000003
 20
233.1998
 30
0.0
 11
0.250000000000003
 21
229.5954999999999
 31
0.0
  0
LINE
  5
86
330
1E
100
AcDbEntity
  8
0
100
AcDbLine
 10
0.250000000000003
 20
233.1998
 30
0.0
 11
0.250000000000003
 21
235.9523
 31
0.0
  0
LINE
  5
87
330
1E
100
AcDbEntity
  8
0
100
AcDbLine
 10
27.75
 20
259.8115
 30
0.0
 11
31.25
 21
257.3115
 31
0.0
  0
LINE
  5
88
330
1E
100
AcDbEntity
  8
0
100
AcDbLine
 10
31.25
 20
257.3115
 30
0.0
 11
33.75
 21
253.3115
 31
0.0
  0
LINE
  5
89
330
1E
100
AcDbEntity
  8
0
100
AcDbLine
 10
31.25
 20
257.3115
 30
0.0
 11
33.75
 21
253.3115
 31
0.0
  0
LINE
  5
8A
330
1E
100
AcDbEntity
  8
0
100
AcDbLine
 10
27.75
 20
259.8115
 30
0.0
 11
31.25
 21
257.3115
 31
0.0
  0
LINE
  5
8B
330
1E
100
AcDbEntity
  8
0
100
AcDbLine
 10
24.25
 20
260.8115
 30
0.0
 11
24.25
 21
262.8115
 31
0.0
  0
LINE
  5
8C
330
1E
100
AcDbEntity
  8
0
100
AcDbLine
 10
24.25
 20
260.8115
 30
0.0
 11
25.15
 21
260.8115
 31
0.0
  0
LINE
  5
8D
330
1E
100
AcDbEntity
  8
0
100
AcDbLine
 10
24.25
 20
260.8115
 30
0.0
 11
27.75
 21
259.8115
 31
0.0
  0
LINE
  5
8E
330
1E
100
AcDbEntity
  8
0
100
AcDbLine
 10
24.25
 20
262.8115
 30
0.0
 11
25.15
 21
262.8115
 31
0.0
  0
LINE
  5
8F
330
1E
100
AcDbEntity
  8
0
100
AcDbLine
 10
24.25
 20
262.8115
 30
0.0
 11
24.25
 21
260.8115
 31
0.0
  0
LINE
  5
90
330
1E
100
AcDbEntity
  8
0
100
AcDbLine
 10
27.75
 20
260.8115
 30
0.0
 11
31.95
 21
260.8115
 31
0.0
  0
LINE
  5
91
330
1E
100
AcDbEntity
  8
0
100
AcDbLine
 10
25.15
 20
260.8115
 30
0.0
 11
27.75
 21
260.8115
 31
0.0
  0
LINE
  5
92
330
1E
100
AcDbEntity
  8
0
100
AcDbLine
 10
31.95
 20
260.8115
 30
0.0
 11
37.35
 21
260.8115
 31
0.0
  0
LINE
  5
93
330
1E
100
AcDbEntity
  8
0
100
AcDbLine
 10
31.95
 20
262.8115
 30
0.0
 11
37.35
 21
262.8115
 31
0.0
  0
LINE
  5
94
330
1E
100
AcDbEntity
  8
0
100
AcDbLine
 10
27.75
 20
262.8115
 30
0.0
 11
31.95
 21
262.8115
 31
0.0
  0
LINE
  5
95
330
1E
100
AcDbEntity
  8
0
100
AcDbLine
 10
25.15
 20
262.8115
 30
0.0
 11
27.75
 21
262.8115
 31
0.0
  0
LINE
  5
96
330
1E
100
AcDbEntity
  8
0
100
AcDbLine
 10
24.25
 20
262.8115
 30
0.0
 11
24.25
 21
260.8115
 31
0.0
  0
LINE
  5
97
330
1E
100
AcDbEntity
  8
0
100
AcDbLine
 10
24.25
 20
260.8115
 30
0.0
 11
24.25
 21
262.8115
 31
0.0
  0
LINE
  5
98
330
1E
100
AcDbEntity
  8
0
100
AcDbLine
 10
24.25
 20
260.8115
 30
0.0
 11
27.75
 21
259.8115
 31
0.0
  0
LINE
  5
99
330
1E
100
AcDbEntity
  8
0
100
AcDbLine
 10
1.00380000000001
 20
238.8062999999999
 30
0.0
 11
32.16279999999999
 21
238.8062999999999
 31
0.0
  0
LINE
  5
9A
330
1E
100
AcDbEntity
  8
0
100
AcDbLine
 10
0.250000000000003
 20
229.5954999999999
 30
0.0
 11
0.250000000000003
 21
225.3432
 31
0.0
  0
LINE
  5
9B
330
1E
100
AcDbEntity
  8
0
100
AcDbLine
 10
0.250000000000003
 20
229.5954999999999
 30
0.0
 11
0.250000000000003
 21
233.1998
 31
0.0
  0
LINE
  5
9C
330
1E
100
AcDbEntity
  8
0
100
AcDbLine
 10
32.82197
 20
73.42749999999999
 30
0.0
 11
37.1551
 21
78.7255
 31
0.0
  0
LINE
  5
A1
330
1E
100
AcDbEntity
  8
0
100
AcDbLine
 10
32.82197
 20
24.7625
 30
0.0
 11
37.1551
 21
19.4645
 31
0.0
  0
LINE
  5
A2
330
1E
100
AcDbEntity
  8
0
100
AcDbLine
 10
32.82197
 20
24.5955
 30
0.0
 11
37.1551
 21
19.2975
 31
0.0
  0
LINE
  5
A3
330
1E
100
AcDbEntity
  8
0
100
AcDbLine
 10
32.91669999999999
 20
203.2988399999999
 30
0.0
 11
32.91669999999999
 21
203.8946399999999
 31
0.0
  0
LINE
  5
A4
330
1E
100
AcDbEntity
  8
0
100
AcDbLine
 10
32.91669999999999
 20
203.2988399999999
 30
0.0
 11
33.67049999999999
 21
202.8167199999999
 31
0.0
  0
LINE
  5
A5
330
1E
100
AcDbEntity
  8
0
100
AcDbLine
 10
32.91669999999999
 20
203.8946399999999
 30
0.0
 11
32.91669999999999
 21
203.2988399999999
 31
0.0
  0
LINE
  5
A6
330
1E
100
AcDbEntity
  8
0
100
AcDbLine
 10
32.91669999999999
 20
203.8946399999999
 30
0.0
 11
32.91669999999999
 21
205.67069
 31
0.0
  0
LINE
  5
A7
330
1E
100
AcDbEntity
  8
0
100
AcDbLine
 10
32.91669999999999
 20
205.67069
 30
0.0
 11
32.91669999999999
 21
203.8946399999999
 31
0.0
  0
LINE
  5
A8
330
1E
100
AcDbEntity
  8
0
100
AcDbLine
 10
32.91669999999999
 20
205.67069
 30
0.0
 11
32.91669999999999
 21
208.42321
 31
0.0
  0
LINE
  5
A9
330
1E
100
AcDbEntity
  8
0
100
AcDbLine
 10
32.91669999999999
 20
233.1967
 30
0.0
 11
32.91669999999999
 21
229.6121999999999
 31
0.0
  0
LINE
  5
AA
330
1E
100
AcDbEntity
  8
0
100
AcDbLine
 10
32.91669999999999
 20
233.1967
 30
0.0
 11
32.91669999999999
 21
236.0257999999999
 31
0.0
  0
LINE
  5
AB
330
1E
100
AcDbEntity
  8
0
100
AcDbLine
 10
32.91669999999999
 20
229.6121999999999
 30
0.0
 11
32.91669999999999
 21
225.3444
 31
0.0
  0
LINE
  5
AC
330
1E
100
AcDbEntity
  8
0
100
AcDbLine
 10
32.91669999999999
 20
229.6121999999999
 30
0.0
 11
32.91669999999999
 21
233.1967
 31
0.0
  0
LINE
  5
AD
330
1E
100
AcDbEntity
  8
0
100
AcDbLine
 10
32.91669999999999
 20
225.3444
 30
0.0
 11
32.91669999999999
 21
220.7603
 31
0.0
  0
LINE
  5
AE
330
1E
100
AcDbEntity
  8
0
100
AcDbLine
 10
32.91669999999999
 20
225.3444
 30
0.0
 11
32.91669999999999
 21
229.6121999999999
 31
0.0
  0
LINE
  5
AF
330
1E
100
AcDbEntity
  8
0
100
AcDbLine
 10
32.91669999999999
 20
220.7603
 30
0.0
 11
32.91669999999999
 21
216.2797999999999
 31
0.0
  0
LINE
  5
B0
330
1E
100
AcDbEntity
  8
0
100
AcDbLine
 10
32.91669999999999
 20
220.7603
 30
0.0
 11
32.91669999999999
 21
225.3444
 31
0.0
  0
LINE
  5
B1
330
1E
100
AcDbEntity
  8
0
100
AcDbLine
 10
32.91669999999999
 20
216.2797999999999
 30
0.0
 11
32.91669999999999
 21
212.0274999999999
 31
0.0
  0
LINE
  5
B2
330
1E
100
AcDbEntity
  8
0
100
AcDbLine
 10
32.91669999999999
 20
216.2797999999999
 30
0.0
 11
32.91669999999999
 21
220.7603
 31
0.0
  0
LINE
  5
B3
330
1E
100
AcDbEntity
  8
0
100
AcDbLine
 10
32.91669999999999
 20
208.42321
 30
0.0
 11
32.91669999999999
 21
205.67069
 31
0.0
  0
LINE
  5
B4
330
1E
100
AcDbEntity
  8
0
100
AcDbLine
 10
32.91669999999999
 20
208.42321
 30
0.0
 11
32.91669999999999
 21
212.0274999999999
 31
0.0
  0
LINE
  5
B5
330
1E
100
AcDbEntity
  8
0
100
AcDbLine
 10
32.91669999999999
 20
212.0274999999999
 30
0.0
 11
32.91669999999999
 21
208.42321
 31
0.0
  0
LINE
  5
B6
330
1E
100
AcDbEntity
  8
0
100
AcDbLine
 10
32.91669999999999
 20
212.0274999999999
 30
0.0
 11
32.91669999999999
 21
216.2797999999999
 31
0.0
  0
LINE
  5
B7
330
1E
100
AcDbEntity
  8
0
100
AcDbLine
 10
32.91669999999999
 20
236.0257999999999
 30
0.0
 11
32.91669999999999
 21
237.7327
 31
0.0
  0
LINE
  5
B8
330
1E
100
AcDbEntity
  8
0
100
AcDbLine
 10
32.91669999999999
 20
236.0257999999999
 30
0.0
 11
32.91669999999999
 21
233.1967
 31
0.0
  0
LINE
  5
C1
330
1E
100
AcDbEntity
  8
0
100
AcDbLine
 10
37.1551
 20
78.7255
 30
0.0
 11
42.1773
 21
83.5585
 31
0.0
  0
LINE
  5
C3
330
1E
100
AcDbEntity
  8
0
100
AcDbLine
 10
37.1551
 20
19.4645
 30
0.0
 11
42.1773
 21
14.63049999999999
 31
0.0
  0
LINE
  5
D2
330
1E
100
AcDbEntity
  8
0
100
AcDbLine
 10
37.1551
 20
19.2975
 30
0.0
 11
42.1753
 21
14.4655
 31
0.0
  0
LINE
  5
D3
330
1E
100
AcDbEntity
  8
0
100
AcDbLine
 10
39.25
 20
199.3114999999999
 30
0.0
 11
44.24999999999999
 21
198.8115
 31
0.0
  0
LINE
  5
DB
330
1E
100
AcDbEntity
  8
0
100
AcDbLine
 10
42.1773
 20
83.5585
 30
0.0
 11
47.5709
 21
87.4595
 31
0.0
  0
LINE
  5
E6
330
1E
100
AcDbEntity
  8
0
100
AcDbLine
 10
42.1773
 20
14.63049999999999
 30
0.0
 11
48.07780000000001
 21
10.5165
 31
0.0
  0
LINE
  5
E9
330
1E
100
AcDbEntity
  8
0
100
AcDbLine
 10
42.1753
 20
14.4655
 30
0.0
 11
48.07780000000001
 21
10.3505
 31
0.0
  0
LINE
  5
EC
330
1E
100
AcDbEntity
  8
0
100
AcDbLine
 10
47.5709
 20
87.4595
 30
0.0
 11
52.6322
 21
91.1565
 31
0.0
  0
LINE
  5
EF
330
1E
100
AcDbEntity
  8
0
100
AcDbLine
 10
48.07780000000001
 20
10.5165
 30
0.0
 11
54.5456
 21
6.96749999999999
 31
0.0
  0
LINE
  5
F1
330
1E
100
AcDbEntity
  8
0
100
AcDbLine
 10
48.07780000000001
 20
10.3505
 30
0.0
 11
54.5456
 21
6.80049999999999
 31
0.0
  0
LINE
  5
F2
330
1E
100
AcDbEntity
  8
0
100
AcDbLine
 10
46.04999999999999
 20
198.8115
 30
0.0
 11
47.25
 21
198.8115
 31
0.0
  0
LINE
  5
F3
330
1E
100
AcDbEntity
  8
0
100
AcDbLine
 10
47.25
 20
198.8115
 30
0.0
 11
48.75
 21
198.8115
 31
0.0
  0
LINE
  5
F6
330
1E
100
AcDbEntity
  8
0
100
AcDbLine
 10
52.6322
 20
91.1565
 30
0.0
 11
58.31100000000001
 21
94.2955
 31
0.0
  0
LINE
  5
F9
330
1E
100
AcDbEntity
  8
0
100
AcDbLine
 10
54.5456
 20
6.96749999999999
 30
0.0
 11
61.5157
 21
4.137500000000009
 31
0.0
  0
LINE
  5
FA
330
1E
100
AcDbEntity
  8
0
100
AcDbLine
 10
54.5456
 20
6.80049999999999
 30
0.0
 11
61.5157
 21
3.97149999999999
 31
0.0
  0
LINE
  5
FB
330
1E
100
AcDbEntity
  8
0
100
AcDbLine
 10
54.45
 20
198.8115
 30
0.0
 11
55.45
 21
198.8115
 31
0.0
  0
LINE
  5
FC
330
1E
100
AcDbEntity
  8
0
100
AcDbLine
 10
58.31100000000001
 20
94.2955
 30
0.0
 11
64.2685
 21
96.6825
 31
0.0
  0
LINE
  5
FD
330
1E
100
AcDbEntity
  8
0
100
AcDbLine
 10
61.5157
 20
4.137500000000009
 30
0.0
 11
68.8866
 21
2.100500000000019
 31
0.0
  0
LINE
  5
FE
330
1E
100
AcDbEntity
  8
0
100
AcDbLine
 10
61.5157
 20
3.97149999999999
 30
0.0
 11
68.8866
 21
1.9345
 31
0.0
  0
LINE
  5
FF
330
1E
100
AcDbEntity
  8
0
100
AcDbLine
 10
55.45
 20
198.8115
 30
0.0
 11
56.05
 21
198.8115
 31
0.0
  0
LINE
  5
100
330
1E
100
AcDbEntity
  8
0
100
AcDbLine
 10
56.05
 20
198.8115
 30
0.0
 11
56.25
 21
198.8115
 31
0.0
  0
LINE
  5
101
330
1E
100
AcDbEntity
  8
0
100
AcDbLine
 10
53.25
 20
198.8115
 30
0.0
 11
54.45
 21
198.8115
 31
0.0
  0
LINE
  5
102
330
1E
100
AcDbEntity
  8
0
100
AcDbLine
 10
51.75
 20
198.8115
 30
0.0
 11
53.25
 21
198.8115
 31
0.0
  0
LINE
  5
103
330
1E
100
AcDbEntity
  8
0
100
AcDbLine
 10
50.25
 20
198.8115
 30
0.0
 11
51.75
 21
198.8115
 31
0.0
  0
LINE
  5
104
330
1E
100
AcDbEntity
  8
0
100
AcDbLine
 10
56.25
 20
198.8115
 30
0.0
 11
61.25
 21
199.3114999999999
 31
0.0
  0
LINE
  5
105
330
1E
100
AcDbEntity
  8
0
100
AcDbLine
 10
48.75
 20
198.8115
 30
0.0
 11
50.25
 21
198.8115
 31
0.0
  0
LINE
  5
106
330
1E
100
AcDbEntity
  8
0
100
AcDbLine
 10
45.04999999999999
 20
198.8115
 30
0.0
 11
46.04999999999999
 21
198.8115
 31
0.0
  0
LINE
  5
107
330
1E
100
AcDbEntity
  8
0
100
AcDbLine
 10
44.45
 20
198.8115
 30
0.0
 11
45.04999999999999
 21
198.8115
 31
0.0
  0
LINE
  5
108
330
1E
100
AcDbEntity
  8
0
100
AcDbLine
 10
45.04999999999999
 20
198.8115
 30
0.0
 11
46.04999999999999
 21
198.8115
 31
0.0
  0
LINE
  5
109
330
1E
100
AcDbEntity
  8
0
100
AcDbLine
 10
44.45
 20
198.8115
 30
0.0
 11
45.04999999999999
 21
198.8115
 31
0.0
  0
LINE
  5
10A
330
1E
100
AcDbEntity
  8
0
100
AcDbLine
 10
44.24999999999999
 20
198.8115
 30
0.0
 11
44.45
 21
198.8115
 31
0.0
  0
LINE
  5
10B
330
1E
100
AcDbEntity
  8
0
100
AcDbLine
 10
46.04999999999999
 20
198.8115
 30
0.0
 11
47.25
 21
198.8115
 31
0.0
  0
LINE
  5
10C
330
1E
100
AcDbEntity
  8
0
100
AcDbLine
 10
47.25
 20
198.8115
 30
0.0
 11
48.75
 21
198.8115
 31
0.0
  0
LINE
  5
10D
330
1E
100
AcDbEntity
  8
0
100
AcDbLine
 10
48.75
 20
198.8115
 30
0.0
 11
50.25
 21
198.8115
 31
0.0
  0
LINE
  5
10E
330
1E
100
AcDbEntity
  8
0
100
AcDbLine
 10
53.25
 20
198.8115
 30
0.0
 11
54.45
 21
198.8115
 31
0.0
  0
LINE
  5
10F
330
1E
100
AcDbEntity
  8
0
100
AcDbLine
 10
51.75
 20
198.8115
 30
0.0
 11
53.25
 21
198.8115
 31
0.0
  0
LINE
  5
110
330
1E
100
AcDbEntity
  8
0
100
AcDbLine
 10
50.25
 20
198.8115
 30
0.0
 11
51.75
 21
198.8115
 31
0.0
  0
LINE
  5
111
330
1E
100
AcDbEntity
  8
0
100
AcDbLine
 10
54.45
 20
198.8115
 30
0.0
 11
55.45
 21
198.8115
 31
0.0
  0
LINE
  5
112
330
1E
100
AcDbEntity
  8
0
100
AcDbLine
 10
55.45
 20
198.8115
 30
0.0
 11
56.05
 21
198.8115
 31
0.0
  0
LINE
  5
113
330
1E
100
AcDbEntity
  8
0
100
AcDbLine
 10
56.05
 20
198.8115
 30
0.0
 11
56.25
 21
198.8115
 31
0.0
  0
LINE
  5
114
330
1E
100
AcDbEntity
  8
0
100
AcDbLine
 10
56.25
 20
198.8115
 30
0.0
 11
61.25
 21
199.3114999999999
 31
0.0
  0
LINE
  5
115
330
1E
100
AcDbEntity
  8
0
100
AcDbLine
 10
61.25
 20
199.3114999999999
 30
0.0
 11
63.25
 21
199.8115
 31
0.0
  0
LINE
  5
116
330
1E
100
AcDbEntity
  8
0
100
AcDbLine
 10
61.25
 20
199.3114999999999
 30
0.0
 11
63.25
 21
199.8115
 31
0.0
  0
LINE
  5
117
330
1E
100
AcDbEntity
  8
0
100
AcDbLine
 10
44.24999999999999
 20
198.8115
 30
0.0
 11
44.45
 21
198.8115
 31
0.0
  0
LINE
  5
118
330
1E
100
AcDbEntity
  8
0
100
AcDbLine
 10
39.25
 20
199.3114999999999
 30
0.0
 11
44.24999999999999
 21
198.8115
 31
0.0
  0
LINE
  5
119
330
1E
100
AcDbEntity
  8
0
100
AcDbLine
 10
37.25
 20
199.8115
 30
0.0
 11
37.25
 21
220.3114999999999
 31
0.0
  0
LINE
  5
11A
330
1E
100
AcDbEntity
  8
0
100
AcDbLine
 10
37.25
 20
199.8115
 30
0.0
 11
37.75
 21
199.8115
 31
0.0
  0
LINE
  5
11B
330
1E
100
AcDbEntity
  8
0
100
AcDbLine
 10
37.25
 20
199.8115
 30
0.0
 11
39.25
 21
199.3114999999999
 31
0.0
  0
LINE
  5
11C
330
1E
100
AcDbEntity
  8
0
100
AcDbLine
 10
41.04999999999999
 20
199.8115
 30
0.0
 11
43.75
 21
199.8115
 31
0.0
  0
LINE
  5
11D
330
1E
100
AcDbEntity
  8
0
100
AcDbLine
 10
43.75
 20
199.8115
 30
0.0
 11
46.95
 21
199.8115
 31
0.0
  0
LINE
  5
11E
330
1E
100
AcDbEntity
  8
0
100
AcDbLine
 10
46.95
 20
199.8115
 30
0.0
 11
50.25
 21
199.8115
 31
0.0
  0
LINE
  5
11F
330
1E
100
AcDbEntity
  8
0
100
AcDbLine
 10
38.95
 20
199.8115
 30
0.0
 11
41.04999999999999
 21
199.8115
 31
0.0
  0
LINE
  5
120
330
1E
100
AcDbEntity
  8
0
100
AcDbLine
 10
37.75
 20
199.8115
 30
0.0
 11
38.95
 21
199.8115
 31
0.0
  0
LINE
  5
121
330
1E
100
AcDbEntity
  8
0
100
AcDbLine
 10
59.45
 20
199.8115
 30
0.0
 11
61.55
 21
199.8115
 31
0.0
  0
LINE
  5
122
330
1E
100
AcDbEntity
  8
0
100
AcDbLine
 10
61.55
 20
199.8115
 30
0.0
 11
62.75
 21
199.8115
 31
0.0
  0
LINE
  5
123
330
1E
100
AcDbEntity
  8
0
100
AcDbLine
 10
62.75
 20
199.8115
 30
0.0
 11
63.25
 21
199.8115
 31
0.0
  0
LINE
  5
124
330
1E
100
AcDbEntity
  8
0
100
AcDbLine
 10
56.75
 20
199.8115
 30
0.0
 11
59.45
 21
199.8115
 31
0.0
  0
LINE
  5
125
330
1E
100
AcDbEntity
  8
0
100
AcDbLine
 10
53.55
 20
199.8115
 30
0.0
 11
56.75
 21
199.8115
 31
0.0
  0
LINE
  5
126
330
1E
100
AcDbEntity
  8
0
100
AcDbLine
 10
50.25
 20
199.8115
 30
0.0
 11
53.55
 21
199.8115
 31
0.0
  0
LINE
  5
127
330
1E
100
AcDbEntity
  8
0
100
AcDbLine
 10
63.25
 20
199.8115
 30
0.0
 11
63.25
 21
220.3114999999999
 31
0.0
  0
LINE
  5
128
330
1E
100
AcDbEntity
  8
0
100
AcDbLine
 10
37.25
 20
202.8167199999999
 30
0.0
 11
37.25
 21
199.8115
 31
0.0
  0
LINE
  5
129
330
1E
100
AcDbEntity
  8
0
100
AcDbLine
 10
37.25
 20
199.8115
 30
0.0
 11
37.25
 21
202.8167199999999
 31
0.0
  0
LINE
  5
12A
330
1E
100
AcDbEntity
  8
0
100
AcDbLine
 10
37.25
 20
199.8115
 30
0.0
 11
39.25
 21
199.3114999999999
 31
0.0
  0
LINE
  5
12B
330
1E
100
AcDbEntity
  8
0
100
AcDbLine
 10
33.67049999999999
 20
202.8167199999999
 30
0.0
 11
37.25
 21
202.8167199999999
 31
0.0
  0
LINE
  5
12C
330
1E
100
AcDbEntity
  8
0
100
AcDbLine
 10
33.67049999999999
 20
202.8167199999999
 30
0.0
 11
37.25
 21
202.8167199999999
 31
0.0
  0
LINE
  5
12D
330
1E
100
AcDbEntity
  8
0
100
AcDbLine
 10
64.2685
 20
96.6825
 30
0.0
 11
70.7684
 21
98.50149999999999
 31
0.0
  0
LINE
  5
12E
330
1E
100
AcDbEntity
  8
0
100
AcDbLine
 10
68.8866
 20
2.100500000000019
 30
0.0
 11
76.5239
 21
0.864500000000001
 31
0.0
  0
LINE
  5
12F
330
1E
100
AcDbEntity
  8
0
100
AcDbLine
 10
68.8866
 20
1.9345
 30
0.0
 11
76.5239
 21
0.6975000000000301
 31
0.0
  0
LINE
  5
130
330
1E
100
AcDbEntity
  8
0
100
AcDbLine
 10
70.25
 20
202.8166999999999
 30
0.0
 11
70.25
 21
203.4028999999999
 31
0.0
  0
LINE
  5
131
330
1E
100
AcDbEntity
  8
0
100
AcDbLine
 10
70.25
 20
188.8114999999999
 30
0.0
 11
70.75399999999999
 21
185.7564999999999
 31
0.0
  0
LINE
  5
132
330
1E
100
AcDbEntity
  8
0
100
AcDbLine
 10
70.25
 20
188.8114999999999
 30
0.0
 11
70.25
 21
210.8115
 31
0.0
  0
LINE
  5
133
330
1E
100
AcDbEntity
  8
0
100
AcDbLine
 10
70.25
 20
188.8114999999999
 30
0.0
 11
70.75399999999999
 21
191.8663999999999
 31
0.0
  0
LINE
  5
134
330
1E
100
AcDbEntity
  8
0
100
AcDbLine
 10
63.25
 20
202.8167199999999
 30
0.0
 11
70.25
 21
202.8167199999999
 31
0.0
  0
LINE
  5
135
330
1E
100
AcDbEntity
  8
0
100
AcDbLine
 10
70.25
 20
205.2675999999999
 30
0.0
 11
70.25
 21
203.4028999999999
 31
0.0
  0
LINE
  5
136
330
1E
100
AcDbEntity
  8
0
100
AcDbLine
 10
70.25
 20
205.2675999999999
 30
0.0
 11
70.25
 21
208.1449
 31
0.0
  0
LINE
  5
137
330
1E
100
AcDbEntity
  8
0
100
AcDbLine
 10
70.25
 20
203.4028999999999
 30
0.0
 11
70.25
 21
202.8166999999999
 31
0.0
  0
LINE
  5
138
330
1E
100
AcDbEntity
  8
0
100
AcDbLine
 10
70.25
 20
203.4028999999999
 30
0.0
 11
70.25
 21
205.2675999999999
 31
0.0
  0
LINE
  5
139
330
1E
100
AcDbEntity
  8
0
100
AcDbLine
 10
70.25
 20
203.4028699999999
 30
0.0
 11
70.25
 21
202.8167199999999
 31
0.0
  0
LINE
  5
13A
330
1E
100
AcDbEntity
  8
0
100
AcDbLine
 10
70.25
 20
205.26762
 30
0.0
 11
70.25
 21
203.4028699999999
 31
0.0
  0
LINE
  5
13B
330
1E
100
AcDbEntity
  8
0
100
AcDbLine
 10
41.04999999999999
 20
220.3114999999999
 30
0.0
 11
43.75
 21
220.3114999999999
 31
0.0
  0
LINE
  5
13C
330
1E
100
AcDbEntity
  8
0
100
AcDbLine
 10
43.75
 20
220.3114999999999
 30
0.0
 11
46.95
 21
220.3114999999999
 31
0.0
  0
LINE
  5
13D
330
1E
100
AcDbEntity
  8
0
100
AcDbLine
 10
46.95
 20
220.3114999999999
 30
0.0
 11
50.25
 21
220.3114999999999
 31
0.0
  0
LINE
  5
13E
330
1E
100
AcDbEntity
  8
0
100
AcDbLine
 10
38.95
 20
220.3114999999999
 30
0.0
 11
41.04999999999999
 21
220.3114999999999
 31
0.0
  0
LINE
  5
13F
330
1E
100
AcDbEntity
  8
0
100
AcDbLine
 10
37.75
 20
220.3114999999999
 30
0.0
 11
38.95
 21
220.3114999999999
 31
0.0
  0
LINE
  5
140
330
1E
100
AcDbEntity
  8
0
100
AcDbLine
 10
37.25
 20
220.3114999999999
 30
0.0
 11
37.75
 21
220.3114999999999
 31
0.0
  0
LINE
  5
141
330
1E
100
AcDbEntity
  8
0
100
AcDbLine
 10
37.25
 20
220.3114999999999
 30
0.0
 11
37.75
 21
220.8114999999999
 31
0.0
  0
LINE
  5
142
330
1E
100
AcDbEntity
  8
0
100
AcDbLine
 10
37.25
 20
220.3114999999999
 30
0.0
 11
37.25
 21
199.8115
 31
0.0
  0
LINE
  5
143
330
1E
100
AcDbEntity
  8
0
100
AcDbLine
 10
59.45
 20
220.3114999999999
 30
0.0
 11
61.55
 21
220.3114999999999
 31
0.0
  0
LINE
  5
144
330
1E
100
AcDbEntity
  8
0
100
AcDbLine
 10
70.25
 20
208.1449
 30
0.0
 11
70.25
 21
205.2675999999999
 31
0.0
  0
LINE
  5
145
330
1E
100
AcDbEntity
  8
0
100
AcDbLine
 10
70.25
 20
208.1449
 30
0.0
 11
70.25
 21
211.8114999999999
 31
0.0
  0
LINE
  5
146
330
1E
100
AcDbEntity
  8
0
100
AcDbLine
 10
70.25
 20
210.8115
 30
0.0
 11
70.25
 21
188.8114999999999
 31
0.0
  0
LINE
  5
147
330
1E
100
AcDbEntity
  8
0
100
AcDbLine
 10
70.25
 20
210.8115
 30
0.0
 11
70.75399999999999
 21
213.8663999999999
 31
0.0
  0
LINE
  5
148
330
1E
100
AcDbEntity
  8
0
100
AcDbLine
 10
70.25
 20
210.8115
 30
0.0
 11
70.25
 21
211.8114999999999
 31
0.0
  0
LINE
  5
149
330
1E
100
AcDbEntity
  8
0
100
AcDbLine
 10
63.25
 20
220.3114999999999
 30
0.0
 11
63.25
 21
199.8115
 31
0.0
  0
LINE
  5
14A
330
1E
100
AcDbEntity
  8
0
100
AcDbLine
 10
61.55
 20
220.3114999999999
 30
0.0
 11
62.75
 21
220.3114999999999
 31
0.0
  0
LINE
  5
14B
330
1E
100
AcDbEntity
  8
0
100
AcDbLine
 10
62.75
 20
220.3114999999999
 30
0.0
 11
63.25
 21
220.3114999999999
 31
0.0
  0
LINE
  5
14C
330
1E
100
AcDbEntity
  8
0
100
AcDbLine
 10
56.75
 20
220.3114999999999
 30
0.0
 11
59.45
 21
220.3114999999999
 31
0.0
  0
LINE
  5
14D
330
1E
100
AcDbEntity
  8
0
100
AcDbLine
 10
53.55
 20
220.3114999999999
 30
0.0
 11
56.75
 21
220.3114999999999
 31
0.0
  0
LINE
  5
14E
330
1E
100
AcDbEntity
  8
0
100
AcDbLine
 10
50.25
 20
220.3114999999999
 30
0.0
 11
53.55
 21
220.3114999999999
 31
0.0
  0
LINE
  5
14F
330
1E
100
AcDbEntity
  8
0
100
AcDbLine
 10
41.45
 20
220.8114999999999
 30
0.0
 11
44.05
 21
220.8114999999999
 31
0.0
  0
LINE
  5
150
330
1E
100
AcDbEntity
  8
0
100
AcDbLine
 10
44.05
 20
220.8114999999999
 30
0.0
 11
47.05
 21
220.8114999999999
 31
0.0
  0
LINE
  5
151
330
1E
100
AcDbEntity
  8
0
100
AcDbLine
 10
47.05
 20
220.8114999999999
 30
0.0
 11
50.25
 21
220.8114999999999
 31
0.0
  0
LINE
  5
152
330
1E
100
AcDbEntity
  8
0
100
AcDbLine
 10
39.45
 20
220.8114999999999
 30
0.0
 11
41.45
 21
220.8114999999999
 31
0.0
  0
LINE
  5
153
330
1E
100
AcDbEntity
  8
0
100
AcDbLine
 10
38.25
 20
220.8114999999999
 30
0.0
 11
39.45
 21
220.8114999999999
 31
0.0
  0
LINE
  5
154
330
1E
100
AcDbEntity
  8
0
100
AcDbLine
 10
37.75
 20
220.8114999999999
 30
0.0
 11
38.25
 21
220.8114999999999
 31
0.0
  0
LINE
  5
155
330
1E
100
AcDbEntity
  8
0
100
AcDbLine
 10
59.05
 20
220.8114999999999
 30
0.0
 11
61.05
 21
220.8114999999999
 31
0.0
  0
LINE
  5
156
330
1E
100
AcDbEntity
  8
0
100
AcDbLine
 10
61.05
 20
220.8114999999999
 30
0.0
 11
62.25
 21
220.8114999999999
 31
0.0
  0
LINE
  5
157
330
1E
100
AcDbEntity
  8
0
100
AcDbLine
 10
62.25
 20
220.8114999999999
 30
0.0
 11
62.75
 21
220.8114999999999
 31
0.0
  0
LINE
  5
158
330
1E
100
AcDbEntity
  8
0
100
AcDbLine
 10
56.45
 20
220.8114999999999
 30
0.0
 11
59.05
 21
220.8114999999999
 31
0.0
  0
LINE
  5
159
330
1E
100
AcDbEntity
  8
0
100
AcDbLine
 10
53.45
 20
220.8114999999999
 30
0.0
 11
56.45
 21
220.8114999999999
 31
0.0
  0
LINE
  5
15A
330
1E
100
AcDbEntity
  8
0
100
AcDbLine
 10
50.25
 20
220.8114999999999
 30
0.0
 11
53.45
 21
220.8114999999999
 31
0.0
  0
LINE
  5
15B
330
1E
100
AcDbEntity
  8
0
100
AcDbLine
 10
41.04999999999999
 20
221.3115
 30
0.0
 11
43.75
 21
221.3115
 31
0.0
  0
LINE
  5
15C
330
1E
100
AcDbEntity
  8
0
100
AcDbLine
 10
43.75
 20
221.3115
 30
0.0
 11
46.95
 21
221.3115
 31
0.0
  0
LINE
  5
15D
330
1E
100
AcDbEntity
  8
0
100
AcDbLine
 10
46.95
 20
221.3115
 30
0.0
 11
50.25
 21
221.3115
 31
0.0
  0
LINE
  5
15E
330
1E
100
AcDbEntity
  8
0
100
AcDbLine
 10
38.95
 20
221.3115
 30
0.0
 11
41.04999999999999
 21
221.3115
 31
0.0
  0
LINE
  5
15F
330
1E
100
AcDbEntity
  8
0
100
AcDbLine
 10
37.75
 20
221.3115
 30
0.0
 11
38.95
 21
221.3115
 31
0.0
  0
LINE
  5
160
330
1E
100
AcDbEntity
  8
0
100
AcDbLine
 10
37.25
 20
221.3115
 30
0.0
 11
37.25
 21
231.8115
 31
0.0
  0
LINE
  5
161
330
1E
100
AcDbEntity
  8
0
100
AcDbLine
 10
37.25
 20
221.3115
 30
0.0
 11
37.75
 21
221.3115
 31
0.0
  0
LINE
  5
162
330
1E
100
AcDbEntity
  8
0
100
AcDbLine
 10
37.25
 20
221.3115
 30
0.0
 11
37.75
 21
220.8114999999999
 31
0.0
  0
LINE
  5
163
330
1E
100
AcDbEntity
  8
0
100
AcDbLine
 10
59.45
 20
221.3115
 30
0.0
 11
61.55
 21
221.3115
 31
0.0
  0
LINE
  5
164
330
1E
100
AcDbEntity
  8
0
100
AcDbLine
 10
61.55
 20
221.3115
 30
0.0
 11
62.75
 21
221.3115
 31
0.0
  0
LINE
  5
165
330
1E
100
AcDbEntity
  8
0
100
AcDbLine
 10
62.75
 20
221.3115
 30
0.0
 11
63.25
 21
221.3115
 31
0.0
  0
LINE
  5
166
330
1E
100
AcDbEntity
  8
0
100
AcDbLine
 10
56.75
 20
221.3115
 30
0.0
 11
59.45
 21
221.3115
 31
0.0
  0
LINE
  5
167
330
1E
100
AcDbEntity
  8
0
100
AcDbLine
 10
53.55
 20
221.3115
 30
0.0
 11
56.75
 21
221.3115
 31
0.0
  0
LINE
  5
168
330
1E
100
AcDbEntity
  8
0
100
AcDbLine
 10
50.25
 20
221.3115
 30
0.0
 11
53.55
 21
221.3115
 31
0.0
  0
LINE
  5
169
330
1E
100
AcDbEntity
  8
0
100
AcDbLine
 10
62.75
 20
220.8114999999999
 30
0.0
 11
63.25
 21
221.3115
 31
0.0
  0
LINE
  5
16A
330
1E
100
AcDbEntity
  8
0
100
AcDbLine
 10
62.75
 20
220.8114999999999
 30
0.0
 11
63.25
 21
220.3114999999999
 31
0.0
  0
LINE
  5
16B
330
1E
100
AcDbEntity
  8
0
100
AcDbLine
 10
63.25
 20
221.3115
 30
0.0
 11
63.25
 21
231.8115
 31
0.0
  0
LINE
  5
16C
330
1E
100
AcDbEntity
  8
0
100
AcDbLine
 10
37.25
 20
231.8115
 30
0.0
 11
37.25
 21
221.3115
 31
0.0
  0
LINE
  5
16D
330
1E
100
AcDbEntity
  8
0
100
AcDbLine
 10
63.25
 20
231.8115
 30
0.0
 11
63.75
 21
239.8115
 31
0.0
  0
LINE
  5
16E
330
1E
100
AcDbEntity
  8
0
100
AcDbLine
 10
63.25
 20
231.8115
 30
0.0
 11
63.25
 21
221.3115
 31
0.0
  0
LINE
  5
16F
330
1E
100
AcDbEntity
  8
0
100
AcDbLine
 10
70.25
 20
236.4
 30
0.0
 11
70.25
 21
233.5347999999999
 31
0.0
  0
LINE
  5
170
330
1E
100
AcDbEntity
  8
0
100
AcDbLine
 10
70.25
 20
236.4
 30
0.0
 11
70.25
 21
238.1428
 31
0.0
  0
LINE
  5
171
330
1E
100
AcDbEntity
  8
0
100
AcDbLine
 10
70.25
 20
233.5347999999999
 30
0.0
 11
70.25
 21
229.8782999999999
 31
0.0
  0
LINE
  5
172
330
1E
100
AcDbEntity
  8
0
100
AcDbLine
 10
70.25
 20
233.5347999999999
 30
0.0
 11
70.25
 21
236.4
 31
0.0
  0
LINE
  5
173
330
1E
100
AcDbEntity
  8
0
100
AcDbLine
 10
70.25
 20
229.8782999999999
 30
0.0
 11
70.25
 21
225.4761
 31
0.0
  0
LINE
  5
174
330
1E
100
AcDbEntity
  8
0
100
AcDbLine
 10
70.25
 20
229.8782999999999
 30
0.0
 11
70.25
 21
233.5347999999999
 31
0.0
  0
LINE
  5
175
330
1E
100
AcDbEntity
  8
0
100
AcDbLine
 10
70.25
 20
225.4761
 30
0.0
 11
70.25
 21
220.7314
 31
0.0
  0
LINE
  5
176
330
1E
100
AcDbEntity
  8
0
100
AcDbLine
 10
70.25
 20
225.4761
 30
0.0
 11
70.25
 21
229.8782999999999
 31
0.0
  0
LINE
  5
177
330
1E
100
AcDbEntity
  8
0
100
AcDbLine
 10
70.25
 20
220.7314
 30
0.0
 11
70.25
 21
216.1261
 31
0.0
  0
LINE
  5
178
330
1E
100
AcDbEntity
  8
0
100
AcDbLine
 10
70.25
 20
220.7314
 30
0.0
 11
70.25
 21
225.4761
 31
0.0
  0
LINE
  5
179
330
1E
100
AcDbEntity
  8
0
100
AcDbLine
 10
70.25
 20
216.1261
 30
0.0
 11
70.25
 21
211.8114999999999
 31
0.0
  0
LINE
  5
17A
330
1E
100
AcDbEntity
  8
0
100
AcDbLine
 10
70.25
 20
216.1261
 30
0.0
 11
70.25
 21
220.7314
 31
0.0
  0
LINE
  5
17B
330
1E
100
AcDbEntity
  8
0
100
AcDbLine
 10
70.25
 20
208.14485
 30
0.0
 11
70.25
 21
205.26762
 31
0.0
  0
LINE
  5
17C
330
1E
100
AcDbEntity
  8
0
100
AcDbLine
 10
70.7684
 20
98.50149999999999
 30
0.0
 11
74.25
 21
99.0902605747522
 31
0.0
  0
LINE
  5
17D
330
1E
100
AcDbEntity
  8
0
100
AcDbLine
 10
84.25
 20
0.355499999999984
 30
0.0
 11
91.9761
 21
0.864500000000001
 31
0.0
  0
LINE
  5
17E
330
1E
100
AcDbEntity
  8
0
100
AcDbLine
 10
91.9761
 20
0.6975000000000301
 30
0.0
 11
99.61339999999999
 21
1.9345
 31
0.0
  0
LINE
  5
17F
330
1E
100
AcDbEntity
  8
0
100
AcDbLine
 10
84.25
 20
0.188500000000013
 30
0.0
 11
91.9761
 21
0.6975000000000301
 31
0.0
  0
LINE
  5
180
330
1E
100
AcDbEntity
  8
0
100
AcDbLine
 10
72.75
 20
126.8076999999999
 30
0.0
 11
73.0262
 21
121.3017999999999
 31
0.0
  0
LINE
  5
181
330
1E
100
AcDbEntity
  8
0
100
AcDbLine
 10
72.75
 20
126.8076999999999
 30
0.0
 11
73.0262
 21
132.3127
 31
0.0
  0
LINE
  5
182
330
1E
100
AcDbEntity
  8
0
100
AcDbLine
 10
72.78929999999999
 20
118.6058
 30
0.0
 11
73.08159999999999
 21
118.3426
 31
0.0
  0
LINE
  5
183
330
1E
100
AcDbEntity
  8
0
100
AcDbLine
 10
72.5262
 20
121.6847999999999
 30
0.0
 11
72.78929999999999
 21
118.6058
 31
0.0
  0
LINE
  5
184
330
1E
100
AcDbEntity
  8
0
100
AcDbLine
 10
72.78929999999999
 20
135.7755
 30
0.0
 11
73.08159999999999
 21
136.0387
 31
0.0
  0
LINE
  5
185
330
1E
100
AcDbEntity
  8
0
100
AcDbLine
 10
72.78929999999999
 20
138.0732
 30
0.0
 11
73.08159999999999
 21
138.3362999999999
 31
0.0
  0
LINE
  5
186
330
1E
100
AcDbEntity
  8
0
100
AcDbLine
 10
72.5262
 20
134.9941
 30
0.0
 11
72.78929999999999
 21
138.0732
 31
0.0
  0
LINE
  5
187
330
1E
100
AcDbEntity
  8
0
100
AcDbLine
 10
72.5262
 20
132.6956999999999
 30
0.0
 11
72.78929999999999
 21
135.7755
 31
0.0
  0
LINE
  5
188
330
1E
100
AcDbEntity
  8
0
100
AcDbLine
 10
72.25
 20
129.4883
 30
0.0
 11
72.25
 21
127.1907
 31
0.0
  0
LINE
  5
189
330
1E
100
AcDbEntity
  8
0
100
AcDbLine
 10
72.25
 20
129.4883
 30
0.0
 11
72.5262
 21
134.9941
 31
0.0
  0
LINE
  5
18A
330
1E
100
AcDbEntity
  8
0
100
AcDbLine
 10
72.25
 20
127.1907
 30
0.0
 11
72.5262
 21
121.6847999999999
 31
0.0
  0
LINE
  5
18B
330
1E
100
AcDbEntity
  8
0
100
AcDbLine
 10
72.25
 20
127.1907
 30
0.0
 11
72.25
 21
129.4883
 31
0.0
  0
LINE
  5
18C
330
1E
100
AcDbEntity
  8
0
100
AcDbLine
 10
72.25
 20
127.1907
 30
0.0
 11
72.5262
 21
132.6956999999999
 31
0.0
  0
LINE
  5
18D
330
1E
100
AcDbEntity
  8
0
100
AcDbLine
 10
73.08159999999999
 20
136.0387
 30
0.0
 11
73.55
 21
136.1895
 31
0.0
  0
LINE
  5
18E
330
1E
100
AcDbEntity
  8
0
100
AcDbLine
 10
73.08159999999999
 20
138.3362999999999
 30
0.0
 11
73.55
 21
138.488
 31
0.0
  0
LINE
  5
18F
330
1E
100
AcDbEntity
  8
0
100
AcDbLine
 10
73.08159999999999
 20
138.3362999999999
 30
0.0
 11
73.36409999999999
 21
138.5243
 31
0.0
  0
LINE
  5
190
330
1E
100
AcDbEntity
  8
0
100
AcDbLine
 10
73.0262
 20
132.3127
 30
0.0
 11
73.28929999999999
 21
135.3925
 31
0.0
  0
LINE
  5
191
330
1E
100
AcDbEntity
  8
0
100
AcDbLine
 10
73.0262
 20
121.3017999999999
 30
0.0
 11
73.28929999999999
 21
118.2228
 31
0.0
  0
LINE
  5
192
330
1E
100
AcDbEntity
  8
0
100
AcDbLine
 10
74.25
 20
94.6052138310185
 30
0.0
 11
74.25
 21
98.44750000000001
 31
0.0
  0
LINE
  5
193
330
1E
100
AcDbEntity
  8
0
100
AcDbLine
 10
74.25
 20
98.44750000000001
 30
0.0
 11
74.25
 21
107.6043
 31
0.0
  0
LINE
  5
194
330
1E
100
AcDbEntity
  8
0
100
AcDbLine
 10
74.25
 20
98.44750000000001
 30
0.0
 11
74.25
 21
94.6052138310185
 31
0.0
  0
LINE
  5
195
330
1E
100
AcDbEntity
  8
0
100
AcDbLine
 10
74.7893
 20
68.99049999999999
 30
0.0
 11
74.25
 21
94.6052138310185
 31
0.0
  0
LINE
  5
196
330
1E
100
AcDbEntity
  8
0
100
AcDbLine
 10
74.7893
 20
68.99049999999999
 30
0.0
 11
75.0816
 21
69.20950000000001
 31
0.0
  0
LINE
  5
197
330
1E
100
AcDbEntity
  8
0
100
AcDbLine
 10
74.7613870025407
 20
68.71826605290511
 30
0.0
 11
74.7893
 21
68.99049999999999
 31
0.0
  0
LINE
  5
199
330
1E
100
AcDbEntity
  8
0
100
AcDbLine
 10
74.25
 20
94.6052138310185
 30
0.0
 11
74.7893
 21
68.99049999999999
 31
0.0
  0
LINE
  5
19C
330
1E
100
AcDbEntity
  8
0
100
AcDbLine
 10
75.54999999999999
 20
69.3345
 30
0.0
 11
84.25
 21
69.3345
 31
0.0
  0
LINE
  5
19D
330
1E
100
AcDbEntity
  8
0
100
AcDbLine
 10
75.0816
 20
69.20950000000001
 30
0.0
 11
75.54999999999999
 21
69.3345
 31
0.0
  0
LINE
  5
1A1
330
1E
100
AcDbEntity
  8
0
100
AcDbLine
 10
74.25
 20
107.6043
 30
0.0
 11
74.25
 21
98.44750000000001
 31
0.0
  0
LINE
  5
1A2
330
1E
100
AcDbEntity
  8
0
100
AcDbLine
 10
74.25
 20
107.6043
 30
0.0
 11
74.25
 21
116.9068999999999
 31
0.0
  0
LINE
  5
1A3
330
1E
100
AcDbEntity
  8
0
100
AcDbLine
 10
74.25
 20
116.9068999999999
 30
0.0
 11
74.25
 21
135.4848
 31
0.0
  0
LINE
  5
1A4
330
1E
100
AcDbEntity
  8
0
100
AcDbLine
 10
74.25
 20
116.9068999999999
 30
0.0
 11
74.25
 21
107.6043
 31
0.0
  0
LINE
  5
1A5
330
1E
100
AcDbEntity
  8
0
100
AcDbLine
 10
73.55
 20
118.1297
 30
0.0
 11
74.25
 21
118.1297
 31
0.0
  0
LINE
  5
1A6
330
1E
100
AcDbEntity
  8
0
100
AcDbLine
 10
73.36409999999999
 20
118.1555
 30
0.0
 11
73.55
 21
118.1297
 31
0.0
  0
LINE
  5
1A7
330
1E
100
AcDbEntity
  8
0
100
AcDbLine
 10
73.28929999999999
 20
118.2228
 30
0.0
 11
73.36409999999999
 21
118.1555
 31
0.0
  0
LINE
  5
1A8
330
1E
100
AcDbEntity
  8
0
100
AcDbLine
 10
73.25
 20
138.448367964602
 30
0.0
 11
73.25
 21
142.4066
 31
0.0
  0
LINE
  5
1A9
330
1E
100
AcDbEntity
  8
0
100
AcDbLine
 10
73.25
 20
142.4066
 30
0.0
 11
73.25
 21
152.3298
 31
0.0
  0
LINE
  5
1AA
330
1E
100
AcDbEntity
  8
0
100
AcDbLine
 10
73.25
 20
142.4066
 30
0.0
 11
73.25
 21
138.448367964602
 31
0.0
  0
LINE
  5
1AB
330
1E
100
AcDbEntity
  8
0
100
AcDbLine
 10
73.25
 20
152.3298
 30
0.0
 11
73.25
 21
161.1738
 31
0.0
  0
LINE
  5
1AC
330
1E
100
AcDbEntity
  8
0
100
AcDbLine
 10
73.25
 20
152.3298
 30
0.0
 11
73.25
 21
142.4066
 31
0.0
  0
LINE
  5
1AD
330
1E
100
AcDbEntity
  8
0
100
AcDbLine
 10
73.25
 20
161.1738
 30
0.0
 11
73.25
 21
169.134
 31
0.0
  0
LINE
  5
1AE
330
1E
100
AcDbEntity
  8
0
100
AcDbLine
 10
73.25
 20
161.1738
 30
0.0
 11
73.25
 21
152.3298
 31
0.0
  0
LINE
  5
1AF
330
1E
100
AcDbEntity
  8
0
100
AcDbLine
 10
73.25
 20
169.134
 30
0.0
 11
73.25
 21
177.4883
 31
0.0
  0
LINE
  5
1B0
330
1E
100
AcDbEntity
  8
0
100
AcDbLine
 10
73.25
 20
169.134
 30
0.0
 11
73.25
 21
161.1738
 31
0.0
  0
LINE
  5
1B1
330
1E
100
AcDbEntity
  8
0
100
AcDbLine
 10
73.36409999999999
 20
135.4599
 30
0.0
 11
73.55
 21
135.4848
 31
0.0
  0
LINE
  5
1B2
330
1E
100
AcDbEntity
  8
0
100
AcDbLine
 10
73.28929999999999
 20
135.3925
 30
0.0
 11
73.36409999999999
 21
135.4599
 31
0.0
  0
LINE
  5
1B3
330
1E
100
AcDbEntity
  8
0
100
AcDbLine
 10
73.55
 20
136.1895
 30
0.0
 11
84.25
 21
136.1895
 31
0.0
  0
LINE
  5
1B4
330
1E
100
AcDbEntity
  8
0
100
AcDbLine
 10
73.55
 20
138.488
 30
0.0
 11
84.25
 21
138.488
 31
0.0
  0
LINE
  5
1B5
330
1E
100
AcDbEntity
  8
0
100
AcDbLine
 10
74.25
 20
135.4848
 30
0.0
 11
74.25
 21
116.9068999999999
 31
0.0
  0
LINE
  5
1B6
330
1E
100
AcDbEntity
  8
0
100
AcDbLine
 10
73.55
 20
135.4848
 30
0.0
 11
84.25
 21
135.4848
 31
0.0
  0
LINE
  5
1B7
330
1E
100
AcDbEntity
  8
0
100
AcDbLine
 10
73.55
 20
138.5492
 30
0.0
 11
84.25
 21
138.5492
 31
0.0
  0
LINE
  5
1B8
330
1E
100
AcDbEntity
  8
0
100
AcDbLine
 10
73.36409999999999
 20
138.5243
 30
0.0
 11
73.55
 21
138.5492
 31
0.0
  0
LINE
  5
1B9
330
1E
100
AcDbEntity
  8
0
100
AcDbLine
 10
73.08159999999999
 20
118.3426
 30
0.0
 11
73.15577212173629
 21
118.3187046687229
 31
0.0
  0
LINE
  5
1BA
330
1E
100
AcDbEntity
  8
0
100
AcDbLine
 10
73.08159999999999
 20
118.3426
 30
0.0
 11
73.36409999999999
 21
118.1555
 31
0.0
  0
LINE
  5
1BB
330
1E
100
AcDbEntity
  8
0
100
AcDbLine
 10
73.25
 20
177.4883
 30
0.0
 11
73.25
 21
187.2251
 31
0.0
  0
LINE
  5
1BC
330
1E
100
AcDbEntity
  8
0
100
AcDbLine
 10
73.25
 20
177.4883
 30
0.0
 11
73.25
 21
169.134
 31
0.0
  0
LINE
  5
1BD
330
1E
100
AcDbEntity
  8
0
100
AcDbLine
 10
73.0262
 20
179.8424999999999
 30
0.0
 11
73.25
 21
176.3129928164199
 31
0.0
  0
LINE
  5
1BE
330
1E
100
AcDbEntity
  8
0
100
AcDbLine
 10
73.08159999999999
 20
175.5895999999999
 30
0.0
 11
73.25
 21
175.516185653288
 31
0.0
  0
LINE
  5
1BF
330
1E
100
AcDbEntity
  8
0
100
AcDbLine
 10
72.78929999999999
 20
175.9439
 30
0.0
 11
73.08159999999999
 21
175.5895999999999
 31
0.0
  0
LINE
  5
1C0
330
1E
100
AcDbEntity
  8
0
100
AcDbLine
 10
72.5262
 20
180.0924
 30
0.0
 11
72.78929999999999
 21
175.9439
 31
0.0
  0
LINE
  5
1C1
330
1E
100
AcDbEntity
  8
0
100
AcDbLine
 10
72.5262
 20
180.0923
 30
0.0
 11
72.78929999999999
 21
175.9439
 31
0.0
  0
LINE
  5
1C2
330
1E
100
AcDbEntity
  8
0
100
AcDbLine
 10
91.9761
 20
0.864500000000001
 30
0.0
 11
99.61339999999999
 21
2.100500000000019
 31
0.0
  0
LINE
  5
1C3
330
1E
100
AcDbEntity
  8
0
100
AcDbLine
 10
84.25
 20
69.3345
 30
0.0
 11
92.94999999999999
 21
69.3345
 31
0.0
  0
LINE
  5
1C4
330
1E
100
AcDbEntity
  8
0
100
AcDbLine
 10
84.25
 20
136.1895
 30
0.0
 11
94.95
 21
136.1895
 31
0.0
  0
LINE
  5
1C5
330
1E
100
AcDbEntity
  8
0
100
AcDbLine
 10
84.25
 20
138.488
 30
0.0
 11
94.95
 21
138.488
 31
0.0
  0
LINE
  5
1C6
330
1E
100
AcDbEntity
  8
0
100
AcDbLine
 10
84.25
 20
135.4848
 30
0.0
 11
94.95
 21
135.4848
 31
0.0
  0
LINE
  5
1C7
330
1E
100
AcDbEntity
  8
0
100
AcDbLine
 10
84.25
 20
138.5492
 30
0.0
 11
94.95
 21
138.5492
 31
0.0
  0
LINE
  5
1C9
330
1E
100
AcDbEntity
  8
0
100
AcDbLine
 10
76.5239
 20
0.864500000000001
 30
0.0
 11
84.25
 21
0.355499999999984
 31
0.0
  0
LINE
  5
1CA
330
1E
100
AcDbEntity
  8
0
100
AcDbLine
 10
76.5239
 20
0.6975000000000301
 30
0.0
 11
84.25
 21
0.188500000000013
 31
0.0
  0
LINE
  5
1CB
330
1E
100
AcDbEntity
  8
0
100
AcDbLine
 10
72.098
 20
182.8925
 30
0.0
 11
72.43615465612309
 21
182.510581489051
 31
0.0
  0
LINE
  5
1CC
330
1E
100
AcDbEntity
  8
0
100
AcDbLine
 10
70.75399999999999
 20
213.8663999999999
 30
0.0
 11
72.098
 21
216.7304
 31
0.0
  0
LINE
  5
1CD
330
1E
100
AcDbEntity
  8
0
100
AcDbLine
 10
72.25
 20
189.01008
 30
0.0
 11
72.25
 21
187.5099999999999
 31
0.0
  0
LINE
  5
1CE
330
1E
100
AcDbEntity
  8
0
100
AcDbLine
 10
72.25
 20
189.01008
 30
0.0
 11
72.5262
 21
196.42777
 31
0.0
  0
LINE
  5
1CF
330
1E
100
AcDbEntity
  8
0
100
AcDbLine
 10
73.25
 20
187.2251
 30
0.0
 11
73.25
 21
177.4883
 31
0.0
  0
LINE
  5
1D0
330
1E
100
AcDbEntity
  8
0
100
AcDbLine
 10
73.25
 20
187.2251
 30
0.0
 11
73.5538
 21
193.38445
 31
0.0
  0
LINE
  5
1D1
330
1E
100
AcDbEntity
  8
0
100
AcDbLine
 10
73.5538
 20
193.38445
 30
0.0
 11
73.84319999999999
 21
197.8788909999999
 31
0.0
  0
LINE
  5
1D2
330
1E
100
AcDbEntity
  8
0
100
AcDbLine
 10
73.0262
 20
194.67698
 30
0.0
 11
73.28929999999999
 21
198.826234
 31
0.0
  0
LINE
  5
1D3
330
1E
100
AcDbEntity
  8
0
100
AcDbLine
 10
72.75
 20
187.2600999999999
 30
0.0
 11
73.0262
 21
179.8424999999999
 31
0.0
  0
LINE
  5
1D4
330
1E
100
AcDbEntity
  8
0
100
AcDbLine
 10
72.75
 20
187.2600999999999
 30
0.0
 11
73.0262
 21
194.67698
 31
0.0
  0
LINE
  5
1D5
330
1E
100
AcDbEntity
  8
0
100
AcDbLine
 10
72.25
 20
187.5099999999999
 30
0.0
 11
72.5262
 21
180.0923
 31
0.0
  0
LINE
  5
1D6
330
1E
100
AcDbEntity
  8
0
100
AcDbLine
 10
72.25
 20
187.5099999999999
 30
0.0
 11
72.5262
 21
180.0924
 31
0.0
  0
LINE
  5
1D7
330
1E
100
AcDbEntity
  8
0
100
AcDbLine
 10
72.25
 20
187.5099999999999
 30
0.0
 11
72.25
 21
189.01008
 31
0.0
  0
LINE
  5
1D9
330
1E
100
AcDbEntity
  8
0
100
AcDbLine
 10
73.08159999999999
 20
199.430394
 30
0.0
 11
73.55
 21
199.634653
 31
0.0
  0
LINE
  5
1DA
330
1E
100
AcDbEntity
  8
0
100
AcDbLine
 10
72.78929999999999
 20
199.0761129999999
 30
0.0
 11
73.08159999999999
 21
199.430394
 31
0.0
  0
LINE
  5
1DB
330
1E
100
AcDbEntity
  8
0
100
AcDbLine
 10
73.08159999999999
 20
200.93049
 30
0.0
 11
73.55
 21
201.1346899999999
 31
0.0
  0
LINE
  5
1DC
330
1E
100
AcDbEntity
  8
0
100
AcDbLine
 10
72.78929999999999
 20
200.57615
 30
0.0
 11
73.08159999999999
 21
200.93049
 31
0.0
  0
LINE
  5
1DD
330
1E
100
AcDbEntity
  8
0
100
AcDbLine
 10
72.5262
 20
196.42777
 30
0.0
 11
72.78929999999999
 21
200.57615
 31
0.0
  0
LINE
  5
1DF
330
1E
100
AcDbEntity
  8
0
100
AcDbLine
 10
84.25
 20
198.483386
 30
0.0
 11
93.81999999999999
 21
198.483386
 31
0.0
  0
LINE
  5
1E0
330
1E
100
AcDbEntity
  8
0
100
AcDbLine
 10
74.68
 20
198.483386
 30
0.0
 11
84.25
 21
198.483386
 31
0.0
  0
LINE
  5
1E1
330
1E
100
AcDbEntity
  8
0
100
AcDbLine
 10
74.16479999999999
 20
198.2624209999999
 30
0.0
 11
74.68
 21
198.483386
 31
0.0
  0
LINE
  5
1E2
330
1E
100
AcDbEntity
  8
0
100
AcDbLine
 10
73.84319999999999
 20
197.8788909999999
 30
0.0
 11
74.16479999999999
 21
198.2624209999999
 31
0.0
  0
LINE
  5
1E3
330
1E
100
AcDbEntity
  8
0
100
AcDbLine
 10
73.55
 20
199.634653
 30
0.0
 11
84.25
 21
199.634653
 31
0.0
  0
LINE
  5
1E4
330
1E
100
AcDbEntity
  8
0
100
AcDbLine
 10
73.55
 20
201.1346899999999
 30
0.0
 11
84.25
 21
201.1346899999999
 31
0.0
  0
LINE
  5
1E5
330
1E
100
AcDbEntity
  8
0
100
AcDbLine
 10
84.25
 20
199.634653
 30
0.0
 11
94.95
 21
199.634653
 31
0.0
  0
LINE
  5
1E6
330
1E
100
AcDbEntity
  8
0
100
AcDbLine
 10
84.25
 20
201.1346899999999
 30
0.0
 11
94.95
 21
201.1346899999999
 31
0.0
  0
LINE
  5
1E7
330
1E
100
AcDbEntity
  8
0
100
AcDbLine
 10
84.25
 20
198.9512259999999
 30
0.0
 11
94.95
 21
198.9512259999999
 31
0.0
  0
LINE
  5
1E8
330
1E
100
AcDbEntity
  8
0
100
AcDbLine
 10
73.55
 20
198.9512259999999
 30
0.0
 11
84.25
 21
198.9512259999999
 31
0.0
  0
LINE
  5
1E9
330
1E
100
AcDbEntity
  8
0
100
AcDbLine
 10
73.36409999999999
 20
198.917643
 30
0.0
 11
73.55
 21
198.9512259999999
 31
0.0
  0
LINE
  5
1EA
330
1E
100
AcDbEntity
  8
0
100
AcDbLine
 10
73.28929999999999
 20
198.826234
 30
0.0
 11
73.36409999999999
 21
198.917643
 31
0.0
  0
LINE
  5
1EB
330
1E
100
AcDbEntity
  8
0
100
AcDbLine
 10
73.25
 20
218.0315428571428
 30
0.0
 11
73.25
 21
225.4761
 31
0.0
  0
LINE
  5
1EC
330
1E
100
AcDbEntity
  8
0
100
AcDbLine
 10
73.25
 20
225.4761
 30
0.0
 11
73.25
 21
218.0315428571428
 31
0.0
  0
LINE
  5
1ED
330
1E
100
AcDbEntity
  8
0
100
AcDbLine
 10
73.25
 20
225.4761
 30
0.0
 11
73.25
 21
229.8782999999999
 31
0.0
  0
LINE
  5
1EE
330
1E
100
AcDbEntity
  8
0
100
AcDbLine
 10
73.25
 20
229.8782999999999
 30
0.0
 11
73.25
 21
225.4761
 31
0.0
  0
LINE
  5
1EF
330
1E
100
AcDbEntity
  8
0
100
AcDbLine
 10
73.25
 20
229.8782999999999
 30
0.0
 11
73.25
 21
233.5347999999999
 31
0.0
  0
LINE
  5
1F0
330
1E
100
AcDbEntity
  8
0
100
AcDbLine
 10
73.25
 20
233.5347999999999
 30
0.0
 11
73.25
 21
229.8782999999999
 31
0.0
  0
LINE
  5
1F1
330
1E
100
AcDbEntity
  8
0
100
AcDbLine
 10
73.25
 20
233.5347999999999
 30
0.0
 11
73.25
 21
236.4
 31
0.0
  0
LINE
  5
1F2
330
1E
100
AcDbEntity
  8
0
100
AcDbLine
 10
74.30379999999999
 20
234.1074
 30
0.0
 11
77.25830000000001
 21
235.6485999999999
 31
0.0
  0
LINE
  5
1F3
330
1E
100
AcDbEntity
  8
0
100
AcDbLine
 10
73.25
 20
232.971810826004
 30
0.0
 11
74.30379999999999
 21
234.1074
 31
0.0
  0
LINE
  5
1F4
330
1E
100
AcDbEntity
  8
0
100
AcDbLine
 10
87.834
 20
222.3152999999999
 30
0.0
 11
91.194
 21
221.1697
 31
0.0
  0
LINE
  5
1F5
330
1E
100
AcDbEntity
  8
0
100
AcDbLine
 10
91.194
 20
221.1697
 30
0.0
 11
94.16200000000001
 21
219.2604
 31
0.0
  0
LINE
  5
1F6
330
1E
100
AcDbEntity
  8
0
100
AcDbLine
 10
87.99550000000001
 20
234.5714999999999
 30
0.0
 11
91.3199
 21
232.5728
 31
0.0
  0
LINE
  5
1F7
330
1E
100
AcDbEntity
  8
0
100
AcDbLine
 10
91.3199
 20
232.5728
 30
0.0
 11
94.1952
 21
229.7655
 31
0.0
  0
LINE
  5
1F8
330
1E
100
AcDbEntity
  8
0
100
AcDbLine
 10
84.25
 20
222.7449
 30
0.0
 11
87.834
 21
222.3152999999999
 31
0.0
  0
LINE
  5
1F9
330
1E
100
AcDbEntity
  8
0
100
AcDbLine
 10
80.66599999999999
 20
222.3152999999999
 30
0.0
 11
84.25
 21
222.7449
 31
0.0
  0
LINE
  5
1FA
330
1E
100
AcDbEntity
  8
0
100
AcDbLine
 10
77.30599999999999
 20
221.1697
 30
0.0
 11
80.66599999999999
 21
222.3152999999999
 31
0.0
  0
LINE
  5
1FB
330
1E
100
AcDbEntity
  8
0
100
AcDbLine
 10
74.33800000000001
 20
219.2604
 30
0.0
 11
77.30599999999999
 21
221.1697
 31
0.0
  0
LINE
  5
1FC
330
1E
100
AcDbEntity
  8
0
100
AcDbLine
 10
72.098
 20
216.7304
 30
0.0
 11
74.33800000000001
 21
219.2604
 31
0.0
  0
LINE
  5
1FD
330
1E
100
AcDbEntity
  8
0
100
AcDbLine
 10
72.098
 20
194.7304
 30
0.0
 11
72.4790221491055
 21
195.160750909481
 31
0.0
  0
LINE
  5
1FE
330
1E
100
AcDbEntity
  8
0
100
AcDbLine
 10
70.75399999999999
 20
191.8663999999999
 30
0.0
 11
72.098
 21
194.7304
 31
0.0
  0
LINE
  5
1FF
330
1E
100
AcDbEntity
  8
0
100
AcDbLine
 10
70.75399999999999
 20
185.7564999999999
 30
0.0
 11
72.098
 21
182.8925
 31
0.0
  0
LINE
  5
200
330
1E
100
AcDbEntity
  8
0
100
AcDbLine
 10
92.94999999999999
 20
69.3345
 30
0.0
 11
93.41840000000001
 21
69.20950000000001
 31
0.0
  0
LINE
  5
201
330
1E
100
AcDbEntity
  8
0
100
AcDbLine
 10
94.25
 20
98.44750000000001
 30
0.0
 11
94.25
 21
94.5378004448624
 31
0.0
  0
LINE
  5
202
330
1E
100
AcDbEntity
  8
0
100
AcDbLine
 10
94.25
 20
98.44750000000001
 30
0.0
 11
94.25
 21
107.6043
 31
0.0
  0
LINE
  5
203
330
1E
100
AcDbEntity
  8
0
100
AcDbLine
 10
94.25
 20
94.5378004448624
 30
0.0
 11
94.25
 21
98.44750000000001
 31
0.0
  0
LINE
  5
206
330
1E
100
AcDbEntity
  8
0
100
AcDbLine
 10
94.25
 20
94.5378004448624
 30
0.0
 11
93.71070000000001
 21
68.99049999999999
 31
0.0
  0
LINE
  5
208
330
1E
100
AcDbEntity
  8
0
100
AcDbLine
 10
93.41840000000001
 20
69.20950000000001
 30
0.0
 11
93.71070000000001
 21
68.99049999999999
 31
0.0
  0
LINE
  5
209
330
1E
100
AcDbEntity
  8
0
100
AcDbLine
 10
93.71070000000001
 20
68.99049999999999
 30
0.0
 11
93.74855097782889
 21
68.62134147050951
 31
0.0
  0
LINE
  5
20A
330
1E
100
AcDbEntity
  8
0
100
AcDbLine
 10
93.71070000000001
 20
68.99049999999999
 30
0.0
 11
94.25
 21
94.5378004448624
 31
0.0
  0
LINE
  5
20D
330
1E
100
AcDbEntity
  8
0
100
AcDbLine
 10
94.25
 20
107.6043
 30
0.0
 11
94.25
 21
98.44750000000001
 31
0.0
  0
LINE
  5
20E
330
1E
100
AcDbEntity
  8
0
100
AcDbLine
 10
94.25
 20
107.6043
 30
0.0
 11
94.25
 21
116.9068999999999
 31
0.0
  0
LINE
  5
211
330
1E
100
AcDbEntity
  8
0
100
AcDbLine
 10
94.25
 20
118.1297
 30
0.0
 11
94.95
 21
118.1297
 31
0.0
  0
LINE
  5
212
330
1E
100
AcDbEntity
  8
0
100
AcDbLine
 10
94.25
 20
135.4848
 30
0.0
 11
94.25
 21
116.9068999999999
 31
0.0
  0
LINE
  5
213
330
1E
100
AcDbEntity
  8
0
100
AcDbLine
 10
94.95
 20
118.1297
 30
0.0
 11
95.1359
 21
118.1555
 31
0.0
  0
LINE
  5
214
330
1E
100
AcDbEntity
  8
0
100
AcDbLine
 10
95.1359
 20
118.1555
 30
0.0
 11
95.21069999999999
 21
118.2228
 31
0.0
  0
LINE
  5
215
330
1E
100
AcDbEntity
  8
0
100
AcDbLine
 10
95.1359
 20
118.1555
 30
0.0
 11
95.4184
 21
118.3426
 31
0.0
  0
LINE
  5
216
330
1E
100
AcDbEntity
  8
0
100
AcDbLine
 10
95.21069999999999
 20
118.2228
 30
0.0
 11
95.4738
 21
121.3017999999999
 31
0.0
  0
LINE
  5
217
330
1E
100
AcDbEntity
  8
0
100
AcDbLine
 10
94.95
 20
136.1895
 30
0.0
 11
95.4184
 21
136.0387
 31
0.0
  0
LINE
  5
218
330
1E
100
AcDbEntity
  8
0
100
AcDbLine
 10
95.1359
 20
138.5243
 30
0.0
 11
95.4184
 21
138.3362999999999
 31
0.0
  0
LINE
  5
219
330
1E
100
AcDbEntity
  8
0
100
AcDbLine
 10
94.95
 20
138.488
 30
0.0
 11
95.4184
 21
138.3362999999999
 31
0.0
  0
LINE
  5
21A
330
1E
100
AcDbEntity
  8
0
100
AcDbLine
 10
94.95
 20
135.4848
 30
0.0
 11
95.1359
 21
135.4599
 31
0.0
  0
LINE
  5
21B
330
1E
100
AcDbEntity
  8
0
100
AcDbLine
 10
95.1359
 20
135.4599
 30
0.0
 11
95.21069999999999
 21
135.3925
 31
0.0
  0
LINE
  5
21C
330
1E
100
AcDbEntity
  8
0
100
AcDbLine
 10
94.95
 20
138.5492
 30
0.0
 11
95.1359
 21
138.5243
 31
0.0
  0
LINE
  5
21D
330
1E
100
AcDbEntity
  8
0
100
AcDbLine
 10
95.21069999999999
 20
135.3925
 30
0.0
 11
95.4738
 21
132.3127
 31
0.0
  0
LINE
  5
21E
330
1E
100
AcDbEntity
  8
0
100
AcDbLine
 10
95.25
 20
138.448367964602
 30
0.0
 11
95.25
 21
142.4066
 31
0.0
  0
LINE
  5
21F
330
1E
100
AcDbEntity
  8
0
100
AcDbLine
 10
95.25
 20
142.4066
 30
0.0
 11
95.25
 21
152.3298
 31
0.0
  0
LINE
  5
220
330
1E
100
AcDbEntity
  8
0
100
AcDbLine
 10
95.25
 20
142.4066
 30
0.0
 11
95.25
 21
138.448367964602
 31
0.0
  0
LINE
  5
221
330
1E
100
AcDbEntity
  8
0
100
AcDbLine
 10
95.25
 20
152.3298
 30
0.0
 11
95.25
 21
161.1738
 31
0.0
  0
LINE
  5
222
330
1E
100
AcDbEntity
  8
0
100
AcDbLine
 10
95.25
 20
152.3298
 30
0.0
 11
95.25
 21
142.4066
 31
0.0
  0
LINE
  5
223
330
1E
100
AcDbEntity
  8
0
100
AcDbLine
 10
95.25
 20
176.3129928164199
 30
0.0
 11
95.4738
 21
179.8424999999999
 31
0.0
  0
LINE
  5
224
330
1E
100
AcDbEntity
  8
0
100
AcDbLine
 10
95.25
 20
175.516185653288
 30
0.0
 11
95.4184
 21
175.5895999999999
 31
0.0
  0
LINE
  5
225
330
1E
100
AcDbEntity
  8
0
100
AcDbLine
 10
95.25
 20
169.134
 30
0.0
 11
95.25
 21
161.1738
 31
0.0
  0
LINE
  5
226
330
1E
100
AcDbEntity
  8
0
100
AcDbLine
 10
95.25
 20
169.134
 30
0.0
 11
95.25
 21
177.4883
 31
0.0
  0
LINE
  5
227
330
1E
100
AcDbEntity
  8
0
100
AcDbLine
 10
95.3442278782637
 20
118.3187046687229
 30
0.0
 11
95.4184
 21
118.3426
 31
0.0
  0
LINE
  5
228
330
1E
100
AcDbEntity
  8
0
100
AcDbLine
 10
95.4184
 20
136.0387
 30
0.0
 11
95.7107
 21
135.7755
 31
0.0
  0
LINE
  5
229
330
1E
100
AcDbEntity
  8
0
100
AcDbLine
 10
95.4184
 20
138.3362999999999
 30
0.0
 11
95.7107
 21
138.0732
 31
0.0
  0
LINE
  5
22A
330
1E
100
AcDbEntity
  8
0
100
AcDbLine
 10
95.4184
 20
118.3426
 30
0.0
 11
95.7107
 21
118.6058
 31
0.0
  0
LINE
  5
22B
330
1E
100
AcDbEntity
  8
0
100
AcDbLine
 10
95.4738
 20
121.3017999999999
 30
0.0
 11
95.75000000000001
 21
126.8076999999999
 31
0.0
  0
LINE
  5
22C
330
1E
100
AcDbEntity
  8
0
100
AcDbLine
 10
95.7107
 20
118.6058
 30
0.0
 11
95.97379999999999
 21
121.6847999999999
 31
0.0
  0
LINE
  5
22D
330
1E
100
AcDbEntity
  8
0
100
AcDbLine
 10
95.7107
 20
138.0732
 30
0.0
 11
95.97379999999999
 21
134.9941
 31
0.0
  0
LINE
  5
22E
330
1E
100
AcDbEntity
  8
0
100
AcDbLine
 10
95.7107
 20
135.7755
 30
0.0
 11
95.97379999999999
 21
132.6956999999999
 31
0.0
  0
LINE
  5
22F
330
1E
100
AcDbEntity
  8
0
100
AcDbLine
 10
95.97379999999999
 20
134.9941
 30
0.0
 11
96.25
 21
129.4883
 31
0.0
  0
LINE
  5
230
330
1E
100
AcDbEntity
  8
0
100
AcDbLine
 10
95.97379999999999
 20
132.6956999999999
 30
0.0
 11
96.25
 21
127.1907
 31
0.0
  0
LINE
  5
231
330
1E
100
AcDbEntity
  8
0
100
AcDbLine
 10
95.4738
 20
132.3127
 30
0.0
 11
95.75000000000001
 21
126.8076999999999
 31
0.0
  0
LINE
  5
232
330
1E
100
AcDbEntity
  8
0
100
AcDbLine
 10
95.97379999999999
 20
121.6847999999999
 30
0.0
 11
96.25
 21
127.1907
 31
0.0
  0
LINE
  5
233
330
1E
100
AcDbEntity
  8
0
100
AcDbLine
 10
95.4184
 20
175.5895999999999
 30
0.0
 11
95.7107
 21
175.9439
 31
0.0
  0
LINE
  5
234
330
1E
100
AcDbEntity
  8
0
100
AcDbLine
 10
95.7107
 20
175.9439
 30
0.0
 11
95.97379999999999
 21
180.0923
 31
0.0
  0
LINE
  5
235
330
1E
100
AcDbEntity
  8
0
100
AcDbLine
 10
95.7107
 20
175.9439
 30
0.0
 11
95.97379999999999
 21
180.0924
 31
0.0
  0
LINE
  5
236
330
1E
100
AcDbEntity
  8
0
100
AcDbLine
 10
95.25
 20
161.1738
 30
0.0
 11
95.25
 21
169.134
 31
0.0
  0
LINE
  5
237
330
1E
100
AcDbEntity
  8
0
100
AcDbLine
 10
95.25
 20
161.1738
 30
0.0
 11
95.25
 21
152.3298
 31
0.0
  0
LINE
  5
238
330
1E
100
AcDbEntity
  8
0
100
AcDbLine
 10
95.97379999999999
 20
180.0924
 30
0.0
 11
96.25
 21
187.5099999999999
 31
0.0
  0
LINE
  5
239
330
1E
100
AcDbEntity
  8
0
100
AcDbLine
 10
95.4738
 20
179.8424999999999
 30
0.0
 11
95.75000000000001
 21
187.2600999999999
 31
0.0
  0
LINE
  5
23A
330
1E
100
AcDbEntity
  8
0
100
AcDbLine
 10
95.97379999999999
 20
180.0923
 30
0.0
 11
96.25
 21
187.5099999999999
 31
0.0
  0
LINE
  5
23B
330
1E
100
AcDbEntity
  8
0
100
AcDbLine
 10
95.25
 20
177.4883
 30
0.0
 11
95.25
 21
187.2251
 31
0.0
  0
LINE
  5
23C
330
1E
100
AcDbEntity
  8
0
100
AcDbLine
 10
95.25
 20
177.4883
 30
0.0
 11
95.25
 21
169.134
 31
0.0
  0
LINE
  5
23D
330
1E
100
AcDbEntity
  8
0
100
AcDbLine
 10
94.25
 20
116.9068999999999
 30
0.0
 11
94.25
 21
135.4848
 31
0.0
  0
LINE
  5
23E
330
1E
100
AcDbEntity
  8
0
100
AcDbLine
 10
94.25
 20
116.9068999999999
 30
0.0
 11
94.25
 21
107.6043
 31
0.0
  0
LINE
  5
23F
330
1E
100
AcDbEntity
  8
0
100
AcDbLine
 10
94.25
 20
99.0902605747522
 30
0.0
 11
97.7316
 21
98.50149999999999
 31
0.0
  0
LINE
  5
240
330
1E
100
AcDbEntity
  8
0
100
AcDbLine
 10
96.25
 20
129.4883
 30
0.0
 11
96.25
 21
127.1907
 31
0.0
  0
LINE
  5
241
330
1E
100
AcDbEntity
  8
0
100
AcDbLine
 10
96.25
 20
127.1907
 30
0.0
 11
96.25
 21
129.4883
 31
0.0
  0
LINE
  5
243
330
1E
100
AcDbEntity
  8
0
100
AcDbLine
 10
97.7316
 20
98.50149999999999
 30
0.0
 11
104.2314999999999
 21
96.6825
 31
0.0
  0
LINE
  5
245
330
1E
100
AcDbEntity
  8
0
100
AcDbLine
 10
96.06384534387693
 20
182.510581489051
 30
0.0
 11
96.402
 21
182.8925
 31
0.0
  0
LINE
  5
246
330
1E
100
AcDbEntity
  8
0
100
AcDbLine
 10
94.94620000000001
 20
193.38445
 30
0.0
 11
95.25
 21
187.2251
 31
0.0
  0
LINE
  5
247
330
1E
100
AcDbEntity
  8
0
100
AcDbLine
 10
96.25
 20
189.01008
 30
0.0
 11
96.25
 21
187.5099999999999
 31
0.0
  0
LINE
  5
249
330
1E
100
AcDbEntity
  8
0
100
AcDbLine
 10
95.4738
 20
194.67698
 30
0.0
 11
95.75000000000001
 21
187.2600999999999
 31
0.0
  0
LINE
  5
24A
330
1E
100
AcDbEntity
  8
0
100
AcDbLine
 10
96.25
 20
187.5099999999999
 30
0.0
 11
96.25
 21
189.01008
 31
0.0
  0
LINE
  5
24B
330
1E
100
AcDbEntity
  8
0
100
AcDbLine
 10
95.25
 20
187.2251
 30
0.0
 11
95.25
 21
177.4883
 31
0.0
  0
LINE
  5
24C
330
1E
100
AcDbEntity
  8
0
100
AcDbLine
 10
93.81999999999999
 20
198.483386
 30
0.0
 11
94.33519999999999
 21
198.2624209999999
 31
0.0
  0
LINE
  5
24D
330
1E
100
AcDbEntity
  8
0
100
AcDbLine
 10
94.33519999999999
 20
198.2624209999999
 30
0.0
 11
94.6568
 21
197.8788909999999
 31
0.0
  0
LINE
  5
24E
330
1E
100
AcDbEntity
  8
0
100
AcDbLine
 10
94.6568
 20
197.8788909999999
 30
0.0
 11
94.94620000000001
 21
193.38445
 31
0.0
  0
LINE
  5
24F
330
1E
100
AcDbEntity
  8
0
100
AcDbLine
 10
95.97379999999999
 20
196.42777
 30
0.0
 11
96.25
 21
189.01008
 31
0.0
  0
LINE
  5
250
330
1E
100
AcDbEntity
  8
0
100
AcDbLine
 10
94.95
 20
199.634653
 30
0.0
 11
95.4184
 21
199.430394
 31
0.0
  0
LINE
  5
251
330
1E
100
AcDbEntity
  8
0
100
AcDbLine
 10
94.95
 20
201.1346899999999
 30
0.0
 11
95.4184
 21
200.93049
 31
0.0
  0
LINE
  5
252
330
1E
100
AcDbEntity
  8
0
100
AcDbLine
 10
94.95
 20
198.9512259999999
 30
0.0
 11
95.1359
 21
198.917643
 31
0.0
  0
LINE
  5
253
330
1E
100
AcDbEntity
  8
0
100
AcDbLine
 10
95.4184
 20
199.430394
 30
0.0
 11
95.7107
 21
199.0761129999999
 31
0.0
  0
LINE
  5
254
330
1E
100
AcDbEntity
  8
0
100
AcDbLine
 10
95.4184
 20
200.93049
 30
0.0
 11
95.7107
 21
200.57615
 31
0.0
  0
LINE
  5
255
330
1E
100
AcDbEntity
  8
0
100
AcDbLine
 10
95.7107
 20
200.57615
 30
0.0
 11
95.97379999999999
 21
196.42777
 31
0.0
  0
LINE
  5
257
330
1E
100
AcDbEntity
  8
0
100
AcDbLine
 10
95.1359
 20
198.917643
 30
0.0
 11
95.21069999999999
 21
198.826234
 31
0.0
  0
LINE
  5
258
330
1E
100
AcDbEntity
  8
0
100
AcDbLine
 10
95.21069999999999
 20
198.826234
 30
0.0
 11
95.4738
 21
194.67698
 31
0.0
  0
LINE
  5
259
330
1E
100
AcDbEntity
  8
0
100
AcDbLine
 10
96.02097785089451
 20
195.160750909481
 30
0.0
 11
96.402
 21
194.7304
 31
0.0
  0
LINE
  5
25A
330
1E
100
AcDbEntity
  8
0
100
AcDbLine
 10
96.402
 20
194.7304
 30
0.0
 11
97.74600000000001
 21
191.8663999999999
 31
0.0
  0
LINE
  5
25B
330
1E
100
AcDbEntity
  8
0
100
AcDbLine
 10
94.1952
 20
229.7655
 30
0.0
 11
96.711
 21
226.36
 31
0.0
  0
LINE
  5
25C
330
1E
100
AcDbEntity
  8
0
100
AcDbLine
 10
94.16200000000001
 20
219.2604
 30
0.0
 11
96.402
 21
216.7304
 31
0.0
  0
LINE
  5
25D
330
1E
100
AcDbEntity
  8
0
100
AcDbLine
 10
96.711
 20
226.36
 30
0.0
 11
97.88
 21
223.0714
 31
0.0
  0
LINE
  5
25E
330
1E
100
AcDbEntity
  8
0
100
AcDbLine
 10
96.402
 20
216.7304
 30
0.0
 11
97.74600000000001
 21
213.8663999999999
 31
0.0
  0
LINE
  5
260
330
1E
100
AcDbEntity
  8
0
100
AcDbLine
 10
97.74600000000001
 20
191.8663999999999
 30
0.0
 11
98.25000000000001
 21
188.8114999999999
 31
0.0
  0
LINE
  5
261
330
1E
100
AcDbEntity
  8
0
100
AcDbLine
 10
96.402
 20
182.8925
 30
0.0
 11
97.74600000000001
 21
185.7564999999999
 31
0.0
  0
LINE
  5
263
330
1E
100
AcDbEntity
  8
0
100
AcDbLine
 10
106.9843
 20
4.137500000000009
 30
0.0
 11
113.9544
 21
6.96749999999999
 31
0.0
  0
LINE
  5
264
330
1E
100
AcDbEntity
  8
0
100
AcDbLine
 10
113.9544
 20
6.96749999999999
 30
0.0
 11
120.4222
 21
10.5165
 31
0.0
  0
LINE
  5
265
330
1E
100
AcDbEntity
  8
0
100
AcDbLine
 10
106.9843
 20
3.97149999999999
 30
0.0
 11
113.9544
 21
6.80049999999999
 31
0.0
  0
LINE
  5
266
330
1E
100
AcDbEntity
  8
0
100
AcDbLine
 10
113.9544
 20
6.80049999999999
 30
0.0
 11
120.4222
 21
10.3505
 31
0.0
  0
LINE
  5
26F
330
1E
100
AcDbEntity
  8
0
100
AcDbLine
 10
120.4222
 20
10.5165
 30
0.0
 11
126.3229999999999
 21
14.63049999999999
 31
0.0
  0
LINE
  5
270
330
1E
100
AcDbEntity
  8
0
100
AcDbLine
 10
120.4222
 20
10.3505
 30
0.0
 11
126.3249999999999
 21
14.4655
 31
0.0
  0
LINE
  5
271
330
1E
100
AcDbEntity
  8
0
100
AcDbLine
 10
126.3249999999999
 20
14.4655
 30
0.0
 11
131.345
 21
19.2975
 31
0.0
  0
LINE
  5
277
330
1E
100
AcDbEntity
  8
0
100
AcDbLine
 10
120.9291
 20
87.4595
 30
0.0
 11
126.3229999999999
 21
83.5585
 31
0.0
  0
LINE
  5
278
330
1E
100
AcDbEntity
  8
0
100
AcDbLine
 10
120.4771999999999
 20
28.2235
 30
0.0
 11
124.9479999999999
 21
32.3575
 31
0.0
  0
LINE
  5
279
330
1E
100
AcDbEntity
  8
0
100
AcDbLine
 10
115.8679
 20
91.1565
 30
0.0
 11
120.9291
 21
87.4595
 31
0.0
  0
LINE
  5
27A
330
1E
100
AcDbEntity
  8
0
100
AcDbLine
 10
104.2314999999999
 20
96.6825
 30
0.0
 11
110.189
 21
94.2955
 31
0.0
  0
LINE
  5
27B
330
1E
100
AcDbEntity
  8
0
100
AcDbLine
 10
110.189
 20
94.2955
 30
0.0
 11
115.8679
 21
91.1565
 31
0.0
  0
LINE
  5
27C
330
1E
100
AcDbEntity
  8
0
100
AcDbLine
 10
120.9291
 20
87.4595
 30
0.0
 11
124.9479999999999
 21
83.4515
 31
0.0
  0
LINE
  5
282
330
1E
100
AcDbEntity
  8
0
100
AcDbLine
 10
124.9479999999999
 20
32.3575
 30
0.0
 11
128.6229999999999
 21
36.9805
 31
0.0
  0
LINE
  5
283
330
1E
100
AcDbEntity
  8
0
100
AcDbLine
 10
124.9479999999999
 20
83.4515
 30
0.0
 11
128.6229999999999
 21
78.8745
 31
0.0
  0
LINE
  5
292
330
1E
100
AcDbEntity
  8
0
100
AcDbLine
 10
126.3229999999999
 20
14.63049999999999
 30
0.0
 11
131.345
 21
19.4645
 31
0.0
  0
LINE
  5
295
330
1E
100
AcDbEntity
  8
0
100
AcDbLine
 10
128.6229999999999
 20
36.9805
 30
0.0
 11
131.5079999999999
 21
41.7965
 31
0.0
  0
LINE
  5
29C
330
1E
100
AcDbEntity
  8
0
100
AcDbLine
 10
131.345
 20
19.4645
 30
0.0
 11
135.678
 21
24.7625
 31
0.0
  0
LINE
  5
29D
330
1E
100
AcDbEntity
  8
0
100
AcDbLine
 10
131.5079999999999
 20
41.7965
 30
0.0
 11
133.7299999999999
 21
47.0145
 31
0.0
  0
LINE
  5
29E
330
1E
100
AcDbEntity
  8
0
100
AcDbLine
 10
131.345
 20
19.2975
 30
0.0
 11
135.678
 21
24.5955
 31
0.0
  0
LINE
  5
29F
330
1E
100
AcDbEntity
  8
0
100
AcDbLine
 10
135.678
 20
24.7625
 30
0.0
 11
139.132
 21
30.4715
 31
0.0
  0
LINE
  5
2A0
330
1E
100
AcDbEntity
  8
0
100
AcDbLine
 10
135.678
 20
24.5955
 30
0.0
 11
139.132
 21
30.30549999999999
 31
0.0
  0
LINE
  5
2A1
330
1E
100
AcDbEntity
  8
0
100
AcDbLine
 10
139.132
 20
30.4715
 30
0.0
 11
141.619
 21
36.5095
 31
0.0
  0
LINE
  5
2A2
330
1E
100
AcDbEntity
  8
0
100
AcDbLine
 10
141.619
 20
36.5095
 30
0.0
 11
143.1279999999999
 21
42.7655
 31
0.0
  0
LINE
  5
2A3
330
1E
100
AcDbEntity
  8
0
100
AcDbLine
 10
139.132
 20
30.30549999999999
 30
0.0
 11
141.619
 21
36.34349999999999
 31
0.0
  0
LINE
  5
2A4
330
1E
100
AcDbEntity
  8
0
100
AcDbLine
 10
141.619
 20
36.34349999999999
 30
0.0
 11
143.1279999999999
 21
42.59949999999999
 31
0.0
  0
LINE
  5
2A6
330
1E
100
AcDbEntity
  8
0
100
AcDbLine
 10
133.7299999999999
 20
47.0145
 30
0.0
 11
135.0759999999999
 21
52.4835
 31
0.0
  0
LINE
  5
2A7
330
1E
100
AcDbEntity
  8
0
100
AcDbLine
 10
143.75
 20
48.9285
 30
0.0
 11
143.75
 21
49.09449999999999
 31
0.0
  0
LINE
  5
2A8
330
1E
100
AcDbEntity
  8
0
100
AcDbLine
 10
143.1279999999999
 20
42.7655
 30
0.0
 11
143.75
 21
49.09449999999999
 31
0.0
  0
LINE
  5
2A9
330
1E
100
AcDbEntity
  8
0
100
AcDbLine
 10
143.1279999999999
 20
42.59949999999999
 30
0.0
 11
143.75
 21
48.9285
 31
0.0
  0
LINE
  5
2AB
330
1E
100
AcDbEntity
  8
0
100
AcDbLine
 10
135.0759999999999
 20
52.4835
 30
0.0
 11
135.465
 21
57.9135
 31
0.0
  0
LINE
  5
2AC
330
1E
100
AcDbEntity
  8
0
100
AcDbLine
 10
135.0759999999999
 20
63.3715
 30
0.0
 11
135.465
 21
57.9135
 31
0.0
  0
LINE
  5
2B1
330
1E
100
AcDbEntity
  8
0
100
AcDbLine
 10
133.7299999999999
 20
68.80549999999999
 30
0.0
 11
135.0759999999999
 21
63.3715
 31
0.0
  0
LINE
  5
2B4
330
1E
100
AcDbEntity
  8
0
100
AcDbLine
 10
128.6229999999999
 20
78.8745
 30
0.0
 11
131.5079999999999
 21
74.04749999999999
 31
0.0
  0
LINE
  5
2BB
330
1E
100
AcDbEntity
  8
0
100
AcDbLine
 10
126.3229999999999
 20
83.5585
 30
0.0
 11
131.345
 21
78.7255
 31
0.0
  0
LINE
  5
2BD
330
1E
100
AcDbEntity
  8
0
100
AcDbLine
 10
131.5079999999999
 20
74.04749999999999
 30
0.0
 11
133.7299999999999
 21
68.80549999999999
 31
0.0
  0
LINE
  5
2C1
330
1E
100
AcDbEntity
  8
0
100
AcDbLine
 10
131.345
 20
78.7255
 30
0.0
 11
135.678
 21
73.42749999999999
 31
0.0
  0
LINE
  5
2C3
330
1E
100
AcDbEntity
  8
0
100
AcDbLine
 10
135.678
 20
73.42749999999999
 30
0.0
 11
139.132
 21
67.7175
 31
0.0
  0
LINE
  5
2C5
330
1E
100
AcDbEntity
  8
0
100
AcDbLine
 10
139.132
 20
67.7175
 30
0.0
 11
141.619
 21
61.6795
 31
0.0
  0
LINE
  5
2C6
330
1E
100
AcDbEntity
  8
0
100
AcDbLine
 10
141.619
 20
61.6795
 30
0.0
 11
143.1279999999999
 21
55.4234999999999
 31
0.0
  0
LINE
  5
2C7
330
1E
100
AcDbEntity
  8
0
100
AcDbLine
 10
143.1279999999999
 20
55.4234999999999
 30
0.0
 11
143.75
 21
49.09449999999999
 31
0.0
  0
LINE
  5
2C8
330
1E
100
AcDbEntity
  8
0
100
AcDbLine
 10
143.75
 20
49.09449999999999
 30
0.0
 11
143.75
 21
48.9285
 31
0.0
  0
LINE
  5
2C9
330
1E
100
AcDbEntity
  8
0
100
AcDbLine
 10
143.741842945173
 20
49.0115
 30
0.0
 11
143.75
 21
48.9285
 31
0.0
  0
LINE
  5
2CD
330
1E
100
AcDbEntity
  8
0
100
AcDbLine
 10
99.61339999999999
 20
2.100500000000019
 30
0.0
 11
106.9843
 21
4.137500000000009
 31
0.0
  0
LINE
  5
2CE
330
1E
100
AcDbEntity
  8
0
100
AcDbLine
 10
99.61339999999999
 20
1.9345
 30
0.0
 11
106.9843
 21
3.97149999999999
 31
0.0
  0
LINE
  5
2CF
330
1E
100
AcDbEntity
  8
0
100
AcDbLine
 10
98.25000000000001
 20
188.8114999999999
 30
0.0
 11
98.25000000000001
 21
219.8115
 31
0.0
  0
LINE
  5
2D0
330
1E
100
AcDbEntity
  8
0
100
AcDbLine
 10
97.88
 20
223.0714
 30
0.0
 11
98.25000000000001
 21
219.8115
 31
0.0
  0
LINE
  5
2D1
330
1E
100
AcDbEntity
  8
0
100
AcDbLine
 10
98.25000000000001
 20
219.8115
 30
0.0
 11
98.25000000000001
 21
188.8114999999999
 31
0.0
  0
LINE
  5
2D2
330
1E
100
AcDbEntity
  8
0
100
AcDbLine
 10
97.74600000000001
 20
185.7564999999999
 30
0.0
 11
98.25000000000001
 21
188.8114999999999
 31
0.0
  0
LINE
  5
2D3
330
1E
100
AcDbEntity
  8
0
100
AcDbLine
 10
92.30960000000001
 20
234.3642999999999
 30
0.0
 11
92.3258
 21
236.2652999999999
 31
0.0
  0
LINE
  5
2D4
330
1E
100
AcDbEntity
  8
0
100
AcDbLine
 10
92.2855637897477
 20
231.629973875088
 30
0.0
 11
92.30960000000001
 21
234.3642999999999
 31
0.0
  0
LINE
  5
2D5
330
1E
100
AcDbEntity
  8
0
100
AcDbLine
 10
73.25
 20
238.1428
 30
0.0
 11
73.25
 21
236.4
 31
0.0
  0
LINE
  5
2D6
330
1E
100
AcDbEntity
  8
0
100
AcDbLine
 10
73.25
 20
238.1428
 30
0.0
 11
73.25
 21
238.8062999999999
 31
0.0
  0
LINE
  5
2D7
330
1E
100
AcDbEntity
  8
0
100
AcDbLine
 10
73.25
 20
236.4
 30
0.0
 11
73.25
 21
233.5347999999999
 31
0.0
  0
LINE
  5
2D8
330
1E
100
AcDbEntity
  8
0
100
AcDbLine
 10
73.25
 20
236.4
 30
0.0
 11
73.25
 21
238.1428
 31
0.0
  0
LINE
  5
2D9
330
1E
100
AcDbEntity
  8
0
100
AcDbLine
 10
84.4913
 20
235.8767999999999
 30
0.0
 11
87.99550000000001
 21
234.5714999999999
 31
0.0
  0
LINE
  5
2DA
330
1E
100
AcDbEntity
  8
0
100
AcDbLine
 10
80.58280000000001
 20
236.2328999999999
 30
0.0
 11
84.4913
 21
235.8767999999999
 31
0.0
  0
LINE
  5
2DB
330
1E
100
AcDbEntity
  8
0
100
AcDbLine
 10
77.25830000000001
 20
235.6485999999999
 30
0.0
 11
80.58280000000001
 21
236.2328999999999
 31
0.0
  0
LINE
  5
2DC
330
1E
100
AcDbEntity
  8
0
100
AcDbLine
 10
75.43980000000001
 20
237.6513
 30
0.0
 11
75.67651709395841
 21
234.823470937624
 31
0.0
  0
LINE
  5
2DD
330
1E
100
AcDbEntity
  8
0
100
AcDbLine
 10
75.43980000000001
 20
237.6513
 30
0.0
 11
76.47580000000001
 21
240.5572999999999
 31
0.0
  0
LINE
  5
2DF
330
1E
100
AcDbEntity
  8
0
100
AcDbLine
 10
70.25
 20
211.8114999999999
 30
0.0
 11
70.25
 21
208.14485
 31
0.0
  0
LINE
  5
2E0
330
1E
100
AcDbEntity
  8
0
100
AcDbLine
 10
70.25
 20
211.8114999999999
 30
0.0
 11
70.25
 21
210.8115
 31
0.0
  0
LINE
  5
2E1
330
1E
100
AcDbEntity
  8
0
100
AcDbLine
 10
70.25
 20
211.8114999999999
 30
0.0
 11
70.25
 21
216.1261
 31
0.0
  0
LINE
  5
2E2
330
1E
100
AcDbEntity
  8
0
100
AcDbLine
 10
70.25
 20
211.8114999999999
 30
0.0
 11
70.25
 21
208.1449
 31
0.0
  0
LINE
  5
2E3
330
1E
100
AcDbEntity
  8
0
100
AcDbLine
 10
70.25
 20
238.1428
 30
0.0
 11
70.25
 21
236.4
 31
0.0
  0
LINE
  5
2E4
330
1E
100
AcDbEntity
  8
0
100
AcDbLine
 10
70.25
 20
238.1428
 30
0.0
 11
70.25
 21
238.8062999999999
 31
0.0
  0
LINE
  5
2E5
330
1E
100
AcDbEntity
  8
0
100
AcDbLine
 10
32.91669999999999
 20
237.7327
 30
0.0
 11
32.91669999999999
 21
236.0257999999999
 31
0.0
  0
LINE
  5
2E6
330
1E
100
AcDbEntity
  8
0
100
AcDbLine
 10
32.91669999999999
 20
237.7327
 30
0.0
 11
32.91669999999999
 21
238.3242
 31
0.0
  0
LINE
  5
2E7
330
1E
100
AcDbEntity
  8
0
100
AcDbLine
 10
33.67049999999999
 20
238.8062999999999
 30
0.0
 11
36.812825
 21
238.8062999999999
 31
0.0
  0
LINE
  5
2E8
330
1E
100
AcDbEntity
  8
0
100
AcDbLine
 10
33.75
 20
253.3115
 30
0.0
 11
35.75
 21
246.8115
 31
0.0
  0
LINE
  5
2E9
330
1E
100
AcDbEntity
  8
0
100
AcDbLine
 10
36.75
 20
239.8115
 30
0.0
 11
37.25
 21
231.8115
 31
0.0
  0
LINE
  5
2EA
330
1E
100
AcDbEntity
  8
0
100
AcDbLine
 10
36.75
 20
239.8115
 30
0.0
 11
36.812825
 21
238.8062999999999
 31
0.0
  0
LINE
  5
2EB
330
1E
100
AcDbEntity
  8
0
100
AcDbLine
 10
37.35
 20
260.8115
 30
0.0
 11
43.54999999999999
 21
260.8115
 31
0.0
  0
LINE
  5
2EC
330
1E
100
AcDbEntity
  8
0
100
AcDbLine
 10
43.54999999999999
 20
260.8115
 30
0.0
 11
50.25
 21
260.8115
 31
0.0
  0
LINE
  5
2ED
330
1E
100
AcDbEntity
  8
0
100
AcDbLine
 10
35.75
 20
246.8115
 30
0.0
 11
36.75
 21
239.8115
 31
0.0
  0
LINE
  5
2EE
330
1E
100
AcDbEntity
  8
0
100
AcDbLine
 10
37.35
 20
262.8115
 30
0.0
 11
43.54999999999999
 21
262.8115
 31
0.0
  0
LINE
  5
2EF
330
1E
100
AcDbEntity
  8
0
100
AcDbLine
 10
43.54999999999999
 20
262.8115
 30
0.0
 11
50.25
 21
262.8115
 31
0.0
  0
LINE
  5
2F0
330
1E
100
AcDbEntity
  8
0
100
AcDbLine
 10
50.25
 20
260.8115
 30
0.0
 11
56.95
 21
260.8115
 31
0.0
  0
LINE
  5
2F1
330
1E
100
AcDbEntity
  8
0
100
AcDbLine
 10
63.15
 20
260.8115
 30
0.0
 11
68.55
 21
260.8115
 31
0.0
  0
LINE
  5
2F2
330
1E
100
AcDbEntity
  8
0
100
AcDbLine
 10
56.95
 20
260.8115
 30
0.0
 11
63.15
 21
260.8115
 31
0.0
  0
LINE
  5
2F3
330
1E
100
AcDbEntity
  8
0
100
AcDbLine
 10
63.15
 20
262.8115
 30
0.0
 11
68.55
 21
262.8115
 31
0.0
  0
LINE
  5
2F4
330
1E
100
AcDbEntity
  8
0
100
AcDbLine
 10
56.95
 20
262.8115
 30
0.0
 11
63.15
 21
262.8115
 31
0.0
  0
LINE
  5
2F5
330
1E
100
AcDbEntity
  8
0
100
AcDbLine
 10
50.25
 20
262.8115
 30
0.0
 11
56.95
 21
262.8115
 31
0.0
  0
LINE
  5
2F6
330
1E
100
AcDbEntity
  8
0
100
AcDbLine
 10
35.75
 20
246.8115
 30
0.0
 11
36.75
 21
239.8115
 31
0.0
  0
LINE
  5
2F7
330
1E
100
AcDbEntity
  8
0
100
AcDbLine
 10
33.75
 20
253.3115
 30
0.0
 11
35.75
 21
246.8115
 31
0.0
  0
LINE
  5
2F8
330
1E
100
AcDbEntity
  8
0
100
AcDbLine
 10
33.67049999999999
 20
238.8062999999999
 30
0.0
 11
36.812825
 21
238.8062999999999
 31
0.0
  0
LINE
  5
2F9
330
1E
100
AcDbEntity
  8
0
100
AcDbLine
 10
73.25
 20
238.8062999999999
 30
0.0
 11
73.25
 21
238.1428
 31
0.0
  0
LINE
  5
2FA
330
1E
100
AcDbEntity
  8
0
100
AcDbLine
 10
63.75
 20
239.8115
 30
0.0
 11
64.75
 21
246.8115
 31
0.0
  0
LINE
  5
2FB
330
1E
100
AcDbEntity
  8
0
100
AcDbLine
 10
63.75
 20
239.8115
 30
0.0
 11
64.75
 21
246.8115
 31
0.0
  0
LINE
  5
2FC
330
1E
100
AcDbEntity
  8
0
100
AcDbLine
 10
64.75
 20
246.8115
 30
0.0
 11
66.75
 21
253.3115
 31
0.0
  0
LINE
  5
2FD
330
1E
100
AcDbEntity
  8
0
100
AcDbLine
 10
66.75
 20
253.3115
 30
0.0
 11
69.25
 21
257.3115
 31
0.0
  0
LINE
  5
2FE
330
1E
100
AcDbEntity
  8
0
100
AcDbLine
 10
64.75
 20
246.8115
 30
0.0
 11
66.75
 21
253.3115
 31
0.0
  0
LINE
  5
2FF
330
1E
100
AcDbEntity
  8
0
100
AcDbLine
 10
66.75
 20
253.3115
 30
0.0
 11
69.25
 21
257.3115
 31
0.0
  0
LINE
  5
300
330
1E
100
AcDbEntity
  8
0
100
AcDbLine
 10
69.25
 20
257.3115
 30
0.0
 11
72.75
 21
259.8115
 31
0.0
  0
LINE
  5
301
330
1E
100
AcDbEntity
  8
0
100
AcDbLine
 10
72.75
 20
259.8115
 30
0.0
 11
76.25
 21
260.8115
 31
0.0
  0
LINE
  5
302
330
1E
100
AcDbEntity
  8
0
100
AcDbLine
 10
69.25
 20
257.3115
 30
0.0
 11
72.75
 21
259.8115
 31
0.0
  0
LINE
  5
303
330
1E
100
AcDbEntity
  8
0
100
AcDbLine
 10
72.75
 20
259.8115
 30
0.0
 11
76.25
 21
260.8115
 31
0.0
  0
LINE
  5
304
330
1E
100
AcDbEntity
  8
0
100
AcDbLine
 10
68.55
 20
260.8115
 30
0.0
 11
72.75
 21
260.8115
 31
0.0
  0
LINE
  5
305
330
1E
100
AcDbEntity
  8
0
100
AcDbLine
 10
72.75
 20
260.8115
 30
0.0
 11
75.35
 21
260.8115
 31
0.0
  0
LINE
  5
306
330
1E
100
AcDbEntity
  8
0
100
AcDbLine
 10
68.55
 20
262.8115
 30
0.0
 11
72.75
 21
262.8115
 31
0.0
  0
LINE
  5
307
330
1E
100
AcDbEntity
  8
0
100
AcDbLine
 10
76.25
 20
262.8115
 30
0.0
 11
76.25
 21
260.8115
 31
0.0
  0
LINE
  5
308
330
1E
100
AcDbEntity
  8
0
100
AcDbLine
 10
75.35
 20
260.8115
 30
0.0
 11
76.25
 21
260.8115
 31
0.0
  0
LINE
  5
309
330
1E
100
AcDbEntity
  8
0
100
AcDbLine
 10
72.75
 20
262.8115
 30
0.0
 11
75.35
 21
262.8115
 31
0.0
  0
LINE
  5
30A
330
1E
100
AcDbEntity
  8
0
100
AcDbLine
 10
75.35
 20
262.8115
 30
0.0
 11
76.25
 21
262.8115
 31
0.0
  0
LINE
  5
30B
330
1E
100
AcDbEntity
  8
0
100
AcDbLine
 10
76.25
 20
260.8115
 30
0.0
 11
76.25
 21
262.8115
 31
0.0
  0
LINE
  5
30C
330
1E
100
AcDbEntity
  8
0
100
AcDbLine
 10
91.75159999999999
 20
239.3693
 30
0.0
 11
92.3258
 21
236.2652999999999
 31
0.0
  0
LINE
  5
30D
330
1E
100
AcDbEntity
  8
0
100
AcDbLine
 10
87.48879999999999
 20
243.7063
 30
0.0
 11
89.9727
 21
241.8852999999999
 31
0.0
  0
LINE
  5
30E
330
1E
100
AcDbEntity
  8
0
100
AcDbLine
 10
89.9727
 20
241.8852999999999
 30
0.0
 11
91.75159999999999
 21
239.3693
 31
0.0
  0
LINE
  5
30F
330
1E
100
AcDbEntity
  8
0
100
AcDbLine
 10
84.35529999999999
 20
244.6413
 30
0.0
 11
87.48879999999999
 21
243.7063
 31
0.0
  0
LINE
  5
310
330
1E
100
AcDbEntity
  8
0
100
AcDbLine
 10
81.2115
 20
244.3782999999999
 30
0.0
 11
84.35529999999999
 21
244.6413
 31
0.0
  0
LINE
  5
311
330
1E
100
AcDbEntity
  8
0
100
AcDbLine
 10
78.41370000000001
 20
242.9492999999999
 30
0.0
 11
81.2115
 21
244.3782999999999
 31
0.0
  0
LINE
  5
312
330
1E
100
AcDbEntity
  8
0
100
AcDbLine
 10
76.47580000000001
 20
240.5572999999999
 30
0.0
 11
78.41370000000001
 21
242.9492999999999
 31
0.0
  0
LINE
  5
313
330
1E
100
AcDbEntity
  8
0
100
AcDbLine
 10
70.25
 20
238.8062999999999
 30
0.0
 11
70.25
 21
238.1428
 31
0.0
  0
LINE
  5
314
330
1E
100
AcDbEntity
  8
0
100
AcDbLine
 10
70.25
 20
238.8062999999999
 30
0.0
 11
73.25
 21
238.8062999999999
 31
0.0
  0
LINE
  5
315
330
1E
100
AcDbEntity
  8
0
100
AcDbLine
 10
63.687175
 20
238.8062999999999
 30
0.0
 11
70.25
 21
238.8062999999999
 31
0.0
  0
LINE
  5
316
330
1E
100
AcDbEntity
  8
0
100
AcDbLine
 10
32.91669999999999
 20
238.3242
 30
0.0
 11
32.91669999999999
 21
237.7327
 31
0.0
  0
LINE
  5
317
330
1E
100
AcDbEntity
  8
0
100
AcDbLine
 10
32.91669999999999
 20
238.3242
 30
0.0
 11
33.67049999999999
 21
238.8062999999999
 31
0.0
  0
LINE
  5
318
330
1E
100
AcDbEntity
  8
0
100
AcDbLine
 10
32.16279999999999
 20
238.8062999999999
 30
0.0
 11
32.91669999999999
 21
238.3242
 31
0.0
  0
LINE
  5
31D
330
1E
100
AcDbEntity
  8
0
100
AcDbLine
 10
43.552
 20
32.3575
 30
0.0
 11
39.87700000000001
 21
36.9805
 31
0.0
  0
LINE
  5
31E
330
1E
100
AcDbEntity
  8
0
100
AcDbLine
 10
48.0228
 20
28.2235
 30
0.0
 11
43.552
 21
32.3575
 31
0.0
  0
LINE
  5
31F
330
1E
100
AcDbEntity
  8
0
100
AcDbLine
 10
36.99200000000002
 20
41.7965
 30
0.0
 11
34.77000000000001
 21
47.0145
 31
0.0
  0
LINE
  5
320
330
1E
100
AcDbEntity
  8
0
100
AcDbLine
 10
39.87700000000001
 20
36.9805
 30
0.0
 11
36.99200000000002
 21
41.7965
 31
0.0
  0
LINE
  5
321
330
1E
100
AcDbEntity
  8
0
100
AcDbLine
 10
34.77000000000001
 20
47.0145
 30
0.0
 11
33.424
 21
52.4835
 31
0.0
  0
LINE
  5
322
330
1E
100
AcDbEntity
  8
0
100
AcDbLine
 10
33.424
 20
63.3715
 30
0.0
 11
33.03499999999999
 21
57.9135
 31
0.0
  0
LINE
  5
323
330
1E
100
AcDbEntity
  8
0
100
AcDbLine
 10
33.424
 20
52.4835
 30
0.0
 11
33.03499999999999
 21
57.9135
 31
0.0
  0
LINE
  5
324
330
1E
100
AcDbEntity
  8
0
100
AcDbLine
 10
34.77000000000001
 20
68.80549999999999
 30
0.0
 11
33.424
 21
63.3715
 31
0.0
  0
LINE
  5
325
330
1E
100
AcDbEntity
  8
0
100
AcDbLine
 10
36.99200000000002
 20
74.04749999999999
 30
0.0
 11
34.77000000000001
 21
68.80549999999999
 31
0.0
  0
LINE
  5
326
330
1E
100
AcDbEntity
  8
0
100
AcDbLine
 10
39.87700000000001
 20
78.8745
 30
0.0
 11
36.99200000000002
 21
74.04749999999999
 31
0.0
  0
LINE
  5
327
330
1E
100
AcDbEntity
  8
0
100
AcDbLine
 10
43.552
 20
83.4515
 30
0.0
 11
39.87700000000001
 21
78.8745
 31
0.0
  0
LINE
  5
328
330
1E
100
AcDbEntity
  8
0
100
AcDbLine
 10
47.57089999999999
 20
87.4595
 30
0.0
 11
43.552
 21
83.4515
 31
0.0
  0
LINE
  5
32A
330
1E
100
AcDbEntity
  8
0
100
AcDbLine
 10
48.0228
 20
28.2235
 30
0.0
 11
52.32034495013204
 21
25.33045480961573
 31
0.0
  0
LINE
  5
32B
330
1E
100
AcDbEntity
  8
0
100
AcDbLine
 10
52.32034495013204
 20
25.33045480961573
 30
0.0
 11
55.54884069354784
 21
23.67793219766213
 31
0.0
  0
LINE
  5
32C
330
1E
100
AcDbEntity
  8
0
100
AcDbLine
 10
55.54884069354784
 20
23.67793219766213
 30
0.0
 11
60.11598073242954
 21
21.94671753396357
 31
0.0
  0
LINE
  5
32D
330
1E
100
AcDbEntity
  8
0
100
AcDbLine
 10
60.11598073242954
 20
21.94671753396357
 30
0.0
 11
65.15558459362978
 21
20.37288635759659
 31
0.0
  0
LINE
  5
32E
330
1E
100
AcDbEntity
  8
0
100
AcDbLine
 10
65.15558459362978
 20
20.37288635759659
 30
0.0
 11
69.88021257328433
 21
19.34989584649474
 31
0.0
  0
LINE
  5
32F
330
1E
100
AcDbEntity
  8
0
100
AcDbLine
 10
69.88021257328433
 20
19.34989584649474
 30
0.0
 11
76.33720534055782
 21
18.48428882272469
 31
0.0
  0
LINE
  5
330
330
1E
100
AcDbEntity
  8
0
100
AcDbLine
 10
76.33720534055782
 20
18.48428882272469
 30
0.0
 11
81.37680792131641
 21
18.16952246421953
 31
0.0
  0
LINE
  5
331
330
1E
100
AcDbEntity
  8
0
100
AcDbLine
 10
81.37680792131641
 20
18.16952246421953
 30
0.0
 11
84.21158573346247
 21
18.09083102863292
 31
0.0
  0
LINE
  5
332
330
1E
100
AcDbEntity
  8
0
100
AcDbLine
 10
98.61978742671567
 20
19.34989584649474
 30
0.0
 11
92.16279465944216
 21
18.48428882272469
 31
0.0
  0
LINE
  5
333
330
1E
100
AcDbEntity
  8
0
100
AcDbLine
 10
108.3840192675704
 20
21.94671753396357
 30
0.0
 11
103.3444154063702
 21
20.37288635759659
 31
0.0
  0
LINE
  5
334
330
1E
100
AcDbEntity
  8
0
100
AcDbLine
 10
112.9511593064521
 20
23.67793219766213
 30
0.0
 11
108.3840192675704
 21
21.94671753396357
 31
0.0
  0
LINE
  5
335
330
1E
100
AcDbEntity
  8
0
100
AcDbLine
 10
103.3444154063702
 20
20.37288635759659
 30
0.0
 11
98.61978742671567
 21
19.34989584649474
 31
0.0
  0
LINE
  5
336
330
1E
100
AcDbEntity
  8
0
100
AcDbLine
 10
87.12319207868359
 20
18.16952246421953
 30
0.0
 11
84.28841426653752
 21
18.09083102863292
 31
0.0
  0
LINE
  5
337
330
1E
100
AcDbEntity
  8
0
100
AcDbLine
 10
92.16279465944216
 20
18.48428882272469
 30
0.0
 11
87.12319207868359
 21
18.16952246421953
 31
0.0
  0
LINE
  5
338
330
1E
100
AcDbEntity
  8
0
100
AcDbLine
 10
116.1796550498679
 20
25.33045480961573
 30
0.0
 11
112.9511593064521
 21
23.67793219766213
 31
0.0
  0
LINE
  5
339
330
1E
100
AcDbEntity
  8
0
100
AcDbLine
 10
120.4771999999999
 20
28.2235
 30
0.0
 11
116.1796550498679
 21
25.33045480961573
 31
0.0
  0
ENDSEC
  0
SECTION
  2
OBJECTS
  0
DICTIONARY
  5
C
330
0
100
AcDbDictionary
281
     1
  3
ACAD_GROUP
350
D
  3
ACAD_LAYOUT
350
19
  3
ACAD_MLINESTYLE
350
16
  3
ACAD_PLOTSETTINGS
350
18
  3
ACAD_PLOTSTYLENAME
350
E
  3
AcDbVariableDictionary
350
33A
  0
DICTIONARY
  5
D
102
{ACAD_REACTORS
330
C
102
}
330
C
100
AcDbDictionary
281
     1
  0
DICTIONARY
  5
19
102
{ACAD_REACTORS
330
C
102
}
330
C
100
AcDbDictionary
281
     1
  3
Layout1
350
1D
  3
Model
350
21
  0
DICTIONARY
  5
16
102
{ACAD_REACTORS
330
C
102
}
330
C
100
AcDbDictionary
281
     1
  3
Standard
350
17
  0
DICTIONARY
  5
18
102
{ACAD_REACTORS
330
C
102
}
330
C
100
AcDbDictionary
281
     1
  0
ACDBDICTIONARYWDFLT
  5
E
102
{ACAD_REACTORS
330
C
102
}
330
C
100
AcDbDictionary
281
     1
  3
Normal
350
F
100
AcDbDictionaryWithDefault
340
F
  0
DICTIONARY
  5
33A
102
{ACAD_REACTORS
330
C
102
}
330
C
100
AcDbDictionary
281
     1
  3
DIMASSOC
350
33B
  0
LAYOUT
  5
1D
102
{ACAD_REACTORS
330
19
102
}
330
19
100
AcDbPlotSettings
  1

  2
hp deskjet 980c series
  4

  6

 40
0.0
 41
0.0
 42
0.0
 43
0.0
 44
0.0
 45
0.0
 46
0.0
 47
0.0
 48
0.0
 49
0.0
140
0.0
141
0.0
142
1.0
143
1.0
 70
   688
 72
     0
 73
     0
 74
     5
  7

 75
    16
147
1.0
148
0.0
149
0.0
100
AcDbLayout
  1
Layout1
 70
     1
 71
     1
 10
0.0
 20
0.0
 11
12.0
 21
9.0
 12
0.0
 22
0.0
 32
0.0
 14
1.000000000000000E+20
 24
1.000000000000000E+20
 34
1.000000000000000E+20
 15
-1.000000000000000E+20
 25
-1.000000000000000E+20
 35
-1.000000000000000E+20
146
0.0
 13
0.0
 23
0.0
 33
0.0
 16
1.0
 26
0.0
 36
0.0
 17
0.0
 27
1.0
 37
0.0
 76
     0
330
1A
  0
LAYOUT
  5
21
102
{ACAD_REACTORS
330
19
102
}
330
19
100
AcDbPlotSettings
  1

  2
hp deskjet 980c series
  4

  6

 40
0.0
 41
0.0
 42
0.0
 43
0.0
 44
0.0
 45
0.0
 46
0.0
 47
0.0
 48
0.0
 49
0.0
140
0.0
141
0.0
142
1.0
143
1.0
 70
  1712
 72
     0
 73
     0
 74
     0
  7

 75
     0
147
1.0
148
0.0
149
0.0
100
AcDbLayout
  1
Model
 70
     1
 71
     0
 10
0.0
 20
0.0
 11
12.0
 21
9.0
 12
0.0
 22
0.0
 32
0.0
 14
0.0
 24
0.0
 34
0.0
 15
0.0
 25
0.0
 35
0.0
146
0.0
 13
0.0
 23
0.0
 33
0.0
 16
1.0
 26
0.0
 36
0.0
 17
0.0
 27
1.0
 37
0.0
 76
     0
330
1E
  0
MLINESTYLE
  5
17
102
{ACAD_REACTORS
330
16
102
}
330
16
100
AcDbMlineStyle
  2
STANDARD
 70
     0
  3

 62
   256
 51
90.0
 52
90.0
 71
     2
 49
0.5
 62
   256
  6
BYLAYER
 49
-0.5
 62
   256
  6
BYLAYER
  0
ACDBPLACEHOLDER
  5
F
102
{ACAD_REACTORS
330
E
102
}
330
E
  0
DICTIONARYVAR
  5
33B
102
{ACAD_REACTORS
330
33A
102
}
330
33A
100
DictionaryVariables
280
     0
  1
1
  0
ENDSEC
  0
EOF
