  0
SECTION
  2
HEADER
  9
$ACADVER
  1
AC1015
  9
$ACADMAINTVER
 70
    13
  9
$DWGCODEPAGE
  3
ANSI_1252
  9
$INSBASE
 10
0.0
 20
0.0
 30
0.0
  9
$EXTMIN
 10
0.250000000000003
 20
0.0875999999999763
 30
0.0
  9
$EXTMAX
 10
143.75
 20
1008.9124
 30
0.0
  9
$LIMMIN
 10
0.0
 20
0.0
  9
$LIMMAX
 10
12.0
 20
9.0
  9
$ORTHOMODE
 70
     0
  9
$REGENMODE
 70
     1
  9
$FILLMODE
 70
     1
  9
$QTEXTMODE
 70
     0
  9
$MIRRTEXT
 70
     1
  9
$LTSCALE
 40
1.0
  9
$ATTMODE
 70
     1
  9
$TEXTSIZE
 40
0.2
  9
$TRACEWID
 40
0.05
  9
$TEXTSTYLE
  7
Standard
  9
$CLAYER
  8
0
  9
$CELTYPE
  6
Continuous
  9
$CECOLOR
 62
   256
  9
$CELTSCALE
 40
1.0
  9
$DISPSILH
 70
     0
  9
$DIMSCALE
 40
1.0
  9
$DIMASZ
 40
0.18
  9
$DIMEXO
 40
0.0625
  9
$DIMDLI
 40
0.38
  9
$DIMRND
 40
0.0
  9
$DIMDLE
 40
0.0
  9
$DIMEXE
 40
0.18
  9
$DIMTP
 40
0.0
  9
$DIMTM
 40
0.0
  9
$DIMTXT
 40
0.18
  9
$DIMCEN
 40
0.09
  9
$DIMTSZ
 40
0.0
  9
$DIMTOL
 70
     0
  9
$DIMLIM
 70
     0
  9
$DIMTIH
 70
     1
  9
$DIMTOH
 70
     1
  9
$DIMSE1
 70
     0
  9
$DIMSE2
 70
     0
  9
$DIMTAD
 70
     0
  9
$DIMZIN
 70
     0
  9
$DIMBLK
  1

  9
$DIMASO
 70
     1
  9
$DIMSHO
 70
     1
  9
$DIMPOST
  1

  9
$DIMAPOST
  1

  9
$DIMALT
 70
     0
  9
$DIMALTD
 70
     2
  9
$DIMALTF
 40
25.4
  9
$DIMLFAC
 40
1.0
  9
$DIMTOFL
 70
     0
  9
$DIMTVP
 40
0.0
  9
$DIMTIX
 70
     0
  9
$DIMSOXD
 70
     0
  9
$DIMSAH
 70
     0
  9
$DIMBLK1
  1

  9
$DIMBLK2
  1

  9
$DIMSTYLE
  2
Standard
  9
$DIMCLRD
 70
     0
  9
$DIMCLRE
 70
     0
  9
$DIMCLRT
 70
     0
  9
$DIMTFAC
 40
1.0
  9
$DIMGAP
 40
0.09
  9
$DIMJUST
 70
     0
  9
$DIMSD1
 70
     0
  9
$DIMSD2
 70
     0
  9
$DIMTOLJ
 70
     1
  9
$DIMTZIN
 70
     0
  9
$DIMALTZ
 70
     0
  9
$DIMALTTZ
 70
     0
  9
$DIMUPT
 70
     0
  9
$DIMDEC
 70
     4
  9
$DIMTDEC
 70
     4
  9
$DIMALTU
 70
     2
  9
$DIMALTTD
 70
     2
  9
$DIMTXSTY
  7
Standard
  9
$DIMAUNIT
 70
     0
  9
$DIMADEC
 70
     0
  9
$DIMALTRND
 40
0.0
  9
$DIMAZIN
 70
     0
  9
$DIMDSEP
 70
    46
  9
$DIMATFIT
 70
     3
  9
$DIMFRAC
 70
     0
  9
$DIMLDRBLK
  1

  9
$DIMLUNIT
 70
     2
  9
$DIMLWD
 70
    -2
  9
$DIMLWE
 70
    -2
  9
$DIMTMOVE
 70
     0
  9
$LUNITS
 70
     2
  9
$LUPREC
 70
     4
  9
$SKETCHINC
 40
0.1
  9
$FILLETRAD
 40
0.0
  9
$AUNITS
 70
     0
  9
$AUPREC
 70
     0
  9
$MENU
  1
.
  9
$ELEVATION
 40
0.0
  9
$PELEVATION
 40
0.0
  9
$THICKNESS
 40
0.0
  9
$LIMCHECK
 70
     0
  9
$CHAMFERA
 40
0.0
  9
$CHAMFERB
 40
0.0
  9
$CHAMFERC
 40
0.0
  9
$CHAMFERD
 40
0.0
  9
$SKPOLY
 70
     0
  9
$TDCREATE
 40
2454834.856271331
  9
$TDUCREATE
 40
2454834.814604664
  9
$TDUPDATE
 40
2454834.873180880
  9
$TDUUPDATE
 40
2454834.831514213
  9
$TDINDWG
 40
0.0169095486
  9
$TDUSRTIMER
 40
0.0169095486
  9
$USRTIMER
 70
     1
  9
$ANGBASE
 50
0.0
  9
$ANGDIR
 70
     0
  9
$PDMODE
 70
     0
  9
$PDSIZE
 40
0.0
  9
$PLINEWID
 40
0.0
  9
$SPLFRAME
 70
     0
  9
$SPLINETYPE
 70
     6
  9
$SPLINESEGS
 70
     8
  9
$HANDSEED
  5
66D
  9
$SURFTAB1
 70
     6
  9
$SURFTAB2
 70
     6
  9
$SURFTYPE
 70
     6
  9
$SURFU
 70
     6
  9
$SURFV
 70
     6
  9
$UCSBASE
  2

  9
$UCSNAME
  2

  9
$UCSORG
 10
0.0
 20
0.0
 30
0.0
  9
$UCSXDIR
 10
1.0
 20
0.0
 30
0.0
  9
$UCSYDIR
 10
0.0
 20
1.0
 30
0.0
  9
$UCSORTHOREF
  2

  9
$UCSORTHOVIEW
 70
     1
  9
$UCSORGTOP
 10
0.0
 20
0.0
 30
0.0
  9
$UCSORGBOTTOM
 10
0.0
 20
0.0
 30
0.0
  9
$UCSORGLEFT
 10
0.0
 20
0.0
 30
0.0
  9
$UCSORGRIGHT
 10
0.0
 20
0.0
 30
0.0
  9
$UCSORGFRONT
 10
0.0
 20
0.0
 30
0.0
  9
$UCSORGBACK
 10
0.0
 20
0.0
 30
0.0
  9
$PUCSBASE
  2

  9
$PUCSNAME
  2

  9
$PUCSORG
 10
0.0
 20
0.0
 30
0.0
  9
$PUCSXDIR
 10
1.0
 20
0.0
 30
0.0
  9
$PUCSYDIR
 10
0.0
 20
1.0
 30
0.0
  9
$PUCSORTHOREF
  2

  9
$PUCSORTHOVIEW
 70
     0
  9
$PUCSORGTOP
 10
0.0
 20
0.0
 30
0.0
  9
$PUCSORGBOTTOM
 10
0.0
 20
0.0
 30
0.0
  9
$PUCSORGLEFT
 10
0.0
 20
0.0
 30
0.0
  9
$PUCSORGRIGHT
 10
0.0
 20
0.0
 30
0.0
  9
$PUCSORGFRONT
 10
0.0
 20
0.0
 30
0.0
  9
$PUCSORGBACK
 10
0.0
 20
0.0
 30
0.0
  9
$USERI1
 70
     0
  9
$USERI2
 70
     0
  9
$USERI3
 70
     0
  9
$USERI4
 70
     0
  9
$USERI5
 70
     0
  9
$USERR1
 40
0.0
  9
$USERR2
 40
0.0
  9
$USERR3
 40
0.0
  9
$USERR4
 40
0.0
  9
$USERR5
 40
0.0
  9
$WORLDVIEW
 70
     1
  9
$SHADEDGE
 70
     3
  9
$SHADEDIF
 70
    70
  9
$TILEMODE
 70
     1
  9
$MAXACTVP
 70
    64
  9
$PINSBASE
 10
0.0
 20
0.0
 30
0.0
  9
$PLIMCHECK
 70
     0
  9
$PEXTMIN
 10
1.000000000000000E+20
 20
1.000000000000000E+20
 30
1.000000000000000E+20
  9
$PEXTMAX
 10
-1.000000000000000E+20
 20
-1.000000000000000E+20
 30
-1.000000000000000E+20
  9
$PLIMMIN
 10
0.0
 20
0.0
  9
$PLIMMAX
 10
12.0
 20
9.0
  9
$UNITMODE
 70
     0
  9
$VISRETAIN
 70
     1
  9
$PLINEGEN
 70
     0
  9
$PSLTSCALE
 70
     1
  9
$TREEDEPTH
 70
  3020
  9
$CMLSTYLE
  2
Standard
  9
$CMLJUST
 70
     0
  9
$CMLSCALE
 40
1.0
  9
$PROXYGRAPHICS
 70
     1
  9
$MEASUREMENT
 70
     0
  9
$CELWEIGHT
370
    -1
  9
$ENDCAPS
280
     0
  9
$JOINSTYLE
280
     0
  9
$LWDISPLAY
290
     0
  9
$INSUNITS
 70
     0
  9
$HYPERLINKBASE
  1

  9
$STYLESHEET
  1

  9
$XEDIT
290
     1
  9
$CEPSNTYPE
380
     0
  9
$PSTYLEMODE
290
     1
  9
$FINGERPRINTGUID
  2
{68EB8897-0793-45AB-B247-6BD94CA2285B}
  9
$VERSIONGUID
  2
{941A7626-4486-4D59-A7C2-CBDD9D907E9C}
  9
$EXTNAMES
290
     1
  9
$PSVPSCALE
 40
0.0
  9
$OLESTARTUP
290
     0
  0
ENDSEC
  0
SECTION
  2
CLASSES
  0
CLASS
  1
ACDBDICTIONARYWDFLT
  2
AcDbDictionaryWithDefault
  3
AutoCAD 2000
 90
        0
280
     0
281
     0
  0
CLASS
  1
ACDBPLACEHOLDER
  2
AcDbPlaceHolder
  3
AutoCAD 2000
 90
        0
280
     0
281
     0
  0
CLASS
  1
LAYOUT
  2
AcDbLayout
  3
AutoCAD 2000
 90
        0
280
     0
281
     0
  0
CLASS
  1
DICTIONARYVAR
  2
AcDbDictionaryVar
  3
AutoCAD 2000
 90
        0
280
     0
281
     0
  0
ENDSEC
  0
SECTION
  2
TABLES
  0
TABLE
  2
VPORT
  5
8
330
0
100
AcDbSymbolTable
 70
     2
  0
VPORT
  5
66C
330
8
100
AcDbSymbolTableRecord
100
AcDbViewportTableRecord
  2
*Active
 70
     0
 10
0.0
 20
0.0
 11
1.0
 21
1.0
 12
72.0
 22
504.4999999999999
 13
0.0
 23
0.0
 14
1.0
 24
1.0
 15
0.0
 25
0.0
 16
0.0
 26
0.0
 36
1.0
 17
0.0
 27
0.0
 37
0.0
 40
1016.565143734015
 41
2.078104993597951
 42
50.0
 43
0.0
 44
0.0
 50
0.0
 51
0.0
 71
     0
 72
   100
 73
     1
 74
     3
 75
     0
 76
     0
 77
     0
 78
     0
281
     0
 65
     1
110
0.0
120
0.0
130
0.0
111
1.0
121
0.0
131
0.0
112
0.0
122
1.0
132
0.0
 79
     1
146
0.0
  0
ENDTAB
  0
TABLE
  2
LTYPE
  5
5
330
0
100
AcDbSymbolTable
 70
     1
  0
LTYPE
  5
13
330
5
100
AcDbSymbolTableRecord
100
AcDbLinetypeTableRecord
  2
ByBlock
 70
     0
  3

 72
    65
 73
     0
 40
0.0
  0
LTYPE
  5
14
330
5
100
AcDbSymbolTableRecord
100
AcDbLinetypeTableRecord
  2
ByLayer
 70
     0
  3

 72
    65
 73
     0
 40
0.0
  0
LTYPE
  5
15
330
5
100
AcDbSymbolTableRecord
100
AcDbLinetypeTableRecord
  2
Continuous
 70
     0
  3
Solid line
 72
    65
 73
     0
 40
0.0
  0
ENDTAB
  0
TABLE
  2
LAYER
  5
2
330
0
100
AcDbSymbolTable
 70
     1
  0
LAYER
  5
10
330
2
100
AcDbSymbolTableRecord
100
AcDbLayerTableRecord
  2
0
 70
     0
 62
     7
  6
Continuous
370
    -3
390
F
  0
ENDTAB
  0
TABLE
  2
STYLE
  5
3
330
0
100
AcDbSymbolTable
 70
     1
  0
STYLE
  5
11
330
3
100
AcDbSymbolTableRecord
100
AcDbTextStyleTableRecord
  2
Standard
 70
     0
 40
0.0
 41
1.0
 50
0.0
 71
     0
 42
0.2
  3
txt
  4

  0
ENDTAB
  0
TABLE
  2
VIEW
  5
6
330
0
100
AcDbSymbolTable
 70
     0
  0
ENDTAB
  0
TABLE
  2
UCS
  5
7
330
0
100
AcDbSymbolTable
 70
     0
  0
ENDTAB
  0
TABLE
  2
APPID
  5
9
330
0
100
AcDbSymbolTable
 70
     1
  0
APPID
  5
12
330
9
100
AcDbSymbolTableRecord
100
AcDbRegAppTableRecord
  2
ACAD
 70
     0
  0
ENDTAB
  0
TABLE
  2
DIMSTYLE
  5
A
330
0
100
AcDbSymbolTable
 70
     1
100
AcDbDimStyleTable
 71
     0
  0
DIMSTYLE
105
663
330
A
100
AcDbSymbolTableRecord
100
AcDbDimStyleTableRecord
  2
Standard
 70
     0
340
11
  0
ENDTAB
  0
TABLE
  2
BLOCK_RECORD
  5
1
330
0
100
AcDbSymbolTable
 70
     0
  0
BLOCK_RECORD
  5
1E
330
1
100
AcDbSymbolTableRecord
100
AcDbBlockTableRecord
  2
*Model_Space
340
21
  0
BLOCK_RECORD
  5
1A
330
1
100
AcDbSymbolTableRecord
100
AcDbBlockTableRecord
  2
*Paper_Space
340
1D
  0
ENDTAB
  0
ENDSEC
  0
SECTION
  2
BLOCKS
  0
BLOCK
  5
1F
330
1E
100
AcDbEntity
  8
0
100
AcDbBlockBegin
  2
*Model_Space
 70
     0
 10
0.0
 20
0.0
 30
0.0
  3
*Model_Space
  1

  0
ENDBLK
  5
20
330
1E
100
AcDbEntity
  8
0
100
AcDbBlockEnd
  0
BLOCK
  5
1B
330
1A
100
AcDbEntity
 67
     1
  8
0
100
AcDbBlockBegin
  2
*Paper_Space
 70
     0
 10
0.0
 20
0.0
 30
0.0
  3
*Paper_Space
  1

  0
ENDBLK
  5
1C
330
1A
100
AcDbEntity
 67
     1
  8
0
100
AcDbBlockEnd
  0
ENDSEC
  0
SECTION
  2
ENTITIES
  0
LINE
  5
22
330
1E
100
AcDbEntity
  8
0
100
AcDbLine
 10
31.95
 20
47.61239999999999
 30
0.0
 11
37.35
 21
43.41239999999999
 31
0.0
  0
LINE
  5
23
330
1E
100
AcDbEntity
  8
0
100
AcDbLine
 10
27.75
 20
53.01239999999999
 30
0.0
 11
31.95
 21
47.61239999999999
 31
0.0
  0
LINE
  5
24
330
1E
100
AcDbEntity
  8
0
100
AcDbLine
 10
27.75
 20
78.8124
 30
0.0
 11
31.95
 21
84.2124
 31
0.0
  0
LINE
  5
25
330
1E
100
AcDbEntity
  8
0
100
AcDbLine
 10
25.15
 20
72.61239999999999
 30
0.0
 11
27.75
 21
78.8124
 31
0.0
  0
LINE
  5
26
330
1E
100
AcDbEntity
  8
0
100
AcDbLine
 10
31.95
 20
84.2124
 30
0.0
 11
37.35
 21
88.4124
 31
0.0
  0
LINE
  5
27
330
1E
100
AcDbEntity
  8
0
100
AcDbLine
 10
25.15
 20
59.2124
 30
0.0
 11
27.75
 21
53.01239999999999
 31
0.0
  0
LINE
  5
28
330
1E
100
AcDbEntity
  8
0
100
AcDbLine
 10
24.25
 20
65.9124
 30
0.0
 11
25.15
 21
59.2124
 31
0.0
  0
LINE
  5
29
330
1E
100
AcDbEntity
  8
0
100
AcDbLine
 10
24.25
 20
65.9124
 30
0.0
 11
25.15
 21
72.61239999999999
 31
0.0
  0
LINE
  5
2A
330
1E
100
AcDbEntity
  8
0
100
AcDbLine
 10
0.250000000000003
 20
643.3804
 30
0.0
 11
0.250000000000003
 21
647.8614
 31
0.0
  0
LINE
  5
2B
330
1E
100
AcDbEntity
  8
0
100
AcDbLine
 10
0.250000000000003
 20
643.3804
 30
0.0
 11
0.250000000000003
 21
639.1284
 31
0.0
  0
LINE
  5
2C
330
1E
100
AcDbEntity
  8
0
100
AcDbLine
 10
0.250000000000003
 20
647.8614
 30
0.0
 11
0.250000000000003
 21
652.4453999999999
 31
0.0
  0
LINE
  5
2D
330
1E
100
AcDbEntity
  8
0
100
AcDbLine
 10
0.250000000000003
 20
647.8614
 30
0.0
 11
0.250000000000003
 21
643.3804
 31
0.0
  0
LINE
  5
2E
330
1E
100
AcDbEntity
  8
0
100
AcDbLine
 10
0.250000000000003
 20
652.4453999999999
 30
0.0
 11
0.250000000000003
 21
656.7134
 31
0.0
  0
LINE
  5
2F
330
1E
100
AcDbEntity
  8
0
100
AcDbLine
 10
0.250000000000003
 20
652.4453999999999
 30
0.0
 11
0.250000000000003
 21
647.8614
 31
0.0
  0
LINE
  5
30
330
1E
100
AcDbEntity
  8
0
100
AcDbLine
 10
0.250000000000003
 20
656.7134
 30
0.0
 11
0.250000000000003
 21
660.2974
 31
0.0
  0
LINE
  5
31
330
1E
100
AcDbEntity
  8
0
100
AcDbLine
 10
0.250000000000003
 20
656.7134
 30
0.0
 11
0.250000000000003
 21
652.4453999999999
 31
0.0
  0
LINE
  5
32
330
1E
100
AcDbEntity
  8
0
100
AcDbLine
 10
0.250000000000003
 20
660.3003999999999
 30
0.0
 11
0.250000000000003
 21
656.6964
 31
0.0
  0
LINE
  5
33
330
1E
100
AcDbEntity
  8
0
100
AcDbLine
 10
0.250000000000003
 20
660.3003999999999
 30
0.0
 11
0.250000000000003
 21
663.0533999999999
 31
0.0
  0
LINE
  5
34
330
1E
100
AcDbEntity
  8
0
100
AcDbLine
 10
0.250000000000003
 20
663.0533999999999
 30
0.0
 11
0.250000000000003
 21
660.3003999999999
 31
0.0
  0
LINE
  5
35
330
1E
100
AcDbEntity
  8
0
100
AcDbLine
 10
0.250000000000003
 20
663.0533999999999
 30
0.0
 11
0.250000000000003
 21
664.8293999999999
 31
0.0
  0
LINE
  5
36
330
1E
100
AcDbEntity
  8
0
100
AcDbLine
 10
0.250000000000003
 20
664.8293999999999
 30
0.0
 11
0.250000000000003
 21
663.0533999999999
 31
0.0
  0
LINE
  5
37
330
1E
100
AcDbEntity
  8
0
100
AcDbLine
 10
0.250000000000003
 20
664.8293999999999
 30
0.0
 11
0.250000000000003
 21
665.4253999999999
 31
0.0
  0
LINE
  5
38
330
1E
100
AcDbEntity
  8
0
100
AcDbLine
 10
0.250000000000003
 20
664.8334
 30
0.0
 11
0.250000000000003
 21
665.4253999999999
 31
0.0
  0
LINE
  5
39
330
1E
100
AcDbEntity
  8
0
100
AcDbLine
 10
0.250000000000003
 20
664.8334
 30
0.0
 11
0.250000000000003
 21
663.1263999999999
 31
0.0
  0
LINE
  5
3A
330
1E
100
AcDbEntity
  8
0
100
AcDbLine
 10
0.250000000000003
 20
665.4253999999999
 30
0.0
 11
1.00380000000001
 21
665.9074
 31
0.0
  0
LINE
  5
3B
330
1E
100
AcDbEntity
  8
0
100
AcDbLine
 10
0.250000000000003
 20
665.4253999999999
 30
0.0
 11
0.250000000000003
 21
664.8293999999999
 31
0.0
  0
LINE
  5
3C
330
1E
100
AcDbEntity
  8
0
100
AcDbLine
 10
0.250000000000003
 20
665.4253999999999
 30
0.0
 11
0.250000000000003
 21
664.8334
 31
0.0
  0
LINE
  5
3D
330
1E
100
AcDbEntity
  8
0
100
AcDbLine
 10
0.250000000000003
 20
663.1263999999999
 30
0.0
 11
0.250000000000003
 21
660.2974
 31
0.0
  0
LINE
  5
3E
330
1E
100
AcDbEntity
  8
0
100
AcDbLine
 10
0.250000000000003
 20
663.1263999999999
 30
0.0
 11
0.250000000000003
 21
664.8334
 31
0.0
  0
LINE
  5
3F
330
1E
100
AcDbEntity
  8
0
100
AcDbLine
 10
0.250000000000003
 20
660.2974
 30
0.0
 11
0.250000000000003
 21
663.1263999999999
 31
0.0
  0
LINE
  5
40
330
1E
100
AcDbEntity
  8
0
100
AcDbLine
 10
0.250000000000003
 20
660.2974
 30
0.0
 11
0.250000000000003
 21
656.7134
 31
0.0
  0
LINE
  5
41
330
1E
100
AcDbEntity
  8
0
100
AcDbLine
 10
0.250000000000003
 20
656.6964
 30
0.0
 11
0.250000000000003
 21
652.4443999999999
 31
0.0
  0
LINE
  5
42
330
1E
100
AcDbEntity
  8
0
100
AcDbLine
 10
0.250000000000003
 20
656.6964
 30
0.0
 11
0.250000000000003
 21
660.3003999999999
 31
0.0
  0
LINE
  5
43
330
1E
100
AcDbEntity
  8
0
100
AcDbLine
 10
0.250000000000003
 20
652.4443999999999
 30
0.0
 11
0.250000000000003
 21
647.9633999999999
 31
0.0
  0
LINE
  5
44
330
1E
100
AcDbEntity
  8
0
100
AcDbLine
 10
0.250000000000003
 20
652.4443999999999
 30
0.0
 11
0.250000000000003
 21
656.6964
 31
0.0
  0
LINE
  5
45
330
1E
100
AcDbEntity
  8
0
100
AcDbLine
 10
0.250000000000003
 20
647.9633999999999
 30
0.0
 11
0.250000000000003
 21
643.3794
 31
0.0
  0
LINE
  5
46
330
1E
100
AcDbEntity
  8
0
100
AcDbLine
 10
0.250000000000003
 20
647.9633999999999
 30
0.0
 11
0.250000000000003
 21
652.4443999999999
 31
0.0
  0
LINE
  5
47
330
1E
100
AcDbEntity
  8
0
100
AcDbLine
 10
0.250000000000003
 20
643.3794
 30
0.0
 11
0.250000000000003
 21
639.1113999999999
 31
0.0
  0
LINE
  5
48
330
1E
100
AcDbEntity
  8
0
100
AcDbLine
 10
0.250000000000003
 20
643.3794
 30
0.0
 11
0.250000000000003
 21
647.9633999999999
 31
0.0
  0
LINE
  5
49
330
1E
100
AcDbEntity
  8
0
100
AcDbLine
 10
0.250000000000003
 20
639.1113999999999
 30
0.0
 11
0.250000000000003
 21
635.5273999999999
 31
0.0
  0
LINE
  5
4A
330
1E
100
AcDbEntity
  8
0
100
AcDbLine
 10
0.250000000000003
 20
639.1113999999999
 30
0.0
 11
0.250000000000003
 21
643.3794
 31
0.0
  0
LINE
  5
4B
330
1E
100
AcDbEntity
  8
0
100
AcDbLine
 10
0.250000000000003
 20
635.5273999999999
 30
0.0
 11
0.250000000000003
 21
632.6984
 31
0.0
  0
LINE
  5
4C
330
1E
100
AcDbEntity
  8
0
100
AcDbLine
 10
0.250000000000003
 20
635.5273999999999
 30
0.0
 11
0.250000000000003
 21
639.1113999999999
 31
0.0
  0
LINE
  5
4D
330
1E
100
AcDbEntity
  8
0
100
AcDbLine
 10
0.250000000000003
 20
639.1284
 30
0.0
 11
0.250000000000003
 21
635.5243999999999
 31
0.0
  0
LINE
  5
4E
330
1E
100
AcDbEntity
  8
0
100
AcDbLine
 10
0.250000000000003
 20
639.1284
 30
0.0
 11
0.250000000000003
 21
643.3804
 31
0.0
  0
LINE
  5
4F
330
1E
100
AcDbEntity
  8
0
100
AcDbLine
 10
0.250000000000003
 20
635.5243999999999
 30
0.0
 11
0.250000000000003
 21
639.1284
 31
0.0
  0
LINE
  5
50
330
1E
100
AcDbEntity
  8
0
100
AcDbLine
 10
0.250000000000003
 20
635.5243999999999
 30
0.0
 11
0.250000000000003
 21
632.7714
 31
0.0
  0
LINE
  5
51
330
1E
100
AcDbEntity
  8
0
100
AcDbLine
 10
0.250000000000003
 20
632.7714
 30
0.0
 11
0.250000000000003
 21
635.5243999999999
 31
0.0
  0
LINE
  5
52
330
1E
100
AcDbEntity
  8
0
100
AcDbLine
 10
0.250000000000003
 20
632.7714
 30
0.0
 11
0.250000000000003
 21
630.9954
 31
0.0
  0
LINE
  5
53
330
1E
100
AcDbEntity
  8
0
100
AcDbLine
 10
0.250000000000003
 20
630.9954
 30
0.0
 11
0.250000000000003
 21
632.7714
 31
0.0
  0
LINE
  5
54
330
1E
100
AcDbEntity
  8
0
100
AcDbLine
 10
0.250000000000003
 20
630.9954
 30
0.0
 11
0.250000000000003
 21
630.3994
 31
0.0
  0
LINE
  5
55
330
1E
100
AcDbEntity
  8
0
100
AcDbLine
 10
0.250000000000003
 20
630.9914
 30
0.0
 11
0.250000000000003
 21
630.3994
 31
0.0
  0
LINE
  5
56
330
1E
100
AcDbEntity
  8
0
100
AcDbLine
 10
0.250000000000003
 20
630.9914
 30
0.0
 11
0.250000000000003
 21
632.6984
 31
0.0
  0
LINE
  5
57
330
1E
100
AcDbEntity
  8
0
100
AcDbLine
 10
0.250000000000003
 20
630.3994
 30
0.0
 11
1.00380000000001
 21
629.9174
 31
0.0
  0
LINE
  5
58
330
1E
100
AcDbEntity
  8
0
100
AcDbLine
 10
0.250000000000003
 20
630.3994
 30
0.0
 11
0.250000000000003
 21
630.9954
 31
0.0
  0
LINE
  5
59
330
1E
100
AcDbEntity
  8
0
100
AcDbLine
 10
0.250000000000003
 20
630.3994
 30
0.0
 11
0.250000000000003
 21
630.9914
 31
0.0
  0
LINE
  5
5A
330
1E
100
AcDbEntity
  8
0
100
AcDbLine
 10
5.4386
 20
665.8128941686189
 30
0.0
 11
5.4386
 21
677.0413999999999
 31
0.0
  0
LINE
  5
5B
330
1E
100
AcDbEntity
  8
0
100
AcDbLine
 10
11.43859999999999
 20
665.9074
 30
0.0
 11
11.43859999999999
 21
677.0413999999999
 31
0.0
  0
LINE
  5
5C
330
1E
100
AcDbEntity
  8
0
100
AcDbLine
 10
32.16279999999999
 20
665.9074
 30
0.0
 11
32.91669999999999
 21
665.4253999999999
 31
0.0
  0
LINE
  5
5D
330
1E
100
AcDbEntity
  8
0
100
AcDbLine
 10
5.4386
 20
665.9074
 30
0.0
 11
32.16279999999999
 21
665.9074
 31
0.0
  0
LINE
  5
5E
330
1E
100
AcDbEntity
  8
0
100
AcDbLine
 10
5.4386
 20
665.9074
 30
0.0
 11
32.16279999999999
 21
665.9074
 31
0.0
  0
LINE
  5
5F
330
1E
100
AcDbEntity
  8
0
100
AcDbLine
 10
7.682599999999999
 20
677.6413999999999
 30
0.0
 11
8.438599999999999
 21
677.6413999999999
 31
0.0
  0
LINE
  5
60
330
1E
100
AcDbEntity
  8
0
100
AcDbLine
 10
6.986600000000009
 20
677.6413999999999
 30
0.0
 11
7.682599999999999
 21
677.6413999999999
 31
0.0
  0
LINE
  5
61
330
1E
100
AcDbEntity
  8
0
100
AcDbLine
 10
6.3746
 20
677.6413999999999
 30
0.0
 11
6.986600000000009
 21
677.6413999999999
 31
0.0
  0
LINE
  5
62
330
1E
100
AcDbEntity
  8
0
100
AcDbLine
 10
5.9066
 20
677.6413999999999
 30
0.0
 11
6.3746
 21
677.6413999999999
 31
0.0
  0
LINE
  5
63
330
1E
100
AcDbEntity
  8
0
100
AcDbLine
 10
5.618599999999999
 20
677.6413999999999
 30
0.0
 11
5.9066
 21
677.6413999999999
 31
0.0
  0
LINE
  5
64
330
1E
100
AcDbEntity
  8
0
100
AcDbLine
 10
5.5106
 20
677.6413999999999
 30
0.0
 11
5.618599999999999
 21
677.6413999999999
 31
0.0
  0
LINE
  5
65
330
1E
100
AcDbEntity
  8
0
100
AcDbLine
 10
8.438599999999999
 20
677.6413999999999
 30
0.0
 11
9.194599999999999
 21
677.6413999999999
 31
0.0
  0
LINE
  5
66
330
1E
100
AcDbEntity
  8
0
100
AcDbLine
 10
9.194599999999999
 20
677.6413999999999
 30
0.0
 11
9.890599999999999
 21
677.6413999999999
 31
0.0
  0
LINE
  5
67
330
1E
100
AcDbEntity
  8
0
100
AcDbLine
 10
9.890599999999999
 20
677.6413999999999
 30
0.0
 11
10.50259999999999
 21
677.6413999999999
 31
0.0
  0
LINE
  5
68
330
1E
100
AcDbEntity
  8
0
100
AcDbLine
 10
10.50259999999999
 20
677.6413999999999
 30
0.0
 11
10.97059999999999
 21
677.6413999999999
 31
0.0
  0
LINE
  5
69
330
1E
100
AcDbEntity
  8
0
100
AcDbLine
 10
10.97059999999999
 20
677.6413999999999
 30
0.0
 11
11.2586
 21
677.6413999999999
 31
0.0
  0
LINE
  5
6A
330
1E
100
AcDbEntity
  8
0
100
AcDbLine
 10
11.2586
 20
677.6413999999999
 30
0.0
 11
11.3666
 21
677.6413999999999
 31
0.0
  0
LINE
  5
6B
330
1E
100
AcDbEntity
  8
0
100
AcDbLine
 10
5.4386
 20
677.0413999999999
 30
0.0
 11
5.4386
 21
665.8128941686189
 31
0.0
  0
LINE
  5
6C
330
1E
100
AcDbEntity
  8
0
100
AcDbLine
 10
5.4386
 20
677.0413999999999
 30
0.0
 11
5.5106
 21
677.6413999999999
 31
0.0
  0
LINE
  5
6D
330
1E
100
AcDbEntity
  8
0
100
AcDbLine
 10
26.88134
 20
814.5253999999999
 30
0.0
 11
29.36790999999999
 21
810.2973999999999
 31
0.0
  0
LINE
  5
6E
330
1E
100
AcDbEntity
  8
0
100
AcDbLine
 10
25.37164
 20
818.9064
 30
0.0
 11
26.88134
 21
814.5253999999999
 31
0.0
  0
LINE
  5
6F
330
1E
100
AcDbEntity
  8
0
100
AcDbLine
 10
24.75
 20
823.5754
 30
0.0
 11
24.75
 21
823.3373999999999
 31
0.0
  0
LINE
  5
70
330
1E
100
AcDbEntity
  8
0
100
AcDbLine
 10
24.75
 20
823.5754
 30
0.0
 11
25.37164
 21
828.0063999999999
 31
0.0
  0
LINE
  5
71
330
1E
100
AcDbEntity
  8
0
100
AcDbLine
 10
26.88134
 20
832.3873999999999
 30
0.0
 11
29.36790999999999
 21
836.6153999999999
 31
0.0
  0
LINE
  5
72
330
1E
100
AcDbEntity
  8
0
100
AcDbLine
 10
25.37164
 20
828.0063999999999
 30
0.0
 11
26.88134
 21
832.3873999999999
 31
0.0
  0
LINE
  5
73
330
1E
100
AcDbEntity
  8
0
100
AcDbLine
 10
26.88134
 20
832.1493999999999
 30
0.0
 11
29.36790999999999
 21
836.3773999999999
 31
0.0
  0
LINE
  5
74
330
1E
100
AcDbEntity
  8
0
100
AcDbLine
 10
25.37164
 20
827.7694
 30
0.0
 11
26.88134
 21
832.1493999999999
 31
0.0
  0
LINE
  5
75
330
1E
100
AcDbEntity
  8
0
100
AcDbLine
 10
24.75
 20
823.3373999999999
 30
0.0
 11
25.37164
 21
827.7694
 31
0.0
  0
LINE
  5
76
330
1E
100
AcDbEntity
  8
0
100
AcDbLine
 10
24.75
 20
823.3373999999999
 30
0.0
 11
25.37164
 21
818.9064
 31
0.0
  0
LINE
  5
77
330
1E
100
AcDbEntity
  8
0
100
AcDbLine
 10
24.75
 20
823.3373999999999
 30
0.0
 11
24.75
 21
823.5754
 31
0.0
  0
LINE
  5
7A
330
1E
100
AcDbEntity
  8
0
100
AcDbLine
 10
29.36790999999999
 20
810.2973999999999
 30
0.0
 11
32.82197
 21
806.2993999999999
 31
0.0
  0
LINE
  5
7B
330
1E
100
AcDbEntity
  8
0
100
AcDbLine
 10
29.36790999999999
 20
836.6153999999999
 30
0.0
 11
32.82197
 21
840.6124
 31
0.0
  0
LINE
  5
7C
330
1E
100
AcDbEntity
  8
0
100
AcDbLine
 10
29.36790999999999
 20
836.3773999999999
 30
0.0
 11
32.82197
 21
840.3754000000001
 31
0.0
  0
LINE
  5
7D
330
1E
100
AcDbEntity
  8
0
100
AcDbLine
 10
27.75
 20
970.0124
 30
0.0
 11
31.95
 21
964.6124
 31
0.0
  0
LINE
  5
7E
330
1E
100
AcDbEntity
  8
0
100
AcDbLine
 10
25.15
 20
976.2124
 30
0.0
 11
27.75
 21
970.0124
 31
0.0
  0
LINE
  5
7F
330
1E
100
AcDbEntity
  8
0
100
AcDbLine
 10
31.95
 20
964.6124
 30
0.0
 11
37.35
 21
960.4124
 31
0.0
  0
LINE
  5
80
330
1E
100
AcDbEntity
  8
0
100
AcDbLine
 10
31.95
 20
1001.2124
 30
0.0
 11
37.35
 21
1005.412399999999
 31
0.0
  0
LINE
  5
81
330
1E
100
AcDbEntity
  8
0
100
AcDbLine
 10
27.75
 20
995.8123999999999
 30
0.0
 11
31.95
 21
1001.2124
 31
0.0
  0
LINE
  5
82
330
1E
100
AcDbEntity
  8
0
100
AcDbLine
 10
25.15
 20
989.6124
 30
0.0
 11
27.75
 21
995.8123999999999
 31
0.0
  0
LINE
  5
83
330
1E
100
AcDbEntity
  8
0
100
AcDbLine
 10
24.25
 20
982.9124
 30
0.0
 11
25.15
 21
989.6124
 31
0.0
  0
LINE
  5
84
330
1E
100
AcDbEntity
  8
0
100
AcDbLine
 10
24.25
 20
982.9124
 30
0.0
 11
25.15
 21
976.2124
 31
0.0
  0
LINE
  5
85
330
1E
100
AcDbEntity
  8
0
100
AcDbLine
 10
11.43859999999999
 20
677.0413999999999
 30
0.0
 11
11.43859999999999
 21
665.9074
 31
0.0
  0
LINE
  5
86
330
1E
100
AcDbEntity
  8
0
100
AcDbLine
 10
11.3666
 20
677.6413999999999
 30
0.0
 11
11.43859999999999
 21
677.0413999999999
 31
0.0
  0
LINE
  5
87
330
1E
100
AcDbEntity
  8
0
100
AcDbLine
 10
1.00380000000001
 20
665.9074
 30
0.0
 11
5.4386
 21
665.9074
 31
0.0
  0
LINE
  5
88
330
1E
100
AcDbEntity
  8
0
100
AcDbLine
 10
0.250000000000003
 20
632.6984
 30
0.0
 11
0.250000000000003
 21
630.9914
 31
0.0
  0
LINE
  5
89
330
1E
100
AcDbEntity
  8
0
100
AcDbLine
 10
0.250000000000003
 20
632.6984
 30
0.0
 11
0.250000000000003
 21
635.5273999999999
 31
0.0
  0
LINE
  5
8A
330
1E
100
AcDbEntity
  8
0
100
AcDbLine
 10
1.00380000000001
 20
629.9174
 30
0.0
 11
32.16279999999999
 21
629.9174
 31
0.0
  0
LINE
  5
8B
330
1E
100
AcDbEntity
  8
0
100
AcDbLine
 10
37.35
 20
43.41239999999999
 30
0.0
 11
43.54999999999999
 21
40.8124
 31
0.0
  0
LINE
  5
8C
330
1E
100
AcDbEntity
  8
0
100
AcDbLine
 10
56.95
 20
40.8124
 30
0.0
 11
63.15
 21
43.41239999999999
 31
0.0
  0
LINE
  5
8D
330
1E
100
AcDbEntity
  8
0
100
AcDbLine
 10
50.25
 20
39.91239999999999
 30
0.0
 11
56.95
 21
40.8124
 31
0.0
  0
LINE
  5
8E
330
1E
100
AcDbEntity
  8
0
100
AcDbLine
 10
46.95
 20
53.41239999999999
 30
0.0
 11
50.25
 21
52.9124
 31
0.0
  0
LINE
  5
8F
330
1E
100
AcDbEntity
  8
0
100
AcDbLine
 10
43.75
 20
54.6124
 30
0.0
 11
46.95
 21
53.41239999999999
 31
0.0
  0
LINE
  5
90
330
1E
100
AcDbEntity
  8
0
100
AcDbLine
 10
43.75
 20
54.6124
 30
0.0
 11
46.95
 21
53.41239999999999
 31
0.0
  0
LINE
  5
91
330
1E
100
AcDbEntity
  8
0
100
AcDbLine
 10
41.04999999999999
 20
56.7124
 30
0.0
 11
43.75
 21
54.6124
 31
0.0
  0
LINE
  5
92
330
1E
100
AcDbEntity
  8
0
100
AcDbLine
 10
53.55
 20
53.41239999999999
 30
0.0
 11
56.75
 21
54.6124
 31
0.0
  0
LINE
  5
93
330
1E
100
AcDbEntity
  8
0
100
AcDbLine
 10
50.25
 20
52.9124
 30
0.0
 11
53.55
 21
53.41239999999999
 31
0.0
  0
LINE
  5
94
330
1E
100
AcDbEntity
  8
0
100
AcDbLine
 10
50.25
 20
52.9124
 30
0.0
 11
53.55
 21
53.41239999999999
 31
0.0
  0
LINE
  5
95
330
1E
100
AcDbEntity
  8
0
100
AcDbLine
 10
59.45
 20
56.7124
 30
0.0
 11
61.55
 21
59.4124
 31
0.0
  0
LINE
  5
96
330
1E
100
AcDbEntity
  8
0
100
AcDbLine
 10
56.75
 20
54.6124
 30
0.0
 11
59.45
 21
56.7124
 31
0.0
  0
LINE
  5
97
330
1E
100
AcDbEntity
  8
0
100
AcDbLine
 10
46.95
 20
53.41239999999999
 30
0.0
 11
50.25
 21
52.9124
 31
0.0
  0
LINE
  5
98
330
1E
100
AcDbEntity
  8
0
100
AcDbLine
 10
43.54999999999999
 20
40.8124
 30
0.0
 11
50.25
 21
39.91239999999999
 31
0.0
  0
LINE
  5
99
330
1E
100
AcDbEntity
  8
0
100
AcDbLine
 10
38.95
 20
59.4124
 30
0.0
 11
41.04999999999999
 21
56.7124
 31
0.0
  0
LINE
  5
9A
330
1E
100
AcDbEntity
  8
0
100
AcDbLine
 10
39.25
 20
72.79811428571429
 30
0.0
 11
39.25
 21
629.9174
 31
0.0
  0
LINE
  5
9B
330
1E
100
AcDbEntity
  8
0
100
AcDbLine
 10
38.95
 20
72.41240000000001
 30
0.0
 11
41.04999999999999
 21
75.11239999999999
 31
0.0
  0
LINE
  5
9C
330
1E
100
AcDbEntity
  8
0
100
AcDbLine
 10
37.75
 20
69.2124
 30
0.0
 11
38.95
 21
72.41240000000001
 31
0.0
  0
LINE
  5
9D
330
1E
100
AcDbEntity
  8
0
100
AcDbLine
 10
41.04999999999999
 20
75.11239999999999
 30
0.0
 11
43.75
 21
77.2124
 31
0.0
  0
LINE
  5
9E
330
1E
100
AcDbEntity
  8
0
100
AcDbLine
 10
61.25
 20
72.79811428571429
 30
0.0
 11
61.25
 21
630.061579116718
 31
0.0
  0
LINE
  5
9F
330
1E
100
AcDbEntity
  8
0
100
AcDbLine
 10
56.75
 20
77.2124
 30
0.0
 11
59.45
 21
75.11239999999999
 31
0.0
  0
LINE
  5
A0
330
1E
100
AcDbEntity
  8
0
100
AcDbLine
 10
53.55
 20
78.4124
 30
0.0
 11
56.75
 21
77.2124
 31
0.0
  0
LINE
  5
A1
330
1E
100
AcDbEntity
  8
0
100
AcDbLine
 10
59.45
 20
75.11239999999999
 30
0.0
 11
61.55
 21
72.41240000000001
 31
0.0
  0
LINE
  5
A2
330
1E
100
AcDbEntity
  8
0
100
AcDbLine
 10
43.75
 20
77.2124
 30
0.0
 11
46.95
 21
78.4124
 31
0.0
  0
LINE
  5
A3
330
1E
100
AcDbEntity
  8
0
100
AcDbLine
 10
39.25
 20
629.9174
 30
0.0
 11
39.25
 21
72.79811428571441
 31
0.0
  0
LINE
  5
A4
330
1E
100
AcDbEntity
  8
0
100
AcDbLine
 10
50.25
 20
78.9124
 30
0.0
 11
53.55
 21
78.4124
 31
0.0
  0
LINE
  5
A5
330
1E
100
AcDbEntity
  8
0
100
AcDbLine
 10
61.25
 20
89.20917419354841
 30
0.0
 11
63.15
 21
88.4124
 31
0.0
  0
LINE
  5
A6
330
1E
100
AcDbEntity
  8
0
100
AcDbLine
 10
46.95
 20
78.4124
 30
0.0
 11
50.25
 21
78.9124
 31
0.0
  0
LINE
  5
A7
330
1E
100
AcDbEntity
  8
0
100
AcDbLine
 10
37.35
 20
88.4124
 30
0.0
 11
39.25
 21
89.20917419354841
 31
0.0
  0
LINE
  5
A8
330
1E
100
AcDbEntity
  8
0
100
AcDbLine
 10
37.75
 20
62.6124
 30
0.0
 11
38.95
 21
59.4124
 31
0.0
  0
LINE
  5
A9
330
1E
100
AcDbEntity
  8
0
100
AcDbLine
 10
37.25
 20
65.9124
 30
0.0
 11
37.75
 21
62.6124
 31
0.0
  0
LINE
  5
AA
330
1E
100
AcDbEntity
  8
0
100
AcDbLine
 10
37.25
 20
65.9124
 30
0.0
 11
37.75
 21
69.2124
 31
0.0
  0
LINE
  5
AB
330
1E
100
AcDbEntity
  8
0
100
AcDbLine
 10
33.67049999999999
 20
629.9174
 30
0.0
 11
61.25
 21
629.9174
 31
0.0
  0
LINE
  5
AC
330
1E
100
AcDbEntity
  8
0
100
AcDbLine
 10
61.55
 20
59.4124
 30
0.0
 11
62.75
 21
62.6124
 31
0.0
  0
LINE
  5
AD
330
1E
100
AcDbEntity
  8
0
100
AcDbLine
 10
62.75
 20
62.6124
 30
0.0
 11
63.25
 21
65.9124
 31
0.0
  0
LINE
  5
AE
330
1E
100
AcDbEntity
  8
0
100
AcDbLine
 10
61.55
 20
72.41240000000001
 30
0.0
 11
62.75
 21
69.2124
 31
0.0
  0
LINE
  5
AF
330
1E
100
AcDbEntity
  8
0
100
AcDbLine
 10
75.43980000000001
 20
0.0875999999999763
 30
0.0
 11
76.32559999999999
 21
525.4334
 31
0.0
  0
LINE
  5
B0
330
1E
100
AcDbEntity
  8
0
100
AcDbLine
 10
75.43980000000001
 20
0.0876000000000253
 30
0.0
 11
76.32559999999999
 21
525.4334
 31
0.0
  0
LINE
  5
B1
330
1E
100
AcDbEntity
  8
0
100
AcDbLine
 10
75.43980000000001
 20
0.0876000000000253
 30
0.0
 11
75.70289999999999
 21
0.216500000000013
 31
0.0
  0
LINE
  5
B2
330
1E
100
AcDbEntity
  8
0
100
AcDbLine
 10
76.47580000000001
 20
0.5959000000000251
 30
0.0
 11
78.41370000000001
 21
1.546900000000019
 31
0.0
  0
LINE
  5
B3
330
1E
100
AcDbEntity
  8
0
100
AcDbLine
 10
76.14919009518371
 20
0.435653074692954
 30
0.0
 11
76.47580000000001
 21
0.5959000000000251
 31
0.0
  0
LINE
  5
B4
330
1E
100
AcDbEntity
  8
0
100
AcDbLine
 10
75.70289999999999
 20
0.216500000000013
 30
0.0
 11
77.1339
 21
0.9192000000000192
 31
0.0
  0
LINE
  5
B5
330
1E
100
AcDbEntity
  8
0
100
AcDbLine
 10
78.41370000000001
 20
1.546900000000019
 30
0.0
 11
78.8700751491616
 21
1.770993280405399
 31
0.0
  0
LINE
  5
B6
330
1E
100
AcDbEntity
  8
0
100
AcDbLine
 10
77.1339
 20
0.9192000000000192
 30
0.0
 11
79.5313
 21
2.095400000000029
 31
0.0
  0
LINE
  5
B7
330
1E
100
AcDbEntity
  8
0
100
AcDbLine
 10
82.4439
 20
3.525100000000029
 30
0.0
 11
85.59359999999999
 21
5.070100000000019
 31
0.0
  0
LINE
  5
B8
330
1E
100
AcDbEntity
  8
0
100
AcDbLine
 10
84.35529999999999
 20
4.46250000000003
 30
0.0
 11
85.38965404027091
 21
4.97005983497431
 31
0.0
  0
LINE
  5
B9
330
1E
100
AcDbEntity
  8
0
100
AcDbLine
 10
86.04966284735649
 20
5.29392762894382
 30
0.0
 11
87.26460000000001
 21
5.890100000000018
 31
0.0
  0
LINE
  5
BA
330
1E
100
AcDbEntity
  8
0
100
AcDbLine
 10
87.26460000000001
 20
5.890100000000018
 30
0.0
 11
89.6606
 21
7.066200000000029
 31
0.0
  0
LINE
  5
BB
330
1E
100
AcDbEntity
  8
0
100
AcDbLine
 10
89.6606
 20
7.066200000000029
 30
0.0
 11
91.09529999999999
 21
7.770000000000019
 31
0.0
  0
LINE
  5
BC
330
1E
100
AcDbEntity
  8
0
100
AcDbLine
 10
91.09529999999999
 20
7.770000000000019
 30
0.0
 11
91.362
 21
7.901100000000019
 31
0.0
  0
LINE
  5
BD
330
1E
100
AcDbEntity
  8
0
100
AcDbLine
 10
91.362
 20
7.901100000000019
 30
0.0
 11
92.3258
 21
525.4324
 31
0.0
  0
LINE
  5
BE
330
1E
100
AcDbEntity
  8
0
100
AcDbLine
 10
91.362
 20
7.90109999999998
 30
0.0
 11
92.3258
 21
525.4324
 31
0.0
  0
LINE
  5
BF
330
1E
100
AcDbEntity
  8
0
100
AcDbLine
 10
90.33190000000001
 20
7.395900000000018
 30
0.0
 11
91.362
 21
7.901100000000019
 31
0.0
  0
LINE
  5
C0
330
1E
100
AcDbEntity
  8
0
100
AcDbLine
 10
88.39260000000001
 20
6.443800000000019
 30
0.0
 11
90.33190000000001
 21
7.395900000000018
 31
0.0
  0
LINE
  5
C1
330
1E
100
AcDbEntity
  8
0
100
AcDbLine
 10
85.59359999999999
 20
5.070100000000019
 30
0.0
 11
88.39260000000001
 21
6.443800000000019
 31
0.0
  0
LINE
  5
C2
330
1E
100
AcDbEntity
  8
0
100
AcDbLine
 10
82.44913021353189
 20
3.52766553954562
 30
0.0
 11
84.35529999999999
 21
4.46250000000003
 31
0.0
  0
LINE
  5
C3
330
1E
100
AcDbEntity
  8
0
100
AcDbLine
 10
79.5313
 20
2.095400000000029
 30
0.0
 11
82.4439
 21
3.525100000000029
 31
0.0
  0
LINE
  5
C4
330
1E
100
AcDbEntity
  8
0
100
AcDbLine
 10
68.55
 20
47.61239999999999
 30
0.0
 11
72.75
 21
53.01239999999999
 31
0.0
  0
LINE
  5
C5
330
1E
100
AcDbEntity
  8
0
100
AcDbLine
 10
72.75
 20
53.01239999999999
 30
0.0
 11
75.35
 21
59.2124
 31
0.0
  0
LINE
  5
C6
330
1E
100
AcDbEntity
  8
0
100
AcDbLine
 10
75.35
 20
59.2124
 30
0.0
 11
75.54190074351159
 21
60.6409944239199
 31
0.0
  0
LINE
  5
C7
330
1E
100
AcDbEntity
  8
0
100
AcDbLine
 10
63.15
 20
43.41239999999999
 30
0.0
 11
68.55
 21
47.61239999999999
 31
0.0
  0
LINE
  5
C8
330
1E
100
AcDbEntity
  8
0
100
AcDbLine
 10
62.75
 20
69.2124
 30
0.0
 11
63.25
 21
65.9124
 31
0.0
  0
LINE
  5
C9
330
1E
100
AcDbEntity
  8
0
100
AcDbLine
 10
70.25
 20
629.9174
 30
0.0
 11
70.25
 21
630.5034
 31
0.0
  0
LINE
  5
CA
330
1E
100
AcDbEntity
  8
0
100
AcDbLine
 10
70.25
 20
629.9174
 30
0.0
 11
76.1888259204101
 21
629.9164101956799
 31
0.0
  0
LINE
  5
CB
330
1E
100
AcDbEntity
  8
0
100
AcDbLine
 10
63.15
 20
88.4124
 30
0.0
 11
68.55
 21
84.2124
 31
0.0
  0
LINE
  5
CC
330
1E
100
AcDbEntity
  8
0
100
AcDbLine
 10
68.55
 20
84.2124
 30
0.0
 11
72.75
 21
78.8124
 31
0.0
  0
LINE
  5
CD
330
1E
100
AcDbEntity
  8
0
100
AcDbLine
 10
92.30960000000001
 20
558.4334
 30
0.0
 11
92.3258
 21
525.4324
 31
0.0
  0
LINE
  5
CE
330
1E
100
AcDbEntity
  8
0
100
AcDbLine
 10
92.28060000000001
 20
581.4403999999999
 30
0.0
 11
92.30960000000001
 21
558.4334
 31
0.0
  0
LINE
  5
CF
330
1E
100
AcDbEntity
  8
0
100
AcDbLine
 10
76.30970000000001
 20
558.4334
 30
0.0
 11
76.32559999999999
 21
525.4334
 31
0.0
  0
LINE
  5
D0
330
1E
100
AcDbEntity
  8
0
100
AcDbLine
 10
76.2816
 20
581.4303999999999
 30
0.0
 11
76.30970000000001
 21
558.4334
 31
0.0
  0
LINE
  5
D1
330
1E
100
AcDbEntity
  8
0
100
AcDbLine
 10
76.25
 20
629.9163999999999
 30
0.0
 11
76.25
 21
630.5004
 31
0.0
  0
LINE
  5
D2
330
1E
100
AcDbEntity
  8
0
100
AcDbLine
 10
92.23959999999999
 20
606.2374
 30
0.0
 11
92.28060000000001
 21
581.4403999999999
 31
0.0
  0
LINE
  5
D3
330
1E
100
AcDbEntity
  8
0
100
AcDbLine
 10
76.23969999999999
 20
606.2274
 30
0.0
 11
76.2816
 21
581.4303999999999
 31
0.0
  0
LINE
  5
D4
330
1E
100
AcDbEntity
  8
0
100
AcDbLine
 10
72.75
 20
78.8124
 30
0.0
 11
75.35
 21
72.61239999999999
 31
0.0
  0
LINE
  5
D5
330
1E
100
AcDbEntity
  8
0
100
AcDbLine
 10
75.35
 20
72.61239999999999
 30
0.0
 11
75.5594568975103
 21
71.0531097629792
 31
0.0
  0
LINE
  5
D6
330
1E
100
AcDbEntity
  8
0
100
AcDbLine
 10
61.25
 20
629.9174
 30
0.0
 11
70.25
 21
629.9174
 31
0.0
  0
LINE
  5
D7
330
1E
100
AcDbEntity
  8
0
100
AcDbLine
 10
61.25
 20
630.061579116718
 30
0.0
 11
61.25
 21
72.7981142857142
 31
0.0
  0
LINE
  5
D8
330
1E
100
AcDbEntity
  8
0
100
AcDbLine
 10
76.25
 20
630.5004
 30
0.0
 11
76.25
 21
629.9163999999999
 31
0.0
  0
LINE
  5
D9
330
1E
100
AcDbEntity
  8
0
100
AcDbLine
 10
76.25
 20
630.5004
 30
0.0
 11
76.25
 21
632.3684
 31
0.0
  0
LINE
  5
DA
330
1E
100
AcDbEntity
  8
0
100
AcDbLine
 10
76.18881308662641
 20
629.9223861196919
 30
0.0
 11
76.23969999999999
 21
606.2274
 31
0.0
  0
LINE
  5
DB
330
1E
100
AcDbEntity
  8
0
100
AcDbLine
 10
70.25
 20
630.5034
 30
0.0
 11
70.25
 21
629.9174
 31
0.0
  0
LINE
  5
DC
330
1E
100
AcDbEntity
  8
0
100
AcDbLine
 10
70.25
 20
630.5034
 30
0.0
 11
70.25
 21
632.3684
 31
0.0
  0
LINE
  5
DD
330
1E
100
AcDbEntity
  8
0
100
AcDbLine
 10
33.67049999999999
 20
629.9174
 30
0.0
 11
61.25
 21
629.9174
 31
0.0
  0
LINE
  5
DE
330
1E
100
AcDbEntity
  8
0
100
AcDbLine
 10
32.91669999999999
 20
630.3994
 30
0.0
 11
32.91669999999999
 21
630.9954
 31
0.0
  0
LINE
  5
DF
330
1E
100
AcDbEntity
  8
0
100
AcDbLine
 10
32.91669999999999
 20
630.3994
 30
0.0
 11
33.67049999999999
 21
629.9174
 31
0.0
  0
LINE
  5
E0
330
1E
100
AcDbEntity
  8
0
100
AcDbLine
 10
32.91669999999999
 20
643.3804
 30
0.0
 11
32.91669999999999
 21
639.1284
 31
0.0
  0
LINE
  5
E1
330
1E
100
AcDbEntity
  8
0
100
AcDbLine
 10
32.91669999999999
 20
643.3804
 30
0.0
 11
32.91669999999999
 21
647.8614
 31
0.0
  0
LINE
  5
E2
330
1E
100
AcDbEntity
  8
0
100
AcDbLine
 10
32.91669999999999
 20
647.8614
 30
0.0
 11
32.91669999999999
 21
643.3804
 31
0.0
  0
LINE
  5
E3
330
1E
100
AcDbEntity
  8
0
100
AcDbLine
 10
32.91669999999999
 20
647.8614
 30
0.0
 11
32.91669999999999
 21
652.4453999999999
 31
0.0
  0
LINE
  5
E4
330
1E
100
AcDbEntity
  8
0
100
AcDbLine
 10
32.91669999999999
 20
652.4453999999999
 30
0.0
 11
32.91669999999999
 21
647.8614
 31
0.0
  0
LINE
  5
E5
330
1E
100
AcDbEntity
  8
0
100
AcDbLine
 10
32.91669999999999
 20
652.4453999999999
 30
0.0
 11
32.91669999999999
 21
656.7134
 31
0.0
  0
LINE
  5
E6
330
1E
100
AcDbEntity
  8
0
100
AcDbLine
 10
32.91669999999999
 20
656.7134
 30
0.0
 11
32.91669999999999
 21
652.4453999999999
 31
0.0
  0
LINE
  5
E7
330
1E
100
AcDbEntity
  8
0
100
AcDbLine
 10
32.91669999999999
 20
656.7134
 30
0.0
 11
32.91669999999999
 21
660.2974
 31
0.0
  0
LINE
  5
E8
330
1E
100
AcDbEntity
  8
0
100
AcDbLine
 10
32.91669999999999
 20
660.2974
 30
0.0
 11
32.91669999999999
 21
656.7134
 31
0.0
  0
LINE
  5
E9
330
1E
100
AcDbEntity
  8
0
100
AcDbLine
 10
32.91669999999999
 20
660.2974
 30
0.0
 11
32.91669999999999
 21
663.1263999999999
 31
0.0
  0
LINE
  5
EA
330
1E
100
AcDbEntity
  8
0
100
AcDbLine
 10
32.82197
 20
806.2993999999999
 30
0.0
 11
33.1987
 21
805.9684
 31
0.0
  0
LINE
  5
EB
330
1E
100
AcDbEntity
  8
0
100
AcDbLine
 10
32.82197
 20
806.2993999999999
 30
0.0
 11
33.1675681056833
 21
806.0035807252541
 31
0.0
  0
LINE
  5
EC
330
1E
100
AcDbEntity
  8
0
100
AcDbLine
 10
32.82197
 20
840.6124
 30
0.0
 11
37.1551
 21
844.3224
 31
0.0
  0
LINE
  5
ED
330
1E
100
AcDbEntity
  8
0
100
AcDbLine
 10
32.82197
 20
840.6124
 30
0.0
 11
33.1987
 21
840.9444
 31
0.0
  0
LINE
  5
EE
330
1E
100
AcDbEntity
  8
0
100
AcDbLine
 10
32.82197
 20
840.3754000000001
 30
0.0
 11
37.1551
 21
844.0853999999999
 31
0.0
  0
LINE
  5
EF
330
1E
100
AcDbEntity
  8
0
100
AcDbLine
 10
32.91669999999999
 20
665.4253999999999
 30
0.0
 11
32.91669999999999
 21
664.8334
 31
0.0
  0
LINE
  5
F0
330
1E
100
AcDbEntity
  8
0
100
AcDbLine
 10
32.91669999999999
 20
665.4253999999999
 30
0.0
 11
33.67049999999999
 21
665.9074
 31
0.0
  0
LINE
  5
F1
330
1E
100
AcDbEntity
  8
0
100
AcDbLine
 10
32.91669999999999
 20
664.8334
 30
0.0
 11
32.91669999999999
 21
663.1263999999999
 31
0.0
  0
LINE
  5
F2
330
1E
100
AcDbEntity
  8
0
100
AcDbLine
 10
32.91669999999999
 20
664.8334
 30
0.0
 11
32.91669999999999
 21
665.4253999999999
 31
0.0
  0
LINE
  5
F3
330
1E
100
AcDbEntity
  8
0
100
AcDbLine
 10
32.91669999999999
 20
663.1263999999999
 30
0.0
 11
32.91669999999999
 21
660.2974
 31
0.0
  0
LINE
  5
F4
330
1E
100
AcDbEntity
  8
0
100
AcDbLine
 10
32.91669999999999
 20
663.1263999999999
 30
0.0
 11
32.91669999999999
 21
664.8334
 31
0.0
  0
LINE
  5
F5
330
1E
100
AcDbEntity
  8
0
100
AcDbLine
 10
32.91669999999999
 20
639.1284
 30
0.0
 11
32.91669999999999
 21
635.5243999999999
 31
0.0
  0
LINE
  5
F6
330
1E
100
AcDbEntity
  8
0
100
AcDbLine
 10
32.91669999999999
 20
639.1284
 30
0.0
 11
32.91669999999999
 21
643.3804
 31
0.0
  0
LINE
  5
F7
330
1E
100
AcDbEntity
  8
0
100
AcDbLine
 10
32.91669999999999
 20
635.5243999999999
 30
0.0
 11
32.91669999999999
 21
632.7714
 31
0.0
  0
LINE
  5
F8
330
1E
100
AcDbEntity
  8
0
100
AcDbLine
 10
32.91669999999999
 20
635.5243999999999
 30
0.0
 11
32.91669999999999
 21
639.1284
 31
0.0
  0
LINE
  5
F9
330
1E
100
AcDbEntity
  8
0
100
AcDbLine
 10
76.25
 20
632.3684
 30
0.0
 11
76.25
 21
630.5004
 31
0.0
  0
LINE
  5
FA
330
1E
100
AcDbEntity
  8
0
100
AcDbLine
 10
76.25
 20
632.3684
 30
0.0
 11
76.25
 21
635.2214
 31
0.0
  0
LINE
  5
FB
330
1E
100
AcDbEntity
  8
0
100
AcDbLine
 10
92.18470000000001
 20
631.3343999999999
 30
0.0
 11
92.23959999999999
 21
606.2374
 31
0.0
  0
LINE
  5
FC
330
1E
100
AcDbEntity
  8
0
100
AcDbLine
 10
70.25
 20
643.2273999999999
 30
0.0
 11
70.25
 21
638.9124
 31
0.0
  0
LINE
  5
FD
330
1E
100
AcDbEntity
  8
0
100
AcDbLine
 10
70.25
 20
643.2273999999999
 30
0.0
 11
70.25
 21
647.8324
 31
0.0
  0
LINE
  5
FE
330
1E
100
AcDbEntity
  8
0
100
AcDbLine
 10
70.25
 20
647.8324
 30
0.0
 11
70.25
 21
643.2273999999999
 31
0.0
  0
LINE
  5
FF
330
1E
100
AcDbEntity
  8
0
100
AcDbLine
 10
70.25
 20
647.8324
 30
0.0
 11
70.25
 21
652.5774
 31
0.0
  0
LINE
  5
100
330
1E
100
AcDbEntity
  8
0
100
AcDbLine
 10
70.25
 20
652.5774
 30
0.0
 11
70.25
 21
647.8324
 31
0.0
  0
LINE
  5
101
330
1E
100
AcDbEntity
  8
0
100
AcDbLine
 10
70.25
 20
652.5774
 30
0.0
 11
70.25
 21
656.9794
 31
0.0
  0
LINE
  5
102
330
1E
100
AcDbEntity
  8
0
100
AcDbLine
 10
70.25
 20
656.9794
 30
0.0
 11
70.25
 21
652.5774
 31
0.0
  0
LINE
  5
103
330
1E
100
AcDbEntity
  8
0
100
AcDbLine
 10
70.25
 20
656.9794
 30
0.0
 11
70.25
 21
660.6354
 31
0.0
  0
LINE
  5
104
330
1E
100
AcDbEntity
  8
0
100
AcDbLine
 10
33.67049999999999
 20
665.9074
 30
0.0
 11
39.25
 21
665.9074
 31
0.0
  0
LINE
  5
105
330
1E
100
AcDbEntity
  8
0
100
AcDbLine
 10
70.25
 20
665.2324
 30
0.0
 11
70.75399999999999
 21
663.4693999999999
 31
0.0
  0
LINE
  5
106
330
1E
100
AcDbEntity
  8
0
100
AcDbLine
 10
70.25
 20
665.2324
 30
0.0
 11
70.25
 21
703.3383999999999
 31
0.0
  0
LINE
  5
107
330
1E
100
AcDbEntity
  8
0
100
AcDbLine
 10
70.25
 20
665.2324
 30
0.0
 11
70.25
 21
663.5004
 31
0.0
  0
LINE
  5
108
330
1E
100
AcDbEntity
  8
0
100
AcDbLine
 10
39.25
 20
665.806119556036
 30
0.0
 11
39.25
 21
801.09851880709
 31
0.0
  0
LINE
  5
109
330
1E
100
AcDbEntity
  8
0
100
AcDbLine
 10
61.25
 20
665.9074
 30
0.0
 11
70.25
 21
665.9074
 31
0.0
  0
LINE
  5
10A
330
1E
100
AcDbEntity
  8
0
100
AcDbLine
 10
61.25
 20
665.9074
 30
0.0
 11
61.25
 21
791.762265888494
 31
0.0
  0
LINE
  5
10B
330
1E
100
AcDbEntity
  8
0
100
AcDbLine
 10
33.67049999999999
 20
665.9074
 30
0.0
 11
39.25
 21
665.9074
 31
0.0
  0
LINE
  5
10C
330
1E
100
AcDbEntity
  8
0
100
AcDbLine
 10
33.1987
 20
805.9684
 30
0.0
 11
37.5319
 21
802.2584
 31
0.0
  0
LINE
  5
111
330
1E
100
AcDbEntity
  8
0
100
AcDbLine
 10
36.4958
 20
819.4994000000001
 30
0.0
 11
37.72899999999999
 21
815.9624
 31
0.0
  0
LINE
  5
112
330
1E
100
AcDbEntity
  8
0
100
AcDbLine
 10
36.4958
 20
826.7004
 30
0.0
 11
37.72899999999999
 21
830.2364
 31
0.0
  0
LINE
  5
113
330
1E
100
AcDbEntity
  8
0
100
AcDbLine
 10
36.0475
 20
823.0993999999999
 30
0.0
 11
36.4958
 21
826.7004
 31
0.0
  0
LINE
  5
114
330
1E
100
AcDbEntity
  8
0
100
AcDbLine
 10
36.0475
 20
823.0993999999999
 30
0.0
 11
36.4958
 21
819.4994000000001
 31
0.0
  0
LINE
  5
116
330
1E
100
AcDbEntity
  8
0
100
AcDbLine
 10
37.1551
 20
844.3224
 30
0.0
 11
37.5319
 21
844.6533999999999
 31
0.0
  0
LINE
  5
119
330
1E
100
AcDbEntity
  8
0
100
AcDbLine
 10
37.1551
 20
844.0853999999999
 30
0.0
 11
42.1753
 21
847.4683999999999
 31
0.0
  0
LINE
  5
11A
330
1E
100
AcDbEntity
  8
0
100
AcDbLine
 10
36.3009
 20
846.9053999999999
 30
0.0
 11
39.216
 21
850.3223999999999
 31
0.0
  0
LINE
  5
11B
330
1E
100
AcDbEntity
  8
0
100
AcDbLine
 10
34.08072999999999
 20
843.1763999999999
 30
0.0
 11
36.3009
 21
846.9053999999999
 31
0.0
  0
LINE
  5
11C
330
1E
100
AcDbEntity
  8
0
100
AcDbLine
 10
33.31741241841049
 20
841.0460118249519
 30
0.0
 11
34.08072999999999
 21
843.1763999999999
 31
0.0
  0
LINE
  5
11D
330
1E
100
AcDbEntity
  8
0
100
AcDbLine
 10
42.4912
 20
798.9104
 30
0.0
 11
48.32899999999999
 21
796.0653999999999
 31
0.0
  0
LINE
  5
120
330
1E
100
AcDbEntity
  8
0
100
AcDbLine
 10
48.32899999999999
 20
796.0653999999999
 30
0.0
 11
54.7967
 21
793.5804
 31
0.0
  0
LINE
  5
123
330
1E
100
AcDbEntity
  8
0
100
AcDbLine
 10
54.7967
 20
793.5804
 30
0.0
 11
61.69319999999999
 21
791.6373999999999
 31
0.0
  0
LINE
  5
127
330
1E
100
AcDbEntity
  8
0
100
AcDbLine
 10
61.0387
 20
800.8993999999999
 30
0.0
 11
61.7275
 21
801.1814000000001
 31
0.0
  0
LINE
  5
128
330
1E
100
AcDbEntity
  8
0
100
AcDbLine
 10
60.9369
 20
800.4224
 30
0.0
 11
61.4524
 21
800.0334
 31
0.0
  0
LINE
  5
129
330
1E
100
AcDbEntity
  8
0
100
AcDbLine
 10
60.9369
 20
800.4224
 30
0.0
 11
61.0387
 21
800.8993999999999
 31
0.0
  0
LINE
  5
12B
330
1E
100
AcDbEntity
  8
0
100
AcDbLine
 10
60.1514
 20
799.1854
 30
0.0
 11
65.85840000000001
 21
797.6404
 31
0.0
  0
LINE
  5
12C
330
1E
100
AcDbEntity
  8
0
100
AcDbLine
 10
61.25
 20
791.762265888494
 30
0.0
 11
61.25
 21
665.9074
 31
0.0
  0
LINE
  5
12F
330
1E
100
AcDbEntity
  8
0
100
AcDbLine
 10
37.5319
 20
802.2584
 30
0.0
 11
42.4912
 21
798.9104
 31
0.0
  0
LINE
  5
130
330
1E
100
AcDbEntity
  8
0
100
AcDbLine
 10
37.72899999999999
 20
815.9624
 30
0.0
 11
39.8619
 21
812.5503999999999
 31
0.0
  0
LINE
  5
133
330
1E
100
AcDbEntity
  8
0
100
AcDbLine
 10
37.5319
 20
844.6533999999999
 30
0.0
 11
42.4912
 21
848.0024
 31
0.0
  0
LINE
  5
13A
330
1E
100
AcDbEntity
  8
0
100
AcDbLine
 10
38.9936
 20
822.2224
 30
0.0
 11
39.7841
 21
822.0154
 31
0.0
  0
LINE
  5
13B
330
1E
100
AcDbEntity
  8
0
100
AcDbLine
 10
40.20839999999999
 20
815.9133999999999
 30
0.0
 11
40.7404
 21
815.5193999999999
 31
0.0
  0
LINE
  5
13C
330
1E
100
AcDbEntity
  8
0
100
AcDbLine
 10
40.20839999999999
 20
815.9133999999999
 30
0.0
 11
40.331
 21
816.3954
 31
0.0
  0
LINE
  5
13D
330
1E
100
AcDbEntity
  8
0
100
AcDbLine
 10
40.20839999999999
 20
815.9133999999999
 30
0.0
 11
40.21451868830999
 21
816.067063730938
 31
0.0
  0
LINE
  5
13E
330
1E
100
AcDbEntity
  8
0
100
AcDbLine
 10
39.7841
 20
822.0154
 30
0.0
 11
40.57459999999999
 21
822.1963999999999
 31
0.0
  0
LINE
  5
13F
330
1E
100
AcDbEntity
  8
0
100
AcDbLine
 10
39.7841
 20
823.3114
 30
0.0
 11
40.57459999999999
 21
823.1033999999999
 31
0.0
  0
LINE
  5
140
330
1E
100
AcDbEntity
  8
0
100
AcDbLine
 10
38.9936
 20
823.1294
 30
0.0
 11
39.7841
 21
823.3114
 31
0.0
  0
LINE
  5
141
330
1E
100
AcDbEntity
  8
0
100
AcDbLine
 10
38.6548
 20
822.6814
 30
0.0
 11
38.9936
 21
823.1294
 31
0.0
  0
LINE
  5
142
330
1E
100
AcDbEntity
  8
0
100
AcDbLine
 10
38.6548
 20
822.6814
 30
0.0
 11
38.9936
 21
822.2224
 31
0.0
  0
LINE
  5
144
330
1E
100
AcDbEntity
  8
0
100
AcDbLine
 10
40.331
 20
816.3954
 30
0.0
 11
41.0069
 21
816.6883999999999
 31
0.0
  0
LINE
  5
145
330
1E
100
AcDbEntity
  8
0
100
AcDbLine
 10
41.0069
 20
816.6883999999999
 30
0.0
 11
41.85819999999999
 21
816.6044000000001
 31
0.0
  0
LINE
  5
146
330
1E
100
AcDbEntity
  8
0
100
AcDbLine
 10
40.7404
 20
815.5193999999999
 30
0.0
 11
41.5917
 21
815.4364000000001
 31
0.0
  0
LINE
  5
148
330
1E
100
AcDbEntity
  8
0
100
AcDbLine
 10
40.57459999999999
 20
822.1963999999999
 30
0.0
 11
40.9135
 21
822.6444
 31
0.0
  0
LINE
  5
149
330
1E
100
AcDbEntity
  8
0
100
AcDbLine
 10
40.57459999999999
 20
823.1033999999999
 30
0.0
 11
40.9135
 21
822.6444
 31
0.0
  0
LINE
  5
14A
330
1E
100
AcDbEntity
  8
0
100
AcDbLine
 10
41.85819999999999
 20
816.6044000000001
 30
0.0
 11
42.3902
 21
816.2114
 31
0.0
  0
LINE
  5
14B
330
1E
100
AcDbEntity
  8
0
100
AcDbLine
 10
42.2675
 20
815.7284
 30
0.0
 11
42.3902
 21
816.2114
 31
0.0
  0
LINE
  5
14C
330
1E
100
AcDbEntity
  8
0
100
AcDbLine
 10
41.5917
 20
815.4364000000001
 30
0.0
 11
42.2675
 21
815.7284
 31
0.0
  0
LINE
  5
14D
330
1E
100
AcDbEntity
  8
0
100
AcDbLine
 10
41.0069
 20
828.6383999999999
 30
0.0
 11
41.85819999999999
 21
828.6953999999999
 31
0.0
  0
LINE
  5
14E
330
1E
100
AcDbEntity
  8
0
100
AcDbLine
 10
40.331
 20
828.9564
 30
0.0
 11
41.0069
 21
828.6383999999999
 31
0.0
  0
LINE
  5
14F
330
1E
100
AcDbEntity
  8
0
100
AcDbLine
 10
41.85819999999999
 20
828.6953999999999
 30
0.0
 11
42.3902
 21
829.0774
 31
0.0
  0
LINE
  5
152
330
1E
100
AcDbEntity
  8
0
100
AcDbLine
 10
42.2675
 20
829.5714
 30
0.0
 11
42.3902
 21
829.0774
 31
0.0
  0
LINE
  5
153
330
1E
100
AcDbEntity
  8
0
100
AcDbLine
 10
41.5917
 20
829.8904
 30
0.0
 11
42.2675
 21
829.5714
 31
0.0
  0
LINE
  5
154
330
1E
100
AcDbEntity
  8
0
100
AcDbLine
 10
40.7404
 20
829.8324
 30
0.0
 11
41.5917
 21
829.8904
 31
0.0
  0
LINE
  5
155
330
1E
100
AcDbEntity
  8
0
100
AcDbLine
 10
40.20839999999999
 20
829.4503999999999
 30
0.0
 11
40.7404
 21
829.8324
 31
0.0
  0
LINE
  5
156
330
1E
100
AcDbEntity
  8
0
100
AcDbLine
 10
40.20839999999999
 20
829.4503999999999
 30
0.0
 11
40.331
 21
828.9564
 31
0.0
  0
LINE
  5
158
330
1E
100
AcDbEntity
  8
0
100
AcDbLine
 10
39.8619
 20
812.5503999999999
 30
0.0
 11
42.5572
 21
809.2774
 31
0.0
  0
LINE
  5
159
330
1E
100
AcDbEntity
  8
0
100
AcDbLine
 10
42.5572
 20
809.2774
 30
0.0
 11
46.0451
 21
806.2763999999999
 31
0.0
  0
LINE
  5
15A
330
1E
100
AcDbEntity
  8
0
100
AcDbLine
 10
39.8619
 20
833.6484
 30
0.0
 11
42.5572
 21
836.9224
 31
0.0
  0
LINE
  5
15B
330
1E
100
AcDbEntity
  8
0
100
AcDbLine
 10
44.6614
 20
810.0903999999999
 30
0.0
 11
45.1766
 21
810.4724
 31
0.0
  0
LINE
  5
15C
330
1E
100
AcDbEntity
  8
0
100
AcDbLine
 10
44.6614
 20
810.0903999999999
 30
0.0
 11
44.76339999999999
 21
809.6054
 31
0.0
  0
LINE
  5
15D
330
1E
100
AcDbEntity
  8
0
100
AcDbLine
 10
45.1766
 20
810.4724
 30
0.0
 11
46.0306
 21
810.5173999999999
 31
0.0
  0
LINE
  5
15E
330
1E
100
AcDbEntity
  8
0
100
AcDbLine
 10
46.0306
 20
810.5173999999999
 30
0.0
 11
46.71949999999999
 21
810.2164
 31
0.0
  0
LINE
  5
15F
330
1E
100
AcDbEntity
  8
0
100
AcDbLine
 10
45.45219999999999
 20
809.3044
 30
0.0
 11
46.3063
 21
809.3493999999999
 31
0.0
  0
LINE
  5
160
330
1E
100
AcDbEntity
  8
0
100
AcDbLine
 10
44.76339999999999
 20
809.6054
 30
0.0
 11
45.45219999999999
 21
809.3044
 31
0.0
  0
LINE
  5
161
330
1E
100
AcDbEntity
  8
0
100
AcDbLine
 10
44.6614
 20
835.2624
 30
0.0
 11
45.1766
 21
834.8544
 31
0.0
  0
LINE
  5
162
330
1E
100
AcDbEntity
  8
0
100
AcDbLine
 10
44.6614
 20
835.2624
 30
0.0
 11
44.76339999999999
 21
835.7573999999999
 31
0.0
  0
LINE
  5
163
330
1E
100
AcDbEntity
  8
0
100
AcDbLine
 10
45.1766
 20
834.8544
 30
0.0
 11
46.0306
 21
834.7824000000001
 31
0.0
  0
LINE
  5
164
330
1E
100
AcDbEntity
  8
0
100
AcDbLine
 10
46.0306
 20
834.7824000000001
 30
0.0
 11
46.71949999999999
 21
835.0723999999999
 31
0.0
  0
LINE
  5
165
330
1E
100
AcDbEntity
  8
0
100
AcDbLine
 10
45.45219999999999
 20
836.0483999999999
 30
0.0
 11
46.3063
 21
835.9764
 31
0.0
  0
LINE
  5
166
330
1E
100
AcDbEntity
  8
0
100
AcDbLine
 10
44.76339999999999
 20
835.7573999999999
 30
0.0
 11
45.45219999999999
 21
836.0483999999999
 31
0.0
  0
LINE
  5
168
330
1E
100
AcDbEntity
  8
0
100
AcDbLine
 10
46.71949999999999
 20
810.2164
 30
0.0
 11
46.82139999999999
 21
809.7314
 31
0.0
  0
LINE
  5
16A
330
1E
100
AcDbEntity
  8
0
100
AcDbLine
 10
46.3063
 20
809.3493999999999
 30
0.0
 11
46.82139999999999
 21
809.7314
 31
0.0
  0
LINE
  5
16B
330
1E
100
AcDbEntity
  8
0
100
AcDbLine
 10
48.4287
 20
819.1603999999999
 30
0.0
 11
49.1683
 21
819.3993999999999
 31
0.0
  0
LINE
  5
16C
330
1E
100
AcDbEntity
  8
0
100
AcDbLine
 10
47.3943
 20
820.2064
 30
0.0
 11
48.1338
 21
820.4454
 31
0.0
  0
LINE
  5
16D
330
1E
100
AcDbEntity
  8
0
100
AcDbLine
 10
48.1338
 20
820.4454
 30
0.0
 11
48.9618
 21
820.2984
 31
0.0
  0
LINE
  5
16E
330
1E
100
AcDbEntity
  8
0
100
AcDbLine
 10
48.9618
 20
820.2984
 30
0.0
 11
49.40100000000001
 21
819.8684
 31
0.0
  0
LINE
  5
16F
330
1E
100
AcDbEntity
  8
0
100
AcDbLine
 10
47.6007
 20
819.3064000000001
 30
0.0
 11
48.4287
 21
819.1603999999999
 31
0.0
  0
LINE
  5
170
330
1E
100
AcDbEntity
  8
0
100
AcDbLine
 10
47.1616
 20
819.7364
 30
0.0
 11
47.6007
 21
819.3064000000001
 31
0.0
  0
LINE
  5
171
330
1E
100
AcDbEntity
  8
0
100
AcDbLine
 10
47.1616
 20
819.7364
 30
0.0
 11
47.3943
 21
820.2064
 31
0.0
  0
LINE
  5
174
330
1E
100
AcDbEntity
  8
0
100
AcDbLine
 10
47.3943
 20
824.8573999999999
 30
0.0
 11
48.1338
 21
824.5924
 31
0.0
  0
LINE
  5
175
330
1E
100
AcDbEntity
  8
0
100
AcDbLine
 10
48.1338
 20
824.5924
 30
0.0
 11
48.9618
 21
824.7123999999999
 31
0.0
  0
LINE
  5
177
330
1E
100
AcDbEntity
  8
0
100
AcDbLine
 10
49.1683
 20
819.3993999999999
 30
0.0
 11
49.40100000000001
 21
819.8684
 31
0.0
  0
LINE
  5
178
330
1E
100
AcDbEntity
  8
0
100
AcDbLine
 10
49.6995
 20
814.8144
 30
0.0
 11
50.3001
 21
815.1543999999999
 31
0.0
  0
LINE
  5
179
330
1E
100
AcDbEntity
  8
0
100
AcDbLine
 10
49.68910000000001
 20
814.3264
 30
0.0
 11
50.3048
 21
813.9763999999999
 31
0.0
  0
LINE
  5
17A
330
1E
100
AcDbEntity
  8
0
100
AcDbLine
 10
49.68910000000001
 20
814.3264
 30
0.0
 11
49.6995
 21
814.8144
 31
0.0
  0
LINE
  5
17C
330
1E
100
AcDbEntity
  8
0
100
AcDbLine
 10
48.9618
 20
824.7123999999999
 30
0.0
 11
49.40100000000001
 21
825.1314
 31
0.0
  0
LINE
  5
17D
330
1E
100
AcDbEntity
  8
0
100
AcDbLine
 10
49.1683
 20
825.6123999999999
 30
0.0
 11
49.40100000000001
 21
825.1314
 31
0.0
  0
LINE
  5
17E
330
1E
100
AcDbEntity
  8
0
100
AcDbLine
 10
48.4287
 20
825.8773999999998
 30
0.0
 11
49.1683
 21
825.6123999999999
 31
0.0
  0
LINE
  5
180
330
1E
100
AcDbEntity
  8
0
100
AcDbLine
 10
47.6007
 20
825.7564
 30
0.0
 11
48.4287
 21
825.8773999999998
 31
0.0
  0
LINE
  5
182
330
1E
100
AcDbEntity
  8
0
100
AcDbLine
 10
47.1616
 20
825.3384
 30
0.0
 11
47.6007
 21
825.7564
 31
0.0
  0
LINE
  5
183
330
1E
100
AcDbEntity
  8
0
100
AcDbLine
 10
47.1616
 20
825.3384
 30
0.0
 11
47.3943
 21
824.8573999999999
 31
0.0
  0
LINE
  5
185
330
1E
100
AcDbEntity
  8
0
100
AcDbLine
 10
49.6995
 20
830.2494000000001
 30
0.0
 11
50.3001
 21
829.8834000000001
 31
0.0
  0
LINE
  5
186
330
1E
100
AcDbEntity
  8
0
100
AcDbLine
 10
49.68910000000001
 20
830.7483999999998
 30
0.0
 11
50.3048
 21
831.0874
 31
0.0
  0
LINE
  5
187
330
1E
100
AcDbEntity
  8
0
100
AcDbLine
 10
49.68910000000001
 20
830.7483999999998
 30
0.0
 11
49.6995
 21
830.2494000000001
 31
0.0
  0
LINE
  5
189
330
1E
100
AcDbEntity
  8
0
100
AcDbLine
 10
46.71949999999999
 20
835.0723999999999
 30
0.0
 11
46.82139999999999
 21
835.5684
 31
0.0
  0
LINE
  5
18A
330
1E
100
AcDbEntity
  8
0
100
AcDbLine
 10
46.3063
 20
835.9764
 30
0.0
 11
46.82139999999999
 21
835.5684
 31
0.0
  0
LINE
  5
18B
330
1E
100
AcDbEntity
  8
0
100
AcDbLine
 10
46.0451
 20
806.2763999999999
 30
0.0
 11
50.1658
 21
803.5503999999999
 31
0.0
  0
LINE
  5
18C
330
1E
100
AcDbEntity
  8
0
100
AcDbLine
 10
50.1658
 20
803.5503999999999
 30
0.0
 11
54.92
 21
801.1864
 31
0.0
  0
LINE
  5
18D
330
1E
100
AcDbEntity
  8
0
100
AcDbLine
 10
42.5572
 20
836.9224
 30
0.0
 11
46.0451
 21
839.9224
 31
0.0
  0
LINE
  5
190
330
1E
100
AcDbEntity
  8
0
100
AcDbLine
 10
46.0451
 20
839.9224
 30
0.0
 11
50.1658
 21
842.6493999999999
 31
0.0
  0
LINE
  5
191
330
1E
100
AcDbEntity
  8
0
100
AcDbLine
 10
37.72899999999999
 20
830.2364
 30
0.0
 11
39.8619
 21
833.6484
 31
0.0
  0
LINE
  5
195
330
1E
100
AcDbEntity
  8
0
100
AcDbLine
 10
39.216
 20
850.3223999999999
 30
0.0
 11
43.0578
 21
853.5914
 31
0.0
  0
LINE
  5
196
330
1E
100
AcDbEntity
  8
0
100
AcDbLine
 10
42.4912
 20
848.0024
 30
0.0
 11
48.32899999999999
 21
850.8464
 31
0.0
  0
LINE
  5
19B
330
1E
100
AcDbEntity
  8
0
100
AcDbLine
 10
42.1753
 20
847.4683999999999
 30
0.0
 11
48.07780000000001
 21
850.3504000000001
 31
0.0
  0
LINE
  5
1A6
330
1E
100
AcDbEntity
  8
0
100
AcDbLine
 10
48.07780000000001
 20
850.3504000000001
 30
0.0
 11
54.5456
 21
852.8354
 31
0.0
  0
LINE
  5
1AD
330
1E
100
AcDbEntity
  8
0
100
AcDbLine
 10
50.3001
 20
815.1543999999999
 30
0.0
 11
51.1602
 21
815.1353999999999
 31
0.0
  0
LINE
  5
1AE
330
1E
100
AcDbEntity
  8
0
100
AcDbLine
 10
51.1602
 20
815.1353999999999
 30
0.0
 11
51.7759
 21
814.7844
 31
0.0
  0
LINE
  5
1AF
330
1E
100
AcDbEntity
  8
0
100
AcDbLine
 10
51.1648
 20
813.9564
 30
0.0
 11
51.7655
 21
814.2974
 31
0.0
  0
LINE
  5
1B0
330
1E
100
AcDbEntity
  8
0
100
AcDbLine
 10
50.3048
 20
813.9763999999999
 30
0.0
 11
51.1648
 21
813.9564
 31
0.0
  0
LINE
  5
1B1
330
1E
100
AcDbEntity
  8
0
100
AcDbLine
 10
50.3001
 20
829.8834000000001
 30
0.0
 11
51.1602
 21
829.8764
 31
0.0
  0
LINE
  5
1B2
330
1E
100
AcDbEntity
  8
0
100
AcDbLine
 10
51.1602
 20
829.8764
 30
0.0
 11
51.7759
 21
830.2153999999999
 31
0.0
  0
LINE
  5
1B4
330
1E
100
AcDbEntity
  8
0
100
AcDbLine
 10
51.7655
 20
814.2974
 30
0.0
 11
51.7759
 21
814.7844
 31
0.0
  0
LINE
  5
1B5
330
1E
100
AcDbEntity
  8
0
100
AcDbLine
 10
51.6897
 20
804.6414
 30
0.0
 11
52.0093
 21
804.1893999999999
 31
0.0
  0
LINE
  5
1B6
330
1E
100
AcDbEntity
  8
0
100
AcDbLine
 10
51.6897
 20
804.6414
 30
0.0
 11
52.00899999999999
 21
805.0864
 31
0.0
  0
LINE
  5
1B7
330
1E
100
AcDbEntity
  8
0
100
AcDbLine
 10
52.00899999999999
 20
805.0864
 30
0.0
 11
52.8077
 21
805.2564
 31
0.0
  0
LINE
  5
1B9
330
1E
100
AcDbEntity
  8
0
100
AcDbLine
 10
51.7655
 20
830.7143999999999
 30
0.0
 11
51.7759
 21
830.2153999999999
 31
0.0
  0
LINE
  5
1BA
330
1E
100
AcDbEntity
  8
0
100
AcDbLine
 10
51.1648
 20
831.0804
 30
0.0
 11
51.7655
 21
830.7143999999999
 31
0.0
  0
LINE
  5
1BC
330
1E
100
AcDbEntity
  8
0
100
AcDbLine
 10
50.3048
 20
831.0874
 30
0.0
 11
51.1648
 21
831.0804
 31
0.0
  0
LINE
  5
1BE
330
1E
100
AcDbEntity
  8
0
100
AcDbLine
 10
52.0093
 20
804.1893999999999
 30
0.0
 11
52.8081
 21
804.0003999999999
 31
0.0
  0
LINE
  5
1BF
330
1E
100
AcDbEntity
  8
0
100
AcDbLine
 10
52.8081
 20
804.0003999999999
 30
0.0
 11
53.60669999999999
 21
804.1703999999999
 31
0.0
  0
LINE
  5
1C1
330
1E
100
AcDbEntity
  8
0
100
AcDbLine
 10
53.60669999999999
 20
804.1703999999999
 30
0.0
 11
53.9261
 21
804.6153999999999
 31
0.0
  0
LINE
  5
1C2
330
1E
100
AcDbEntity
  8
0
100
AcDbLine
 10
54.35929999999999
 20
809.9484
 30
0.0
 11
54.7801
 21
810.3654
 31
0.0
  0
LINE
  5
1C3
330
1E
100
AcDbEntity
  8
0
100
AcDbLine
 10
54.35929999999999
 20
809.9484
 30
0.0
 11
54.5719
 21
809.4754
 31
0.0
  0
LINE
  5
1C4
330
1E
100
AcDbEntity
  8
0
100
AcDbLine
 10
54.5719
 20
809.4754
 30
0.0
 11
55.3221
 21
809.2283999999999
 31
0.0
  0
LINE
  5
1C5
330
1E
100
AcDbEntity
  8
0
100
AcDbLine
 10
53.60649999999999
 20
805.0684
 30
0.0
 11
53.9261
 21
804.6153999999999
 31
0.0
  0
LINE
  5
1C7
330
1E
100
AcDbEntity
  8
0
100
AcDbLine
 10
52.8077
 20
805.2564
 30
0.0
 11
53.60649999999999
 21
805.0684
 31
0.0
  0
LINE
  5
1C8
330
1E
100
AcDbEntity
  8
0
100
AcDbLine
 10
54.35929999999999
 20
835.1154000000001
 30
0.0
 11
54.7801
 21
834.6724
 31
0.0
  0
LINE
  5
1C9
330
1E
100
AcDbEntity
  8
0
100
AcDbLine
 10
54.35929999999999
 20
835.1154000000001
 30
0.0
 11
54.5719
 21
835.5993999999999
 31
0.0
  0
LINE
  5
1CA
330
1E
100
AcDbEntity
  8
0
100
AcDbLine
 10
54.7801
 20
810.3654
 30
0.0
 11
55.6136
 21
810.4744
 31
0.0
  0
LINE
  5
1CB
330
1E
100
AcDbEntity
  8
0
100
AcDbLine
 10
54.7801
 20
834.6724
 30
0.0
 11
55.6136
 21
834.5374000000001
 31
0.0
  0
LINE
  5
1CC
330
1E
100
AcDbEntity
  8
0
100
AcDbLine
 10
54.5719
 20
835.5993999999999
 30
0.0
 11
55.3221
 21
835.8354
 31
0.0
  0
LINE
  5
1CE
330
1E
100
AcDbEntity
  8
0
100
AcDbLine
 10
53.60649999999999
 20
840.2204000000001
 30
0.0
 11
53.9261
 21
840.6843999999999
 31
0.0
  0
LINE
  5
1CF
330
1E
100
AcDbEntity
  8
0
100
AcDbLine
 10
52.8077
 20
840.0434
 30
0.0
 11
53.60649999999999
 21
840.2204000000001
 31
0.0
  0
LINE
  5
1D0
330
1E
100
AcDbEntity
  8
0
100
AcDbLine
 10
52.00899999999999
 20
840.2394000000001
 30
0.0
 11
52.8077
 21
840.0434
 31
0.0
  0
LINE
  5
1D1
330
1E
100
AcDbEntity
  8
0
100
AcDbLine
 10
52.0093
 20
841.1744
 30
0.0
 11
52.8081
 21
841.3524
 31
0.0
  0
LINE
  5
1D3
330
1E
100
AcDbEntity
  8
0
100
AcDbLine
 10
52.8081
 20
841.3524
 30
0.0
 11
53.60669999999999
 21
841.1554
 31
0.0
  0
LINE
  5
1D4
330
1E
100
AcDbEntity
  8
0
100
AcDbLine
 10
53.60669999999999
 20
841.1554
 30
0.0
 11
53.9261
 21
840.6843999999999
 31
0.0
  0
LINE
  5
1D5
330
1E
100
AcDbEntity
  8
0
100
AcDbLine
 10
51.6897
 20
840.7104
 30
0.0
 11
52.0093
 21
841.1744
 31
0.0
  0
LINE
  5
1D6
330
1E
100
AcDbEntity
  8
0
100
AcDbLine
 10
51.6897
 20
840.7104
 30
0.0
 11
52.00899999999999
 21
840.2394000000001
 31
0.0
  0
LINE
  5
1D7
330
1E
100
AcDbEntity
  8
0
100
AcDbLine
 10
56.1503
 20
818.1574000000001
 30
0.0
 11
56.6823
 21
817.7634000000001
 31
0.0
  0
LINE
  5
1D8
330
1E
100
AcDbEntity
  8
0
100
AcDbLine
 10
56.1503
 20
818.1574000000001
 30
0.0
 11
56.2729
 21
818.6393999999999
 31
0.0
  0
LINE
  5
1DA
330
1E
100
AcDbEntity
  8
0
100
AcDbLine
 10
55.6136
 20
810.4744
 30
0.0
 11
56.36379999999999
 21
810.2263999999999
 31
0.0
  0
LINE
  5
1DB
330
1E
100
AcDbEntity
  8
0
100
AcDbLine
 10
55.3221
 20
809.2283999999999
 30
0.0
 11
56.1556
 21
809.3374
 31
0.0
  0
LINE
  5
1DC
330
1E
100
AcDbEntity
  8
0
100
AcDbLine
 10
56.1556
 20
809.3374
 30
0.0
 11
56.5764
 21
809.7544
 31
0.0
  0
LINE
  5
1DD
330
1E
100
AcDbEntity
  8
0
100
AcDbLine
 10
56.1503
 20
826.7943999999999
 30
0.0
 11
56.6823
 21
827.1763999999999
 31
0.0
  0
LINE
  5
1DE
330
1E
100
AcDbEntity
  8
0
100
AcDbLine
 10
56.1503
 20
826.7943999999999
 30
0.0
 11
56.2729
 21
826.3004
 31
0.0
  0
LINE
  5
1E0
330
1E
100
AcDbEntity
  8
0
100
AcDbLine
 10
55.6136
 20
834.5374000000001
 30
0.0
 11
56.36379999999999
 21
834.7734
 31
0.0
  0
LINE
  5
1E1
330
1E
100
AcDbEntity
  8
0
100
AcDbLine
 10
56.2729
 20
818.6393999999999
 30
0.0
 11
56.9488
 21
818.9324
 31
0.0
  0
LINE
  5
1E3
330
1E
100
AcDbEntity
  8
0
100
AcDbLine
 10
56.6823
 20
817.7634000000001
 30
0.0
 11
57.5336
 21
817.6804
 31
0.0
  0
LINE
  5
1E4
330
1E
100
AcDbEntity
  8
0
100
AcDbLine
 10
56.36379999999999
 20
810.2263999999999
 30
0.0
 11
56.5764
 21
809.7544
 31
0.0
  0
LINE
  5
1E6
330
1E
100
AcDbEntity
  8
0
100
AcDbLine
 10
56.2729
 20
826.3004
 30
0.0
 11
56.9488
 21
825.9824
 31
0.0
  0
LINE
  5
1E7
330
1E
100
AcDbEntity
  8
0
100
AcDbLine
 10
56.9488
 20
818.9324
 30
0.0
 11
57.8001
 21
818.8483999999998
 31
0.0
  0
LINE
  5
1E9
330
1E
100
AcDbEntity
  8
0
100
AcDbLine
 10
57.8001
 20
818.8483999999998
 30
0.0
 11
58.332
 21
818.4554
 31
0.0
  0
LINE
  5
1EB
330
1E
100
AcDbEntity
  8
0
100
AcDbLine
 10
58.2094
 20
817.9724
 30
0.0
 11
58.332
 21
818.4554
 31
0.0
  0
LINE
  5
1EC
330
1E
100
AcDbEntity
  8
0
100
AcDbLine
 10
57.5336
 20
817.6804
 30
0.0
 11
58.2094
 21
817.9724
 31
0.0
  0
LINE
  5
1ED
330
1E
100
AcDbEntity
  8
0
100
AcDbLine
 10
56.9488
 20
825.9824
 30
0.0
 11
57.8001
 21
826.0393999999999
 31
0.0
  0
LINE
  5
1EE
330
1E
100
AcDbEntity
  8
0
100
AcDbLine
 10
57.8001
 20
826.0393999999999
 30
0.0
 11
58.332
 21
826.4213999999999
 31
0.0
  0
LINE
  5
1F1
330
1E
100
AcDbEntity
  8
0
100
AcDbLine
 10
58.2094
 20
826.9154
 30
0.0
 11
58.332
 21
826.4213999999999
 31
0.0
  0
LINE
  5
1F2
330
1E
100
AcDbEntity
  8
0
100
AcDbLine
 10
57.5336
 20
827.2333999999998
 30
0.0
 11
58.2094
 21
826.9154
 31
0.0
  0
LINE
  5
1F3
330
1E
100
AcDbEntity
  8
0
100
AcDbLine
 10
56.6823
 20
827.1763999999999
 30
0.0
 11
57.5336
 21
827.2333999999998
 31
0.0
  0
LINE
  5
1F4
330
1E
100
AcDbEntity
  8
0
100
AcDbLine
 10
56.36379999999999
 20
834.7734
 30
0.0
 11
56.5764
 21
835.2574
 31
0.0
  0
LINE
  5
1F5
330
1E
100
AcDbEntity
  8
0
100
AcDbLine
 10
56.1556
 20
835.7003999999999
 30
0.0
 11
56.5764
 21
835.2574
 31
0.0
  0
LINE
  5
1F7
330
1E
100
AcDbEntity
  8
0
100
AcDbLine
 10
55.3221
 20
835.8354
 30
0.0
 11
56.1556
 21
835.7003999999999
 31
0.0
  0
LINE
  5
1F8
330
1E
100
AcDbEntity
  8
0
100
AcDbLine
 10
61.056
 20
805.9393999999999
 30
0.0
 11
61.4772
 21
805.5144
 31
0.0
  0
LINE
  5
1F9
330
1E
100
AcDbEntity
  8
0
100
AcDbLine
 10
61.056
 20
805.9393999999999
 30
0.0
 11
61.2684
 21
806.4044
 31
0.0
  0
LINE
  5
1FA
330
1E
100
AcDbEntity
  8
0
100
AcDbLine
 10
61.056
 20
839.1244
 30
0.0
 11
61.4772
 21
839.5604
 31
0.0
  0
LINE
  5
1FB
330
1E
100
AcDbEntity
  8
0
100
AcDbLine
 10
61.056
 20
839.1244
 30
0.0
 11
61.2684
 21
838.6334000000001
 31
0.0
  0
LINE
  5
1FC
330
1E
100
AcDbEntity
  8
0
100
AcDbLine
 10
61.0387
 20
844.4264
 30
0.0
 11
61.7275
 21
844.1183999999999
 31
0.0
  0
LINE
  5
1FD
330
1E
100
AcDbEntity
  8
0
100
AcDbLine
 10
60.9369
 20
844.9294
 30
0.0
 11
61.4524
 21
845.3304000000001
 31
0.0
  0
LINE
  5
1FE
330
1E
100
AcDbEntity
  8
0
100
AcDbLine
 10
60.9369
 20
844.9294
 30
0.0
 11
61.0387
 21
844.4264
 31
0.0
  0
LINE
  5
1FF
330
1E
100
AcDbEntity
  8
0
100
AcDbLine
 10
54.92
 20
801.1864
 30
0.0
 11
60.1514
 21
799.1854
 31
0.0
  0
LINE
  5
200
330
1E
100
AcDbEntity
  8
0
100
AcDbLine
 10
60.1514
 20
847.0133999999999
 30
0.0
 11
65.85840000000001
 21
848.5594
 31
0.0
  0
LINE
  5
201
330
1E
100
AcDbEntity
  8
0
100
AcDbLine
 10
54.92
 20
845.0134
 30
0.0
 11
60.1514
 21
847.0133999999999
 31
0.0
  0
LINE
  5
202
330
1E
100
AcDbEntity
  8
0
100
AcDbLine
 10
50.1658
 20
842.6493999999999
 30
0.0
 11
54.92
 21
845.0134
 31
0.0
  0
LINE
  5
203
330
1E
100
AcDbEntity
  8
0
100
AcDbLine
 10
43.0578
 20
853.5914
 30
0.0
 11
43.5521
 21
854.0454
 31
0.0
  0
LINE
  5
204
330
1E
100
AcDbEntity
  8
0
100
AcDbLine
 10
43.5521
 20
854.0454
 30
0.0
 11
48.02279999999999
 21
856.9274
 31
0.0
  0
LINE
  5
205
330
1E
100
AcDbEntity
  8
0
100
AcDbLine
 10
48.2600215947615
 20
857.048510195508
 30
0.0
 11
50.3634
 21
858.4203999999999
 31
0.0
  0
LINE
  5
206
330
1E
100
AcDbEntity
  8
0
100
AcDbLine
 10
48.02279999999999
 20
856.9274
 30
0.0
 11
53.0626
 21
859.5004000000001
 31
0.0
  0
LINE
  5
208
330
1E
100
AcDbEntity
  8
0
100
AcDbLine
 10
50.3634
 20
858.4203999999999
 30
0.0
 11
55.0637
 21
860.8064
 31
0.0
  0
LINE
  5
209
330
1E
100
AcDbEntity
  8
0
100
AcDbLine
 10
53.0626
 20
859.5004000000001
 30
0.0
 11
58.678
 21
861.6414
 31
0.0
  0
LINE
  5
20E
330
1E
100
AcDbEntity
  8
0
100
AcDbLine
 10
48.32899999999999
 20
850.8464
 30
0.0
 11
54.7967
 21
853.3324
 31
0.0
  0
LINE
  5
212
330
1E
100
AcDbEntity
  8
0
100
AcDbLine
 10
55.0637
 20
860.8064
 30
0.0
 11
57.5521
 21
861.9004
 31
0.0
  0
LINE
  5
213
330
1E
100
AcDbEntity
  8
0
100
AcDbLine
 10
57.5521
 20
861.9004
 30
0.0
 11
62.2524
 21
863.8094
 31
0.0
  0
LINE
  5
214
330
1E
100
AcDbEntity
  8
0
100
AcDbLine
 10
58.678
 20
861.6414
 30
0.0
 11
64.5647
 21
863.2874000000001
 31
0.0
  0
LINE
  5
215
330
1E
100
AcDbEntity
  8
0
100
AcDbLine
 10
54.7967
 20
853.3324
 30
0.0
 11
61.7041
 21
855.2773999999999
 31
0.0
  0
LINE
  5
216
330
1E
100
AcDbEntity
  8
0
100
AcDbLine
 10
54.5456
 20
852.8354
 30
0.0
 11
61.5157
 21
854.8163999999999
 31
0.0
  0
LINE
  5
217
330
1E
100
AcDbEntity
  8
0
100
AcDbLine
 10
39.25
 20
850.3515925924219
 30
0.0
 11
39.25
 21
976.0266857142861
 31
0.0
  0
LINE
  5
218
330
1E
100
AcDbEntity
  8
0
100
AcDbLine
 10
61.25
 20
863.4022809650451
 30
0.0
 11
61.25
 21
976.0266857142861
 31
0.0
  0
LINE
  5
219
330
1E
100
AcDbEntity
  8
0
100
AcDbLine
 10
39.25
 20
801.09851880709
 30
0.0
 11
39.25
 21
665.806119556036
 31
0.0
  0
LINE
  5
21A
330
1E
100
AcDbEntity
  8
0
100
AcDbLine
 10
37.35
 20
960.4124
 30
0.0
 11
39.25
 21
959.6156258064521
 31
0.0
  0
LINE
  5
21B
330
1E
100
AcDbEntity
  8
0
100
AcDbLine
 10
41.04999999999999
 20
973.7123999999999
 30
0.0
 11
43.75
 21
971.6124
 31
0.0
  0
LINE
  5
21C
330
1E
100
AcDbEntity
  8
0
100
AcDbLine
 10
43.75
 20
971.6124
 30
0.0
 11
46.95
 21
970.4124
 31
0.0
  0
LINE
  5
21D
330
1E
100
AcDbEntity
  8
0
100
AcDbLine
 10
46.95
 20
970.4124
 30
0.0
 11
50.25
 21
969.9124000000001
 31
0.0
  0
LINE
  5
21E
330
1E
100
AcDbEntity
  8
0
100
AcDbLine
 10
56.75
 20
971.6124
 30
0.0
 11
59.45
 21
973.7123999999999
 31
0.0
  0
LINE
  5
21F
330
1E
100
AcDbEntity
  8
0
100
AcDbLine
 10
53.55
 20
970.4124
 30
0.0
 11
56.75
 21
971.6124
 31
0.0
  0
LINE
  5
220
330
1E
100
AcDbEntity
  8
0
100
AcDbLine
 10
50.25
 20
969.9124000000001
 30
0.0
 11
53.55
 21
970.4124
 31
0.0
  0
LINE
  5
221
330
1E
100
AcDbEntity
  8
0
100
AcDbLine
 10
61.2684
 20
806.4044
 30
0.0
 11
62.0185
 21
806.6323999999999
 31
0.0
  0
LINE
  5
222
330
1E
100
AcDbEntity
  8
0
100
AcDbLine
 10
61.4524
 20
800.0334
 30
0.0
 11
62.30669999999999
 21
799.9693999999999
 31
0.0
  0
LINE
  5
223
330
1E
100
AcDbEntity
  8
0
100
AcDbLine
 10
61.2684
 20
838.6334000000001
 30
0.0
 11
62.0185
 21
838.3784
 31
0.0
  0
LINE
  5
224
330
1E
100
AcDbEntity
  8
0
100
AcDbLine
 10
61.4772
 20
805.5144
 30
0.0
 11
62.3108
 21
805.3874
 31
0.0
  0
LINE
  5
225
330
1E
100
AcDbEntity
  8
0
100
AcDbLine
 10
61.4772
 20
839.5604
 30
0.0
 11
62.3108
 21
839.6763999999999
 31
0.0
  0
LINE
  5
227
330
1E
100
AcDbEntity
  8
0
100
AcDbLine
 10
61.4524
 20
845.3304000000001
 30
0.0
 11
62.30669999999999
 21
845.3834
 31
0.0
  0
LINE
  5
22A
330
1E
100
AcDbEntity
  8
0
100
AcDbLine
 10
61.5157
 20
854.8163999999999
 30
0.0
 11
68.8866
 21
856.2424
 31
0.0
  0
LINE
  5
22B
330
1E
100
AcDbEntity
  8
0
100
AcDbLine
 10
61.25
 20
959.6156258064521
 30
0.0
 11
63.15
 21
960.4124
 31
0.0
  0
LINE
  5
22C
330
1E
100
AcDbEntity
  8
0
100
AcDbLine
 10
61.25
 20
976.0266857142861
 30
0.0
 11
61.25
 21
863.4022809650451
 31
0.0
  0
LINE
  5
22D
330
1E
100
AcDbEntity
  8
0
100
AcDbLine
 10
39.25
 20
976.0266857142861
 30
0.0
 11
39.25
 21
850.3515925924219
 31
0.0
  0
LINE
  5
22E
330
1E
100
AcDbEntity
  8
0
100
AcDbLine
 10
38.95
 20
976.4124
 30
0.0
 11
39.25
 21
976.0266857142861
 31
0.0
  0
LINE
  5
22F
330
1E
100
AcDbEntity
  8
0
100
AcDbLine
 10
38.95
 20
976.4124
 30
0.0
 11
41.04999999999999
 21
973.7123999999999
 31
0.0
  0
LINE
  5
230
330
1E
100
AcDbEntity
  8
0
100
AcDbLine
 10
37.75
 20
979.6124
 30
0.0
 11
38.95
 21
976.4124
 31
0.0
  0
LINE
  5
231
330
1E
100
AcDbEntity
  8
0
100
AcDbLine
 10
59.45
 20
973.7123999999999
 30
0.0
 11
61.55
 21
976.4124
 31
0.0
  0
LINE
  5
232
330
1E
100
AcDbEntity
  8
0
100
AcDbLine
 10
61.7275
 20
801.1814000000001
 30
0.0
 11
62.58169999999999
 21
801.1174
 31
0.0
  0
LINE
  5
233
330
1E
100
AcDbEntity
  8
0
100
AcDbLine
 10
62.0185
 20
806.6323999999999
 30
0.0
 11
62.8522
 21
806.5053999999999
 31
0.0
  0
LINE
  5
234
330
1E
100
AcDbEntity
  8
0
100
AcDbLine
 10
62.30669999999999
 20
799.9693999999999
 30
0.0
 11
62.99549999999999
 21
800.2513999999999
 31
0.0
  0
LINE
  5
236
330
1E
100
AcDbEntity
  8
0
100
AcDbLine
 10
62.99549999999999
 20
800.2513999999999
 30
0.0
 11
63.0972
 21
800.7284
 31
0.0
  0
LINE
  5
237
330
1E
100
AcDbEntity
  8
0
100
AcDbLine
 10
62.3108
 20
805.3874
 30
0.0
 11
63.061
 21
805.6154000000001
 31
0.0
  0
LINE
  5
238
330
1E
100
AcDbEntity
  8
0
100
AcDbLine
 10
63.061
 20
805.6154000000001
 30
0.0
 11
63.27329999999999
 21
806.0804
 31
0.0
  0
LINE
  5
239
330
1E
100
AcDbEntity
  8
0
100
AcDbLine
 10
62.8522
 20
806.5053999999999
 30
0.0
 11
63.27329999999999
 21
806.0804
 31
0.0
  0
LINE
  5
23B
330
1E
100
AcDbEntity
  8
0
100
AcDbLine
 10
63.36
 20
811.1294
 30
0.0
 11
63.6796
 21
810.6773999999999
 31
0.0
  0
LINE
  5
23C
330
1E
100
AcDbEntity
  8
0
100
AcDbLine
 10
63.36
 20
811.1294
 30
0.0
 11
63.6793
 21
811.5743999999999
 31
0.0
  0
LINE
  5
23D
330
1E
100
AcDbEntity
  8
0
100
AcDbLine
 10
62.58169999999999
 20
801.1174
 30
0.0
 11
63.0972
 21
800.7284
 31
0.0
  0
LINE
  5
23F
330
1E
100
AcDbEntity
  8
0
100
AcDbLine
 10
63.6796
 20
810.6773999999999
 30
0.0
 11
64.47839999999999
 21
810.4884
 31
0.0
  0
LINE
  5
240
330
1E
100
AcDbEntity
  8
0
100
AcDbLine
 10
64.1582
 20
820.4544
 30
0.0
 11
64.98619999999999
 21
820.3074
 31
0.0
  0
LINE
  5
241
330
1E
100
AcDbEntity
  8
0
100
AcDbLine
 10
63.95179999999999
 20
821.3533999999999
 30
0.0
 11
64.69129999999999
 21
821.5923999999999
 31
0.0
  0
LINE
  5
242
330
1E
100
AcDbEntity
  8
0
100
AcDbLine
 10
63.719
 20
820.8844
 30
0.0
 11
64.1582
 21
820.4544
 31
0.0
  0
LINE
  5
243
330
1E
100
AcDbEntity
  8
0
100
AcDbLine
 10
63.719
 20
820.8844
 30
0.0
 11
63.95179999999999
 21
821.3533999999999
 31
0.0
  0
LINE
  5
244
330
1E
100
AcDbEntity
  8
0
100
AcDbLine
 10
63.719
 20
820.8844
 30
0.0
 11
63.7276954682625
 21
821.096444780667
 31
0.0
  0
LINE
  5
245
330
1E
100
AcDbEntity
  8
0
100
AcDbLine
 10
64.47790000000001
 20
811.7444
 30
0.0
 11
65.2767
 21
811.5553999999999
 31
0.0
  0
LINE
  5
247
330
1E
100
AcDbEntity
  8
0
100
AcDbLine
 10
63.6793
 20
811.5743999999999
 30
0.0
 11
64.47790000000001
 21
811.7444
 31
0.0
  0
LINE
  5
249
330
1E
100
AcDbEntity
  8
0
100
AcDbLine
 10
64.69129999999999
 20
821.5923999999999
 30
0.0
 11
65.5193
 21
821.4453999999999
 31
0.0
  0
LINE
  5
24A
330
1E
100
AcDbEntity
  8
0
100
AcDbLine
 10
64.98619999999999
 20
820.3074
 30
0.0
 11
65.7257
 21
820.5463999999999
 31
0.0
  0
LINE
  5
24B
330
1E
100
AcDbEntity
  8
0
100
AcDbLine
 10
64.47839999999999
 20
810.4884
 30
0.0
 11
65.277
 21
810.6583999999999
 31
0.0
  0
LINE
  5
24C
330
1E
100
AcDbEntity
  8
0
100
AcDbLine
 10
65.5193
 20
821.4453999999999
 30
0.0
 11
65.95839999999999
 21
821.0153999999999
 31
0.0
  0
LINE
  5
24D
330
1E
100
AcDbEntity
  8
0
100
AcDbLine
 10
65.7257
 20
820.5463999999999
 30
0.0
 11
65.95839999999999
 21
821.0153999999999
 31
0.0
  0
LINE
  5
24E
330
1E
100
AcDbEntity
  8
0
100
AcDbLine
 10
65.277
 20
810.6583999999999
 30
0.0
 11
65.5963
 21
811.1034
 31
0.0
  0
LINE
  5
24F
330
1E
100
AcDbEntity
  8
0
100
AcDbLine
 10
65.2767
 20
811.5553999999999
 30
0.0
 11
65.5963
 21
811.1034
 31
0.0
  0
LINE
  5
251
330
1E
100
AcDbEntity
  8
0
100
AcDbLine
 10
65.1286
 20
826.4803999999999
 30
0.0
 11
65.7292
 21
826.1143999999999
 31
0.0
  0
LINE
  5
252
330
1E
100
AcDbEntity
  8
0
100
AcDbLine
 10
65.7292
 20
826.1143999999999
 30
0.0
 11
66.58929999999999
 21
826.1074
 31
0.0
  0
LINE
  5
253
330
1E
100
AcDbEntity
  8
0
100
AcDbLine
 10
65.7339
 20
827.3184
 30
0.0
 11
66.59390000000001
 21
827.3124000000001
 31
0.0
  0
LINE
  5
254
330
1E
100
AcDbEntity
  8
0
100
AcDbLine
 10
65.1182
 20
826.9794
 30
0.0
 11
65.7339
 21
827.3184
 31
0.0
  0
LINE
  5
255
330
1E
100
AcDbEntity
  8
0
100
AcDbLine
 10
65.1182
 20
826.9794
 30
0.0
 11
65.1286
 21
826.4803999999999
 31
0.0
  0
LINE
  5
257
330
1E
100
AcDbEntity
  8
0
100
AcDbLine
 10
65.2767
 20
833.3213999999999
 30
0.0
 11
65.5963
 21
833.7844
 31
0.0
  0
LINE
  5
258
330
1E
100
AcDbEntity
  8
0
100
AcDbLine
 10
64.47790000000001
 20
833.1433999999999
 30
0.0
 11
65.2767
 21
833.3213999999999
 31
0.0
  0
LINE
  5
259
330
1E
100
AcDbEntity
  8
0
100
AcDbLine
 10
63.6796
 20
834.2743999999999
 30
0.0
 11
64.47839999999999
 21
834.4523999999999
 31
0.0
  0
LINE
  5
25B
330
1E
100
AcDbEntity
  8
0
100
AcDbLine
 10
64.47839999999999
 20
834.4523999999999
 30
0.0
 11
65.277
 21
834.2553999999999
 31
0.0
  0
LINE
  5
25C
330
1E
100
AcDbEntity
  8
0
100
AcDbLine
 10
65.277
 20
834.2553999999999
 30
0.0
 11
65.5963
 21
833.7844
 31
0.0
  0
LINE
  5
25D
330
1E
100
AcDbEntity
  8
0
100
AcDbLine
 10
63.6793
 20
833.3394
 30
0.0
 11
64.47790000000001
 21
833.1433999999999
 31
0.0
  0
LINE
  5
25E
330
1E
100
AcDbEntity
  8
0
100
AcDbLine
 10
63.36
 20
833.8103999999999
 30
0.0
 11
63.6796
 21
834.2743999999999
 31
0.0
  0
LINE
  5
25F
330
1E
100
AcDbEntity
  8
0
100
AcDbLine
 10
63.36
 20
833.8103999999999
 30
0.0
 11
63.6793
 21
833.3394
 31
0.0
  0
LINE
  5
260
330
1E
100
AcDbEntity
  8
0
100
AcDbLine
 10
62.3108
 20
839.6763999999999
 30
0.0
 11
63.061
 21
839.4224000000001
 31
0.0
  0
LINE
  5
261
330
1E
100
AcDbEntity
  8
0
100
AcDbLine
 10
63.061
 20
839.4224000000001
 30
0.0
 11
63.27329999999999
 21
838.9303999999999
 31
0.0
  0
LINE
  5
263
330
1E
100
AcDbEntity
  8
0
100
AcDbLine
 10
62.8522
 20
838.4954
 30
0.0
 11
63.27329999999999
 21
838.9303999999999
 31
0.0
  0
LINE
  5
264
330
1E
100
AcDbEntity
  8
0
100
AcDbLine
 10
62.0185
 20
838.3784
 30
0.0
 11
62.8522
 21
838.4954
 31
0.0
  0
LINE
  5
265
330
1E
100
AcDbEntity
  8
0
100
AcDbLine
 10
62.30669999999999
 20
845.3834
 30
0.0
 11
62.99549999999999
 21
845.0744
 31
0.0
  0
LINE
  5
266
330
1E
100
AcDbEntity
  8
0
100
AcDbLine
 10
62.99549999999999
 20
845.0744
 30
0.0
 11
63.0972
 21
844.5714
 31
0.0
  0
LINE
  5
267
330
1E
100
AcDbEntity
  8
0
100
AcDbLine
 10
62.58169999999999
 20
844.1713999999999
 30
0.0
 11
63.0972
 21
844.5714
 31
0.0
  0
LINE
  5
268
330
1E
100
AcDbEntity
  8
0
100
AcDbLine
 10
61.7275
 20
844.1183999999999
 30
0.0
 11
62.58169999999999
 21
844.1713999999999
 31
0.0
  0
LINE
  5
269
330
1E
100
AcDbEntity
  8
0
100
AcDbLine
 10
61.69319999999999
 20
791.6373999999999
 30
0.0
 11
68.97539999999999
 21
790.2114
 31
0.0
  0
LINE
  5
26A
330
1E
100
AcDbEntity
  8
0
100
AcDbLine
 10
65.85840000000001
 20
797.6404
 30
0.0
 11
71.807
 21
796.4163999999999
 31
0.0
  0
LINE
  5
26B
330
1E
100
AcDbEntity
  8
0
100
AcDbLine
 10
62.2524
 20
863.8094
 30
0.0
 11
67.5057
 21
865.2414
 31
0.0
  0
LINE
  5
26C
330
1E
100
AcDbEntity
  8
0
100
AcDbLine
 10
64.5647
 20
863.2874000000001
 30
0.0
 11
70.9488
 21
864.5453999999999
 31
0.0
  0
LINE
  5
26D
330
1E
100
AcDbEntity
  8
0
100
AcDbLine
 10
61.7041
 20
855.2773999999999
 30
0.0
 11
68.97539999999999
 21
856.7014
 31
0.0
  0
LINE
  5
26E
330
1E
100
AcDbEntity
  8
0
100
AcDbLine
 10
65.95839999999999
 20
821.0153999999999
 30
0.0
 11
65.968575456203
 21
821.263285900687
 31
0.0
  0
LINE
  5
26F
330
1E
100
AcDbEntity
  8
0
100
AcDbLine
 10
66.58929999999999
 20
826.1074
 30
0.0
 11
67.205
 21
826.4464
 31
0.0
  0
LINE
  5
270
330
1E
100
AcDbEntity
  8
0
100
AcDbLine
 10
67.205
 20
826.4464
 30
0.0
 11
67.21443723283901
 21
826.6906272894059
 31
0.0
  0
LINE
  5
271
330
1E
100
AcDbEntity
  8
0
100
AcDbLine
 10
67.19459999999999
 20
826.9453999999999
 30
0.0
 11
67.205
 21
826.4464
 31
0.0
  0
LINE
  5
272
330
1E
100
AcDbEntity
  8
0
100
AcDbLine
 10
66.59390000000001
 20
827.3124000000001
 30
0.0
 11
67.19459999999999
 21
826.9453999999999
 31
0.0
  0
LINE
  5
274
330
1E
100
AcDbEntity
  8
0
100
AcDbLine
 10
67.60850000000001
 20
815.6763999999999
 30
0.0
 11
68.02939999999999
 21
816.0933999999999
 31
0.0
  0
LINE
  5
275
330
1E
100
AcDbEntity
  8
0
100
AcDbLine
 10
67.60850000000001
 20
815.6763999999999
 30
0.0
 11
67.8211
 21
815.2034
 31
0.0
  0
LINE
  5
276
330
1E
100
AcDbEntity
  8
0
100
AcDbLine
 10
68.02939999999999
 20
816.0933999999999
 30
0.0
 11
68.86289999999999
 21
816.2024
 31
0.0
  0
LINE
  5
277
330
1E
100
AcDbEntity
  8
0
100
AcDbLine
 10
67.8211
 20
815.2034
 30
0.0
 11
68.5714
 21
814.9563999999999
 31
0.0
  0
LINE
  5
279
330
1E
100
AcDbEntity
  8
0
100
AcDbLine
 10
67.5057
 20
865.2414
 30
0.0
 11
69.32850000000001
 21
865.6344
 31
0.0
  0
LINE
  5
27A
330
1E
100
AcDbEntity
  8
0
100
AcDbLine
 10
65.85840000000001
 20
848.5594
 30
0.0
 11
71.807
 21
849.7834
 31
0.0
  0
LINE
  5
27B
330
1E
100
AcDbEntity
  8
0
100
AcDbLine
 10
63.15
 20
960.4124
 30
0.0
 11
68.55
 21
964.6124
 31
0.0
  0
LINE
  5
27C
330
1E
100
AcDbEntity
  8
0
100
AcDbLine
 10
61.55
 20
976.4124
 30
0.0
 11
62.75
 21
979.6124
 31
0.0
  0
LINE
  5
27D
330
1E
100
AcDbEntity
  8
0
100
AcDbLine
 10
41.04999999999999
 20
992.1124
 30
0.0
 11
43.75
 21
994.2123999999999
 31
0.0
  0
LINE
  5
27E
330
1E
100
AcDbEntity
  8
0
100
AcDbLine
 10
43.75
 20
994.2123999999999
 30
0.0
 11
46.95
 21
995.4124
 31
0.0
  0
LINE
  5
27F
330
1E
100
AcDbEntity
  8
0
100
AcDbLine
 10
46.95
 20
995.4124
 30
0.0
 11
50.25
 21
995.9124
 31
0.0
  0
LINE
  5
280
330
1E
100
AcDbEntity
  8
0
100
AcDbLine
 10
38.95
 20
989.4124000000001
 30
0.0
 11
41.04999999999999
 21
992.1124
 31
0.0
  0
LINE
  5
281
330
1E
100
AcDbEntity
  8
0
100
AcDbLine
 10
37.75
 20
986.2123999999999
 30
0.0
 11
38.95
 21
989.4124000000001
 31
0.0
  0
LINE
  5
282
330
1E
100
AcDbEntity
  8
0
100
AcDbLine
 10
37.25
 20
982.9124
 30
0.0
 11
37.75
 21
986.2123999999999
 31
0.0
  0
LINE
  5
283
330
1E
100
AcDbEntity
  8
0
100
AcDbLine
 10
37.25
 20
982.9124
 30
0.0
 11
37.75
 21
979.6124
 31
0.0
  0
LINE
  5
284
330
1E
100
AcDbEntity
  8
0
100
AcDbLine
 10
37.35
 20
1005.412399999999
 30
0.0
 11
43.54999999999999
 21
1008.012399999999
 31
0.0
  0
LINE
  5
285
330
1E
100
AcDbEntity
  8
0
100
AcDbLine
 10
43.54999999999999
 20
1008.012399999999
 30
0.0
 11
50.25
 21
1008.9124
 31
0.0
  0
LINE
  5
286
330
1E
100
AcDbEntity
  8
0
100
AcDbLine
 10
50.25
 20
995.9124
 30
0.0
 11
53.55
 21
995.4124
 31
0.0
  0
LINE
  5
287
330
1E
100
AcDbEntity
  8
0
100
AcDbLine
 10
59.45
 20
992.1124
 30
0.0
 11
61.55
 21
989.4124000000001
 31
0.0
  0
LINE
  5
288
330
1E
100
AcDbEntity
  8
0
100
AcDbLine
 10
61.55
 20
989.4124000000001
 30
0.0
 11
62.75
 21
986.2123999999999
 31
0.0
  0
LINE
  5
289
330
1E
100
AcDbEntity
  8
0
100
AcDbLine
 10
62.75
 20
986.2123999999999
 30
0.0
 11
63.25
 21
982.9124
 31
0.0
  0
LINE
  5
28A
330
1E
100
AcDbEntity
  8
0
100
AcDbLine
 10
56.75
 20
994.2123999999999
 30
0.0
 11
59.45
 21
992.1124
 31
0.0
  0
LINE
  5
28B
330
1E
100
AcDbEntity
  8
0
100
AcDbLine
 10
53.55
 20
995.4124
 30
0.0
 11
56.75
 21
994.2123999999999
 31
0.0
  0
LINE
  5
28C
330
1E
100
AcDbEntity
  8
0
100
AcDbLine
 10
68.55
 20
1001.2124
 30
0.0
 11
72.75
 21
995.8123999999999
 31
0.0
  0
LINE
  5
28D
330
1E
100
AcDbEntity
  8
0
100
AcDbLine
 10
63.15
 20
1005.412399999999
 30
0.0
 11
68.55
 21
1001.2124
 31
0.0
  0
LINE
  5
28E
330
1E
100
AcDbEntity
  8
0
100
AcDbLine
 10
56.95
 20
1008.012399999999
 30
0.0
 11
63.15
 21
1005.412399999999
 31
0.0
  0
LINE
  5
28F
330
1E
100
AcDbEntity
  8
0
100
AcDbLine
 10
50.25
 20
1008.9124
 30
0.0
 11
56.95
 21
1008.012399999999
 31
0.0
  0
LINE
  5
290
330
1E
100
AcDbEntity
  8
0
100
AcDbLine
 10
62.75
 20
979.6124
 30
0.0
 11
63.25
 21
982.9124
 31
0.0
  0
LINE
  5
291
330
1E
100
AcDbEntity
  8
0
100
AcDbLine
 10
68.86289999999999
 20
816.2024
 30
0.0
 11
69.6131
 21
815.9553999999999
 31
0.0
  0
LINE
  5
292
330
1E
100
AcDbEntity
  8
0
100
AcDbLine
 10
68.5714
 20
814.9563999999999
 30
0.0
 11
69.4049
 21
815.0653999999999
 31
0.0
  0
LINE
  5
294
330
1E
100
AcDbEntity
  8
0
100
AcDbLine
 10
69.3228
 20
803.5424
 30
0.0
 11
69.3334
 21
803.0613999999999
 31
0.0
  0
LINE
  5
295
330
1E
100
AcDbEntity
  8
0
100
AcDbLine
 10
69.3228
 20
803.5424
 30
0.0
 11
69.93850000000001
 21
803.8733999999999
 31
0.0
  0
LINE
  5
296
330
1E
100
AcDbEntity
  8
0
100
AcDbLine
 10
69.93439999999999
 20
802.7143999999999
 30
0.0
 11
70.7947
 21
802.7143999999999
 31
0.0
  0
LINE
  5
297
330
1E
100
AcDbEntity
  8
0
100
AcDbLine
 10
69.6131
 20
815.9553999999999
 30
0.0
 11
69.82569999999999
 21
815.4823999999999
 31
0.0
  0
LINE
  5
299
330
1E
100
AcDbEntity
  8
0
100
AcDbLine
 10
69.4049
 20
815.0653999999999
 30
0.0
 11
69.82569999999999
 21
815.4823999999999
 31
0.0
  0
LINE
  5
29A
330
1E
100
AcDbEntity
  8
0
100
AcDbLine
 10
69.93850000000001
 20
803.8733999999999
 30
0.0
 11
70.7988
 21
803.8733999999999
 31
0.0
  0
LINE
  5
29B
330
1E
100
AcDbEntity
  8
0
100
AcDbLine
 10
69.3334
 20
803.0613999999999
 30
0.0
 11
69.93439999999999
 21
802.7143999999999
 31
0.0
  0
LINE
  5
29C
330
1E
100
AcDbEntity
  8
0
100
AcDbLine
 10
69.93850000000001
 20
841.1383999999999
 30
0.0
 11
70.7988
 21
841.1263999999999
 31
0.0
  0
LINE
  5
29D
330
1E
100
AcDbEntity
  8
0
100
AcDbLine
 10
69.3228
 20
841.4953999999999
 30
0.0
 11
69.3334
 21
842.0023999999999
 31
0.0
  0
LINE
  5
29E
330
1E
100
AcDbEntity
  8
0
100
AcDbLine
 10
69.3228
 20
841.4953999999999
 30
0.0
 11
69.93850000000001
 21
841.1383999999999
 31
0.0
  0
LINE
  5
29F
330
1E
100
AcDbEntity
  8
0
100
AcDbLine
 10
69.93439999999999
 20
842.3604
 30
0.0
 11
70.7947
 21
842.3493999999999
 31
0.0
  0
LINE
  5
2A1
330
1E
100
AcDbEntity
  8
0
100
AcDbLine
 10
69.3334
 20
842.0023999999999
 30
0.0
 11
69.93439999999999
 21
842.3604
 31
0.0
  0
LINE
  5
2A2
330
1E
100
AcDbEntity
  8
0
100
AcDbLine
 10
68.97539999999999
 20
790.2114
 30
0.0
 11
76.6127
 21
789.3454
 31
0.0
  0
LINE
  5
2A3
330
1E
100
AcDbEntity
  8
0
100
AcDbLine
 10
69.32850000000001
 20
865.6344
 30
0.0
 11
71.67660138481728
 21
865.9988362631329
 31
0.0
  0
LINE
  5
2A4
330
1E
100
AcDbEntity
  8
0
100
AcDbLine
 10
68.97539999999999
 20
856.7014
 30
0.0
 11
76.6127
 21
857.5674000000001
 31
0.0
  0
LINE
  5
2A5
330
1E
100
AcDbEntity
  8
0
100
AcDbLine
 10
68.8866
 20
856.2424
 30
0.0
 11
76.5239
 21
857.1083999999999
 31
0.0
  0
LINE
  5
2A6
330
1E
100
AcDbEntity
  8
0
100
AcDbLine
 10
70.25
 20
703.3383999999999
 30
0.0
 11
70.25
 21
665.2324
 31
0.0
  0
LINE
  5
2A7
330
1E
100
AcDbEntity
  8
0
100
AcDbLine
 10
70.25
 20
703.3383999999999
 30
0.0
 11
70.75399999999999
 21
701.5743999999999
 31
0.0
  0
LINE
  5
2A8
330
1E
100
AcDbEntity
  8
0
100
AcDbLine
 10
70.25
 20
703.3383999999999
 30
0.0
 11
70.75399999999999
 21
705.1014
 31
0.0
  0
LINE
  5
2A9
330
1E
100
AcDbEntity
  8
0
100
AcDbLine
 10
68.55
 20
964.6124
 30
0.0
 11
72.75
 21
970.0124
 31
0.0
  0
LINE
  5
2AA
330
1E
100
AcDbEntity
  8
0
100
AcDbLine
 10
70.25
 20
665.9074
 30
0.0
 11
70.25
 21
665.2433999999999
 31
0.0
  0
LINE
  5
2AB
330
1E
100
AcDbEntity
  8
0
100
AcDbLine
 10
70.25
 20
665.2433999999999
 30
0.0
 11
70.25
 21
663.5004
 31
0.0
  0
LINE
  5
2AC
330
1E
100
AcDbEntity
  8
0
100
AcDbLine
 10
70.25
 20
665.2433999999999
 30
0.0
 11
70.25
 21
665.9074
 31
0.0
  0
LINE
  5
2AD
330
1E
100
AcDbEntity
  8
0
100
AcDbLine
 10
70.25
 20
660.6354
 30
0.0
 11
70.25
 21
656.9794
 31
0.0
  0
LINE
  5
2AE
330
1E
100
AcDbEntity
  8
0
100
AcDbLine
 10
70.25
 20
660.6354
 30
0.0
 11
70.25
 21
663.5004
 31
0.0
  0
LINE
  5
2AF
330
1E
100
AcDbEntity
  8
0
100
AcDbLine
 10
70.25
 20
663.5004
 30
0.0
 11
70.25
 21
660.6354
 31
0.0
  0
LINE
  5
2B0
330
1E
100
AcDbEntity
  8
0
100
AcDbLine
 10
70.25
 20
663.5004
 30
0.0
 11
70.25
 21
665.2324
 31
0.0
  0
LINE
  5
2B1
330
1E
100
AcDbEntity
  8
0
100
AcDbLine
 10
70.25
 20
663.5004
 30
0.0
 11
70.25
 21
665.2433999999999
 31
0.0
  0
LINE
  5
2B2
330
1E
100
AcDbEntity
  8
0
100
AcDbLine
 10
70.25
 20
638.9124
 30
0.0
 11
70.25
 21
635.2454
 31
0.0
  0
LINE
  5
2B3
330
1E
100
AcDbEntity
  8
0
100
AcDbLine
 10
70.25
 20
638.9124
 30
0.0
 11
70.25
 21
643.2273999999999
 31
0.0
  0
LINE
  5
2B4
330
1E
100
AcDbEntity
  8
0
100
AcDbLine
 10
72.5262
 20
699.4244
 30
0.0
 11
72.78929999999999
 21
697.0284
 31
0.0
  0
LINE
  5
2B5
330
1E
100
AcDbEntity
  8
0
100
AcDbLine
 10
72.098
 20
661.8153999999999
 30
0.0
 11
74.33800000000001
 21
660.3554
 31
0.0
  0
LINE
  5
2B6
330
1E
100
AcDbEntity
  8
0
100
AcDbLine
 10
72.098
 20
699.9203999999999
 30
0.0
 11
72.5115950271363
 21
699.6508246698128
 31
0.0
  0
LINE
  5
2B7
330
1E
100
AcDbEntity
  8
0
100
AcDbLine
 10
70.75399999999999
 20
663.4693999999999
 30
0.0
 11
72.098
 21
661.8153999999999
 31
0.0
  0
LINE
  5
2B8
330
1E
100
AcDbEntity
  8
0
100
AcDbLine
 10
72.25
 20
706.3043999999999
 30
0.0
 11
72.5262
 21
702.0223999999999
 31
0.0
  0
LINE
  5
2B9
330
1E
100
AcDbEntity
  8
0
100
AcDbLine
 10
72.25
 20
706.3043999999999
 30
0.0
 11
72.25
 21
703.7064
 31
0.0
  0
LINE
  5
2BA
330
1E
100
AcDbEntity
  8
0
100
AcDbLine
 10
72.25
 20
706.3043999999999
 30
0.0
 11
72.5262
 21
710.5864
 31
0.0
  0
LINE
  5
2BB
330
1E
100
AcDbEntity
  8
0
100
AcDbLine
 10
72.75
 20
706.7374
 30
0.0
 11
73.0262
 21
702.4554000000001
 31
0.0
  0
LINE
  5
2BC
330
1E
100
AcDbEntity
  8
0
100
AcDbLine
 10
72.75
 20
706.7374
 30
0.0
 11
73.0262
 21
711.0204
 31
0.0
  0
LINE
  5
2BD
330
1E
100
AcDbEntity
  8
0
100
AcDbLine
 10
72.5262
 20
702.0223999999999
 30
0.0
 11
72.78929999999999
 21
699.6264
 31
0.0
  0
LINE
  5
2BE
330
1E
100
AcDbEntity
  8
0
100
AcDbLine
 10
72.25
 20
703.7064
 30
0.0
 11
72.5262
 21
699.4244
 31
0.0
  0
LINE
  5
2BF
330
1E
100
AcDbEntity
  8
0
100
AcDbLine
 10
72.25
 20
703.7064
 30
0.0
 11
72.25
 21
706.3043999999999
 31
0.0
  0
LINE
  5
2C0
330
1E
100
AcDbEntity
  8
0
100
AcDbLine
 10
70.7947
 20
802.7143999999999
 30
0.0
 11
71.4103
 21
803.0464
 31
0.0
  0
LINE
  5
2C1
330
1E
100
AcDbEntity
  8
0
100
AcDbLine
 10
71.39969999999999
 20
803.5263999999999
 30
0.0
 11
71.4103
 21
803.0464
 31
0.0
  0
LINE
  5
2C2
330
1E
100
AcDbEntity
  8
0
100
AcDbLine
 10
70.7988
 20
803.8733999999999
 30
0.0
 11
71.39969999999999
 21
803.5263999999999
 31
0.0
  0
LINE
  5
2C4
330
1E
100
AcDbEntity
  8
0
100
AcDbLine
 10
71.65009999999999
 20
798.1953999999999
 30
0.0
 11
71.77290000000001
 21
797.7193999999999
 31
0.0
  0
LINE
  5
2C5
330
1E
100
AcDbEntity
  8
0
100
AcDbLine
 10
71.65009999999999
 20
798.1953999999999
 30
0.0
 11
72.1821
 21
798.5703999999999
 31
0.0
  0
LINE
  5
2C6
330
1E
100
AcDbEntity
  8
0
100
AcDbLine
 10
71.77290000000001
 20
797.7193999999999
 30
0.0
 11
72.4491
 21
797.4204
 31
0.0
  0
LINE
  5
2C7
330
1E
100
AcDbEntity
  8
0
100
AcDbLine
 10
71.43489999999999
 20
830.9303999999999
 30
0.0
 11
72.185
 21
830.6763999999999
 31
0.0
  0
LINE
  5
2C8
330
1E
100
AcDbEntity
  8
0
100
AcDbLine
 10
70.7947
 20
842.3493999999999
 30
0.0
 11
71.4103
 21
841.9914
 31
0.0
  0
LINE
  5
2CA
330
1E
100
AcDbEntity
  8
0
100
AcDbLine
 10
71.39969999999999
 20
841.4854
 30
0.0
 11
71.4103
 21
841.9914
 31
0.0
  0
LINE
  5
2CB
330
1E
100
AcDbEntity
  8
0
100
AcDbLine
 10
70.7988
 20
841.1263999999999
 30
0.0
 11
71.39969999999999
 21
841.4854
 31
0.0
  0
LINE
  5
2CC
330
1E
100
AcDbEntity
  8
0
100
AcDbLine
 10
71.65009999999999
 20
847.1303999999999
 30
0.0
 11
71.77290000000001
 21
847.6323999999999
 31
0.0
  0
LINE
  5
2CD
330
1E
100
AcDbEntity
  8
0
100
AcDbLine
 10
71.65009999999999
 20
847.1303999999999
 30
0.0
 11
72.1821
 21
846.7304
 31
0.0
  0
LINE
  5
2CE
330
1E
100
AcDbEntity
  8
0
100
AcDbLine
 10
71.77290000000001
 20
847.6323999999999
 30
0.0
 11
72.4491
 21
847.9423999999999
 31
0.0
  0
LINE
  5
2CF
330
1E
100
AcDbEntity
  8
0
100
AcDbLine
 10
71.64369999999999
 20
831.8573999999999
 30
0.0
 11
72.4774
 21
831.9744
 31
0.0
  0
LINE
  5
2D1
330
1E
100
AcDbEntity
  8
0
100
AcDbLine
 10
71.2226
 20
831.4213999999999
 30
0.0
 11
71.64369999999999
 21
831.8573999999999
 31
0.0
  0
LINE
  5
2D2
330
1E
100
AcDbEntity
  8
0
100
AcDbLine
 10
71.2226
 20
831.4213999999999
 30
0.0
 11
71.43489999999999
 21
830.9303999999999
 31
0.0
  0
LINE
  5
2D3
330
1E
100
AcDbEntity
  8
0
100
AcDbLine
 10
71.807
 20
796.4163999999999
 30
0.0
 11
77.9725
 21
795.7093999999999
 31
0.0
  0
LINE
  5
2D4
330
1E
100
AcDbEntity
  8
0
100
AcDbLine
 10
71.807
 20
796.4163999999999
 30
0.0
 11
77.97239999999999
 21
795.7093999999999
 31
0.0
  0
LINE
  5
2D5
330
1E
100
AcDbEntity
  8
0
100
AcDbLine
 10
70.9488
 20
864.5453999999999
 30
0.0
 11
77.6042
 21
865.3423999999999
 31
0.0
  0
LINE
  5
2D6
330
1E
100
AcDbEntity
  8
0
100
AcDbLine
 10
72.1821
 20
798.5703999999999
 30
0.0
 11
73.0337
 21
798.6344
 31
0.0
  0
LINE
  5
2D7
330
1E
100
AcDbEntity
  8
0
100
AcDbLine
 10
72.1821
 20
846.7304
 30
0.0
 11
73.0337
 21
846.6544
 31
0.0
  0
LINE
  5
2D8
330
1E
100
AcDbEntity
  8
0
100
AcDbLine
 10
72.185
 20
830.6763999999999
 30
0.0
 11
73.0187
 21
830.7923999999999
 31
0.0
  0
LINE
  5
2D9
330
1E
100
AcDbEntity
  8
0
100
AcDbLine
 10
72.5262
 20
787.2874
 30
0.0
 11
72.78929999999999
 21
783.6173999999999
 31
0.0
  0
LINE
  5
2DA
330
1E
100
AcDbEntity
  8
0
100
AcDbLine
 10
72.5262
 20
785.3594000000001
 30
0.0
 11
72.78929999999999
 21
781.6893999999999
 31
0.0
  0
LINE
  5
2DB
330
1E
100
AcDbEntity
  8
0
100
AcDbLine
 10
72.4491
 20
797.4204
 30
0.0
 11
73.3007
 21
797.4854
 31
0.0
  0
LINE
  5
2DC
330
1E
100
AcDbEntity
  8
0
100
AcDbLine
 10
72.4491
 20
847.9423999999999
 30
0.0
 11
73.3007
 21
847.8673999999999
 31
0.0
  0
LINE
  5
2DD
330
1E
100
AcDbEntity
  8
0
100
AcDbLine
 10
72.4491
 20
847.9423999999999
 30
0.0
 11
72.4505263668346
 21
848.072264640559
 31
0.0
  0
LINE
  5
2DE
330
1E
100
AcDbEntity
  8
0
100
AcDbLine
 10
72.4774
 20
831.9744
 30
0.0
 11
73.2275
 21
831.7193999999998
 31
0.0
  0
LINE
  5
2DF
330
1E
100
AcDbEntity
  8
0
100
AcDbLine
 10
72.4195481088139
 20
789.8208650907739
 30
0.0
 11
72.5262
 21
787.2874
 31
0.0
  0
LINE
  5
2E0
330
1E
100
AcDbEntity
  8
0
100
AcDbLine
 10
72.3379953402012
 20
789.8301124291811
 30
0.0
 11
72.5262
 21
785.3594000000001
 31
0.0
  0
LINE
  5
2E1
330
1E
100
AcDbEntity
  8
0
100
AcDbLine
 10
72.5262
 20
710.5864
 30
0.0
 11
72.78929999999999
 21
712.9824
 31
0.0
  0
LINE
  5
2E2
330
1E
100
AcDbEntity
  8
0
100
AcDbLine
 10
71.807
 20
849.7834
 30
0.0
 11
77.9725
 21
850.4903999999999
 31
0.0
  0
LINE
  5
2E3
330
1E
100
AcDbEntity
  8
0
100
AcDbLine
 10
71.807
 20
849.7834
 30
0.0
 11
77.97239999999999
 21
850.4903999999999
 31
0.0
  0
LINE
  5
2E4
330
1E
100
AcDbEntity
  8
0
100
AcDbLine
 10
72.098
 20
706.7554
 30
0.0
 11
72.287043856241
 21
706.8787004794501
 31
0.0
  0
LINE
  5
2E5
330
1E
100
AcDbEntity
  8
0
100
AcDbLine
 10
70.75399999999999
 20
705.1014
 30
0.0
 11
72.098
 21
706.7554
 31
0.0
  0
LINE
  5
2E6
330
1E
100
AcDbEntity
  8
0
100
AcDbLine
 10
70.75399999999999
 20
701.5743999999999
 30
0.0
 11
72.098
 21
699.9203999999999
 31
0.0
  0
LINE
  5
2E7
330
1E
100
AcDbEntity
  8
0
100
AcDbLine
 10
76.25
 20
635.2214
 30
0.0
 11
76.25
 21
632.3684
 31
0.0
  0
LINE
  5
2E8
330
1E
100
AcDbEntity
  8
0
100
AcDbLine
 10
76.25
 20
635.2214
 30
0.0
 11
76.25
 21
638.9124
 31
0.0
  0
LINE
  5
2E9
330
1E
100
AcDbEntity
  8
0
100
AcDbLine
 10
76.25
 20
638.9124
 30
0.0
 11
76.25
 21
635.2214
 31
0.0
  0
LINE
  5
2EA
330
1E
100
AcDbEntity
  8
0
100
AcDbLine
 10
76.25
 20
638.9124
 30
0.0
 11
76.25
 21
643.2033999999999
 31
0.0
  0
LINE
  5
2EB
330
1E
100
AcDbEntity
  8
0
100
AcDbLine
 10
76.25
 20
652.5743999999999
 30
0.0
 11
76.25
 21
647.8324
 31
0.0
  0
LINE
  5
2EC
330
1E
100
AcDbEntity
  8
0
100
AcDbLine
 10
76.25
 20
647.8324
 30
0.0
 11
76.25
 21
643.2033999999999
 31
0.0
  0
LINE
  5
2ED
330
1E
100
AcDbEntity
  8
0
100
AcDbLine
 10
76.25
 20
647.8324
 30
0.0
 11
76.25
 21
652.5743999999999
 31
0.0
  0
LINE
  5
2EE
330
1E
100
AcDbEntity
  8
0
100
AcDbLine
 10
76.25
 20
643.2033999999999
 30
0.0
 11
76.25
 21
638.9124
 31
0.0
  0
LINE
  5
2EF
330
1E
100
AcDbEntity
  8
0
100
AcDbLine
 10
76.25
 20
643.2033999999999
 30
0.0
 11
76.25
 21
647.8324
 31
0.0
  0
LINE
  5
2F0
330
1E
100
AcDbEntity
  8
0
100
AcDbLine
 10
74.33800000000001
 20
660.3554
 30
0.0
 11
76.25
 21
659.6223999999999
 31
0.0
  0
LINE
  5
2F2
330
1E
100
AcDbEntity
  8
0
100
AcDbLine
 10
76.25
 20
659.6223999999999
 30
0.0
 11
76.2574
 21
634.3884
 31
0.0
  0
LINE
  5
2FF
330
1E
100
AcDbEntity
  8
0
100
AcDbLine
 10
84.25
 20
671.6204
 30
0.0
 11
86.85
 21
671.8214
 31
0.0
  0
LINE
  5
300
330
1E
100
AcDbEntity
  8
0
100
AcDbLine
 10
92.2957
 20
640.4294
 30
0.0
 11
94.08190000000001
 21
642.1173999999999
 31
0.0
  0
LINE
  5
301
330
1E
100
AcDbEntity
  8
0
100
AcDbLine
 10
94.08190000000001
 20
642.1173999999999
 30
0.0
 11
96.3827
 21
644.9543999999999
 31
0.0
  0
LINE
  5
302
330
1E
100
AcDbEntity
  8
0
100
AcDbLine
 10
96.3827
 20
644.9543999999999
 30
0.0
 11
97.68450000000001
 21
647.4593999999999
 31
0.0
  0
LINE
  5
304
330
1E
100
AcDbEntity
  8
0
100
AcDbLine
 10
97.68450000000001
 20
647.4593999999999
 30
0.0
 11
98.25000000000001
 21
649.6444
 31
0.0
  0
LINE
  5
305
330
1E
100
AcDbEntity
  8
0
100
AcDbLine
 10
98.25000000000001
 20
649.6444
 30
0.0
 11
98.25000000000001
 21
703.3383999999999
 31
0.0
  0
LINE
  5
306
330
1E
100
AcDbEntity
  8
0
100
AcDbLine
 10
92.24999999999999
 20
661.4924
 30
0.0
 11
92.24999999999999
 21
659.6223999999999
 31
0.0
  0
LINE
  5
307
330
1E
100
AcDbEntity
  8
0
100
AcDbLine
 10
92.24999999999999
 20
661.4924
 30
0.0
 11
92.24999999999999
 21
681.351710344828
 31
0.0
  0
LINE
  5
308
330
1E
100
AcDbEntity
  8
0
100
AcDbLine
 10
94.16200000000001
 20
660.3554
 30
0.0
 11
96.402
 21
661.8153999999999
 31
0.0
  0
LINE
  5
309
330
1E
100
AcDbEntity
  8
0
100
AcDbLine
 10
96.402
 20
661.8153999999999
 30
0.0
 11
97.74600000000001
 21
663.4693999999999
 31
0.0
  0
LINE
  5
30B
330
1E
100
AcDbEntity
  8
0
100
AcDbLine
 10
92.24999999999999
 20
659.6223999999999
 30
0.0
 11
92.24999999999999
 21
696.5234
 31
0.0
  0
LINE
  5
30C
330
1E
100
AcDbEntity
  8
0
100
AcDbLine
 10
92.24999999999999
 20
659.6223999999999
 30
0.0
 11
94.16200000000001
 21
660.3554
 31
0.0
  0
LINE
  5
30D
330
1E
100
AcDbEntity
  8
0
100
AcDbLine
 10
92.24999999999999
 20
659.6223999999999
 30
0.0
 11
92.24999999999999
 21
661.4924
 31
0.0
  0
LINE
  5
30F
330
1E
100
AcDbEntity
  8
0
100
AcDbLine
 10
92.11479999999999
 20
654.4303999999999
 30
0.0
 11
92.24999999999999
 21
662.114634933605
 31
0.0
  0
LINE
  5
310
330
1E
100
AcDbEntity
  8
0
100
AcDbLine
 10
92.11479999999999
 20
654.4303999999999
 30
0.0
 11
92.18470000000001
 21
631.3343999999999
 31
0.0
  0
LINE
  5
311
330
1E
100
AcDbEntity
  8
0
100
AcDbLine
 10
86.85
 20
671.8214
 30
0.0
 11
89.25
 21
672.2713999999999
 31
0.0
  0
LINE
  5
312
330
1E
100
AcDbEntity
  8
0
100
AcDbLine
 10
89.25
 20
672.2713999999999
 30
0.0
 11
91.34999999999999
 21
673.0714
 31
0.0
  0
LINE
  5
313
330
1E
100
AcDbEntity
  8
0
100
AcDbLine
 10
81.65
 20
671.8214
 30
0.0
 11
84.25
 21
671.6204
 31
0.0
  0
LINE
  5
314
330
1E
100
AcDbEntity
  8
0
100
AcDbLine
 10
91.34999999999999
 20
673.0714
 30
0.0
 11
92.24999999999999
 21
673.6614624999999
 31
0.0
  0
LINE
  5
315
330
1E
100
AcDbEntity
  8
0
100
AcDbLine
 10
79.25
 20
672.2713999999999
 30
0.0
 11
81.65
 21
671.8214
 31
0.0
  0
LINE
  5
316
330
1E
100
AcDbEntity
  8
0
100
AcDbLine
 10
77.15
 20
673.0714
 30
0.0
 11
79.25
 21
672.2713999999999
 31
0.0
  0
LINE
  5
317
330
1E
100
AcDbEntity
  8
0
100
AcDbLine
 10
73.55
 20
696.5234
 30
0.0
 11
84.25
 21
696.5234
 31
0.0
  0
LINE
  5
318
330
1E
100
AcDbEntity
  8
0
100
AcDbLine
 10
72.78929999999999
 20
781.6893999999999
 30
0.0
 11
73.08159999999999
 21
781.3754
 31
0.0
  0
LINE
  5
319
330
1E
100
AcDbEntity
  8
0
100
AcDbLine
 10
72.78929999999999
 20
783.6173999999999
 30
0.0
 11
73.08159999999999
 21
783.3044
 31
0.0
  0
LINE
  5
31A
330
1E
100
AcDbEntity
  8
0
100
AcDbLine
 10
72.78929999999999
 20
712.9824
 30
0.0
 11
73.25
 21
713.3813662
 31
0.0
  0
LINE
  5
31B
330
1E
100
AcDbEntity
  8
0
100
AcDbLine
 10
72.78929999999999
 20
697.0284
 30
0.0
 11
73.08159999999999
 21
696.8233999999999
 31
0.0
  0
LINE
  5
31C
330
1E
100
AcDbEntity
  8
0
100
AcDbLine
 10
72.78929999999999
 20
697.0284
 30
0.0
 11
73.28929999999999
 21
696.5954
 31
0.0
  0
LINE
  5
31D
330
1E
100
AcDbEntity
  8
0
100
AcDbLine
 10
73.36409999999999
 20
696.5434
 30
0.0
 11
73.55
 21
696.5234
 31
0.0
  0
LINE
  5
31E
330
1E
100
AcDbEntity
  8
0
100
AcDbLine
 10
73.28929999999999
 20
696.5954
 30
0.0
 11
73.36409999999999
 21
696.5434
 31
0.0
  0
LINE
  5
31F
330
1E
100
AcDbEntity
  8
0
100
AcDbLine
 10
73.55
 20
696.7064
 30
0.0
 11
84.25
 21
696.7064
 31
0.0
  0
LINE
  5
320
330
1E
100
AcDbEntity
  8
0
100
AcDbLine
 10
73.55
 20
699.3044
 30
0.0
 11
84.25
 21
699.3044
 31
0.0
  0
LINE
  5
321
330
1E
100
AcDbEntity
  8
0
100
AcDbLine
 10
73.08159999999999
 20
696.8233999999999
 30
0.0
 11
73.55
 21
696.7064
 31
0.0
  0
LINE
  5
322
330
1E
100
AcDbEntity
  8
0
100
AcDbLine
 10
73.0262
 20
787.6094000000001
 30
0.0
 11
73.28929999999999
 21
783.9383999999999
 31
0.0
  0
LINE
  5
323
330
1E
100
AcDbEntity
  8
0
100
AcDbLine
 10
73.0262
 20
711.0204
 30
0.0
 11
73.25
 21
713.0576519954389
 31
0.0
  0
LINE
  5
324
330
1E
100
AcDbEntity
  8
0
100
AcDbLine
 10
73.55
 20
699.9874
 30
0.0
 11
84.25
 21
699.9874
 31
0.0
  0
LINE
  5
325
330
1E
100
AcDbEntity
  8
0
100
AcDbLine
 10
73.36409999999999
 20
700.0073999999999
 30
0.0
 11
73.55
 21
699.9874
 31
0.0
  0
LINE
  5
326
330
1E
100
AcDbEntity
  8
0
100
AcDbLine
 10
73.08159999999999
 20
781.3754
 30
0.0
 11
73.55
 21
781.1954
 31
0.0
  0
LINE
  5
327
330
1E
100
AcDbEntity
  8
0
100
AcDbLine
 10
73.25
 20
781.3106860802729
 30
0.0
 11
73.25
 21
775.2704
 31
0.0
  0
LINE
  5
328
330
1E
100
AcDbEntity
  8
0
100
AcDbLine
 10
73.25
 20
775.2704
 30
0.0
 11
73.25
 21
762.1484
 31
0.0
  0
LINE
  5
329
330
1E
100
AcDbEntity
  8
0
100
AcDbLine
 10
73.25
 20
775.2704
 30
0.0
 11
73.25
 21
781.3106860802729
 31
0.0
  0
LINE
  5
32A
330
1E
100
AcDbEntity
  8
0
100
AcDbLine
 10
73.25
 20
762.1484
 30
0.0
 11
73.25
 21
749.5983999999999
 31
0.0
  0
LINE
  5
32B
330
1E
100
AcDbEntity
  8
0
100
AcDbLine
 10
73.25
 20
762.1484
 30
0.0
 11
73.25
 21
775.2704
 31
0.0
  0
LINE
  5
32C
330
1E
100
AcDbEntity
  8
0
100
AcDbLine
 10
73.25
 20
749.5983999999999
 30
0.0
 11
73.25
 21
737.5374
 31
0.0
  0
LINE
  5
32D
330
1E
100
AcDbEntity
  8
0
100
AcDbLine
 10
73.25
 20
749.5983999999999
 30
0.0
 11
73.25
 21
762.1484
 31
0.0
  0
LINE
  5
32E
330
1E
100
AcDbEntity
  8
0
100
AcDbLine
 10
73.25
 20
737.5374
 30
0.0
 11
73.25
 21
723.9144
 31
0.0
  0
LINE
  5
32F
330
1E
100
AcDbEntity
  8
0
100
AcDbLine
 10
73.25
 20
737.5374
 30
0.0
 11
73.25
 21
749.5983999999999
 31
0.0
  0
LINE
  5
330
330
1E
100
AcDbEntity
  8
0
100
AcDbLine
 10
73.25
 20
723.9144
 30
0.0
 11
73.25
 21
706.6264
 31
0.0
  0
LINE
  5
331
330
1E
100
AcDbEntity
  8
0
100
AcDbLine
 10
73.25
 20
723.9144
 30
0.0
 11
73.25
 21
737.5374
 31
0.0
  0
LINE
  5
332
330
1E
100
AcDbEntity
  8
0
100
AcDbLine
 10
73.25
 20
706.6264
 30
0.0
 11
73.5538
 21
703.0704
 31
0.0
  0
LINE
  5
333
330
1E
100
AcDbEntity
  8
0
100
AcDbLine
 10
73.25
 20
706.6264
 30
0.0
 11
73.25
 21
723.9144
 31
0.0
  0
LINE
  5
334
330
1E
100
AcDbEntity
  8
0
100
AcDbLine
 10
74.68
 20
700.1263999999999
 30
0.0
 11
84.25
 21
700.1263999999999
 31
0.0
  0
LINE
  5
335
330
1E
100
AcDbEntity
  8
0
100
AcDbLine
 10
74.16479999999999
 20
700.2534
 30
0.0
 11
74.68
 21
700.1263999999999
 31
0.0
  0
LINE
  5
336
330
1E
100
AcDbEntity
  8
0
100
AcDbLine
 10
73.84319999999999
 20
700.4754
 30
0.0
 11
74.16479999999999
 21
700.2534
 31
0.0
  0
LINE
  5
337
330
1E
100
AcDbEntity
  8
0
100
AcDbLine
 10
73.5538
 20
703.0704
 30
0.0
 11
73.84319999999999
 21
700.4754
 31
0.0
  0
LINE
  5
338
330
1E
100
AcDbEntity
  8
0
100
AcDbLine
 10
73.55
 20
781.1954
 30
0.0
 11
84.25
 21
781.1954
 31
0.0
  0
LINE
  5
339
330
1E
100
AcDbEntity
  8
0
100
AcDbLine
 10
73.55
 20
783.8283999999999
 30
0.0
 11
84.25
 21
783.8283999999999
 31
0.0
  0
LINE
  5
33A
330
1E
100
AcDbEntity
  8
0
100
AcDbLine
 10
73.36409999999999
 20
783.8583999999999
 30
0.0
 11
73.55
 21
783.8283999999999
 31
0.0
  0
LINE
  5
33B
330
1E
100
AcDbEntity
  8
0
100
AcDbLine
 10
73.28929999999999
 20
783.9383999999999
 30
0.0
 11
73.36409999999999
 21
783.8583999999999
 31
0.0
  0
LINE
  5
33C
330
1E
100
AcDbEntity
  8
0
100
AcDbLine
 10
73.55
 20
783.1233999999999
 30
0.0
 11
84.25
 21
783.1233999999999
 31
0.0
  0
LINE
  5
33D
330
1E
100
AcDbEntity
  8
0
100
AcDbLine
 10
73.08159999999999
 20
783.3044
 30
0.0
 11
73.55
 21
783.1233999999999
 31
0.0
  0
LINE
  5
33E
330
1E
100
AcDbEntity
  8
0
100
AcDbLine
 10
73.28929999999999
 20
700.0593999999999
 30
0.0
 11
73.36409999999999
 21
700.0073999999999
 31
0.0
  0
LINE
  5
33F
330
1E
100
AcDbEntity
  8
0
100
AcDbLine
 10
73.0262
 20
702.4554000000001
 30
0.0
 11
73.28929999999999
 21
700.0593999999999
 31
0.0
  0
LINE
  5
340
330
1E
100
AcDbEntity
  8
0
100
AcDbLine
 10
73.08159999999999
 20
699.4213999999999
 30
0.0
 11
73.55
 21
699.3044
 31
0.0
  0
LINE
  5
341
330
1E
100
AcDbEntity
  8
0
100
AcDbLine
 10
72.78929999999999
 20
699.6264
 30
0.0
 11
73.08159999999999
 21
699.4213999999999
 31
0.0
  0
LINE
  5
342
330
1E
100
AcDbEntity
  8
0
100
AcDbLine
 10
73.3007
 20
797.4854
 30
0.0
 11
73.83259999999999
 21
797.8604
 31
0.0
  0
LINE
  5
343
330
1E
100
AcDbEntity
  8
0
100
AcDbLine
 10
73.7099
 20
798.3343999999999
 30
0.0
 11
73.83259999999999
 21
797.8604
 31
0.0
  0
LINE
  5
344
330
1E
100
AcDbEntity
  8
0
100
AcDbLine
 10
73.0337
 20
798.6344
 30
0.0
 11
73.7099
 21
798.3343999999999
 31
0.0
  0
LINE
  5
346
330
1E
100
AcDbEntity
  8
0
100
AcDbLine
 10
74.19119999999999
 20
818.8753999999999
 30
0.0
 11
74.49290000000001
 21
818.4303999999999
 31
0.0
  0
LINE
  5
347
330
1E
100
AcDbEntity
  8
0
100
AcDbLine
 10
73.2275
 20
831.7193999999998
 30
0.0
 11
73.43980000000001
 21
831.2284
 31
0.0
  0
LINE
  5
348
330
1E
100
AcDbEntity
  8
0
100
AcDbLine
 10
73.0187
 20
830.7923999999999
 30
0.0
 11
73.43980000000001
 21
831.2284
 31
0.0
  0
LINE
  5
349
330
1E
100
AcDbEntity
  8
0
100
AcDbLine
 10
74.1932
 20
819.8043999999999
 30
0.0
 11
74.4971
 21
820.2403999999999
 31
0.0
  0
LINE
  5
34A
330
1E
100
AcDbEntity
  8
0
100
AcDbLine
 10
74.0765
 20
819.3404000000001
 30
0.0
 11
74.19119999999999
 21
818.8753999999999
 31
0.0
  0
LINE
  5
34B
330
1E
100
AcDbEntity
  8
0
100
AcDbLine
 10
74.0765
 20
819.3404000000001
 30
0.0
 11
74.1932
 21
819.8043999999999
 31
0.0
  0
LINE
  5
34C
330
1E
100
AcDbEntity
  8
0
100
AcDbLine
 10
75.71380000000001
 20
812.2884
 30
0.0
 11
75.7244
 21
811.8083999999999
 31
0.0
  0
LINE
  5
34D
330
1E
100
AcDbEntity
  8
0
100
AcDbLine
 10
75.71380000000001
 20
812.2884
 30
0.0
 11
76.32940000000001
 21
812.6203999999999
 31
0.0
  0
LINE
  5
34E
330
1E
100
AcDbEntity
  8
0
100
AcDbLine
 10
75.7244
 20
811.8083999999999
 30
0.0
 11
76.3253
 21
811.4603999999999
 31
0.0
  0
LINE
  5
34F
330
1E
100
AcDbEntity
  8
0
100
AcDbLine
 10
76.3253
 20
811.4603999999999
 30
0.0
 11
77.1856
 21
811.4613999999999
 31
0.0
  0
LINE
  5
350
330
1E
100
AcDbEntity
  8
0
100
AcDbLine
 10
76.32940000000001
 20
812.6203999999999
 30
0.0
 11
77.1897
 21
812.6203999999999
 31
0.0
  0
LINE
  5
351
330
1E
100
AcDbEntity
  8
0
100
AcDbLine
 10
75.9217
 20
807.1334
 30
0.0
 11
76.04449999999999
 21
806.6574000000001
 31
0.0
  0
LINE
  5
352
330
1E
100
AcDbEntity
  8
0
100
AcDbLine
 10
75.9217
 20
807.1334
 30
0.0
 11
76.45369999999999
 21
807.5073999999998
 31
0.0
  0
LINE
  5
354
330
1E
100
AcDbEntity
  8
0
100
AcDbLine
 10
76.04449999999999
 20
806.6574000000001
 30
0.0
 11
76.72069999999999
 21
806.3584
 31
0.0
  0
LINE
  5
355
330
1E
100
AcDbEntity
  8
0
100
AcDbLine
 10
76.72069999999999
 20
806.3584
 30
0.0
 11
77.57229999999999
 21
806.4234
 31
0.0
  0
LINE
  5
356
330
1E
100
AcDbEntity
  8
0
100
AcDbLine
 10
77.97239999999999
 20
795.7093999999999
 30
0.0
 11
82.75
 21
795.5130477634759
 31
0.0
  0
LINE
  5
357
330
1E
100
AcDbEntity
  8
0
100
AcDbLine
 10
77.57229999999999
 20
806.4234
 30
0.0
 11
78.1043
 21
806.7974000000001
 31
0.0
  0
LINE
  5
358
330
1E
100
AcDbEntity
  8
0
100
AcDbLine
 10
77.1856
 20
811.4613999999999
 30
0.0
 11
77.80129999999999
 21
811.7924
 31
0.0
  0
LINE
  5
359
330
1E
100
AcDbEntity
  8
0
100
AcDbLine
 10
77.1897
 20
812.6203999999999
 30
0.0
 11
77.7907
 21
812.2723999999999
 31
0.0
  0
LINE
  5
35B
330
1E
100
AcDbEntity
  8
0
100
AcDbLine
 10
77.7907
 20
812.2723999999999
 30
0.0
 11
77.80129999999999
 21
811.7924
 31
0.0
  0
LINE
  5
35C
330
1E
100
AcDbEntity
  8
0
100
AcDbLine
 10
77.3053
 20
807.5724000000001
 30
0.0
 11
77.98149999999999
 21
807.2723999999999
 31
0.0
  0
LINE
  5
35E
330
1E
100
AcDbEntity
  8
0
100
AcDbLine
 10
76.45369999999999
 20
807.5073999999998
 30
0.0
 11
77.3053
 21
807.5724000000001
 31
0.0
  0
LINE
  5
360
330
1E
100
AcDbEntity
  8
0
100
AcDbLine
 10
77.22809999999999
 20
817.5273999999999
 30
0.0
 11
78.0385
 21
817.5933999999999
 31
0.0
  0
LINE
  5
361
330
1E
100
AcDbEntity
  8
0
100
AcDbLine
 10
76.418
 20
817.5943999999999
 30
0.0
 11
77.22809999999999
 21
817.5273999999999
 31
0.0
  0
LINE
  5
363
330
1E
100
AcDbEntity
  8
0
100
AcDbLine
 10
75.6581
 20
817.7694
 30
0.0
 11
76.418
 21
817.5943999999999
 31
0.0
  0
LINE
  5
364
330
1E
100
AcDbEntity
  8
0
100
AcDbLine
 10
75.0137
 20
818.0583999999999
 30
0.0
 11
75.6581
 21
817.7694
 31
0.0
  0
LINE
  5
365
330
1E
100
AcDbEntity
  8
0
100
AcDbLine
 10
75.0017
 20
820.6103999999999
 30
0.0
 11
75.6507
 21
820.9094
 31
0.0
  0
LINE
  5
366
330
1E
100
AcDbEntity
  8
0
100
AcDbLine
 10
74.4971
 20
820.2403999999999
 30
0.0
 11
75.0017
 21
820.6103999999999
 31
0.0
  0
LINE
  5
367
330
1E
100
AcDbEntity
  8
0
100
AcDbLine
 10
75.6507
 20
820.9094
 30
0.0
 11
76.4263
 21
821.0824
 31
0.0
  0
LINE
  5
368
330
1E
100
AcDbEntity
  8
0
100
AcDbLine
 10
76.4263
 20
821.0824
 30
0.0
 11
77.23659999999999
 21
821.1473999999999
 31
0.0
  0
LINE
  5
369
330
1E
100
AcDbEntity
  8
0
100
AcDbLine
 10
77.23659999999999
 20
821.1473999999999
 30
0.0
 11
78.0467
 21
821.0814
 31
0.0
  0
LINE
  5
36A
330
1E
100
AcDbEntity
  8
0
100
AcDbLine
 10
74.59159075958659
 20
818.357480849133
 30
0.0
 11
75.0137
 21
818.0583999999999
 31
0.0
  0
LINE
  5
36B
330
1E
100
AcDbEntity
  8
0
100
AcDbLine
 10
74.49290000000001
 20
818.4303999999999
 30
0.0
 11
75.0137
 21
818.0583999999999
 31
0.0
  0
LINE
  5
36C
330
1E
100
AcDbEntity
  8
0
100
AcDbLine
 10
75.9217
 20
837.7803999999999
 30
0.0
 11
76.04449999999999
 21
838.2824000000001
 31
0.0
  0
LINE
  5
36D
330
1E
100
AcDbEntity
  8
0
100
AcDbLine
 10
75.9217
 20
837.7803999999999
 30
0.0
 11
76.45369999999999
 21
837.3803999999999
 31
0.0
  0
LINE
  5
36E
330
1E
100
AcDbEntity
  8
0
100
AcDbLine
 10
75.9217
 20
837.7803999999999
 30
0.0
 11
75.92339398024591
 21
837.9336282131481
 31
0.0
  0
LINE
  5
36F
330
1E
100
AcDbEntity
  8
0
100
AcDbLine
 10
77.3053
 20
837.3044
 30
0.0
 11
77.98149999999999
 21
837.6153999999999
 31
0.0
  0
LINE
  5
370
330
1E
100
AcDbEntity
  8
0
100
AcDbLine
 10
76.72069999999999
 20
838.5934
 30
0.0
 11
77.57229999999999
 21
838.5173999999999
 31
0.0
  0
LINE
  5
372
330
1E
100
AcDbEntity
  8
0
100
AcDbLine
 10
77.57229999999999
 20
838.5173999999999
 30
0.0
 11
78.1043
 21
838.1164
 31
0.0
  0
LINE
  5
373
330
1E
100
AcDbEntity
  8
0
100
AcDbLine
 10
76.45369999999999
 20
837.3803999999999
 30
0.0
 11
77.3053
 21
837.3044
 31
0.0
  0
LINE
  5
374
330
1E
100
AcDbEntity
  8
0
100
AcDbLine
 10
76.04449999999999
 20
838.2824000000001
 30
0.0
 11
76.72069999999999
 21
838.5934
 31
0.0
  0
LINE
  5
375
330
1E
100
AcDbEntity
  8
0
100
AcDbLine
 10
73.3007
 20
847.8673999999999
 30
0.0
 11
73.83259999999999
 21
847.4664
 31
0.0
  0
LINE
  5
376
330
1E
100
AcDbEntity
  8
0
100
AcDbLine
 10
73.7099
 20
846.9643999999998
 30
0.0
 11
73.83259999999999
 21
847.4664
 31
0.0
  0
LINE
  5
377
330
1E
100
AcDbEntity
  8
0
100
AcDbLine
 10
73.0337
 20
846.6544
 30
0.0
 11
73.7099
 21
846.9643999999998
 31
0.0
  0
LINE
  5
378
330
1E
100
AcDbEntity
  8
0
100
AcDbLine
 10
77.97239999999999
 20
850.4903999999999
 30
0.0
 11
84.25
 21
850.7474
 31
0.0
  0
LINE
  5
379
330
1E
100
AcDbEntity
  8
0
100
AcDbLine
 10
72.9355527226831
 20
789.762354884862
 30
0.0
 11
73.0262
 21
787.6094000000001
 31
0.0
  0
LINE
  5
37A
330
1E
100
AcDbEntity
  8
0
100
AcDbLine
 10
76.6127
 20
789.3454
 30
0.0
 11
82.75
 21
789.0593199979049
 31
0.0
  0
LINE
  5
37B
330
1E
100
AcDbEntity
  8
0
100
AcDbLine
 10
77.9725
 20
795.7093999999999
 30
0.0
 11
82.75
 21
795.51304874552
 31
0.0
  0
LINE
  5
37C
330
1E
100
AcDbEntity
  8
0
100
AcDbLine
 10
71.67660138481728
 20
865.9988362631329
 30
0.0
 11
74.14149999999999
 21
866.3814
 31
0.0
  0
LINE
  5
37D
330
1E
100
AcDbEntity
  8
0
100
AcDbLine
 10
74.14149999999999
 20
866.3814
 30
0.0
 11
79.11830000000001
 21
867.0173999999999
 31
0.0
  0
LINE
  5
37E
330
1E
100
AcDbEntity
  8
0
100
AcDbLine
 10
77.6042
 20
865.3423999999999
 30
0.0
 11
84.25
 21
865.5454
 31
0.0
  0
LINE
  5
37F
330
1E
100
AcDbEntity
  8
0
100
AcDbLine
 10
76.6127
 20
857.5674000000001
 30
0.0
 11
84.25
 21
857.9233999999999
 31
0.0
  0
LINE
  5
381
330
1E
100
AcDbEntity
  8
0
100
AcDbLine
 10
76.5239
 20
857.1083999999999
 30
0.0
 11
84.25
 21
857.4654
 31
0.0
  0
LINE
  5
382
330
1E
100
AcDbEntity
  8
0
100
AcDbLine
 10
77.98149999999999
 20
807.2723999999999
 30
0.0
 11
78.1043
 21
806.7974000000001
 31
0.0
  0
LINE
  5
383
330
1E
100
AcDbEntity
  8
0
100
AcDbLine
 10
78.39449999999999
 20
801.9724
 30
0.0
 11
78.62739999999999
 21
801.5104
 31
0.0
  0
LINE
  5
384
330
1E
100
AcDbEntity
  8
0
100
AcDbLine
 10
78.39449999999999
 20
801.9724
 30
0.0
 11
78.83379999999999
 21
802.3834
 31
0.0
  0
LINE
  5
385
330
1E
100
AcDbEntity
  8
0
100
AcDbLine
 10
79.3672
 20
801.2643999999999
 30
0.0
 11
80.1955
 21
801.3923999999999
 31
0.0
  0
LINE
  5
386
330
1E
100
AcDbEntity
  8
0
100
AcDbLine
 10
80.1955
 20
801.3923999999999
 30
0.0
 11
80.6347
 21
801.8034
 31
0.0
  0
LINE
  5
387
330
1E
100
AcDbEntity
  8
0
100
AcDbLine
 10
80.4019
 20
802.2653999999999
 30
0.0
 11
80.6347
 21
801.8034
 31
0.0
  0
LINE
  5
388
330
1E
100
AcDbEntity
  8
0
100
AcDbLine
 10
79.66199999999999
 20
802.5114
 30
0.0
 11
80.4019
 21
802.2653999999999
 31
0.0
  0
LINE
  5
389
330
1E
100
AcDbEntity
  8
0
100
AcDbLine
 10
78.83379999999999
 20
802.3834
 30
0.0
 11
79.66199999999999
 21
802.5114
 31
0.0
  0
LINE
  5
38A
330
1E
100
AcDbEntity
  8
0
100
AcDbLine
 10
78.62739999999999
 20
801.5104
 30
0.0
 11
79.3672
 21
801.2643999999999
 31
0.0
  0
LINE
  5
38B
330
1E
100
AcDbEntity
  8
0
100
AcDbLine
 10
78.81399999999999
 20
817.7664
 30
0.0
 11
79.463
 21
818.0654
 31
0.0
  0
LINE
  5
38C
330
1E
100
AcDbEntity
  8
0
100
AcDbLine
 10
79.463
 20
818.0654
 30
0.0
 11
79.9676
 21
818.4343999999999
 31
0.0
  0
LINE
  5
38D
330
1E
100
AcDbEntity
  8
0
100
AcDbLine
 10
79.463
 20
818.0654
 30
0.0
 11
80.13029269963221
 21
818.5374542801511
 31
0.0
  0
LINE
  5
38E
330
1E
100
AcDbEntity
  8
0
100
AcDbLine
 10
79.463
 20
818.0654
 30
0.0
 11
80.13029269963221
 21
818.5374542801511
 31
0.0
  0
LINE
  5
38F
330
1E
100
AcDbEntity
  8
0
100
AcDbLine
 10
78.0467
 20
821.0814
 30
0.0
 11
78.8066
 21
820.9063999999999
 31
0.0
  0
LINE
  5
390
330
1E
100
AcDbEntity
  8
0
100
AcDbLine
 10
78.8066
 20
820.9063999999999
 30
0.0
 11
79.45109999999999
 21
820.6174
 31
0.0
  0
LINE
  5
391
330
1E
100
AcDbEntity
  8
0
100
AcDbLine
 10
79.45109999999999
 20
820.6174
 30
0.0
 11
79.9719
 21
820.2453999999999
 31
0.0
  0
LINE
  5
392
330
1E
100
AcDbEntity
  8
0
100
AcDbLine
 10
79.9676
 20
818.4343999999999
 30
0.0
 11
80.2716
 21
818.8703999999999
 31
0.0
  0
LINE
  5
393
330
1E
100
AcDbEntity
  8
0
100
AcDbLine
 10
80.2716
 20
818.8703999999999
 30
0.0
 11
80.3883
 21
819.3354000000001
 31
0.0
  0
LINE
  5
394
330
1E
100
AcDbEntity
  8
0
100
AcDbLine
 10
80.2735
 20
819.8003999999999
 30
0.0
 11
80.3883
 21
819.3354000000001
 31
0.0
  0
LINE
  5
395
330
1E
100
AcDbEntity
  8
0
100
AcDbLine
 10
79.9719
 20
820.2453999999999
 30
0.0
 11
80.2735
 21
819.8003999999999
 31
0.0
  0
LINE
  5
396
330
1E
100
AcDbEntity
  8
0
100
AcDbLine
 10
78.0385
 20
817.5933999999999
 30
0.0
 11
78.81399999999999
 21
817.7664
 31
0.0
  0
LINE
  5
397
330
1E
100
AcDbEntity
  8
0
100
AcDbLine
 10
81.1946
 20
825.8563999999999
 30
0.0
 11
81.5004
 21
825.4203999999999
 31
0.0
  0
LINE
  5
398
330
1E
100
AcDbEntity
  8
0
100
AcDbLine
 10
81.06810000000001
 20
826.3284
 30
0.0
 11
81.1946
 21
826.7993999999999
 31
0.0
  0
LINE
  5
399
330
1E
100
AcDbEntity
  8
0
100
AcDbLine
 10
81.06810000000001
 20
826.3284
 30
0.0
 11
81.1946
 21
825.8563999999999
 31
0.0
  0
LINE
  5
39B
330
1E
100
AcDbEntity
  8
0
100
AcDbLine
 10
81.5004
 20
825.4203999999999
 30
0.0
 11
82.00650000000001
 21
825.0524
 31
0.0
  0
LINE
  5
39C
330
1E
100
AcDbEntity
  8
0
100
AcDbLine
 10
82.00650000000001
 20
825.0524
 30
0.0
 11
82.64969999999999
 21
824.7614
 31
0.0
  0
LINE
  5
39D
330
1E
100
AcDbEntity
  8
0
100
AcDbLine
 10
81.36148899926871
 20
825.4899403916969
 30
0.0
 11
82.00650000000001
 21
825.0524
 31
0.0
  0
LINE
  5
39E
330
1E
100
AcDbEntity
  8
0
100
AcDbLine
 10
81.1946
 20
826.7993999999999
 30
0.0
 11
81.5004
 21
827.2353999999999
 31
0.0
  0
LINE
  5
39F
330
1E
100
AcDbEntity
  8
0
100
AcDbLine
 10
81.5004
 20
827.2353999999999
 30
0.0
 11
82.00650000000001
 21
827.6044
 31
0.0
  0
LINE
  5
3A0
330
1E
100
AcDbEntity
  8
0
100
AcDbLine
 10
82.75
 20
788.0203999999999
 30
0.0
 11
82.75
 21
788.1054
 31
0.0
  0
LINE
  5
3A1
330
1E
100
AcDbEntity
  8
0
100
AcDbLine
 10
82.75
 20
788.0203999999999
 30
0.0
 11
82.75
 21
787.9573999999999
 31
0.0
  0
LINE
  5
3A2
330
1E
100
AcDbEntity
  8
0
100
AcDbLine
 10
82.75
 20
788.1054
 30
0.0
 11
82.75
 21
788.2204
 31
0.0
  0
LINE
  5
3A3
330
1E
100
AcDbEntity
  8
0
100
AcDbLine
 10
82.75
 20
788.1054
 30
0.0
 11
82.75
 21
788.0203999999999
 31
0.0
  0
LINE
  5
3A4
330
1E
100
AcDbEntity
  8
0
100
AcDbLine
 10
82.75
 20
788.2204
 30
0.0
 11
82.75
 21
788.5044
 31
0.0
  0
LINE
  5
3A5
330
1E
100
AcDbEntity
  8
0
100
AcDbLine
 10
82.75
 20
788.2204
 30
0.0
 11
82.75
 21
788.1054
 31
0.0
  0
LINE
  5
3A6
330
1E
100
AcDbEntity
  8
0
100
AcDbLine
 10
82.75
 20
787.9573999999999
 30
0.0
 11
82.75
 21
788.0203999999999
 31
0.0
  0
LINE
  5
3A7
330
1E
100
AcDbEntity
  8
0
100
AcDbLine
 10
82.75
 20
787.9573999999999
 30
0.0
 11
85.75000000000001
 21
787.9573999999999
 31
0.0
  0
LINE
  5
3A8
330
1E
100
AcDbEntity
  8
0
100
AcDbLine
 10
82.75
 20
787.9573999999999
 30
0.0
 11
82.75
 21
788.0533999999999
 31
0.0
  0
LINE
  5
3A9
330
1E
100
AcDbEntity
  8
0
100
AcDbLine
 10
82.75
 20
788.5044
 30
0.0
 11
82.75
 21
789.0273999999999
 31
0.0
  0
LINE
  5
3AA
330
1E
100
AcDbEntity
  8
0
100
AcDbLine
 10
82.75
 20
788.5044
 30
0.0
 11
82.75
 21
788.2204
 31
0.0
  0
LINE
  5
3AB
330
1E
100
AcDbEntity
  8
0
100
AcDbLine
 10
82.75
 20
788.0533999999999
 30
0.0
 11
82.75
 21
787.9573999999999
 31
0.0
  0
LINE
  5
3AC
330
1E
100
AcDbEntity
  8
0
100
AcDbLine
 10
82.75
 20
788.0533999999999
 30
0.0
 11
82.75
 21
788.5384
 31
0.0
  0
LINE
  5
3AD
330
1E
100
AcDbEntity
  8
0
100
AcDbLine
 10
82.75
 20
789.0273999999999
 30
0.0
 11
82.75
 21
789.9754
 31
0.0
  0
LINE
  5
3AE
330
1E
100
AcDbEntity
  8
0
100
AcDbLine
 10
82.75
 20
789.0273999999999
 30
0.0
 11
82.75
 21
788.5044
 31
0.0
  0
LINE
  5
3AF
330
1E
100
AcDbEntity
  8
0
100
AcDbLine
 10
82.75
 20
788.5384
 30
0.0
 11
82.75
 21
788.0533999999999
 31
0.0
  0
LINE
  5
3B0
330
1E
100
AcDbEntity
  8
0
100
AcDbLine
 10
82.75
 20
788.5384
 30
0.0
 11
82.75
 21
789.5324
 31
0.0
  0
LINE
  5
3B1
330
1E
100
AcDbEntity
  8
0
100
AcDbLine
 10
82.75
 20
789.9754
 30
0.0
 11
82.75
 21
792.1094
 31
0.0
  0
LINE
  5
3B2
330
1E
100
AcDbEntity
  8
0
100
AcDbLine
 10
82.75
 20
789.9754
 30
0.0
 11
82.75
 21
789.0273999999999
 31
0.0
  0
LINE
  5
3B3
330
1E
100
AcDbEntity
  8
0
100
AcDbLine
 10
82.75
 20
789.5324
 30
0.0
 11
82.75
 21
788.5384
 31
0.0
  0
LINE
  5
3B4
330
1E
100
AcDbEntity
  8
0
100
AcDbLine
 10
82.75
 20
789.5324
 30
0.0
 11
82.75
 21
790.7744
 31
0.0
  0
LINE
  5
3B5
330
1E
100
AcDbEntity
  8
0
100
AcDbLine
 10
82.75
 20
792.1094
 30
0.0
 11
82.75
 21
794.4474
 31
0.0
  0
LINE
  5
3B6
330
1E
100
AcDbEntity
  8
0
100
AcDbLine
 10
82.75
 20
792.1094
 30
0.0
 11
82.75
 21
789.9754
 31
0.0
  0
LINE
  5
3B7
330
1E
100
AcDbEntity
  8
0
100
AcDbLine
 10
82.75
 20
790.7744
 30
0.0
 11
82.75
 21
789.5324
 31
0.0
  0
LINE
  5
3B8
330
1E
100
AcDbEntity
  8
0
100
AcDbLine
 10
82.75
 20
790.7744
 30
0.0
 11
82.75
 21
793.1504
 31
0.0
  0
LINE
  5
3B9
330
1E
100
AcDbEntity
  8
0
100
AcDbLine
 10
82.75
 20
794.4474
 30
0.0
 11
82.75
 21
797.4034
 31
0.0
  0
LINE
  5
3BA
330
1E
100
AcDbEntity
  8
0
100
AcDbLine
 10
82.75
 20
794.4474
 30
0.0
 11
82.75
 21
792.1094
 31
0.0
  0
LINE
  5
3BB
330
1E
100
AcDbEntity
  8
0
100
AcDbLine
 10
82.75
 20
793.1504
 30
0.0
 11
82.75
 21
790.7744
 31
0.0
  0
LINE
  5
3BC
330
1E
100
AcDbEntity
  8
0
100
AcDbLine
 10
82.75
 20
793.1504
 30
0.0
 11
82.75
 21
794.7883870433458
 31
0.0
  0
LINE
  5
3BD
330
1E
100
AcDbEntity
  8
0
100
AcDbLine
 10
82.75
 20
801.3554
 30
0.0
 11
82.75
 21
797.4034
 31
0.0
  0
LINE
  5
3BE
330
1E
100
AcDbEntity
  8
0
100
AcDbLine
 10
82.75
 20
797.4034
 30
0.0
 11
82.75
 21
801.3554
 31
0.0
  0
LINE
  5
3BF
330
1E
100
AcDbEntity
  8
0
100
AcDbLine
 10
82.75
 20
797.4034
 30
0.0
 11
82.75
 21
794.4474
 31
0.0
  0
LINE
  5
3C0
330
1E
100
AcDbEntity
  8
0
100
AcDbLine
 10
82.75
 20
794.7883870433458
 30
0.0
 11
82.75
 21
793.1504
 31
0.0
  0
LINE
  5
3C1
330
1E
100
AcDbEntity
  8
0
100
AcDbLine
 10
82.64969999999999
 20
824.7614
 30
0.0
 11
83.40889999999999
 21
824.5864
 31
0.0
  0
LINE
  5
3C2
330
1E
100
AcDbEntity
  8
0
100
AcDbLine
 10
83.40889999999999
 20
824.5864
 30
0.0
 11
84.2313
 21
824.5134
 31
0.0
  0
LINE
  5
3C3
330
1E
100
AcDbEntity
  8
0
100
AcDbLine
 10
82.00650000000001
 20
827.6044
 30
0.0
 11
82.64969999999999
 21
827.8944
 31
0.0
  0
LINE
  5
3C4
330
1E
100
AcDbEntity
  8
0
100
AcDbLine
 10
80.57439999999999
 20
833.4654
 30
0.0
 11
80.80719999999999
 21
833.9534
 31
0.0
  0
LINE
  5
3C5
330
1E
100
AcDbEntity
  8
0
100
AcDbLine
 10
80.57439999999999
 20
833.4654
 30
0.0
 11
81.01359999999999
 21
833.0273999999999
 31
0.0
  0
LINE
  5
3C6
330
1E
100
AcDbEntity
  8
0
100
AcDbLine
 10
81.84189999999999
 20
832.8884
 30
0.0
 11
82.58169999999999
 21
833.1464
 31
0.0
  0
LINE
  5
3C7
330
1E
100
AcDbEntity
  8
0
100
AcDbLine
 10
81.547
 20
834.2104
 30
0.0
 11
82.37529999999999
 21
834.0714
 31
0.0
  0
LINE
  5
3C9
330
1E
100
AcDbEntity
  8
0
100
AcDbLine
 10
82.37529999999999
 20
834.0714
 30
0.0
 11
82.81449999999999
 21
833.6344
 31
0.0
  0
LINE
  5
3CA
330
1E
100
AcDbEntity
  8
0
100
AcDbLine
 10
82.58169999999999
 20
833.1464
 30
0.0
 11
82.81449999999999
 21
833.6344
 31
0.0
  0
LINE
  5
3CB
330
1E
100
AcDbEntity
  8
0
100
AcDbLine
 10
81.01359999999999
 20
833.0273999999999
 30
0.0
 11
81.84189999999999
 21
832.8884
 31
0.0
  0
LINE
  5
3CC
330
1E
100
AcDbEntity
  8
0
100
AcDbLine
 10
80.80719999999999
 20
833.9534
 30
0.0
 11
81.547
 21
834.2104
 31
0.0
  0
LINE
  5
3CD
330
1E
100
AcDbEntity
  8
0
100
AcDbLine
 10
78.39449999999999
 20
843.0654
 30
0.0
 11
78.62739999999999
 21
843.5534
 31
0.0
  0
LINE
  5
3CE
330
1E
100
AcDbEntity
  8
0
100
AcDbLine
 10
78.39449999999999
 20
843.0654
 30
0.0
 11
78.83379999999999
 21
842.6273999999999
 31
0.0
  0
LINE
  5
3CF
330
1E
100
AcDbEntity
  8
0
100
AcDbLine
 10
79.66199999999999
 20
842.4884
 30
0.0
 11
80.4019
 21
842.7464
 31
0.0
  0
LINE
  5
3D0
330
1E
100
AcDbEntity
  8
0
100
AcDbLine
 10
79.3672
 20
843.8103999999999
 30
0.0
 11
80.1955
 21
843.6714
 31
0.0
  0
LINE
  5
3D2
330
1E
100
AcDbEntity
  8
0
100
AcDbLine
 10
80.1955
 20
843.6714
 30
0.0
 11
80.6347
 21
843.2344
 31
0.0
  0
LINE
  5
3D3
330
1E
100
AcDbEntity
  8
0
100
AcDbLine
 10
80.4019
 20
842.7464
 30
0.0
 11
80.6347
 21
843.2344
 31
0.0
  0
LINE
  5
3D4
330
1E
100
AcDbEntity
  8
0
100
AcDbLine
 10
78.83379999999999
 20
842.6273999999999
 30
0.0
 11
79.66199999999999
 21
842.4884
 31
0.0
  0
LINE
  5
3D5
330
1E
100
AcDbEntity
  8
0
100
AcDbLine
 10
78.62739999999999
 20
843.5534
 30
0.0
 11
79.3672
 21
843.8103999999999
 31
0.0
  0
LINE
  5
3D6
330
1E
100
AcDbEntity
  8
0
100
AcDbLine
 10
77.98149999999999
 20
837.6153999999999
 30
0.0
 11
78.1043
 21
838.1164
 31
0.0
  0
LINE
  5
3D7
330
1E
100
AcDbEntity
  8
0
100
AcDbLine
 10
83.1203
 20
848.1673999999999
 30
0.0
 11
83.45919999999999
 21
848.6344
 31
0.0
  0
LINE
  5
3D8
330
1E
100
AcDbEntity
  8
0
100
AcDbLine
 10
83.1203
 20
848.1673999999999
 30
0.0
 11
83.45919999999999
 21
847.7014
 31
0.0
  0
LINE
  5
3D9
330
1E
100
AcDbEntity
  8
0
100
AcDbLine
 10
82.64969999999999
 20
827.8944
 30
0.0
 11
83.40889999999999
 21
828.0694
 31
0.0
  0
LINE
  5
3DA
330
1E
100
AcDbEntity
  8
0
100
AcDbLine
 10
83.40889999999999
 20
828.0694
 30
0.0
 11
84.2313
 21
828.1423999999999
 31
0.0
  0
LINE
  5
3DB
330
1E
100
AcDbEntity
  8
0
100
AcDbLine
 10
79.11830000000001
 20
867.0173999999999
 30
0.0
 11
84.0951
 21
867.1763999999999
 31
0.0
  0
LINE
  5
3DC
330
1E
100
AcDbEntity
  8
0
100
AcDbLine
 10
77.9725
 20
850.4903999999999
 30
0.0
 11
84.25
 21
850.7474
 31
0.0
  0
LINE
  5
3DE
330
1E
100
AcDbEntity
  8
0
100
AcDbLine
 10
84.25
 20
696.5234
 30
0.0
 11
94.95
 21
696.5234
 31
0.0
  0
LINE
  5
3DF
330
1E
100
AcDbEntity
  8
0
100
AcDbLine
 10
94.95
 20
696.5234
 30
0.0
 11
95.1359
 21
696.5434
 31
0.0
  0
LINE
  5
3E0
330
1E
100
AcDbEntity
  8
0
100
AcDbLine
 10
95.1359
 20
696.5434
 30
0.0
 11
95.21069999999999
 21
696.5954
 31
0.0
  0
LINE
  5
3E1
330
1E
100
AcDbEntity
  8
0
100
AcDbLine
 10
95.21069999999999
 20
696.5954
 30
0.0
 11
95.7107
 21
697.0284
 31
0.0
  0
LINE
  5
3E2
330
1E
100
AcDbEntity
  8
0
100
AcDbLine
 10
84.25
 20
696.7064
 30
0.0
 11
94.95
 21
696.7064
 31
0.0
  0
LINE
  5
3E3
330
1E
100
AcDbEntity
  8
0
100
AcDbLine
 10
94.95
 20
696.7064
 30
0.0
 11
95.4184
 21
696.8233999999999
 31
0.0
  0
LINE
  5
3E4
330
1E
100
AcDbEntity
  8
0
100
AcDbLine
 10
95.4184
 20
696.8233999999999
 30
0.0
 11
95.7107
 21
697.0284
 31
0.0
  0
LINE
  5
3E5
330
1E
100
AcDbEntity
  8
0
100
AcDbLine
 10
84.25
 20
699.3044
 30
0.0
 11
94.95
 21
699.3044
 31
0.0
  0
LINE
  5
3E6
330
1E
100
AcDbEntity
  8
0
100
AcDbLine
 10
94.95
 20
699.3044
 30
0.0
 11
95.4184
 21
699.4213999999999
 31
0.0
  0
LINE
  5
3E7
330
1E
100
AcDbEntity
  8
0
100
AcDbLine
 10
95.4184
 20
699.4213999999999
 30
0.0
 11
95.7107
 21
699.6264
 31
0.0
  0
LINE
  5
3E8
330
1E
100
AcDbEntity
  8
0
100
AcDbLine
 10
95.7107
 20
699.6264
 30
0.0
 11
95.97379999999999
 21
702.0223999999999
 31
0.0
  0
LINE
  5
3E9
330
1E
100
AcDbEntity
  8
0
100
AcDbLine
 10
95.7107
 20
697.0284
 30
0.0
 11
95.97379999999999
 21
699.4244
 31
0.0
  0
LINE
  5
3EA
330
1E
100
AcDbEntity
  8
0
100
AcDbLine
 10
95.97379999999999
 20
699.4244
 30
0.0
 11
96.25
 21
703.7064
 31
0.0
  0
LINE
  5
3EB
330
1E
100
AcDbEntity
  8
0
100
AcDbLine
 10
92.24999999999999
 20
696.5234
 30
0.0
 11
92.24999999999999
 21
659.6223999999999
 31
0.0
  0
LINE
  5
3EC
330
1E
100
AcDbEntity
  8
0
100
AcDbLine
 10
95.98840497286371
 20
699.6508246698128
 30
0.0
 11
96.402
 21
699.9203999999999
 31
0.0
  0
LINE
  5
3ED
330
1E
100
AcDbEntity
  8
0
100
AcDbLine
 10
84.25
 20
699.9874
 30
0.0
 11
94.95
 21
699.9874
 31
0.0
  0
LINE
  5
3EE
330
1E
100
AcDbEntity
  8
0
100
AcDbLine
 10
84.25
 20
700.1263999999999
 30
0.0
 11
93.81999999999999
 21
700.1263999999999
 31
0.0
  0
LINE
  5
3EF
330
1E
100
AcDbEntity
  8
0
100
AcDbLine
 10
93.81999999999999
 20
700.1263999999999
 30
0.0
 11
94.33519999999999
 21
700.2534
 31
0.0
  0
LINE
  5
3F0
330
1E
100
AcDbEntity
  8
0
100
AcDbLine
 10
94.33519999999999
 20
700.2534
 30
0.0
 11
94.6568
 21
700.4754
 31
0.0
  0
LINE
  5
3F1
330
1E
100
AcDbEntity
  8
0
100
AcDbLine
 10
94.6568
 20
700.4754
 30
0.0
 11
94.94620000000001
 21
703.0704
 31
0.0
  0
LINE
  5
3F2
330
1E
100
AcDbEntity
  8
0
100
AcDbLine
 10
94.95
 20
699.9874
 30
0.0
 11
95.1359
 21
700.0073999999999
 31
0.0
  0
LINE
  5
3F3
330
1E
100
AcDbEntity
  8
0
100
AcDbLine
 10
95.1359
 20
700.0073999999999
 30
0.0
 11
95.21069999999999
 21
700.0593999999999
 31
0.0
  0
LINE
  5
3F4
330
1E
100
AcDbEntity
  8
0
100
AcDbLine
 10
95.21069999999999
 20
700.0593999999999
 30
0.0
 11
95.4738
 21
702.4554000000001
 31
0.0
  0
LINE
  5
3F5
330
1E
100
AcDbEntity
  8
0
100
AcDbLine
 10
96.25
 20
703.7064
 30
0.0
 11
96.25
 21
706.3043999999999
 31
0.0
  0
LINE
  5
3F6
330
1E
100
AcDbEntity
  8
0
100
AcDbLine
 10
95.4738
 20
702.4554000000001
 30
0.0
 11
95.75000000000001
 21
706.7374
 31
0.0
  0
LINE
  5
3F7
330
1E
100
AcDbEntity
  8
0
100
AcDbLine
 10
95.97379999999999
 20
702.0223999999999
 30
0.0
 11
96.25
 21
706.3043999999999
 31
0.0
  0
LINE
  5
3F8
330
1E
100
AcDbEntity
  8
0
100
AcDbLine
 10
96.25
 20
706.3043999999999
 30
0.0
 11
96.25
 21
703.7064
 31
0.0
  0
LINE
  5
3F9
330
1E
100
AcDbEntity
  8
0
100
AcDbLine
 10
95.25
 20
706.6264
 30
0.0
 11
95.25
 21
723.9144
 31
0.0
  0
LINE
  5
3FA
330
1E
100
AcDbEntity
  8
0
100
AcDbLine
 10
94.94620000000001
 20
703.0704
 30
0.0
 11
95.25
 21
706.6264
 31
0.0
  0
LINE
  5
3FB
330
1E
100
AcDbEntity
  8
0
100
AcDbLine
 10
84.25
 20
781.1954
 30
0.0
 11
94.95
 21
781.1954
 31
0.0
  0
LINE
  5
3FC
330
1E
100
AcDbEntity
  8
0
100
AcDbLine
 10
85.75000000000001
 20
788.1054
 30
0.0
 11
85.75000000000001
 21
788.0203999999999
 31
0.0
  0
LINE
  5
3FD
330
1E
100
AcDbEntity
  8
0
100
AcDbLine
 10
85.75000000000001
 20
788.1054
 30
0.0
 11
85.75000000000001
 21
788.2204
 31
0.0
  0
LINE
  5
3FE
330
1E
100
AcDbEntity
  8
0
100
AcDbLine
 10
85.75000000000001
 20
788.2204
 30
0.0
 11
85.75000000000001
 21
788.1054
 31
0.0
  0
LINE
  5
3FF
330
1E
100
AcDbEntity
  8
0
100
AcDbLine
 10
85.75000000000001
 20
788.2204
 30
0.0
 11
85.75000000000001
 21
788.5044
 31
0.0
  0
LINE
  5
400
330
1E
100
AcDbEntity
  8
0
100
AcDbLine
 10
85.75000000000001
 20
788.5044
 30
0.0
 11
85.75000000000001
 21
788.2204
 31
0.0
  0
LINE
  5
401
330
1E
100
AcDbEntity
  8
0
100
AcDbLine
 10
85.75000000000001
 20
788.5044
 30
0.0
 11
85.75000000000001
 21
789.0273999999999
 31
0.0
  0
LINE
  5
402
330
1E
100
AcDbEntity
  8
0
100
AcDbLine
 10
85.75000000000001
 20
788.0203999999999
 30
0.0
 11
85.75000000000001
 21
787.9573999999999
 31
0.0
  0
LINE
  5
403
330
1E
100
AcDbEntity
  8
0
100
AcDbLine
 10
85.75000000000001
 20
788.0203999999999
 30
0.0
 11
85.75000000000001
 21
788.1054
 31
0.0
  0
LINE
  5
404
330
1E
100
AcDbEntity
  8
0
100
AcDbLine
 10
85.75000000000001
 20
789.0273999999999
 30
0.0
 11
85.75000000000001
 21
788.5044
 31
0.0
  0
LINE
  5
405
330
1E
100
AcDbEntity
  8
0
100
AcDbLine
 10
85.75000000000001
 20
789.0273999999999
 30
0.0
 11
85.75000000000001
 21
789.9754
 31
0.0
  0
LINE
  5
406
330
1E
100
AcDbEntity
  8
0
100
AcDbLine
 10
85.75000000000001
 20
787.9573999999999
 30
0.0
 11
85.75000000000001
 21
788.0203999999999
 31
0.0
  0
LINE
  5
407
330
1E
100
AcDbEntity
  8
0
100
AcDbLine
 10
85.75000000000001
 20
789.9754
 30
0.0
 11
85.75000000000001
 21
789.0273999999999
 31
0.0
  0
LINE
  5
408
330
1E
100
AcDbEntity
  8
0
100
AcDbLine
 10
85.75000000000001
 20
789.9754
 30
0.0
 11
85.75000000000001
 21
792.1094
 31
0.0
  0
LINE
  5
409
330
1E
100
AcDbEntity
  8
0
100
AcDbLine
 10
85.75000000000001
 20
792.1094
 30
0.0
 11
85.75000000000001
 21
789.9754
 31
0.0
  0
LINE
  5
40A
330
1E
100
AcDbEntity
  8
0
100
AcDbLine
 10
85.75000000000001
 20
792.1094
 30
0.0
 11
85.75000000000001
 21
794.4474
 31
0.0
  0
LINE
  5
40B
330
1E
100
AcDbEntity
  8
0
100
AcDbLine
 10
85.75000000000001
 20
794.4474
 30
0.0
 11
85.75000000000001
 21
792.1094
 31
0.0
  0
LINE
  5
40C
330
1E
100
AcDbEntity
  8
0
100
AcDbLine
 10
85.75000000000001
 20
794.4474
 30
0.0
 11
85.75000000000001
 21
797.4034
 31
0.0
  0
LINE
  5
40D
330
1E
100
AcDbEntity
  8
0
100
AcDbLine
 10
84.25
 20
783.8283999999999
 30
0.0
 11
94.95
 21
783.8283999999999
 31
0.0
  0
LINE
  5
40E
330
1E
100
AcDbEntity
  8
0
100
AcDbLine
 10
84.25
 20
783.1233999999999
 30
0.0
 11
94.95
 21
783.1233999999999
 31
0.0
  0
LINE
  5
40F
330
1E
100
AcDbEntity
  8
0
100
AcDbLine
 10
85.75000000000001
 20
789.0593199979049
 30
0.0
 11
91.88729999999999
 21
789.3454
 31
0.0
  0
LINE
  5
410
330
1E
100
AcDbEntity
  8
0
100
AcDbLine
 10
85.75000000000001
 20
797.4034
 30
0.0
 11
85.75000000000001
 21
794.4474
 31
0.0
  0
LINE
  5
411
330
1E
100
AcDbEntity
  8
0
100
AcDbLine
 10
85.75000000000001
 20
797.4034
 30
0.0
 11
85.75000000000001
 21
801.3554
 31
0.0
  0
LINE
  5
412
330
1E
100
AcDbEntity
  8
0
100
AcDbLine
 10
85.75000000000001
 20
801.3554
 30
0.0
 11
85.75000000000001
 21
797.4034
 31
0.0
  0
LINE
  5
413
330
1E
100
AcDbEntity
  8
0
100
AcDbLine
 10
87.8653
 20
801.8034
 30
0.0
 11
88.0981
 21
802.2653999999999
 31
0.0
  0
LINE
  5
414
330
1E
100
AcDbEntity
  8
0
100
AcDbLine
 10
87.8653
 20
801.8034
 30
0.0
 11
88.3045
 21
801.3923999999999
 31
0.0
  0
LINE
  5
415
330
1E
100
AcDbEntity
  8
0
100
AcDbLine
 10
88.3045
 20
801.3923999999999
 30
0.0
 11
89.1328
 21
801.2643999999999
 31
0.0
  0
LINE
  5
416
330
1E
100
AcDbEntity
  8
0
100
AcDbLine
 10
88.0981
 20
802.2653999999999
 30
0.0
 11
88.83799999999999
 21
802.5114
 31
0.0
  0
LINE
  5
417
330
1E
100
AcDbEntity
  8
0
100
AcDbLine
 10
85.6855
 20
811.1974
 30
0.0
 11
85.91829999999999
 21
811.6594
 31
0.0
  0
LINE
  5
418
330
1E
100
AcDbEntity
  8
0
100
AcDbLine
 10
85.6855
 20
811.1974
 30
0.0
 11
86.1247
 21
810.7863999999999
 31
0.0
  0
LINE
  5
419
330
1E
100
AcDbEntity
  8
0
100
AcDbLine
 10
86.1247
 20
810.7863999999999
 30
0.0
 11
86.95299999999999
 21
810.6583999999999
 31
0.0
  0
LINE
  5
41A
330
1E
100
AcDbEntity
  8
0
100
AcDbLine
 10
85.91829999999999
 20
811.6594
 30
0.0
 11
86.6581
 21
811.9054
 31
0.0
  0
LINE
  5
41C
330
1E
100
AcDbEntity
  8
0
100
AcDbLine
 10
86.6581
 20
811.9054
 30
0.0
 11
87.48639999999999
 21
811.7773999999998
 31
0.0
  0
LINE
  5
41D
330
1E
100
AcDbEntity
  8
0
100
AcDbLine
 10
87.48639999999999
 20
811.7773999999998
 30
0.0
 11
87.92559999999999
 21
811.3663999999999
 31
0.0
  0
LINE
  5
41E
330
1E
100
AcDbEntity
  8
0
100
AcDbLine
 10
87.6928
 20
810.9044
 30
0.0
 11
87.92559999999999
 21
811.3663999999999
 31
0.0
  0
LINE
  5
41F
330
1E
100
AcDbEntity
  8
0
100
AcDbLine
 10
86.95299999999999
 20
810.6583999999999
 30
0.0
 11
87.6928
 21
810.9044
 31
0.0
  0
LINE
  5
420
330
1E
100
AcDbEntity
  8
0
100
AcDbLine
 10
88.83799999999999
 20
802.5114
 30
0.0
 11
89.6662
 21
802.3834
 31
0.0
  0
LINE
  5
421
330
1E
100
AcDbEntity
  8
0
100
AcDbLine
 10
89.6662
 20
802.3834
 30
0.0
 11
90.1055
 21
801.9724
 31
0.0
  0
LINE
  5
422
330
1E
100
AcDbEntity
  8
0
100
AcDbLine
 10
89.8726
 20
801.5104
 30
0.0
 11
90.1055
 21
801.9724
 31
0.0
  0
LINE
  5
423
330
1E
100
AcDbEntity
  8
0
100
AcDbLine
 10
89.1328
 20
801.2643999999999
 30
0.0
 11
89.8726
 21
801.5104
 31
0.0
  0
LINE
  5
424
330
1E
100
AcDbEntity
  8
0
100
AcDbLine
 10
90.39570000000001
 20
806.7974000000001
 30
0.0
 11
90.51849999999999
 21
807.2723999999999
 31
0.0
  0
LINE
  5
425
330
1E
100
AcDbEntity
  8
0
100
AcDbLine
 10
90.39570000000001
 20
806.7974000000001
 30
0.0
 11
90.92769999999999
 21
806.4234
 31
0.0
  0
LINE
  5
426
330
1E
100
AcDbEntity
  8
0
100
AcDbLine
 10
88.1117
 20
819.3354000000001
 30
0.0
 11
88.22650000000001
 21
819.8003999999999
 31
0.0
  0
LINE
  5
427
330
1E
100
AcDbEntity
  8
0
100
AcDbLine
 10
88.1117
 20
819.3354000000001
 30
0.0
 11
88.22839999999999
 21
818.8703999999999
 31
0.0
  0
LINE
  5
42A
330
1E
100
AcDbEntity
  8
0
100
AcDbLine
 10
88.3697073003678
 20
818.5374542801511
 30
0.0
 11
89.037
 21
818.0654
 31
0.0
  0
LINE
  5
42B
330
1E
100
AcDbEntity
  8
0
100
AcDbLine
 10
89.037
 20
818.0654
 30
0.0
 11
89.686
 21
817.7664
 31
0.0
  0
LINE
  5
42C
330
1E
100
AcDbEntity
  8
0
100
AcDbLine
 10
88.53239999999999
 20
818.4343999999999
 30
0.0
 11
89.037
 21
818.0654
 31
0.0
  0
LINE
  5
42E
330
1E
100
AcDbEntity
  8
0
100
AcDbLine
 10
90.45329999999999
 20
821.0814
 30
0.0
 11
91.2634
 21
821.1473999999999
 31
0.0
  0
LINE
  5
42F
330
1E
100
AcDbEntity
  8
0
100
AcDbLine
 10
89.6934
 20
820.9063999999999
 30
0.0
 11
90.45329999999999
 21
821.0814
 31
0.0
  0
LINE
  5
430
330
1E
100
AcDbEntity
  8
0
100
AcDbLine
 10
89.04889999999999
 20
820.6174
 30
0.0
 11
89.6934
 21
820.9063999999999
 31
0.0
  0
LINE
  5
431
330
1E
100
AcDbEntity
  8
0
100
AcDbLine
 10
88.52809999999999
 20
820.2453999999999
 30
0.0
 11
89.04889999999999
 21
820.6174
 31
0.0
  0
LINE
  5
432
330
1E
100
AcDbEntity
  8
0
100
AcDbLine
 10
88.22839999999999
 20
818.8703999999999
 30
0.0
 11
88.53239999999999
 21
818.4343999999999
 31
0.0
  0
LINE
  5
433
330
1E
100
AcDbEntity
  8
0
100
AcDbLine
 10
88.22650000000001
 20
819.8003999999999
 30
0.0
 11
88.52809999999999
 21
820.2453999999999
 31
0.0
  0
LINE
  5
434
330
1E
100
AcDbEntity
  8
0
100
AcDbLine
 10
89.686
 20
817.7664
 30
0.0
 11
90.4615
 21
817.5933999999999
 31
0.0
  0
LINE
  5
435
330
1E
100
AcDbEntity
  8
0
100
AcDbLine
 10
90.51849999999999
 20
807.2723999999999
 30
0.0
 11
91.19469999999999
 21
807.5724000000001
 31
0.0
  0
LINE
  5
436
330
1E
100
AcDbEntity
  8
0
100
AcDbLine
 10
90.4615
 20
817.5933999999999
 30
0.0
 11
91.2719
 21
817.5273999999999
 31
0.0
  0
LINE
  5
437
330
1E
100
AcDbEntity
  8
0
100
AcDbLine
 10
85.0538
 20
828.0694
 30
0.0
 11
85.81299999999998
 21
827.8944
 31
0.0
  0
LINE
  5
438
330
1E
100
AcDbEntity
  8
0
100
AcDbLine
 10
83.45919999999999
 20
847.7014
 30
0.0
 11
84.25
 21
847.5013999999999
 31
0.0
  0
LINE
  5
439
330
1E
100
AcDbEntity
  8
0
100
AcDbLine
 10
84.25
 20
848.8343999999999
 30
0.0
 11
85.0408
 21
848.6344
 31
0.0
  0
LINE
  5
43A
330
1E
100
AcDbEntity
  8
0
100
AcDbLine
 10
85.0408
 20
848.6344
 30
0.0
 11
85.37969999999999
 21
848.1673999999999
 31
0.0
  0
LINE
  5
43B
330
1E
100
AcDbEntity
  8
0
100
AcDbLine
 10
85.0408
 20
847.7014
 30
0.0
 11
85.37969999999999
 21
848.1673999999999
 31
0.0
  0
LINE
  5
43C
330
1E
100
AcDbEntity
  8
0
100
AcDbLine
 10
84.25
 20
847.5013999999999
 30
0.0
 11
85.0408
 21
847.7014
 31
0.0
  0
LINE
  5
43D
330
1E
100
AcDbEntity
  8
0
100
AcDbLine
 10
83.45919999999999
 20
848.6344
 30
0.0
 11
84.25
 21
848.8343999999999
 31
0.0
  0
LINE
  5
43E
330
1E
100
AcDbEntity
  8
0
100
AcDbLine
 10
84.2313
 20
828.1423999999999
 30
0.0
 11
85.0538
 21
828.0694
 31
0.0
  0
LINE
  5
43F
330
1E
100
AcDbEntity
  8
0
100
AcDbLine
 10
86.96229999999999
 20
825.4203999999999
 30
0.0
 11
87.2681
 21
825.8563999999999
 31
0.0
  0
LINE
  5
440
330
1E
100
AcDbEntity
  8
0
100
AcDbLine
 10
86.45619999999999
 20
825.0524
 30
0.0
 11
87.21916810351409
 21
825.5699560765409
 31
0.0
  0
LINE
  5
441
330
1E
100
AcDbEntity
  8
0
100
AcDbLine
 10
86.45619999999999
 20
825.0524
 30
0.0
 11
86.96229999999999
 21
825.4203999999999
 31
0.0
  0
LINE
  5
442
330
1E
100
AcDbEntity
  8
0
100
AcDbLine
 10
85.81299999999998
 20
824.7614
 30
0.0
 11
86.45619999999999
 21
825.0524
 31
0.0
  0
LINE
  5
443
330
1E
100
AcDbEntity
  8
0
100
AcDbLine
 10
87.2681
 20
826.7993999999999
 30
0.0
 11
87.39459999999999
 21
826.3284
 31
0.0
  0
LINE
  5
444
330
1E
100
AcDbEntity
  8
0
100
AcDbLine
 10
86.96229999999999
 20
827.2353999999999
 30
0.0
 11
87.2681
 21
826.7993999999999
 31
0.0
  0
LINE
  5
445
330
1E
100
AcDbEntity
  8
0
100
AcDbLine
 10
86.45619999999999
 20
827.6044
 30
0.0
 11
86.96229999999999
 21
827.2353999999999
 31
0.0
  0
LINE
  5
446
330
1E
100
AcDbEntity
  8
0
100
AcDbLine
 10
85.81299999999998
 20
827.8944
 30
0.0
 11
86.45619999999999
 21
827.6044
 31
0.0
  0
LINE
  5
447
330
1E
100
AcDbEntity
  8
0
100
AcDbLine
 10
88.83799999999999
 20
842.4884
 30
0.0
 11
89.6662
 21
842.6273999999999
 31
0.0
  0
LINE
  5
448
330
1E
100
AcDbEntity
  8
0
100
AcDbLine
 10
87.8653
 20
843.2344
 30
0.0
 11
88.0981
 21
842.7464
 31
0.0
  0
LINE
  5
449
330
1E
100
AcDbEntity
  8
0
100
AcDbLine
 10
87.8653
 20
843.2344
 30
0.0
 11
88.3045
 21
843.6714
 31
0.0
  0
LINE
  5
44A
330
1E
100
AcDbEntity
  8
0
100
AcDbLine
 10
88.3045
 20
843.6714
 30
0.0
 11
89.1328
 21
843.8103999999999
 31
0.0
  0
LINE
  5
44B
330
1E
100
AcDbEntity
  8
0
100
AcDbLine
 10
88.0981
 20
842.7464
 30
0.0
 11
88.83799999999999
 21
842.4884
 31
0.0
  0
LINE
  5
44C
330
1E
100
AcDbEntity
  8
0
100
AcDbLine
 10
89.6662
 20
842.6273999999999
 30
0.0
 11
90.1055
 21
843.0654
 31
0.0
  0
LINE
  5
44D
330
1E
100
AcDbEntity
  8
0
100
AcDbLine
 10
90.39570000000001
 20
838.1164
 30
0.0
 11
90.51849999999999
 21
837.6153999999999
 31
0.0
  0
LINE
  5
44E
330
1E
100
AcDbEntity
  8
0
100
AcDbLine
 10
90.39570000000001
 20
838.1164
 30
0.0
 11
90.92769999999999
 21
838.5173999999999
 31
0.0
  0
LINE
  5
44F
330
1E
100
AcDbEntity
  8
0
100
AcDbLine
 10
90.51849999999999
 20
837.6153999999999
 30
0.0
 11
91.19469999999999
 21
837.3044
 31
0.0
  0
LINE
  5
450
330
1E
100
AcDbEntity
  8
0
100
AcDbLine
 10
89.8726
 20
843.5534
 30
0.0
 11
90.1055
 21
843.0654
 31
0.0
  0
LINE
  5
452
330
1E
100
AcDbEntity
  8
0
100
AcDbLine
 10
89.1328
 20
843.8103999999999
 30
0.0
 11
89.8726
 21
843.5534
 31
0.0
  0
LINE
  5
453
330
1E
100
AcDbEntity
  8
0
100
AcDbLine
 10
87.2681
 20
825.8563999999999
 30
0.0
 11
87.39459999999999
 21
826.3284
 31
0.0
  0
LINE
  5
454
330
1E
100
AcDbEntity
  8
0
100
AcDbLine
 10
85.0538
 20
824.5864
 30
0.0
 11
85.81299999999998
 21
824.7614
 31
0.0
  0
LINE
  5
455
330
1E
100
AcDbEntity
  8
0
100
AcDbLine
 10
84.2313
 20
824.5134
 30
0.0
 11
85.0538
 21
824.5864
 31
0.0
  0
LINE
  5
456
330
1E
100
AcDbEntity
  8
0
100
AcDbLine
 10
90.52750000000001
 20
795.7093999999999
 30
0.0
 11
96.69299999999999
 21
796.4163999999999
 31
0.0
  0
LINE
  5
457
330
1E
100
AcDbEntity
  8
0
100
AcDbLine
 10
85.75000000000001
 20
795.51304874552
 30
0.0
 11
90.52750000000001
 21
795.7093999999999
 31
0.0
  0
LINE
  5
458
330
1E
100
AcDbEntity
  8
0
100
AcDbLine
 10
90.69869999999999
 20
833.0384
 30
0.0
 11
90.7093
 21
832.5324
 31
0.0
  0
LINE
  5
459
330
1E
100
AcDbEntity
  8
0
100
AcDbLine
 10
90.69869999999999
 20
833.0384
 30
0.0
 11
91.31440000000001
 21
833.3963999999999
 31
0.0
  0
LINE
  5
45A
330
1E
100
AcDbEntity
  8
0
100
AcDbLine
 10
90.7093
 20
832.5324
 30
0.0
 11
91.3103
 21
832.1734000000001
 31
0.0
  0
LINE
  5
45B
330
1E
100
AcDbEntity
  8
0
100
AcDbLine
 10
90.52750000000001
 20
850.4903999999999
 30
0.0
 11
96.69299999999999
 21
849.7834
 31
0.0
  0
LINE
  5
45C
330
1E
100
AcDbEntity
  8
0
100
AcDbLine
 10
84.25
 20
857.9233999999999
 30
0.0
 11
91.88729999999999
 21
857.5674000000001
 31
0.0
  0
LINE
  5
45E
330
1E
100
AcDbEntity
  8
0
100
AcDbLine
 10
84.25
 20
857.4654
 30
0.0
 11
91.9761
 21
857.1083999999999
 31
0.0
  0
LINE
  5
45F
330
1E
100
AcDbEntity
  8
0
100
AcDbLine
 10
84.25
 20
850.7474
 30
0.0
 11
90.52750000000001
 21
850.4903999999999
 31
0.0
  0
LINE
  5
460
330
1E
100
AcDbEntity
  8
0
100
AcDbLine
 10
90.92769999999999
 20
806.4234
 30
0.0
 11
91.77930000000001
 21
806.3584
 31
0.0
  0
LINE
  5
462
330
1E
100
AcDbEntity
  8
0
100
AcDbLine
 10
91.19469999999999
 20
807.5724000000001
 30
0.0
 11
92.04629999999999
 21
807.5073999999998
 31
0.0
  0
LINE
  5
463
330
1E
100
AcDbEntity
  8
0
100
AcDbLine
 10
91.77930000000001
 20
806.3584
 30
0.0
 11
92.45549999999999
 21
806.6574000000001
 31
0.0
  0
LINE
  5
464
330
1E
100
AcDbEntity
  8
0
100
AcDbLine
 10
91.31440000000001
 20
833.3963999999999
 30
0.0
 11
92.1747
 21
833.4084
 31
0.0
  0
LINE
  5
465
330
1E
100
AcDbEntity
  8
0
100
AcDbLine
 10
91.3103
 20
832.1734000000001
 30
0.0
 11
92.1706
 21
832.1854
 31
0.0
  0
LINE
  5
467
330
1E
100
AcDbEntity
  8
0
100
AcDbLine
 10
90.92769999999999
 20
838.5173999999999
 30
0.0
 11
91.77930000000001
 21
838.5934
 31
0.0
  0
LINE
  5
468
330
1E
100
AcDbEntity
  8
0
100
AcDbLine
 10
91.19469999999999
 20
837.3044
 30
0.0
 11
92.04629999999999
 21
837.3803999999999
 31
0.0
  0
LINE
  5
469
330
1E
100
AcDbEntity
  8
0
100
AcDbLine
 10
91.77930000000001
 20
838.5934
 30
0.0
 11
92.45549999999999
 21
838.2824000000001
 31
0.0
  0
LINE
  5
46A
330
1E
100
AcDbEntity
  8
0
100
AcDbLine
 10
91.2634
 20
821.1473999999999
 30
0.0
 11
92.0737
 21
821.0824
 31
0.0
  0
LINE
  5
46B
330
1E
100
AcDbEntity
  8
0
100
AcDbLine
 10
91.2719
 20
817.5273999999999
 30
0.0
 11
92.08200000000001
 21
817.5943999999999
 31
0.0
  0
LINE
  5
46C
330
1E
100
AcDbEntity
  8
0
100
AcDbLine
 10
91.88729999999999
 20
789.3454
 30
0.0
 11
99.52460000000002
 21
790.2114
 31
0.0
  0
LINE
  5
46D
330
1E
100
AcDbEntity
  8
0
100
AcDbLine
 10
91.88729999999999
 20
857.5674000000001
 30
0.0
 11
99.52460000000002
 21
856.7014
 31
0.0
  0
LINE
  5
46F
330
1E
100
AcDbEntity
  8
0
100
AcDbLine
 10
95.25
 20
713.3813662
 30
0.0
 11
95.7107
 21
712.9824
 31
0.0
  0
LINE
  5
470
330
1E
100
AcDbEntity
  8
0
100
AcDbLine
 10
95.25
 20
713.0576519954389
 30
0.0
 11
95.4738
 21
711.0204
 31
0.0
  0
LINE
  5
471
330
1E
100
AcDbEntity
  8
0
100
AcDbLine
 10
95.25
 20
737.5374
 30
0.0
 11
95.25
 21
749.5983999999999
 31
0.0
  0
LINE
  5
472
330
1E
100
AcDbEntity
  8
0
100
AcDbLine
 10
95.25
 20
737.5374
 30
0.0
 11
95.25
 21
723.9144
 31
0.0
  0
LINE
  5
473
330
1E
100
AcDbEntity
  8
0
100
AcDbLine
 10
94.95
 20
781.1954
 30
0.0
 11
95.4184
 21
781.3754
 31
0.0
  0
LINE
  5
474
330
1E
100
AcDbEntity
  8
0
100
AcDbLine
 10
94.95
 20
783.8283999999999
 30
0.0
 11
95.1359
 21
783.8583999999999
 31
0.0
  0
LINE
  5
476
330
1E
100
AcDbEntity
  8
0
100
AcDbLine
 10
92.04629999999999
 20
807.5073999999998
 30
0.0
 11
92.5782
 21
807.1334
 31
0.0
  0
LINE
  5
478
330
1E
100
AcDbEntity
  8
0
100
AcDbLine
 10
92.45549999999999
 20
806.6574000000001
 30
0.0
 11
92.5782
 21
807.1334
 31
0.0
  0
LINE
  5
47A
330
1E
100
AcDbEntity
  8
0
100
AcDbLine
 10
92.08200000000001
 20
817.5943999999999
 30
0.0
 11
92.8419
 21
817.7694
 31
0.0
  0
LINE
  5
47B
330
1E
100
AcDbEntity
  8
0
100
AcDbLine
 10
92.8419
 20
817.7694
 30
0.0
 11
93.48629999999999
 21
818.0583999999999
 31
0.0
  0
LINE
  5
47C
330
1E
100
AcDbEntity
  8
0
100
AcDbLine
 10
92.84930000000001
 20
820.9094
 30
0.0
 11
93.4983
 21
820.6103999999999
 31
0.0
  0
LINE
  5
47D
330
1E
100
AcDbEntity
  8
0
100
AcDbLine
 10
93.4983
 20
820.6103999999999
 30
0.0
 11
94.0029
 21
820.2403999999999
 31
0.0
  0
LINE
  5
47F
330
1E
100
AcDbEntity
  8
0
100
AcDbLine
 10
92.1706
 20
832.1854
 30
0.0
 11
92.7862
 21
832.5423999999999
 31
0.0
  0
LINE
  5
480
330
1E
100
AcDbEntity
  8
0
100
AcDbLine
 10
92.1747
 20
833.4084
 30
0.0
 11
92.77559999999999
 21
833.0493999999999
 31
0.0
  0
LINE
  5
481
330
1E
100
AcDbEntity
  8
0
100
AcDbLine
 10
92.04629999999999
 20
837.3803999999999
 30
0.0
 11
92.5782
 21
837.7803999999999
 31
0.0
  0
LINE
  5
482
330
1E
100
AcDbEntity
  8
0
100
AcDbLine
 10
92.77559999999999
 20
833.0493999999999
 30
0.0
 11
92.7862
 21
832.5423999999999
 31
0.0
  0
LINE
  5
483
330
1E
100
AcDbEntity
  8
0
100
AcDbLine
 10
92.5765180067375
 20
837.9335383408291
 30
0.0
 11
92.5782
 21
837.7803999999999
 31
0.0
  0
LINE
  5
484
330
1E
100
AcDbEntity
  8
0
100
AcDbLine
 10
92.45549999999999
 20
838.2824000000001
 30
0.0
 11
92.5782
 21
837.7803999999999
 31
0.0
  0
LINE
  5
485
330
1E
100
AcDbEntity
  8
0
100
AcDbLine
 10
92.0737
 20
821.0824
 30
0.0
 11
92.84930000000001
 21
820.9094
 31
0.0
  0
LINE
  5
486
330
1E
100
AcDbEntity
  8
0
100
AcDbLine
 10
93.48629999999999
 20
818.0583999999999
 30
0.0
 11
94.0071
 21
818.4303999999999
 31
0.0
  0
LINE
  5
487
330
1E
100
AcDbEntity
  8
0
100
AcDbLine
 10
93.48629999999999
 20
818.0583999999999
 30
0.0
 11
93.9084092404134
 21
818.357480849133
 31
0.0
  0
LINE
  5
488
330
1E
100
AcDbEntity
  8
0
100
AcDbLine
 10
94.66739999999999
 20
797.8604
 30
0.0
 11
94.7901
 21
798.3343999999999
 31
0.0
  0
LINE
  5
489
330
1E
100
AcDbEntity
  8
0
100
AcDbLine
 10
94.66739999999999
 20
797.8604
 30
0.0
 11
95.1993
 21
797.4854
 31
0.0
  0
LINE
  5
48A
330
1E
100
AcDbEntity
  8
0
100
AcDbLine
 10
94.7901
 20
798.3343999999999
 30
0.0
 11
95.4663
 21
798.6344
 31
0.0
  0
LINE
  5
48B
330
1E
100
AcDbEntity
  8
0
100
AcDbLine
 10
95.1993
 20
797.4854
 30
0.0
 11
96.0509
 21
797.4204
 31
0.0
  0
LINE
  5
48C
330
1E
100
AcDbEntity
  8
0
100
AcDbLine
 10
95.06019999999999
 20
813.5773999999999
 30
0.0
 11
95.4813
 21
814.0014
 31
0.0
  0
LINE
  5
48D
330
1E
100
AcDbEntity
  8
0
100
AcDbLine
 10
95.06019999999999
 20
813.5773999999999
 30
0.0
 11
95.2725
 21
813.1123999999999
 31
0.0
  0
LINE
  5
48E
330
1E
100
AcDbEntity
  8
0
100
AcDbLine
 10
94.3088
 20
818.8753999999999
 30
0.0
 11
94.42350000000001
 21
819.3404000000001
 31
0.0
  0
LINE
  5
48F
330
1E
100
AcDbEntity
  8
0
100
AcDbLine
 10
94.0071
 20
818.4303999999999
 30
0.0
 11
94.3088
 21
818.8753999999999
 31
0.0
  0
LINE
  5
490
330
1E
100
AcDbEntity
  8
0
100
AcDbLine
 10
94.0029
 20
820.2403999999999
 30
0.0
 11
94.3068
 21
819.8043999999999
 31
0.0
  0
LINE
  5
491
330
1E
100
AcDbEntity
  8
0
100
AcDbLine
 10
95.1993
 20
847.8673999999999
 30
0.0
 11
96.0509
 21
847.9423999999999
 31
0.0
  0
LINE
  5
492
330
1E
100
AcDbEntity
  8
0
100
AcDbLine
 10
94.66739999999999
 20
847.4664
 30
0.0
 11
94.7901
 21
846.9643999999998
 31
0.0
  0
LINE
  5
493
330
1E
100
AcDbEntity
  8
0
100
AcDbLine
 10
94.66739999999999
 20
847.4664
 30
0.0
 11
95.1993
 21
847.8673999999999
 31
0.0
  0
LINE
  5
494
330
1E
100
AcDbEntity
  8
0
100
AcDbLine
 10
94.7901
 20
846.9643999999998
 30
0.0
 11
95.4663
 21
846.6544
 31
0.0
  0
LINE
  5
495
330
1E
100
AcDbEntity
  8
0
100
AcDbLine
 10
94.3068
 20
819.8043999999999
 30
0.0
 11
94.42350000000001
 21
819.3404000000001
 31
0.0
  0
LINE
  5
496
330
1E
100
AcDbEntity
  8
0
100
AcDbLine
 10
95.1359
 20
783.8583999999999
 30
0.0
 11
95.21069999999999
 21
783.9383999999999
 31
0.0
  0
LINE
  5
497
330
1E
100
AcDbEntity
  8
0
100
AcDbLine
 10
95.21069999999999
 20
783.9383999999999
 30
0.0
 11
95.4738
 21
787.6094000000001
 31
0.0
  0
LINE
  5
498
330
1E
100
AcDbEntity
  8
0
100
AcDbLine
 10
94.95
 20
783.1233999999999
 30
0.0
 11
95.4184
 21
783.3044
 31
0.0
  0
LINE
  5
499
330
1E
100
AcDbEntity
  8
0
100
AcDbLine
 10
95.25
 20
781.3106860802729
 30
0.0
 11
95.25
 21
775.2704
 31
0.0
  0
LINE
  5
49A
330
1E
100
AcDbEntity
  8
0
100
AcDbLine
 10
95.25
 20
775.2704
 30
0.0
 11
95.25
 21
762.1484
 31
0.0
  0
LINE
  5
49B
330
1E
100
AcDbEntity
  8
0
100
AcDbLine
 10
95.25
 20
775.2704
 30
0.0
 11
95.25
 21
781.3106860802729
 31
0.0
  0
LINE
  5
49C
330
1E
100
AcDbEntity
  8
0
100
AcDbLine
 10
95.25
 20
762.1484
 30
0.0
 11
95.25
 21
749.5983999999999
 31
0.0
  0
LINE
  5
49D
330
1E
100
AcDbEntity
  8
0
100
AcDbLine
 10
95.25
 20
762.1484
 30
0.0
 11
95.25
 21
775.2704
 31
0.0
  0
LINE
  5
49E
330
1E
100
AcDbEntity
  8
0
100
AcDbLine
 10
95.25
 20
749.5983999999999
 30
0.0
 11
95.25
 21
737.5374
 31
0.0
  0
LINE
  5
49F
330
1E
100
AcDbEntity
  8
0
100
AcDbLine
 10
95.25
 20
749.5983999999999
 30
0.0
 11
95.25
 21
762.1484
 31
0.0
  0
LINE
  5
4A0
330
1E
100
AcDbEntity
  8
0
100
AcDbLine
 10
95.97379999999999
 20
710.5864
 30
0.0
 11
96.25
 21
706.3043999999999
 31
0.0
  0
LINE
  5
4A1
330
1E
100
AcDbEntity
  8
0
100
AcDbLine
 10
95.4184
 20
781.3754
 30
0.0
 11
95.7107
 21
781.6893999999999
 31
0.0
  0
LINE
  5
4A3
330
1E
100
AcDbEntity
  8
0
100
AcDbLine
 10
95.4663
 20
798.6344
 30
0.0
 11
96.3179
 21
798.5703999999999
 31
0.0
  0
LINE
  5
4A4
330
1E
100
AcDbEntity
  8
0
100
AcDbLine
 10
95.4663
 20
846.6544
 30
0.0
 11
96.3179
 21
846.7304
 31
0.0
  0
LINE
  5
4A5
330
1E
100
AcDbEntity
  8
0
100
AcDbLine
 10
95.2725
 20
813.1123999999999
 30
0.0
 11
96.02260000000001
 21
812.8834000000001
 31
0.0
  0
LINE
  5
4A7
330
1E
100
AcDbEntity
  8
0
100
AcDbLine
 10
95.4813
 20
814.0014
 30
0.0
 11
96.315
 21
814.1294
 31
0.0
  0
LINE
  5
4A8
330
1E
100
AcDbEntity
  8
0
100
AcDbLine
 10
95.4738
 20
787.6094000000001
 30
0.0
 11
95.56444727731692
 21
789.762354884862
 31
0.0
  0
LINE
  5
4A9
330
1E
100
AcDbEntity
  8
0
100
AcDbLine
 10
95.4184
 20
783.3044
 30
0.0
 11
95.7107
 21
783.6173999999999
 31
0.0
  0
LINE
  5
4AA
330
1E
100
AcDbEntity
  8
0
100
AcDbLine
 10
95.7107
 20
783.6173999999999
 30
0.0
 11
95.97379999999999
 21
787.2874
 31
0.0
  0
LINE
  5
4AB
330
1E
100
AcDbEntity
  8
0
100
AcDbLine
 10
95.7107
 20
781.6893999999999
 30
0.0
 11
95.97379999999999
 21
785.3594000000001
 31
0.0
  0
LINE
  5
4AC
330
1E
100
AcDbEntity
  8
0
100
AcDbLine
 10
96.0509
 20
797.4204
 30
0.0
 11
96.7271
 21
797.7193999999999
 31
0.0
  0
LINE
  5
4AE
330
1E
100
AcDbEntity
  8
0
100
AcDbLine
 10
96.0509
 20
847.9423999999999
 30
0.0
 11
96.7271
 21
847.6323999999999
 31
0.0
  0
LINE
  5
4AF
330
1E
100
AcDbEntity
  8
0
100
AcDbLine
 10
96.02260000000001
 20
812.8834000000001
 30
0.0
 11
96.85630000000001
 21
813.0114
 31
0.0
  0
LINE
  5
4B0
330
1E
100
AcDbEntity
  8
0
100
AcDbLine
 10
95.97379999999999
 20
787.2874
 30
0.0
 11
96.08045189118609
 21
789.8208650907739
 31
0.0
  0
LINE
  5
4B1
330
1E
100
AcDbEntity
  8
0
100
AcDbLine
 10
95.97379999999999
 20
785.3594000000001
 30
0.0
 11
96.16200465979879
 21
789.8301124291811
 31
0.0
  0
LINE
  5
4B2
330
1E
100
AcDbEntity
  8
0
100
AcDbLine
 10
95.7107
 20
712.9824
 30
0.0
 11
95.97379999999999
 21
710.5864
 31
0.0
  0
LINE
  5
4B3
330
1E
100
AcDbEntity
  8
0
100
AcDbLine
 10
95.4738
 20
711.0204
 30
0.0
 11
95.75000000000001
 21
706.7374
 31
0.0
  0
LINE
  5
4B4
330
1E
100
AcDbEntity
  8
0
100
AcDbLine
 10
95.25
 20
723.9144
 30
0.0
 11
95.25
 21
706.6264
 31
0.0
  0
LINE
  5
4B5
330
1E
100
AcDbEntity
  8
0
100
AcDbLine
 10
95.25
 20
723.9144
 30
0.0
 11
95.25
 21
737.5374
 31
0.0
  0
LINE
  5
4B6
330
1E
100
AcDbEntity
  8
0
100
AcDbLine
 10
91.9761
 20
857.1083999999999
 30
0.0
 11
99.61339999999999
 21
856.2424
 31
0.0
  0
LINE
  5
4B7
330
1E
100
AcDbEntity
  8
0
100
AcDbLine
 10
90.89579999999999
 20
865.3423999999999
 30
0.0
 11
97.55119999999999
 21
864.5453999999999
 31
0.0
  0
LINE
  5
4B8
330
1E
100
AcDbEntity
  8
0
100
AcDbLine
 10
94.0487
 20
866.3814
 30
0.0
 11
96.5132117101313
 21
865.9988883651299
 31
0.0
  0
LINE
  5
4B9
330
1E
100
AcDbEntity
  8
0
100
AcDbLine
 10
89.07189999999999
 20
867.0173999999999
 30
0.0
 11
94.0487
 21
866.3814
 31
0.0
  0
LINE
  5
4BA
330
1E
100
AcDbEntity
  8
0
100
AcDbLine
 10
84.0951
 20
867.1763999999999
 30
0.0
 11
89.07189999999999
 21
867.0173999999999
 31
0.0
  0
LINE
  5
4BB
330
1E
100
AcDbEntity
  8
0
100
AcDbLine
 10
84.25
 20
865.5454
 30
0.0
 11
90.89579999999999
 21
865.3423999999999
 31
0.0
  0
LINE
  5
4BC
330
1E
100
AcDbEntity
  8
0
100
AcDbLine
 10
96.3179
 20
846.7304
 30
0.0
 11
96.8499
 21
847.1303999999999
 31
0.0
  0
LINE
  5
4BD
330
1E
100
AcDbEntity
  8
0
100
AcDbLine
 10
96.3179
 20
798.5703999999999
 30
0.0
 11
96.8499
 21
798.1953999999999
 31
0.0
  0
LINE
  5
4BE
330
1E
100
AcDbEntity
  8
0
100
AcDbLine
 10
96.315
 20
814.1294
 30
0.0
 11
97.06510000000001
 21
813.9013999999999
 31
0.0
  0
LINE
  5
4BF
330
1E
100
AcDbEntity
  8
0
100
AcDbLine
 10
96.69299999999999
 20
796.4163999999999
 30
0.0
 11
102.6415999999999
 21
797.6404
 31
0.0
  0
LINE
  5
4C0
330
1E
100
AcDbEntity
  8
0
100
AcDbLine
 10
97.0897
 20
803.0464
 30
0.0
 11
97.10030000000001
 21
803.5263999999999
 31
0.0
  0
LINE
  5
4C1
330
1E
100
AcDbEntity
  8
0
100
AcDbLine
 10
97.0897
 20
803.0464
 30
0.0
 11
97.7053
 21
802.7143999999999
 31
0.0
  0
LINE
  5
4C2
330
1E
100
AcDbEntity
  8
0
100
AcDbLine
 10
97.7053
 20
802.7143999999999
 30
0.0
 11
98.56560000000001
 21
802.7143999999999
 31
0.0
  0
LINE
  5
4C3
330
1E
100
AcDbEntity
  8
0
100
AcDbLine
 10
97.10030000000001
 20
803.5263999999999
 30
0.0
 11
97.7012
 21
803.8733999999999
 31
0.0
  0
LINE
  5
4C5
330
1E
100
AcDbEntity
  8
0
100
AcDbLine
 10
97.7012
 20
803.8733999999999
 30
0.0
 11
98.56149999999999
 21
803.8733999999999
 31
0.0
  0
LINE
  5
4C6
330
1E
100
AcDbEntity
  8
0
100
AcDbLine
 10
96.7271
 20
797.7193999999999
 30
0.0
 11
96.8499
 21
798.1953999999999
 31
0.0
  0
LINE
  5
4C7
330
1E
100
AcDbEntity
  8
0
100
AcDbLine
 10
96.7271
 20
847.6323999999999
 30
0.0
 11
96.8499
 21
847.1303999999999
 31
0.0
  0
LINE
  5
4C9
330
1E
100
AcDbEntity
  8
0
100
AcDbLine
 10
97.0897
 20
841.9914
 30
0.0
 11
97.10030000000001
 21
841.4854
 31
0.0
  0
LINE
  5
4CA
330
1E
100
AcDbEntity
  8
0
100
AcDbLine
 10
97.0897
 20
841.9914
 30
0.0
 11
97.7053
 21
842.3493999999999
 31
0.0
  0
LINE
  5
4CB
330
1E
100
AcDbEntity
  8
0
100
AcDbLine
 10
97.7053
 20
842.3493999999999
 30
0.0
 11
98.56560000000001
 21
842.3604
 31
0.0
  0
LINE
  5
4CC
330
1E
100
AcDbEntity
  8
0
100
AcDbLine
 10
97.10030000000001
 20
841.4854
 30
0.0
 11
97.7012
 21
841.1263999999999
 31
0.0
  0
LINE
  5
4CD
330
1E
100
AcDbEntity
  8
0
100
AcDbLine
 10
97.7012
 20
841.1263999999999
 30
0.0
 11
98.56149999999999
 21
841.1383999999999
 31
0.0
  0
LINE
  5
4CE
330
1E
100
AcDbEntity
  8
0
100
AcDbLine
 10
97.06510000000001
 20
813.9013999999999
 30
0.0
 11
97.2774
 21
813.4354
 31
0.0
  0
LINE
  5
4CF
330
1E
100
AcDbEntity
  8
0
100
AcDbLine
 10
96.85630000000001
 20
813.0114
 30
0.0
 11
97.2774
 21
813.4354
 31
0.0
  0
LINE
  5
4D0
330
1E
100
AcDbEntity
  8
0
100
AcDbLine
 10
96.69299999999999
 20
849.7834
 30
0.0
 11
102.6415999999999
 21
848.5594
 31
0.0
  0
LINE
  5
4D1
330
1E
100
AcDbEntity
  8
0
100
AcDbLine
 10
96.5132117101313
 20
865.9988883651299
 30
0.0
 11
98.8616
 21
865.6344
 31
0.0
  0
LINE
  5
4D2
330
1E
100
AcDbEntity
  8
0
100
AcDbLine
 10
97.55119999999999
 20
864.5453999999999
 30
0.0
 11
103.9352999999999
 21
863.2874000000001
 31
0.0
  0
LINE
  5
4D3
330
1E
100
AcDbEntity
  8
0
100
AcDbLine
 10
96.21295614375901
 20
706.8787004794501
 30
0.0
 11
96.402
 21
706.7554
 31
0.0
  0
LINE
  5
4D4
330
1E
100
AcDbEntity
  8
0
100
AcDbLine
 10
96.402
 20
706.7554
 30
0.0
 11
97.74600000000001
 21
705.1014
 31
0.0
  0
LINE
  5
4D5
330
1E
100
AcDbEntity
  8
0
100
AcDbLine
 10
97.74600000000001
 20
705.1014
 30
0.0
 11
98.25000000000001
 21
703.3383999999999
 31
0.0
  0
LINE
  5
4D6
330
1E
100
AcDbEntity
  8
0
100
AcDbLine
 10
96.402
 20
699.9203999999999
 30
0.0
 11
97.74600000000001
 21
701.5743999999999
 31
0.0
  0
LINE
  5
4D7
330
1E
100
AcDbEntity
  8
0
100
AcDbLine
 10
98.8869
 20
828.8394
 30
0.0
 11
99.6371
 21
828.6033999999999
 31
0.0
  0
LINE
  5
4D9
330
1E
100
AcDbEntity
  8
0
100
AcDbLine
 10
98.56149999999999
 20
841.1383999999999
 30
0.0
 11
99.1772
 21
841.4953999999999
 31
0.0
  0
LINE
  5
4DA
330
1E
100
AcDbEntity
  8
0
100
AcDbLine
 10
98.56560000000001
 20
842.3604
 30
0.0
 11
99.1666
 21
842.0023999999999
 31
0.0
  0
LINE
  5
4DB
330
1E
100
AcDbEntity
  8
0
100
AcDbLine
 10
98.6743
 20
829.3224
 30
0.0
 11
99.0951
 21
829.7663999999999
 31
0.0
  0
LINE
  5
4DC
330
1E
100
AcDbEntity
  8
0
100
AcDbLine
 10
98.6743
 20
829.3224
 30
0.0
 11
98.8869
 21
828.8394
 31
0.0
  0
LINE
  5
4DD
330
1E
100
AcDbEntity
  8
0
100
AcDbLine
 10
99.1666
 20
842.0023999999999
 30
0.0
 11
99.1772
 21
841.4953999999999
 31
0.0
  0
LINE
  5
4DE
330
1E
100
AcDbEntity
  8
0
100
AcDbLine
 10
99.0951
 20
829.7663999999999
 30
0.0
 11
99.9286
 21
829.9013999999999
 31
0.0
  0
LINE
  5
4DF
330
1E
100
AcDbEntity
  8
0
100
AcDbLine
 10
98.56149999999999
 20
803.8733999999999
 30
0.0
 11
99.1772
 21
803.5424
 31
0.0
  0
LINE
  5
4E1
330
1E
100
AcDbEntity
  8
0
100
AcDbLine
 10
101.295
 20
818.3474
 30
0.0
 11
101.3054
 21
817.8594
 31
0.0
  0
LINE
  5
4E2
330
1E
100
AcDbEntity
  8
0
100
AcDbLine
 10
101.295
 20
818.3474
 30
0.0
 11
101.9106999999999
 21
818.6974000000001
 31
0.0
  0
LINE
  5
4E3
330
1E
100
AcDbEntity
  8
0
100
AcDbLine
 10
101.3054
 20
817.8594
 30
0.0
 11
101.9060999999999
 21
817.5194000000001
 31
0.0
  0
LINE
  5
4E4
330
1E
100
AcDbEntity
  8
0
100
AcDbLine
 10
101.9106999999999
 20
818.6974000000001
 30
0.0
 11
102.7708
 21
818.7174
 31
0.0
  0
LINE
  5
4E5
330
1E
100
AcDbEntity
  8
0
100
AcDbLine
 10
101.9060999999999
 20
817.5194000000001
 30
0.0
 11
102.7660999999999
 21
817.5384000000001
 31
0.0
  0
LINE
  5
4E7
330
1E
100
AcDbEntity
  8
0
100
AcDbLine
 10
100.6788999999999
 20
829.6654
 30
0.0
 11
100.8915
 21
829.1814
 31
0.0
  0
LINE
  5
4E8
330
1E
100
AcDbEntity
  8
0
100
AcDbLine
 10
100.4706
 20
828.7383999999999
 30
0.0
 11
100.8915
 21
829.1814
 31
0.0
  0
LINE
  5
4E9
330
1E
100
AcDbEntity
  8
0
100
AcDbLine
 10
99.6371
 20
828.6033999999999
 30
0.0
 11
100.4706
 21
828.7383999999999
 31
0.0
  0
LINE
  5
4EA
330
1E
100
AcDbEntity
  8
0
100
AcDbLine
 10
99.9286
 20
829.9013999999999
 30
0.0
 11
100.6788999999999
 21
829.6654
 31
0.0
  0
LINE
  5
4EB
330
1E
100
AcDbEntity
  8
0
100
AcDbLine
 10
99.1666
 20
803.0613999999999
 30
0.0
 11
99.1772
 21
803.5424
 31
0.0
  0
LINE
  5
4EC
330
1E
100
AcDbEntity
  8
0
100
AcDbLine
 10
98.56560000000001
 20
802.7143999999999
 30
0.0
 11
99.1666
 21
803.0613999999999
 31
0.0
  0
LINE
  5
4EE
330
1E
100
AcDbEntity
  8
0
100
AcDbLine
 10
102.5416
 20
823.7784000000001
 30
0.0
 11
102.7743
 21
824.2594
 31
0.0
  0
LINE
  5
4EF
330
1E
100
AcDbEntity
  8
0
100
AcDbLine
 10
102.5416
 20
823.7784000000001
 30
0.0
 11
102.9806999999999
 21
823.3594
 31
0.0
  0
LINE
  5
4F0
330
1E
100
AcDbEntity
  8
0
100
AcDbLine
 10
102.6415999999999
 20
797.6404
 30
0.0
 11
108.3486
 21
799.1854
 31
0.0
  0
LINE
  5
4F1
330
1E
100
AcDbEntity
  8
0
100
AcDbLine
 10
99.52460000000002
 20
790.2114
 30
0.0
 11
106.8067
 21
791.6373999999999
 31
0.0
  0
LINE
  5
4F2
330
1E
100
AcDbEntity
  8
0
100
AcDbLine
 10
103.2229999999999
 20
810.6583999999999
 30
0.0
 11
104.0216
 21
810.4884
 31
0.0
  0
LINE
  5
4F3
330
1E
100
AcDbEntity
  8
0
100
AcDbLine
 10
102.9036999999999
 20
811.1034
 30
0.0
 11
103.2232999999999
 21
811.5553999999999
 31
0.0
  0
LINE
  5
4F4
330
1E
100
AcDbEntity
  8
0
100
AcDbLine
 10
102.9036999999999
 20
811.1034
 30
0.0
 11
103.2229999999999
 21
810.6583999999999
 31
0.0
  0
LINE
  5
4F5
330
1E
100
AcDbEntity
  8
0
100
AcDbLine
 10
102.7743
 20
824.2594
 30
0.0
 11
103.5138
 21
824.5243999999999
 31
0.0
  0
LINE
  5
4F6
330
1E
100
AcDbEntity
  8
0
100
AcDbLine
 10
102.7708
 20
818.7174
 30
0.0
 11
103.3714
 21
818.3764
 31
0.0
  0
LINE
  5
4F7
330
1E
100
AcDbEntity
  8
0
100
AcDbLine
 10
102.7660999999999
 20
817.5384000000001
 30
0.0
 11
103.3817999999999
 21
817.8893999999999
 31
0.0
  0
LINE
  5
4F8
330
1E
100
AcDbEntity
  8
0
100
AcDbLine
 10
102.9806999999999
 20
823.3594
 30
0.0
 11
103.8086999999999
 21
823.2394000000001
 31
0.0
  0
LINE
  5
4F9
330
1E
100
AcDbEntity
  8
0
100
AcDbLine
 10
102.9036999999999
 20
833.7844
 30
0.0
 11
103.2232999999999
 21
833.3213999999999
 31
0.0
  0
LINE
  5
4FA
330
1E
100
AcDbEntity
  8
0
100
AcDbLine
 10
102.9036999999999
 20
833.7844
 30
0.0
 11
103.2229999999999
 21
834.2553999999999
 31
0.0
  0
LINE
  5
4FB
330
1E
100
AcDbEntity
  8
0
100
AcDbLine
 10
103.5138
 20
824.5243999999999
 30
0.0
 11
104.3418
 21
824.4034
 31
0.0
  0
LINE
  5
4FC
330
1E
100
AcDbEntity
  8
0
100
AcDbLine
 10
103.3714
 20
818.3764
 30
0.0
 11
103.3817999999999
 21
817.8893999999999
 31
0.0
  0
LINE
  5
4FD
330
1E
100
AcDbEntity
  8
0
100
AcDbLine
 10
103.2229999999999
 20
834.2553999999999
 30
0.0
 11
104.0216
 21
834.4523999999999
 31
0.0
  0
LINE
  5
4FE
330
1E
100
AcDbEntity
  8
0
100
AcDbLine
 10
103.2232999999999
 20
833.3213999999999
 30
0.0
 11
104.0221
 21
833.1433999999999
 31
0.0
  0
LINE
  5
500
330
1E
100
AcDbEntity
  8
0
100
AcDbLine
 10
103.2232999999999
 20
811.5553999999999
 30
0.0
 11
104.0221
 21
811.7444
 31
0.0
  0
LINE
  5
501
330
1E
100
AcDbEntity
  8
0
100
AcDbLine
 10
102.6415999999999
 20
848.5594
 30
0.0
 11
108.3486
 21
847.0133999999999
 31
0.0
  0
LINE
  5
502
330
1E
100
AcDbEntity
  8
0
100
AcDbLine
 10
99.52460000000002
 20
856.7014
 30
0.0
 11
106.7959
 21
855.2773999999999
 31
0.0
  0
LINE
  5
504
330
1E
100
AcDbEntity
  8
0
100
AcDbLine
 10
99.61339999999999
 20
856.2424
 30
0.0
 11
106.9843
 21
854.8163999999999
 31
0.0
  0
LINE
  5
505
330
1E
100
AcDbEntity
  8
0
100
AcDbLine
 10
103.8086999999999
 20
823.2394000000001
 30
0.0
 11
104.5482
 21
823.5044
 31
0.0
  0
LINE
  5
506
330
1E
100
AcDbEntity
  8
0
100
AcDbLine
 10
98.8616
 20
865.6344
 30
0.0
 11
100.6844
 21
865.2414
 31
0.0
  0
LINE
  5
507
330
1E
100
AcDbEntity
  8
0
100
AcDbLine
 10
100.6844
 20
865.2414
 30
0.0
 11
105.9377
 21
863.8094
 31
0.0
  0
LINE
  5
508
330
1E
100
AcDbEntity
  8
0
100
AcDbLine
 10
106.8067
 20
791.6373999999999
 30
0.0
 11
113.7032999999999
 21
793.5804
 31
0.0
  0
LINE
  5
50B
330
1E
100
AcDbEntity
  8
0
100
AcDbLine
 10
105.4027999999999
 20
800.7284
 30
0.0
 11
105.9182999999999
 21
801.1174
 31
0.0
  0
LINE
  5
50C
330
1E
100
AcDbEntity
  8
0
100
AcDbLine
 10
105.4027999999999
 20
800.7284
 30
0.0
 11
105.5045
 21
800.2513999999999
 31
0.0
  0
LINE
  5
50D
330
1E
100
AcDbEntity
  8
0
100
AcDbLine
 10
105.5045
 20
800.2513999999999
 30
0.0
 11
106.1933
 21
799.9693999999999
 31
0.0
  0
LINE
  5
50E
330
1E
100
AcDbEntity
  8
0
100
AcDbLine
 10
105.4389999999999
 20
805.6154000000001
 30
0.0
 11
106.1892
 21
805.3874
 31
0.0
  0
LINE
  5
50F
330
1E
100
AcDbEntity
  8
0
100
AcDbLine
 10
105.2267
 20
806.0804
 30
0.0
 11
105.6478
 21
806.5053999999999
 31
0.0
  0
LINE
  5
510
330
1E
100
AcDbEntity
  8
0
100
AcDbLine
 10
105.2267
 20
806.0804
 30
0.0
 11
105.4389999999999
 21
805.6154000000001
 31
0.0
  0
LINE
  5
511
330
1E
100
AcDbEntity
  8
0
100
AcDbLine
 10
106.1933
 20
799.9693999999999
 30
0.0
 11
107.0475999999999
 21
800.0334
 31
0.0
  0
LINE
  5
513
330
1E
100
AcDbEntity
  8
0
100
AcDbLine
 10
105.9182999999999
 20
801.1174
 30
0.0
 11
106.7725
 21
801.1814000000001
 31
0.0
  0
LINE
  5
514
330
1E
100
AcDbEntity
  8
0
100
AcDbLine
 10
106.7725
 20
801.1814000000001
 30
0.0
 11
107.4613
 21
800.8993999999999
 31
0.0
  0
LINE
  5
515
330
1E
100
AcDbEntity
  8
0
100
AcDbLine
 10
106.1892
 20
805.3874
 30
0.0
 11
107.0227999999999
 21
805.5144
 31
0.0
  0
LINE
  5
516
330
1E
100
AcDbEntity
  8
0
100
AcDbLine
 10
105.6478
 20
806.5053999999999
 30
0.0
 11
106.4815
 21
806.6323999999999
 31
0.0
  0
LINE
  5
518
330
1E
100
AcDbEntity
  8
0
100
AcDbLine
 10
106.4815
 20
806.6323999999999
 30
0.0
 11
107.2316
 21
806.4044
 31
0.0
  0
LINE
  5
519
330
1E
100
AcDbEntity
  8
0
100
AcDbLine
 10
107.4613
 20
800.8993999999999
 30
0.0
 11
107.5631
 21
800.4224
 31
0.0
  0
LINE
  5
51A
330
1E
100
AcDbEntity
  8
0
100
AcDbLine
 10
107.0475999999999
 20
800.0334
 30
0.0
 11
107.5631
 21
800.4224
 31
0.0
  0
LINE
  5
51B
330
1E
100
AcDbEntity
  8
0
100
AcDbLine
 10
107.2316
 20
806.4044
 30
0.0
 11
107.444
 21
805.9393999999999
 31
0.0
  0
LINE
  5
51C
330
1E
100
AcDbEntity
  8
0
100
AcDbLine
 10
107.0227999999999
 20
805.5144
 30
0.0
 11
107.444
 21
805.9393999999999
 31
0.0
  0
LINE
  5
51D
330
1E
100
AcDbEntity
  8
0
100
AcDbLine
 10
104.0216
 20
810.4884
 30
0.0
 11
104.8204
 21
810.6773999999999
 31
0.0
  0
LINE
  5
51E
330
1E
100
AcDbEntity
  8
0
100
AcDbLine
 10
104.0216
 20
834.4523999999999
 30
0.0
 11
104.8204
 21
834.2743999999999
 31
0.0
  0
LINE
  5
520
330
1E
100
AcDbEntity
  8
0
100
AcDbLine
 10
104.5482
 20
823.5044
 30
0.0
 11
104.781
 21
823.9844000000001
 31
0.0
  0
LINE
  5
521
330
1E
100
AcDbEntity
  8
0
100
AcDbLine
 10
104.3418
 20
824.4034
 30
0.0
 11
104.781
 21
823.9844000000001
 31
0.0
  0
LINE
  5
522
330
1E
100
AcDbEntity
  8
0
100
AcDbLine
 10
104.0221
 20
833.1433999999999
 30
0.0
 11
104.8207
 21
833.3394
 31
0.0
  0
LINE
  5
525
330
1E
100
AcDbEntity
  8
0
100
AcDbLine
 10
104.8204
 20
834.2743999999999
 30
0.0
 11
105.14
 21
833.8103999999999
 31
0.0
  0
LINE
  5
527
330
1E
100
AcDbEntity
  8
0
100
AcDbLine
 10
104.0221
 20
811.7444
 30
0.0
 11
104.8207
 21
811.5743999999999
 31
0.0
  0
LINE
  5
528
330
1E
100
AcDbEntity
  8
0
100
AcDbLine
 10
104.8207
 20
833.3394
 30
0.0
 11
105.14
 21
833.8103999999999
 31
0.0
  0
LINE
  5
52A
330
1E
100
AcDbEntity
  8
0
100
AcDbLine
 10
110.1679999999999
 20
818.4554
 30
0.0
 11
110.2905999999999
 21
817.9724
 31
0.0
  0
LINE
  5
52B
330
1E
100
AcDbEntity
  8
0
100
AcDbLine
 10
110.1679999999999
 20
818.4554
 30
0.0
 11
110.6999
 21
818.8483999999998
 31
0.0
  0
LINE
  5
52C
330
1E
100
AcDbEntity
  8
0
100
AcDbLine
 10
110.2905999999999
 20
817.9724
 30
0.0
 11
110.9663999999999
 21
817.6804
 31
0.0
  0
LINE
  5
52D
330
1E
100
AcDbEntity
  8
0
100
AcDbLine
 10
110.2905999999999
 20
826.9154
 30
0.0
 11
110.1679999999999
 21
826.4213999999999
 31
0.0
  0
LINE
  5
52F
330
1E
100
AcDbEntity
  8
0
100
AcDbLine
 10
110.1679999999999
 20
826.4213999999999
 30
0.0
 11
110.6999
 21
826.0393999999999
 31
0.0
  0
LINE
  5
532
330
1E
100
AcDbEntity
  8
0
100
AcDbLine
 10
111.5512
 20
818.9324
 30
0.0
 11
112.2271
 21
818.6393999999999
 31
0.0
  0
LINE
  5
533
330
1E
100
AcDbEntity
  8
0
100
AcDbLine
 10
110.6999
 20
818.8483999999998
 30
0.0
 11
111.5512
 21
818.9324
 31
0.0
  0
LINE
  5
534
330
1E
100
AcDbEntity
  8
0
100
AcDbLine
 10
110.9663999999999
 20
817.6804
 30
0.0
 11
111.8176999999999
 21
817.7634000000001
 31
0.0
  0
LINE
  5
535
330
1E
100
AcDbEntity
  8
0
100
AcDbLine
 10
111.8176999999999
 20
817.7634000000001
 30
0.0
 11
112.3496999999999
 21
818.1574000000001
 31
0.0
  0
LINE
  5
536
330
1E
100
AcDbEntity
  8
0
100
AcDbLine
 10
111.5512
 20
825.9824
 30
0.0
 11
112.2271
 21
826.3004
 31
0.0
  0
LINE
  5
537
330
1E
100
AcDbEntity
  8
0
100
AcDbLine
 10
110.6999
 20
826.0393999999999
 30
0.0
 11
111.5512
 21
825.9824
 31
0.0
  0
LINE
  5
538
330
1E
100
AcDbEntity
  8
0
100
AcDbLine
 10
110.2905999999999
 20
826.9154
 30
0.0
 11
110.9663999999999
 21
827.2333999999998
 31
0.0
  0
LINE
  5
539
330
1E
100
AcDbEntity
  8
0
100
AcDbLine
 10
110.9663999999999
 20
827.2333999999998
 30
0.0
 11
111.8176999999999
 21
827.1763999999999
 31
0.0
  0
LINE
  5
53A
330
1E
100
AcDbEntity
  8
0
100
AcDbLine
 10
111.8176999999999
 20
827.1763999999999
 30
0.0
 11
112.3496999999999
 21
826.7943999999999
 31
0.0
  0
LINE
  5
53C
330
1E
100
AcDbEntity
  8
0
100
AcDbLine
 10
105.4389999999999
 20
839.4224000000001
 30
0.0
 11
106.1892
 21
839.6763999999999
 31
0.0
  0
LINE
  5
53D
330
1E
100
AcDbEntity
  8
0
100
AcDbLine
 10
105.2267
 20
838.9303999999999
 30
0.0
 11
105.6478
 21
838.4954
 31
0.0
  0
LINE
  5
53E
330
1E
100
AcDbEntity
  8
0
100
AcDbLine
 10
105.2267
 20
838.9303999999999
 30
0.0
 11
105.4389999999999
 21
839.4224000000001
 31
0.0
  0
LINE
  5
540
330
1E
100
AcDbEntity
  8
0
100
AcDbLine
 10
106.1892
 20
839.6763999999999
 30
0.0
 11
107.0227999999999
 21
839.5604
 31
0.0
  0
LINE
  5
541
330
1E
100
AcDbEntity
  8
0
100
AcDbLine
 10
105.6478
 20
838.4954
 30
0.0
 11
106.4815
 21
838.3784
 31
0.0
  0
LINE
  5
542
330
1E
100
AcDbEntity
  8
0
100
AcDbLine
 10
106.4815
 20
838.3784
 30
0.0
 11
107.2316
 21
838.6334000000001
 31
0.0
  0
LINE
  5
543
330
1E
100
AcDbEntity
  8
0
100
AcDbLine
 10
107.2316
 20
838.6334000000001
 30
0.0
 11
107.444
 21
839.1244
 31
0.0
  0
LINE
  5
544
330
1E
100
AcDbEntity
  8
0
100
AcDbLine
 10
107.0227999999999
 20
839.5604
 30
0.0
 11
107.444
 21
839.1244
 31
0.0
  0
LINE
  5
545
330
1E
100
AcDbEntity
  8
0
100
AcDbLine
 10
105.4027999999999
 20
844.5714
 30
0.0
 11
105.9182999999999
 21
844.1713999999999
 31
0.0
  0
LINE
  5
546
330
1E
100
AcDbEntity
  8
0
100
AcDbLine
 10
105.4027999999999
 20
844.5714
 30
0.0
 11
105.5045
 21
845.0744
 31
0.0
  0
LINE
  5
547
330
1E
100
AcDbEntity
  8
0
100
AcDbLine
 10
105.9182999999999
 20
844.1713999999999
 30
0.0
 11
106.7725
 21
844.1183999999999
 31
0.0
  0
LINE
  5
548
330
1E
100
AcDbEntity
  8
0
100
AcDbLine
 10
106.7725
 20
844.1183999999999
 30
0.0
 11
107.4613
 21
844.4264
 31
0.0
  0
LINE
  5
549
330
1E
100
AcDbEntity
  8
0
100
AcDbLine
 10
107.4613
 20
844.4264
 30
0.0
 11
107.5631
 21
844.9294
 31
0.0
  0
LINE
  5
54A
330
1E
100
AcDbEntity
  8
0
100
AcDbLine
 10
111.9235999999999
 20
835.2574
 30
0.0
 11
112.3443999999999
 21
835.7003999999999
 31
0.0
  0
LINE
  5
54B
330
1E
100
AcDbEntity
  8
0
100
AcDbLine
 10
111.9235999999999
 20
835.2574
 30
0.0
 11
112.1361999999999
 21
834.7734
 31
0.0
  0
LINE
  5
54C
330
1E
100
AcDbEntity
  8
0
100
AcDbLine
 10
104.8207
 20
811.5743999999999
 30
0.0
 11
105.14
 21
811.1294
 31
0.0
  0
LINE
  5
54D
330
1E
100
AcDbEntity
  8
0
100
AcDbLine
 10
104.8204
 20
810.6773999999999
 30
0.0
 11
105.14
 21
811.1294
 31
0.0
  0
LINE
  5
54F
330
1E
100
AcDbEntity
  8
0
100
AcDbLine
 10
112.2271
 20
818.6393999999999
 30
0.0
 11
112.3496999999999
 21
818.1574000000001
 31
0.0
  0
LINE
  5
550
330
1E
100
AcDbEntity
  8
0
100
AcDbLine
 10
112.341364788663
 20
818.3667291253469
 30
0.0
 11
112.3496999999999
 21
818.1574000000001
 31
0.0
  0
LINE
  5
552
330
1E
100
AcDbEntity
  8
0
100
AcDbLine
 10
112.2271
 20
826.3004
 30
0.0
 11
112.3496999999999
 21
826.7943999999999
 31
0.0
  0
LINE
  5
554
330
1E
100
AcDbEntity
  8
0
100
AcDbLine
 10
112.1361999999999
 20
834.7734
 30
0.0
 11
112.8863999999999
 21
834.5374000000001
 31
0.0
  0
LINE
  5
555
330
1E
100
AcDbEntity
  8
0
100
AcDbLine
 10
112.8863999999999
 20
834.5374000000001
 30
0.0
 11
113.7199
 21
834.6724
 31
0.0
  0
LINE
  5
556
330
1E
100
AcDbEntity
  8
0
100
AcDbLine
 10
112.3443999999999
 20
835.7003999999999
 30
0.0
 11
113.1778999999999
 21
835.8354
 31
0.0
  0
LINE
  5
558
330
1E
100
AcDbEntity
  8
0
100
AcDbLine
 10
113.1778999999999
 20
835.8354
 30
0.0
 11
113.9280999999999
 21
835.5993999999999
 31
0.0
  0
LINE
  5
559
330
1E
100
AcDbEntity
  8
0
100
AcDbLine
 10
112.8863999999999
 20
810.4744
 30
0.0
 11
113.7199
 21
810.3654
 31
0.0
  0
LINE
  5
55A
330
1E
100
AcDbEntity
  8
0
100
AcDbLine
 10
112.1361999999999
 20
810.2263999999999
 30
0.0
 11
112.8863999999999
 21
810.4744
 31
0.0
  0
LINE
  5
55B
330
1E
100
AcDbEntity
  8
0
100
AcDbLine
 10
111.9235999999999
 20
809.7544
 30
0.0
 11
112.3443999999999
 21
809.3374
 31
0.0
  0
LINE
  5
55C
330
1E
100
AcDbEntity
  8
0
100
AcDbLine
 10
111.9235999999999
 20
809.7544
 30
0.0
 11
112.1361999999999
 21
810.2263999999999
 31
0.0
  0
LINE
  5
55D
330
1E
100
AcDbEntity
  8
0
100
AcDbLine
 10
112.3443999999999
 20
809.3374
 30
0.0
 11
113.1778999999999
 21
809.2283999999999
 31
0.0
  0
LINE
  5
55E
330
1E
100
AcDbEntity
  8
0
100
AcDbLine
 10
113.1778999999999
 20
809.2283999999999
 30
0.0
 11
113.9280999999999
 21
809.4754
 31
0.0
  0
LINE
  5
55F
330
1E
100
AcDbEntity
  8
0
100
AcDbLine
 10
108.3486
 20
799.1854
 30
0.0
 11
113.5799999999999
 21
801.1864
 31
0.0
  0
LINE
  5
560
330
1E
100
AcDbEntity
  8
0
100
AcDbLine
 10
113.7199
 20
834.6724
 30
0.0
 11
114.1407
 21
835.1154000000001
 31
0.0
  0
LINE
  5
561
330
1E
100
AcDbEntity
  8
0
100
AcDbLine
 10
114.8932999999999
 20
804.1703999999999
 30
0.0
 11
115.6919
 21
804.0003999999999
 31
0.0
  0
LINE
  5
564
330
1E
100
AcDbEntity
  8
0
100
AcDbLine
 10
114.5739
 20
804.6153999999999
 30
0.0
 11
114.8935
 21
805.0684
 31
0.0
  0
LINE
  5
565
330
1E
100
AcDbEntity
  8
0
100
AcDbLine
 10
114.5739
 20
804.6153999999999
 30
0.0
 11
114.8932999999999
 21
804.1703999999999
 31
0.0
  0
LINE
  5
566
330
1E
100
AcDbEntity
  8
0
100
AcDbLine
 10
114.8935
 20
805.0684
 30
0.0
 11
115.6923
 21
805.2564
 31
0.0
  0
LINE
  5
568
330
1E
100
AcDbEntity
  8
0
100
AcDbLine
 10
113.9280999999999
 20
835.5993999999999
 30
0.0
 11
114.1407
 21
835.1154000000001
 31
0.0
  0
LINE
  5
569
330
1E
100
AcDbEntity
  8
0
100
AcDbLine
 10
114.8932999999999
 20
841.1554
 30
0.0
 11
115.6919
 21
841.3524
 31
0.0
  0
LINE
  5
56A
330
1E
100
AcDbEntity
  8
0
100
AcDbLine
 10
114.5739
 20
840.6843999999999
 30
0.0
 11
114.8935
 21
840.2204000000001
 31
0.0
  0
LINE
  5
56B
330
1E
100
AcDbEntity
  8
0
100
AcDbLine
 10
114.5739
 20
840.6843999999999
 30
0.0
 11
114.8932999999999
 21
841.1554
 31
0.0
  0
LINE
  5
56C
330
1E
100
AcDbEntity
  8
0
100
AcDbLine
 10
114.8935
 20
840.2204000000001
 30
0.0
 11
115.6923
 21
840.0434
 31
0.0
  0
LINE
  5
56D
330
1E
100
AcDbEntity
  8
0
100
AcDbLine
 10
113.9280999999999
 20
809.4754
 30
0.0
 11
114.1407
 21
809.9484
 31
0.0
  0
LINE
  5
56E
330
1E
100
AcDbEntity
  8
0
100
AcDbLine
 10
113.7199
 20
810.3654
 30
0.0
 11
114.1407
 21
809.9484
 31
0.0
  0
LINE
  5
56F
330
1E
100
AcDbEntity
  8
0
100
AcDbLine
 10
113.7032999999999
 20
793.5804
 30
0.0
 11
120.171
 21
796.0653999999999
 31
0.0
  0
LINE
  5
570
330
1E
100
AcDbEntity
  8
0
100
AcDbLine
 10
113.5799999999999
 20
801.1864
 30
0.0
 11
118.3341999999999
 21
803.5503999999999
 31
0.0
  0
LINE
  5
572
330
1E
100
AcDbEntity
  8
0
100
AcDbLine
 10
106.1933
 20
845.3834
 30
0.0
 11
107.0475999999999
 21
845.3304000000001
 31
0.0
  0
LINE
  5
573
330
1E
100
AcDbEntity
  8
0
100
AcDbLine
 10
105.5045
 20
845.0744
 30
0.0
 11
106.1933
 21
845.3834
 31
0.0
  0
LINE
  5
574
330
1E
100
AcDbEntity
  8
0
100
AcDbLine
 10
107.0475999999999
 20
845.3304000000001
 30
0.0
 11
107.5631
 21
844.9294
 31
0.0
  0
LINE
  5
575
330
1E
100
AcDbEntity
  8
0
100
AcDbLine
 10
106.7959
 20
855.2773999999999
 30
0.0
 11
113.7032999999999
 21
853.3324
 31
0.0
  0
LINE
  5
577
330
1E
100
AcDbEntity
  8
0
100
AcDbLine
 10
106.9843
 20
854.8163999999999
 30
0.0
 11
113.9544
 21
852.8354
 31
0.0
  0
LINE
  5
578
330
1E
100
AcDbEntity
  8
0
100
AcDbLine
 10
113.1264
 20
860.8064
 30
0.0
 11
117.8268
 21
858.4203999999999
 31
0.0
  0
LINE
  5
57A
330
1E
100
AcDbEntity
  8
0
100
AcDbLine
 10
113.7032999999999
 20
853.3324
 30
0.0
 11
120.171
 21
850.8464
 31
0.0
  0
LINE
  5
57C
330
1E
100
AcDbEntity
  8
0
100
AcDbLine
 10
113.9544
 20
852.8354
 30
0.0
 11
120.4222
 21
850.3504000000001
 31
0.0
  0
LINE
  5
57F
330
1E
100
AcDbEntity
  8
0
100
AcDbLine
 10
108.3486
 20
847.0133999999999
 30
0.0
 11
113.5799999999999
 21
845.0134
 31
0.0
  0
LINE
  5
580
330
1E
100
AcDbEntity
  8
0
100
AcDbLine
 10
113.5799999999999
 20
845.0134
 30
0.0
 11
118.3341999999999
 21
842.6493999999999
 31
0.0
  0
LINE
  5
582
330
1E
100
AcDbEntity
  8
0
100
AcDbLine
 10
120.171
 20
796.0653999999999
 30
0.0
 11
126.0089999999999
 21
798.9104
 31
0.0
  0
LINE
  5
588
330
1E
100
AcDbEntity
  8
0
100
AcDbLine
 10
115.6919
 20
804.0003999999999
 30
0.0
 11
116.4907
 21
804.1893999999999
 31
0.0
  0
LINE
  5
58A
330
1E
100
AcDbEntity
  8
0
100
AcDbLine
 10
115.6919
 20
841.3524
 30
0.0
 11
116.4907
 21
841.1744
 31
0.0
  0
LINE
  5
58B
330
1E
100
AcDbEntity
  8
0
100
AcDbLine
 10
115.6923
 20
840.0434
 30
0.0
 11
116.491
 21
840.2394000000001
 31
0.0
  0
LINE
  5
58C
330
1E
100
AcDbEntity
  8
0
100
AcDbLine
 10
116.491
 20
840.2394000000001
 30
0.0
 11
116.8103
 21
840.7104
 31
0.0
  0
LINE
  5
58D
330
1E
100
AcDbEntity
  8
0
100
AcDbLine
 10
116.4907
 20
841.1744
 30
0.0
 11
116.8103
 21
840.7104
 31
0.0
  0
LINE
  5
58E
330
1E
100
AcDbEntity
  8
0
100
AcDbLine
 10
115.6923
 20
805.2564
 30
0.0
 11
116.491
 21
805.0864
 31
0.0
  0
LINE
  5
590
330
1E
100
AcDbEntity
  8
0
100
AcDbLine
 10
116.7241
 20
814.7844
 30
0.0
 11
116.7345
 21
814.2974
 31
0.0
  0
LINE
  5
591
330
1E
100
AcDbEntity
  8
0
100
AcDbLine
 10
116.7241
 20
814.7844
 30
0.0
 11
117.3397999999999
 21
815.1353999999999
 31
0.0
  0
LINE
  5
592
330
1E
100
AcDbEntity
  8
0
100
AcDbLine
 10
116.7345
 20
814.2974
 30
0.0
 11
117.3351999999999
 21
813.9564
 31
0.0
  0
LINE
  5
593
330
1E
100
AcDbEntity
  8
0
100
AcDbLine
 10
116.7139828101339
 20
830.4770386829829
 30
0.0
 11
116.7241
 21
830.2153999999999
 31
0.0
  0
LINE
  5
594
330
1E
100
AcDbEntity
  8
0
100
AcDbLine
 10
116.7241
 20
830.2153999999999
 30
0.0
 11
116.7345
 21
830.7143999999999
 31
0.0
  0
LINE
  5
595
330
1E
100
AcDbEntity
  8
0
100
AcDbLine
 10
116.7241
 20
830.2153999999999
 30
0.0
 11
117.3397999999999
 21
829.8764
 31
0.0
  0
LINE
  5
596
330
1E
100
AcDbEntity
  8
0
100
AcDbLine
 10
116.7345
 20
830.7143999999999
 30
0.0
 11
117.3351999999999
 21
831.0804
 31
0.0
  0
LINE
  5
597
330
1E
100
AcDbEntity
  8
0
100
AcDbLine
 10
116.491
 20
805.0864
 30
0.0
 11
116.8103
 21
804.6414
 31
0.0
  0
LINE
  5
598
330
1E
100
AcDbEntity
  8
0
100
AcDbLine
 10
116.4907
 20
804.1893999999999
 30
0.0
 11
116.8103
 21
804.6414
 31
0.0
  0
LINE
  5
599
330
1E
100
AcDbEntity
  8
0
100
AcDbLine
 10
117.3351999999999
 20
813.9564
 30
0.0
 11
118.1952
 21
813.9763999999999
 31
0.0
  0
LINE
  5
59A
330
1E
100
AcDbEntity
  8
0
100
AcDbLine
 10
117.3397999999999
 20
815.1353999999999
 30
0.0
 11
118.1999
 21
815.1543999999999
 31
0.0
  0
LINE
  5
59B
330
1E
100
AcDbEntity
  8
0
100
AcDbLine
 10
118.1999
 20
815.1543999999999
 30
0.0
 11
118.8004999999999
 21
814.8144
 31
0.0
  0
LINE
  5
59C
330
1E
100
AcDbEntity
  8
0
100
AcDbLine
 10
118.1952
 20
813.9763999999999
 30
0.0
 11
118.8109
 21
814.3264
 31
0.0
  0
LINE
  5
59D
330
1E
100
AcDbEntity
  8
0
100
AcDbLine
 10
118.1999
 20
829.8834000000001
 30
0.0
 11
118.8004999999999
 21
830.2494000000001
 31
0.0
  0
LINE
  5
59E
330
1E
100
AcDbEntity
  8
0
100
AcDbLine
 10
117.3397999999999
 20
829.8764
 30
0.0
 11
118.1999
 21
829.8834000000001
 31
0.0
  0
LINE
  5
59F
330
1E
100
AcDbEntity
  8
0
100
AcDbLine
 10
117.3351999999999
 20
831.0804
 30
0.0
 11
118.1952
 21
831.0874
 31
0.0
  0
LINE
  5
5A2
330
1E
100
AcDbEntity
  8
0
100
AcDbLine
 10
118.1952
 20
831.0874
 30
0.0
 11
118.8109
 21
830.7483999999998
 31
0.0
  0
LINE
  5
5A3
330
1E
100
AcDbEntity
  8
0
100
AcDbLine
 10
118.8004999999999
 20
814.8144
 30
0.0
 11
118.8109
 21
814.3264
 31
0.0
  0
LINE
  5
5A5
330
1E
100
AcDbEntity
  8
0
100
AcDbLine
 10
119.099
 20
825.1314
 30
0.0
 11
119.3316999999999
 21
825.6123999999999
 31
0.0
  0
LINE
  5
5A6
330
1E
100
AcDbEntity
  8
0
100
AcDbLine
 10
119.099
 20
825.1314
 30
0.0
 11
119.5382
 21
824.7123999999999
 31
0.0
  0
LINE
  5
5A7
330
1E
100
AcDbEntity
  8
0
100
AcDbLine
 10
119.3316999999999
 20
825.6123999999999
 30
0.0
 11
120.0712999999999
 21
825.8773999999998
 31
0.0
  0
LINE
  5
5A9
330
1E
100
AcDbEntity
  8
0
100
AcDbLine
 10
119.099
 20
819.8684
 30
0.0
 11
119.3316999999999
 21
819.3993999999999
 31
0.0
  0
LINE
  5
5AA
330
1E
100
AcDbEntity
  8
0
100
AcDbLine
 10
119.099
 20
819.8684
 30
0.0
 11
119.5382
 21
820.2984
 31
0.0
  0
LINE
  5
5AB
330
1E
100
AcDbEntity
  8
0
100
AcDbLine
 10
120.3662
 20
824.5924
 30
0.0
 11
121.1057
 21
824.8573999999999
 31
0.0
  0
LINE
  5
5AC
330
1E
100
AcDbEntity
  8
0
100
AcDbLine
 10
119.5382
 20
824.7123999999999
 30
0.0
 11
120.3662
 21
824.5924
 31
0.0
  0
LINE
  5
5AE
330
1E
100
AcDbEntity
  8
0
100
AcDbLine
 10
120.0712999999999
 20
825.8773999999998
 30
0.0
 11
120.8992999999999
 21
825.7564
 31
0.0
  0
LINE
  5
5B0
330
1E
100
AcDbEntity
  8
0
100
AcDbLine
 10
120.8992999999999
 20
825.7564
 30
0.0
 11
121.3384
 21
825.3384
 31
0.0
  0
LINE
  5
5B1
330
1E
100
AcDbEntity
  8
0
100
AcDbLine
 10
120.3662
 20
820.4454
 30
0.0
 11
121.1057
 21
820.2064
 31
0.0
  0
LINE
  5
5B2
330
1E
100
AcDbEntity
  8
0
100
AcDbLine
 10
119.5382
 20
820.2984
 30
0.0
 11
120.3662
 21
820.4454
 31
0.0
  0
LINE
  5
5B3
330
1E
100
AcDbEntity
  8
0
100
AcDbLine
 10
119.3316999999999
 20
819.3993999999999
 30
0.0
 11
120.0712999999999
 21
819.1603999999999
 31
0.0
  0
LINE
  5
5B4
330
1E
100
AcDbEntity
  8
0
100
AcDbLine
 10
120.0712999999999
 20
819.1603999999999
 30
0.0
 11
120.8992999999999
 21
819.3064000000001
 31
0.0
  0
LINE
  5
5B6
330
1E
100
AcDbEntity
  8
0
100
AcDbLine
 10
121.6786
 20
809.7314
 30
0.0
 11
122.1937
 21
809.3493999999999
 31
0.0
  0
LINE
  5
5B7
330
1E
100
AcDbEntity
  8
0
100
AcDbLine
 10
121.6786
 20
809.7314
 30
0.0
 11
121.7805
 21
810.2164
 31
0.0
  0
LINE
  5
5BA
330
1E
100
AcDbEntity
  8
0
100
AcDbLine
 10
121.1057
 20
824.8573999999999
 30
0.0
 11
121.3384
 21
825.3384
 31
0.0
  0
LINE
  5
5BB
330
1E
100
AcDbEntity
  8
0
100
AcDbLine
 10
121.1057
 20
820.2064
 30
0.0
 11
121.3384
 21
819.7364
 31
0.0
  0
LINE
  5
5BC
330
1E
100
AcDbEntity
  8
0
100
AcDbLine
 10
120.8992999999999
 20
819.3064000000001
 30
0.0
 11
121.3384
 21
819.7364
 31
0.0
  0
LINE
  5
5BE
330
1E
100
AcDbEntity
  8
0
100
AcDbLine
 10
118.8004999999999
 20
830.2494000000001
 30
0.0
 11
118.8109
 21
830.7483999999998
 31
0.0
  0
LINE
  5
5C0
330
1E
100
AcDbEntity
  8
0
100
AcDbLine
 10
121.7805
 20
810.2164
 30
0.0
 11
122.4693999999999
 21
810.5173999999999
 31
0.0
  0
LINE
  5
5C1
330
1E
100
AcDbEntity
  8
0
100
AcDbLine
 10
122.1937
 20
809.3493999999999
 30
0.0
 11
123.0477999999999
 21
809.3044
 31
0.0
  0
LINE
  5
5C2
330
1E
100
AcDbEntity
  8
0
100
AcDbLine
 10
121.7805
 20
835.0723999999999
 30
0.0
 11
122.4693999999999
 21
834.7824000000001
 31
0.0
  0
LINE
  5
5C3
330
1E
100
AcDbEntity
  8
0
100
AcDbLine
 10
121.6786
 20
835.5684
 30
0.0
 11
122.1937
 21
835.9764
 31
0.0
  0
LINE
  5
5C4
330
1E
100
AcDbEntity
  8
0
100
AcDbLine
 10
121.6786
 20
835.5684
 30
0.0
 11
121.7805
 21
835.0723999999999
 31
0.0
  0
LINE
  5
5C5
330
1E
100
AcDbEntity
  8
0
100
AcDbLine
 10
122.1937
 20
835.9764
 30
0.0
 11
123.0477999999999
 21
836.0483999999999
 31
0.0
  0
LINE
  5
5C6
330
1E
100
AcDbEntity
  8
0
100
AcDbLine
 10
118.3341999999999
 20
842.6493999999999
 30
0.0
 11
122.4548999999999
 21
839.9224
 31
0.0
  0
LINE
  5
5C7
330
1E
100
AcDbEntity
  8
0
100
AcDbLine
 10
118.3341999999999
 20
803.5503999999999
 30
0.0
 11
122.4548999999999
 21
806.2763999999999
 31
0.0
  0
LINE
  5
5C8
330
1E
100
AcDbEntity
  8
0
100
AcDbLine
 10
126.0089999999999
 20
798.9104
 30
0.0
 11
130.9679999999999
 21
802.2584
 31
0.0
  0
LINE
  5
5CD
330
1E
100
AcDbEntity
  8
0
100
AcDbLine
 10
123.7365999999999
 20
809.6054
 30
0.0
 11
123.8385999999999
 21
810.0903999999999
 31
0.0
  0
LINE
  5
5CE
330
1E
100
AcDbEntity
  8
0
100
AcDbLine
 10
123.3234
 20
810.4724
 30
0.0
 11
123.8385999999999
 21
810.0903999999999
 31
0.0
  0
LINE
  5
5CF
330
1E
100
AcDbEntity
  8
0
100
AcDbLine
 10
122.4693999999999
 20
810.5173999999999
 30
0.0
 11
123.3234
 21
810.4724
 31
0.0
  0
LINE
  5
5D0
330
1E
100
AcDbEntity
  8
0
100
AcDbLine
 10
123.0477999999999
 20
809.3044
 30
0.0
 11
123.7365999999999
 21
809.6054
 31
0.0
  0
LINE
  5
5D1
330
1E
100
AcDbEntity
  8
0
100
AcDbLine
 10
126.9079999999999
 20
815.4364000000001
 30
0.0
 11
127.76
 21
815.5193999999999
 31
0.0
  0
LINE
  5
5D2
330
1E
100
AcDbEntity
  8
0
100
AcDbLine
 10
126.232
 20
815.7284
 30
0.0
 11
126.9079999999999
 21
815.4364000000001
 31
0.0
  0
LINE
  5
5D3
330
1E
100
AcDbEntity
  8
0
100
AcDbLine
 10
127.76
 20
815.5193999999999
 30
0.0
 11
128.292
 21
815.9133999999999
 31
0.0
  0
LINE
  5
5D4
330
1E
100
AcDbEntity
  8
0
100
AcDbLine
 10
125.943
 20
809.2774
 30
0.0
 11
128.638
 21
812.5503999999999
 31
0.0
  0
LINE
  5
5D5
330
1E
100
AcDbEntity
  8
0
100
AcDbLine
 10
122.4548999999999
 20
806.2763999999999
 30
0.0
 11
125.943
 21
809.2774
 31
0.0
  0
LINE
  5
5D6
330
1E
100
AcDbEntity
  8
0
100
AcDbLine
 10
130.9679999999999
 20
802.2584
 30
0.0
 11
135.301
 21
805.9684
 31
0.0
  0
LINE
  5
5D9
330
1E
100
AcDbEntity
  8
0
100
AcDbLine
 10
128.638
 20
812.5503999999999
 30
0.0
 11
130.771
 21
815.9624
 31
0.0
  0
LINE
  5
5DB
330
1E
100
AcDbEntity
  8
0
100
AcDbLine
 10
126.11
 20
816.2114
 30
0.0
 11
126.232
 21
815.7284
 31
0.0
  0
LINE
  5
5DC
330
1E
100
AcDbEntity
  8
0
100
AcDbLine
 10
126.11
 20
816.2114
 30
0.0
 11
126.642
 21
816.6044000000001
 31
0.0
  0
LINE
  5
5DE
330
1E
100
AcDbEntity
  8
0
100
AcDbLine
 10
126.11
 20
829.0774
 30
0.0
 11
126.232
 21
829.5714
 31
0.0
  0
LINE
  5
5DF
330
1E
100
AcDbEntity
  8
0
100
AcDbLine
 10
126.11
 20
829.0774
 30
0.0
 11
126.642
 21
828.6953999999999
 31
0.0
  0
LINE
  5
5E0
330
1E
100
AcDbEntity
  8
0
100
AcDbLine
 10
127.4929999999999
 20
816.6883999999999
 30
0.0
 11
128.1689999999999
 21
816.3954
 31
0.0
  0
LINE
  5
5E1
330
1E
100
AcDbEntity
  8
0
100
AcDbLine
 10
126.642
 20
816.6044000000001
 30
0.0
 11
127.4929999999999
 21
816.6883999999999
 31
0.0
  0
LINE
  5
5E3
330
1E
100
AcDbEntity
  8
0
100
AcDbLine
 10
127.587
 20
822.6444
 30
0.0
 11
127.9249999999999
 21
823.1033999999999
 31
0.0
  0
LINE
  5
5E4
330
1E
100
AcDbEntity
  8
0
100
AcDbLine
 10
127.587
 20
822.6444
 30
0.0
 11
127.9249999999999
 21
822.1963999999999
 31
0.0
  0
LINE
  5
5E5
330
1E
100
AcDbEntity
  8
0
100
AcDbLine
 10
127.4929999999999
 20
828.6383999999999
 30
0.0
 11
128.1689999999999
 21
828.9564
 31
0.0
  0
LINE
  5
5E6
330
1E
100
AcDbEntity
  8
0
100
AcDbLine
 10
126.642
 20
828.6953999999999
 30
0.0
 11
127.4929999999999
 21
828.6383999999999
 31
0.0
  0
LINE
  5
5E7
330
1E
100
AcDbEntity
  8
0
100
AcDbLine
 10
126.232
 20
829.5714
 30
0.0
 11
126.9079999999999
 21
829.8904
 31
0.0
  0
LINE
  5
5E8
330
1E
100
AcDbEntity
  8
0
100
AcDbLine
 10
126.9079999999999
 20
829.8904
 30
0.0
 11
127.76
 21
829.8324
 31
0.0
  0
LINE
  5
5E9
330
1E
100
AcDbEntity
  8
0
100
AcDbLine
 10
127.9249999999999
 20
822.1963999999999
 30
0.0
 11
128.716
 21
822.0154
 31
0.0
  0
LINE
  5
5EA
330
1E
100
AcDbEntity
  8
0
100
AcDbLine
 10
128.2858922796459
 20
816.067057385751
 30
0.0
 11
128.292
 21
815.9133999999999
 31
0.0
  0
LINE
  5
5EB
330
1E
100
AcDbEntity
  8
0
100
AcDbLine
 10
128.1689999999999
 20
816.3954
 30
0.0
 11
128.292
 21
815.9133999999999
 31
0.0
  0
LINE
  5
5EC
330
1E
100
AcDbEntity
  8
0
100
AcDbLine
 10
129.506
 20
822.2224
 30
0.0
 11
129.845
 21
822.6814
 31
0.0
  0
LINE
  5
5ED
330
1E
100
AcDbEntity
  8
0
100
AcDbLine
 10
128.716
 20
822.0154
 30
0.0
 11
129.506
 21
822.2224
 31
0.0
  0
LINE
  5
5EE
330
1E
100
AcDbEntity
  8
0
100
AcDbLine
 10
127.9249999999999
 20
823.1033999999999
 30
0.0
 11
128.716
 21
823.3114
 31
0.0
  0
LINE
  5
5EF
330
1E
100
AcDbEntity
  8
0
100
AcDbLine
 10
128.716
 20
823.3114
 30
0.0
 11
129.506
 21
823.1294
 31
0.0
  0
LINE
  5
5F1
330
1E
100
AcDbEntity
  8
0
100
AcDbLine
 10
129.506
 20
823.1294
 30
0.0
 11
129.845
 21
822.6814
 31
0.0
  0
LINE
  5
5F3
330
1E
100
AcDbEntity
  8
0
100
AcDbLine
 10
128.1689999999999
 20
828.9564
 30
0.0
 11
128.292
 21
829.4503999999999
 31
0.0
  0
LINE
  5
5F4
330
1E
100
AcDbEntity
  8
0
100
AcDbLine
 10
127.76
 20
829.8324
 30
0.0
 11
128.292
 21
829.4503999999999
 31
0.0
  0
LINE
  5
5F5
330
1E
100
AcDbEntity
  8
0
100
AcDbLine
 10
123.7310758930069
 20
835.90942083502
 30
0.0
 11
123.7365999999999
 21
835.7573999999999
 31
0.0
  0
LINE
  5
5F6
330
1E
100
AcDbEntity
  8
0
100
AcDbLine
 10
123.7365999999999
 20
835.7573999999999
 30
0.0
 11
123.8385999999999
 21
835.2624
 31
0.0
  0
LINE
  5
5F7
330
1E
100
AcDbEntity
  8
0
100
AcDbLine
 10
123.3234
 20
834.8544
 30
0.0
 11
123.8385999999999
 21
835.2624
 31
0.0
  0
LINE
  5
5F8
330
1E
100
AcDbEntity
  8
0
100
AcDbLine
 10
122.4693999999999
 20
834.7824000000001
 30
0.0
 11
123.3234
 21
834.8544
 31
0.0
  0
LINE
  5
5F9
330
1E
100
AcDbEntity
  8
0
100
AcDbLine
 10
123.0477999999999
 20
836.0483999999999
 30
0.0
 11
123.7365999999999
 21
835.7573999999999
 31
0.0
  0
LINE
  5
5FA
330
1E
100
AcDbEntity
  8
0
100
AcDbLine
 10
125.943
 20
836.9224
 30
0.0
 11
128.638
 21
833.6484
 31
0.0
  0
LINE
  5
5FC
330
1E
100
AcDbEntity
  8
0
100
AcDbLine
 10
122.4548999999999
 20
839.9224
 30
0.0
 11
125.943
 21
836.9224
 31
0.0
  0
LINE
  5
5FE
330
1E
100
AcDbEntity
  8
0
100
AcDbLine
 10
130.9679999999999
 20
844.6533999999999
 30
0.0
 11
131.345
 21
844.3224
 31
0.0
  0
LINE
  5
600
330
1E
100
AcDbEntity
  8
0
100
AcDbLine
 10
131.345
 20
844.3224
 30
0.0
 11
135.678
 21
840.6124
 31
0.0
  0
LINE
  5
601
330
1E
100
AcDbEntity
  8
0
100
AcDbLine
 10
131.345
 20
844.0853999999999
 30
0.0
 11
135.678
 21
840.3754000000001
 31
0.0
  0
LINE
  5
606
330
1E
100
AcDbEntity
  8
0
100
AcDbLine
 10
128.638
 20
833.6484
 30
0.0
 11
130.771
 21
830.2364
 31
0.0
  0
LINE
  5
607
330
1E
100
AcDbEntity
  8
0
100
AcDbLine
 10
130.771
 20
830.2364
 30
0.0
 11
132.0039999999999
 21
826.7004
 31
0.0
  0
LINE
  5
608
330
1E
100
AcDbEntity
  8
0
100
AcDbLine
 10
132.0039999999999
 20
826.7004
 30
0.0
 11
132.4529999999999
 21
823.0993999999999
 31
0.0
  0
LINE
  5
609
330
1E
100
AcDbEntity
  8
0
100
AcDbLine
 10
130.771
 20
815.9624
 30
0.0
 11
132.0039999999999
 21
819.4994000000001
 31
0.0
  0
LINE
  5
60A
330
1E
100
AcDbEntity
  8
0
100
AcDbLine
 10
135.678
 20
806.2993999999999
 30
0.0
 11
139.132
 21
810.2973999999999
 31
0.0
  0
LINE
  5
60B
330
1E
100
AcDbEntity
  8
0
100
AcDbLine
 10
135.331263058612
 20
806.0025970192461
 30
0.0
 11
135.678
 21
806.2993999999999
 31
0.0
  0
LINE
  5
60C
330
1E
100
AcDbEntity
  8
0
100
AcDbLine
 10
135.301
 20
805.9684
 30
0.0
 11
135.678
 21
806.2993999999999
 31
0.0
  0
LINE
  5
60D
330
1E
100
AcDbEntity
  8
0
100
AcDbLine
 10
139.132
 20
810.2973999999999
 30
0.0
 11
141.619
 21
814.5253999999999
 31
0.0
  0
LINE
  5
60F
330
1E
100
AcDbEntity
  8
0
100
AcDbLine
 10
141.619
 20
814.5253999999999
 30
0.0
 11
143.1279999999999
 21
818.9064
 31
0.0
  0
LINE
  5
611
330
1E
100
AcDbEntity
  8
0
100
AcDbLine
 10
143.1279999999999
 20
828.0063999999999
 30
0.0
 11
143.75
 21
823.5754
 31
0.0
  0
LINE
  5
612
330
1E
100
AcDbEntity
  8
0
100
AcDbLine
 10
135.301
 20
840.9444
 30
0.0
 11
135.678
 21
840.6124
 31
0.0
  0
LINE
  5
613
330
1E
100
AcDbEntity
  8
0
100
AcDbLine
 10
135.678
 20
840.6124
 30
0.0
 11
139.132
 21
836.6153999999999
 31
0.0
  0
LINE
  5
614
330
1E
100
AcDbEntity
  8
0
100
AcDbLine
 10
135.678
 20
840.3754000000001
 30
0.0
 11
139.132
 21
836.3773999999999
 31
0.0
  0
LINE
  5
615
330
1E
100
AcDbEntity
  8
0
100
AcDbLine
 10
134.4189999999999
 20
843.1763999999999
 30
0.0
 11
135.1825052742889
 21
841.0458301725508
 31
0.0
  0
LINE
  5
616
330
1E
100
AcDbEntity
  8
0
100
AcDbLine
 10
139.132
 20
836.6153999999999
 30
0.0
 11
141.619
 21
832.3873999999999
 31
0.0
  0
LINE
  5
617
330
1E
100
AcDbEntity
  8
0
100
AcDbLine
 10
141.619
 20
832.3873999999999
 30
0.0
 11
143.1279999999999
 21
828.0063999999999
 31
0.0
  0
LINE
  5
618
330
1E
100
AcDbEntity
  8
0
100
AcDbLine
 10
139.132
 20
836.3773999999999
 30
0.0
 11
141.619
 21
832.1493999999999
 31
0.0
  0
LINE
  5
619
330
1E
100
AcDbEntity
  8
0
100
AcDbLine
 10
141.619
 20
832.1493999999999
 30
0.0
 11
143.1279999999999
 21
827.7694
 31
0.0
  0
LINE
  5
61A
330
1E
100
AcDbEntity
  8
0
100
AcDbLine
 10
143.1279999999999
 20
827.7694
 30
0.0
 11
143.75
 21
823.3373999999999
 31
0.0
  0
LINE
  5
61C
330
1E
100
AcDbEntity
  8
0
100
AcDbLine
 10
143.75
 20
823.3373999999999
 30
0.0
 11
143.75
 21
823.5754
 31
0.0
  0
LINE
  5
61D
330
1E
100
AcDbEntity
  8
0
100
AcDbLine
 10
143.75
 20
823.5754
 30
0.0
 11
143.75
 21
823.3373999999999
 31
0.0
  0
LINE
  5
61E
330
1E
100
AcDbEntity
  8
0
100
AcDbLine
 10
143.1279999999999
 20
818.9064
 30
0.0
 11
143.75
 21
823.3373999999999
 31
0.0
  0
LINE
  5
620
330
1E
100
AcDbEntity
  8
0
100
AcDbLine
 10
132.0039999999999
 20
819.4994000000001
 30
0.0
 11
132.4529999999999
 21
823.0993999999999
 31
0.0
  0
LINE
  5
624
330
1E
100
AcDbEntity
  8
0
100
AcDbLine
 10
126.0089999999999
 20
848.0024
 30
0.0
 11
130.9679999999999
 21
844.6533999999999
 31
0.0
  0
LINE
  5
629
330
1E
100
AcDbEntity
  8
0
100
AcDbLine
 10
126.3249999999999
 20
847.4683999999999
 30
0.0
 11
131.345
 21
844.0853999999999
 31
0.0
  0
LINE
  5
62A
330
1E
100
AcDbEntity
  8
0
100
AcDbLine
 10
132.1989999999999
 20
846.9053999999999
 30
0.0
 11
134.4189999999999
 21
843.1763999999999
 31
0.0
  0
LINE
  5
635
330
1E
100
AcDbEntity
  8
0
100
AcDbLine
 10
117.8268
 20
858.4203999999999
 30
0.0
 11
118.8139526900309
 21
857.7765478488331
 31
0.0
  0
LINE
  5
63C
330
1E
100
AcDbEntity
  8
0
100
AcDbLine
 10
120.171
 20
850.8464
 30
0.0
 11
126.0089999999999
 21
848.0024
 31
0.0
  0
LINE
  5
63E
330
1E
100
AcDbEntity
  8
0
100
AcDbLine
 10
129.2839999999999
 20
850.3223999999999
 30
0.0
 11
132.1989999999999
 21
846.9053999999999
 31
0.0
  0
LINE
  5
63F
330
1E
100
AcDbEntity
  8
0
100
AcDbLine
 10
120.4771999999999
 20
856.9274
 30
0.0
 11
124.9479999999999
 21
854.0454
 31
0.0
  0
LINE
  5
640
330
1E
100
AcDbEntity
  8
0
100
AcDbLine
 10
124.9479999999999
 20
854.0454
 30
0.0
 11
125.442
 21
853.5914
 31
0.0
  0
LINE
  5
641
330
1E
100
AcDbEntity
  8
0
100
AcDbLine
 10
124.9479999999999
 20
854.0454
 30
0.0
 11
126.9737192581789
 21
852.2881229945379
 31
0.0
  0
LINE
  5
642
330
1E
100
AcDbEntity
  8
0
100
AcDbLine
 10
125.442
 20
853.5914
 30
0.0
 11
129.2839999999999
 21
850.3223999999999
 31
0.0
  0
LINE
  5
646
330
1E
100
AcDbEntity
  8
0
100
AcDbLine
 10
120.4222
 20
850.3504000000001
 30
0.0
 11
126.3249999999999
 21
847.4683999999999
 31
0.0
  0
LINE
  5
64D
330
1E
100
AcDbEntity
  8
0
100
AcDbLine
 10
115.4374
 20
859.5004000000001
 30
0.0
 11
120.4771999999999
 21
856.9274
 31
0.0
  0
LINE
  5
64E
330
1E
100
AcDbEntity
  8
0
100
AcDbLine
 10
110.6379999999999
 20
861.9004
 30
0.0
 11
113.1264
 21
860.8064
 31
0.0
  0
LINE
  5
64F
330
1E
100
AcDbEntity
  8
0
100
AcDbLine
 10
105.9377
 20
863.8094
 30
0.0
 11
110.6379999999999
 21
861.9004
 31
0.0
  0
LINE
  5
650
330
1E
100
AcDbEntity
  8
0
100
AcDbLine
 10
109.8219999999999
 20
861.6414
 30
0.0
 11
115.4374
 21
859.5004000000001
 31
0.0
  0
LINE
  5
651
330
1E
100
AcDbEntity
  8
0
100
AcDbLine
 10
103.9352999999999
 20
863.2874000000001
 30
0.0
 11
109.8219999999999
 21
861.6414
 31
0.0
  0
LINE
  5
652
330
1E
100
AcDbEntity
  8
0
100
AcDbLine
 10
98.25000000000001
 20
703.3383999999999
 30
0.0
 11
98.25000000000001
 21
649.6444
 31
0.0
  0
LINE
  5
653
330
1E
100
AcDbEntity
  8
0
100
AcDbLine
 10
97.74600000000001
 20
701.5743999999999
 30
0.0
 11
98.25000000000001
 21
703.3383999999999
 31
0.0
  0
LINE
  5
654
330
1E
100
AcDbEntity
  8
0
100
AcDbLine
 10
92.24999999999999
 20
681.351710344828
 30
0.0
 11
92.24999999999999
 21
661.4924
 31
0.0
  0
LINE
  5
655
330
1E
100
AcDbEntity
  8
0
100
AcDbLine
 10
76.25
 20
673.6614624999999
 30
0.0
 11
77.15
 21
673.0714
 31
0.0
  0
LINE
  5
656
330
1E
100
AcDbEntity
  8
0
100
AcDbLine
 10
72.75
 20
970.0124
 30
0.0
 11
75.35
 21
976.2124
 31
0.0
  0
LINE
  5
657
330
1E
100
AcDbEntity
  8
0
100
AcDbLine
 10
72.75
 20
995.8123999999999
 30
0.0
 11
75.35
 21
989.6124
 31
0.0
  0
LINE
  5
658
330
1E
100
AcDbEntity
  8
0
100
AcDbLine
 10
75.35
 20
989.6124
 30
0.0
 11
76.25
 21
982.9124
 31
0.0
  0
LINE
  5
659
330
1E
100
AcDbEntity
  8
0
100
AcDbLine
 10
75.35
 20
976.2124
 30
0.0
 11
76.25
 21
982.9124
 31
0.0
  0
LINE
  5
65A
330
1E
100
AcDbEntity
  8
0
100
AcDbLine
 10
70.25
 20
635.2454
 30
0.0
 11
70.25
 21
632.3684
 31
0.0
  0
LINE
  5
65B
330
1E
100
AcDbEntity
  8
0
100
AcDbLine
 10
70.25
 20
635.2454
 30
0.0
 11
70.25
 21
638.9124
 31
0.0
  0
LINE
  5
65C
330
1E
100
AcDbEntity
  8
0
100
AcDbLine
 10
70.25
 20
632.3684
 30
0.0
 11
70.25
 21
630.5034
 31
0.0
  0
LINE
  5
65D
330
1E
100
AcDbEntity
  8
0
100
AcDbLine
 10
70.25
 20
632.3684
 30
0.0
 11
70.25
 21
635.2454
 31
0.0
  0
LINE
  5
65E
330
1E
100
AcDbEntity
  8
0
100
AcDbLine
 10
32.91669999999999
 20
632.7714
 30
0.0
 11
32.91669999999999
 21
630.9954
 31
0.0
  0
LINE
  5
65F
330
1E
100
AcDbEntity
  8
0
100
AcDbLine
 10
32.91669999999999
 20
632.7714
 30
0.0
 11
32.91669999999999
 21
635.5243999999999
 31
0.0
  0
LINE
  5
660
330
1E
100
AcDbEntity
  8
0
100
AcDbLine
 10
32.91669999999999
 20
630.9954
 30
0.0
 11
32.91669999999999
 21
630.3994
 31
0.0
  0
LINE
  5
661
330
1E
100
AcDbEntity
  8
0
100
AcDbLine
 10
32.91669999999999
 20
630.9954
 30
0.0
 11
32.91669999999999
 21
632.7714
 31
0.0
  0
LINE
  5
662
330
1E
100
AcDbEntity
  8
0
100
AcDbLine
 10
32.16279999999999
 20
629.9174
 30
0.0
 11
32.91669999999999
 21
630.3994
 31
0.0
  0
LINE
  5
667
330
1E
100
AcDbEntity
  8
0
100
AcDbLine
 10
39.25
 20
665.9074
 30
0.0
 11
61.25
 21
665.9074
 31
0.0
  0
LINE
  5
668
330
1E
100
AcDbEntity
  8
0
100
AcDbLine
 10
76.25
 20
659.6223999999999
 30
0.0
 11
76.25
 21
673.6614624999999
 31
0.0
  0
LINE
  5
669
330
1E
100
AcDbEntity
  8
0
100
AcDbLine
 10
76.25
 20
673.6614624999999
 30
0.0
 11
76.25
 21
696.5234
 31
0.0
  0
ENDSEC
  0
SECTION
  2
OBJECTS
  0
DICTIONARY
  5
C
330
0
100
AcDbDictionary
281
     1
  3
ACAD_GROUP
350
D
  3
ACAD_LAYOUT
350
19
  3
ACAD_MLINESTYLE
350
16
  3
ACAD_PLOTSETTINGS
350
18
  3
ACAD_PLOTSTYLENAME
350
E
  3
AcDbVariableDictionary
350
66A
  0
DICTIONARY
  5
D
102
{ACAD_REACTORS
330
C
102
}
330
C
100
AcDbDictionary
281
     1
  0
DICTIONARY
  5
19
102
{ACAD_REACTORS
330
C
102
}
330
C
100
AcDbDictionary
281
     1
  3
Layout1
350
1D
  3
Model
350
21
  0
DICTIONARY
  5
16
102
{ACAD_REACTORS
330
C
102
}
330
C
100
AcDbDictionary
281
     1
  3
Standard
350
17
  0
DICTIONARY
  5
18
102
{ACAD_REACTORS
330
C
102
}
330
C
100
AcDbDictionary
281
     1
  0
ACDBDICTIONARYWDFLT
  5
E
102
{ACAD_REACTORS
330
C
102
}
330
C
100
AcDbDictionary
281
     1
  3
Normal
350
F
100
AcDbDictionaryWithDefault
340
F
  0
DICTIONARY
  5
66A
102
{ACAD_REACTORS
330
C
102
}
330
C
100
AcDbDictionary
281
     1
  3
DIMASSOC
350
66B
  0
LAYOUT
  5
1D
102
{ACAD_REACTORS
330
19
102
}
330
19
100
AcDbPlotSettings
  1

  2
hp deskjet 980c series
  4

  6

 40
0.0
 41
0.0
 42
0.0
 43
0.0
 44
0.0
 45
0.0
 46
0.0
 47
0.0
 48
0.0
 49
0.0
140
0.0
141
0.0
142
1.0
143
1.0
 70
   688
 72
     0
 73
     0
 74
     5
  7

 75
    16
147
1.0
148
0.0
149
0.0
100
AcDbLayout
  1
Layout1
 70
     1
 71
     1
 10
0.0
 20
0.0
 11
12.0
 21
9.0
 12
0.0
 22
0.0
 32
0.0
 14
1.000000000000000E+20
 24
1.000000000000000E+20
 34
1.000000000000000E+20
 15
-1.000000000000000E+20
 25
-1.000000000000000E+20
 35
-1.000000000000000E+20
146
0.0
 13
0.0
 23
0.0
 33
0.0
 16
1.0
 26
0.0
 36
0.0
 17
0.0
 27
1.0
 37
0.0
 76
     0
330
1A
  0
LAYOUT
  5
21
102
{ACAD_REACTORS
330
19
102
}
330
19
100
AcDbPlotSettings
  1

  2
hp deskjet 980c series
  4

  6

 40
0.0
 41
0.0
 42
0.0
 43
0.0
 44
0.0
 45
0.0
 46
0.0
 47
0.0
 48
0.0
 49
0.0
140
0.0
141
0.0
142
1.0
143
1.0
 70
  1712
 72
     0
 73
     0
 74
     0
  7

 75
     0
147
1.0
148
0.0
149
0.0
100
AcDbLayout
  1
Model
 70
     1
 71
     0
 10
0.0
 20
0.0
 11
12.0
 21
9.0
 12
0.0
 22
0.0
 32
0.0
 14
0.0
 24
0.0
 34
0.0
 15
0.0
 25
0.0
 35
0.0
146
0.0
 13
0.0
 23
0.0
 33
0.0
 16
1.0
 26
0.0
 36
0.0
 17
0.0
 27
1.0
 37
0.0
 76
     0
330
1E
  0
MLINESTYLE
  5
17
102
{ACAD_REACTORS
330
16
102
}
330
16
100
AcDbMlineStyle
  2
STANDARD
 70
     0
  3

 62
   256
 51
90.0
 52
90.0
 71
     2
 49
0.5
 62
   256
  6
BYLAYER
 49
-0.5
 62
   256
  6
BYLAYER
  0
ACDBPLACEHOLDER
  5
F
102
{ACAD_REACTORS
330
E
102
}
330
E
  0
DICTIONARYVAR
  5
66B
102
{ACAD_REACTORS
330
66A
102
}
330
66A
100
DictionaryVariables
280
     0
  1
1
  0
ENDSEC
  0
EOF
