  0
SECTION
  2
HEADER
  9
$ACADVER
  1
AC1015
  9
$ACADMAINTVER
 70
    13
  9
$DWGCODEPAGE
  3
ANSI_1252
  9
$INSBASE
 10
0.0
 20
0.0
 30
0.0
  9
$EXTMIN
 10
-0.0000000000000053
 20
0.174000000000021
 30
0.0
  9
$EXTMAX
 10
152.0
 20
150.8259999999999
 30
0.0
  9
$LIMMIN
 10
0.0
 20
0.0
  9
$LIMMAX
 10
12.0
 20
9.0
  9
$ORTHOMODE
 70
     0
  9
$REGENMODE
 70
     1
  9
$FILLMODE
 70
     1
  9
$QTEXTMODE
 70
     0
  9
$MIRRTEXT
 70
     1
  9
$LTSCALE
 40
1.0
  9
$ATTMODE
 70
     1
  9
$TEXTSIZE
 40
0.2
  9
$TRACEWID
 40
0.05
  9
$TEXTSTYLE
  7
Standard
  9
$CLAYER
  8
0
  9
$CELTYPE
  6
Continuous
  9
$CECOLOR
 62
   256
  9
$CELTSCALE
 40
1.0
  9
$DISPSILH
 70
     0
  9
$DIMSCALE
 40
1.0
  9
$DIMASZ
 40
0.18
  9
$DIMEXO
 40
0.0625
  9
$DIMDLI
 40
0.38
  9
$DIMRND
 40
0.0
  9
$DIMDLE
 40
0.0
  9
$DIMEXE
 40
0.18
  9
$DIMTP
 40
0.0
  9
$DIMTM
 40
0.0
  9
$DIMTXT
 40
0.18
  9
$DIMCEN
 40
0.09
  9
$DIMTSZ
 40
0.0
  9
$DIMTOL
 70
     0
  9
$DIMLIM
 70
     0
  9
$DIMTIH
 70
     1
  9
$DIMTOH
 70
     1
  9
$DIMSE1
 70
     0
  9
$DIMSE2
 70
     0
  9
$DIMTAD
 70
     0
  9
$DIMZIN
 70
     0
  9
$DIMBLK
  1

  9
$DIMASO
 70
     1
  9
$DIMSHO
 70
     1
  9
$DIMPOST
  1

  9
$DIMAPOST
  1

  9
$DIMALT
 70
     0
  9
$DIMALTD
 70
     2
  9
$DIMALTF
 40
25.4
  9
$DIMLFAC
 40
1.0
  9
$DIMTOFL
 70
     0
  9
$DIMTVP
 40
0.0
  9
$DIMTIX
 70
     0
  9
$DIMSOXD
 70
     0
  9
$DIMSAH
 70
     0
  9
$DIMBLK1
  1

  9
$DIMBLK2
  1

  9
$DIMSTYLE
  2
Standard
  9
$DIMCLRD
 70
     0
  9
$DIMCLRE
 70
     0
  9
$DIMCLRT
 70
     0
  9
$DIMTFAC
 40
1.0
  9
$DIMGAP
 40
0.09
  9
$DIMJUST
 70
     0
  9
$DIMSD1
 70
     0
  9
$DIMSD2
 70
     0
  9
$DIMTOLJ
 70
     1
  9
$DIMTZIN
 70
     0
  9
$DIMALTZ
 70
     0
  9
$DIMALTTZ
 70
     0
  9
$DIMUPT
 70
     0
  9
$DIMDEC
 70
     4
  9
$DIMTDEC
 70
     4
  9
$DIMALTU
 70
     2
  9
$DIMALTTD
 70
     2
  9
$DIMTXSTY
  7
Standard
  9
$DIMAUNIT
 70
     0
  9
$DIMADEC
 70
     0
  9
$DIMALTRND
 40
0.0
  9
$DIMAZIN
 70
     0
  9
$DIMDSEP
 70
    46
  9
$DIMATFIT
 70
     3
  9
$DIMFRAC
 70
     0
  9
$DIMLDRBLK
  1

  9
$DIMLUNIT
 70
     2
  9
$DIMLWD
 70
    -2
  9
$DIMLWE
 70
    -2
  9
$DIMTMOVE
 70
     0
  9
$LUNITS
 70
     2
  9
$LUPREC
 70
     4
  9
$SKETCHINC
 40
0.1
  9
$FILLETRAD
 40
0.0
  9
$AUNITS
 70
     0
  9
$AUPREC
 70
     0
  9
$MENU
  1
.
  9
$ELEVATION
 40
0.0
  9
$PELEVATION
 40
0.0
  9
$THICKNESS
 40
0.0
  9
$LIMCHECK
 70
     0
  9
$CHAMFERA
 40
0.0
  9
$CHAMFERB
 40
0.0
  9
$CHAMFERC
 40
0.0
  9
$CHAMFERD
 40
0.0
  9
$SKPOLY
 70
     0
  9
$TDCREATE
 40
2454831.882191296
  9
$TDUCREATE
 40
2454831.840524629
  9
$TDUPDATE
 40
2454831.885352823
  9
$TDUUPDATE
 40
2454831.843686157
  9
$TDINDWG
 40
0.0031617130
  9
$TDUSRTIMER
 40
0.0031617130
  9
$USRTIMER
 70
     1
  9
$ANGBASE
 50
0.0
  9
$ANGDIR
 70
     0
  9
$PDMODE
 70
     0
  9
$PDSIZE
 40
0.0
  9
$PLINEWID
 40
0.0
  9
$SPLFRAME
 70
     0
  9
$SPLINETYPE
 70
     6
  9
$SPLINESEGS
 70
     8
  9
$HANDSEED
  5
28C
  9
$SURFTAB1
 70
     6
  9
$SURFTAB2
 70
     6
  9
$SURFTYPE
 70
     6
  9
$SURFU
 70
     6
  9
$SURFV
 70
     6
  9
$UCSBASE
  2

  9
$UCSNAME
  2

  9
$UCSORG
 10
0.0
 20
0.0
 30
0.0
  9
$UCSXDIR
 10
1.0
 20
0.0
 30
0.0
  9
$UCSYDIR
 10
0.0
 20
1.0
 30
0.0
  9
$UCSORTHOREF
  2

  9
$UCSORTHOVIEW
 70
     1
  9
$UCSORGTOP
 10
0.0
 20
0.0
 30
0.0
  9
$UCSORGBOTTOM
 10
0.0
 20
0.0
 30
0.0
  9
$UCSORGLEFT
 10
0.0
 20
0.0
 30
0.0
  9
$UCSORGRIGHT
 10
0.0
 20
0.0
 30
0.0
  9
$UCSORGFRONT
 10
0.0
 20
0.0
 30
0.0
  9
$UCSORGBACK
 10
0.0
 20
0.0
 30
0.0
  9
$PUCSBASE
  2

  9
$PUCSNAME
  2

  9
$PUCSORG
 10
0.0
 20
0.0
 30
0.0
  9
$PUCSXDIR
 10
1.0
 20
0.0
 30
0.0
  9
$PUCSYDIR
 10
0.0
 20
1.0
 30
0.0
  9
$PUCSORTHOREF
  2

  9
$PUCSORTHOVIEW
 70
     0
  9
$PUCSORGTOP
 10
0.0
 20
0.0
 30
0.0
  9
$PUCSORGBOTTOM
 10
0.0
 20
0.0
 30
0.0
  9
$PUCSORGLEFT
 10
0.0
 20
0.0
 30
0.0
  9
$PUCSORGRIGHT
 10
0.0
 20
0.0
 30
0.0
  9
$PUCSORGFRONT
 10
0.0
 20
0.0
 30
0.0
  9
$PUCSORGBACK
 10
0.0
 20
0.0
 30
0.0
  9
$USERI1
 70
     0
  9
$USERI2
 70
     0
  9
$USERI3
 70
     0
  9
$USERI4
 70
     0
  9
$USERI5
 70
     0
  9
$USERR1
 40
0.0
  9
$USERR2
 40
0.0
  9
$USERR3
 40
0.0
  9
$USERR4
 40
0.0
  9
$USERR5
 40
0.0
  9
$WORLDVIEW
 70
     1
  9
$SHADEDGE
 70
     3
  9
$SHADEDIF
 70
    70
  9
$TILEMODE
 70
     1
  9
$MAXACTVP
 70
    64
  9
$PINSBASE
 10
0.0
 20
0.0
 30
0.0
  9
$PLIMCHECK
 70
     0
  9
$PEXTMIN
 10
1.000000000000000E+20
 20
1.000000000000000E+20
 30
1.000000000000000E+20
  9
$PEXTMAX
 10
-1.000000000000000E+20
 20
-1.000000000000000E+20
 30
-1.000000000000000E+20
  9
$PLIMMIN
 10
0.0
 20
0.0
  9
$PLIMMAX
 10
12.0
 20
9.0
  9
$UNITMODE
 70
     0
  9
$VISRETAIN
 70
     1
  9
$PLINEGEN
 70
     0
  9
$PSLTSCALE
 70
     1
  9
$TREEDEPTH
 70
  3020
  9
$CMLSTYLE
  2
Standard
  9
$CMLJUST
 70
     0
  9
$CMLSCALE
 40
1.0
  9
$PROXYGRAPHICS
 70
     1
  9
$MEASUREMENT
 70
     0
  9
$CELWEIGHT
370
    -1
  9
$ENDCAPS
280
     0
  9
$JOINSTYLE
280
     0
  9
$LWDISPLAY
290
     0
  9
$INSUNITS
 70
     0
  9
$HYPERLINKBASE
  1

  9
$STYLESHEET
  1

  9
$XEDIT
290
     1
  9
$CEPSNTYPE
380
     0
  9
$PSTYLEMODE
290
     1
  9
$FINGERPRINTGUID
  2
{FA8774AC-BEE8-4D3B-BF30-3259A8DDF287}
  9
$VERSIONGUID
  2
{9DF62162-1984-407D-A73A-A6E99DB5C04C}
  9
$EXTNAMES
290
     1
  9
$PSVPSCALE
 40
0.0
  9
$OLESTARTUP
290
     0
  0
ENDSEC
  0
SECTION
  2
CLASSES
  0
CLASS
  1
ACDBDICTIONARYWDFLT
  2
AcDbDictionaryWithDefault
  3
AutoCAD 2000
 90
        0
280
     0
281
     0
  0
CLASS
  1
ACDBPLACEHOLDER
  2
AcDbPlaceHolder
  3
AutoCAD 2000
 90
        0
280
     0
281
     0
  0
CLASS
  1
LAYOUT
  2
AcDbLayout
  3
AutoCAD 2000
 90
        0
280
     0
281
     0
  0
CLASS
  1
DICTIONARYVAR
  2
AcDbDictionaryVar
  3
AutoCAD 2000
 90
        0
280
     0
281
     0
  0
ENDSEC
  0
SECTION
  2
TABLES
  0
TABLE
  2
VPORT
  5
8
330
0
100
AcDbSymbolTable
 70
     2
  0
VPORT
  5
28B
330
8
100
AcDbSymbolTableRecord
100
AcDbViewportTableRecord
  2
*Active
 70
     0
 10
0.0
 20
0.0
 11
1.0
 21
1.0
 12
76.0
 22
75.5
 13
0.0
 23
0.0
 14
1.0
 24
1.0
 15
0.0
 25
0.0
 16
0.0
 26
0.0
 36
1.0
 17
0.0
 27
0.0
 37
0.0
 40
151.8078976982096
 41
2.078104993597951
 42
50.0
 43
0.0
 44
0.0
 50
0.0
 51
0.0
 71
     0
 72
   100
 73
     1
 74
     3
 75
     0
 76
     0
 77
     0
 78
     0
281
     0
 65
     1
110
0.0
120
0.0
130
0.0
111
1.0
121
0.0
131
0.0
112
0.0
122
1.0
132
0.0
 79
     1
146
0.0
  0
ENDTAB
  0
TABLE
  2
LTYPE
  5
5
330
0
100
AcDbSymbolTable
 70
     1
  0
LTYPE
  5
13
330
5
100
AcDbSymbolTableRecord
100
AcDbLinetypeTableRecord
  2
ByBlock
 70
     0
  3

 72
    65
 73
     0
 40
0.0
  0
LTYPE
  5
14
330
5
100
AcDbSymbolTableRecord
100
AcDbLinetypeTableRecord
  2
ByLayer
 70
     0
  3

 72
    65
 73
     0
 40
0.0
  0
LTYPE
  5
15
330
5
100
AcDbSymbolTableRecord
100
AcDbLinetypeTableRecord
  2
Continuous
 70
     0
  3
Solid line
 72
    65
 73
     0
 40
0.0
  0
ENDTAB
  0
TABLE
  2
LAYER
  5
2
330
0
100
AcDbSymbolTable
 70
     1
  0
LAYER
  5
10
330
2
100
AcDbSymbolTableRecord
100
AcDbLayerTableRecord
  2
0
 70
     0
 62
     7
  6
Continuous
370
    -3
390
F
  0
ENDTAB
  0
TABLE
  2
STYLE
  5
3
330
0
100
AcDbSymbolTable
 70
     1
  0
STYLE
  5
11
330
3
100
AcDbSymbolTableRecord
100
AcDbTextStyleTableRecord
  2
Standard
 70
     0
 40
0.0
 41
1.0
 50
0.0
 71
     0
 42
0.2
  3
txt
  4

  0
ENDTAB
  0
TABLE
  2
VIEW
  5
6
330
0
100
AcDbSymbolTable
 70
     0
  0
ENDTAB
  0
TABLE
  2
UCS
  5
7
330
0
100
AcDbSymbolTable
 70
     0
  0
ENDTAB
  0
TABLE
  2
APPID
  5
9
330
0
100
AcDbSymbolTable
 70
     1
  0
APPID
  5
12
330
9
100
AcDbSymbolTableRecord
100
AcDbRegAppTableRecord
  2
ACAD
 70
     0
  0
ENDTAB
  0
TABLE
  2
DIMSTYLE
  5
A
330
0
100
AcDbSymbolTable
 70
     1
100
AcDbDimStyleTable
 71
     0
  0
DIMSTYLE
105
281
330
A
100
AcDbSymbolTableRecord
100
AcDbDimStyleTableRecord
  2
Standard
 70
     0
340
11
  0
ENDTAB
  0
TABLE
  2
BLOCK_RECORD
  5
1
330
0
100
AcDbSymbolTable
 70
     0
  0
BLOCK_RECORD
  5
1E
330
1
100
AcDbSymbolTableRecord
100
AcDbBlockTableRecord
  2
*Model_Space
340
21
  0
BLOCK_RECORD
  5
1A
330
1
100
AcDbSymbolTableRecord
100
AcDbBlockTableRecord
  2
*Paper_Space
340
1D
  0
ENDTAB
  0
ENDSEC
  0
SECTION
  2
BLOCKS
  0
BLOCK
  5
1F
330
1E
100
AcDbEntity
  8
0
100
AcDbBlockBegin
  2
*Model_Space
 70
     0
 10
0.0
 20
0.0
 30
0.0
  3
*Model_Space
  1

  0
ENDBLK
  5
20
330
1E
100
AcDbEntity
  8
0
100
AcDbBlockEnd
  0
BLOCK
  5
1B
330
1A
100
AcDbEntity
 67
     1
  8
0
100
AcDbBlockBegin
  2
*Paper_Space
 70
     0
 10
0.0
 20
0.0
 30
0.0
  3
*Paper_Space
  1

  0
ENDBLK
  5
1C
330
1A
100
AcDbEntity
 67
     1
  8
0
100
AcDbBlockEnd
  0
ENDSEC
  0
SECTION
  2
ENTITIES
  0
LINE
  5
24
330
1E
100
AcDbEntity
  8
0
100
AcDbLine
 10
0.252499999999995
 20
31.5955
 30
0.0
 11
1.083099999999989
 21
30.8486
 31
0.0
  0
LINE
  5
26
330
1E
100
AcDbEntity
  8
0
100
AcDbLine
 10
-0.0000000000000053
 20
32.96179999999999
 30
0.0
 11
0.517399999999995
 21
39.4552
 31
0.0
  0
LINE
  5
27
330
1E
100
AcDbEntity
  8
0
100
AcDbLine
 10
-0.0000000000000053
 20
32.96179999999999
 30
0.0
 11
0.252499999999995
 21
31.5955
 31
0.0
  0
LINE
  5
2C
330
1E
100
AcDbEntity
  8
0
100
AcDbLine
 10
1.083099999999989
 20
30.8486
 30
0.0
 11
5.308099999999999
 21
30.826
 31
0.0
  0
LINE
  5
33
330
1E
100
AcDbEntity
  8
0
100
AcDbLine
 10
0.517399999999995
 20
39.4552
 30
0.0
 11
1.322899999999999
 21
45.95729999999999
 31
0.0
  0
LINE
  5
34
330
1E
100
AcDbEntity
  8
0
100
AcDbLine
 10
1.322899999999999
 20
45.95729999999999
 30
0.0
 11
3.24459999999999
 21
54.7965
 31
0.0
  0
LINE
  5
3F
330
1E
100
AcDbEntity
  8
0
100
AcDbLine
 10
5.308099999999999
 20
30.826
 30
0.0
 11
6.14149999999999
 21
31.5661
 31
0.0
  0
LINE
  5
42
330
1E
100
AcDbEntity
  8
0
100
AcDbLine
 10
3.24459999999999
 20
54.7965
 30
0.0
 11
6.0987
 21
66.13739999999999
 31
0.0
  0
LINE
  5
43
330
1E
100
AcDbEntity
  8
0
100
AcDbLine
 10
6.14149999999999
 20
31.5661
 30
0.0
 11
6.39889999999999
 21
32.93039999999999
 31
0.0
  0
LINE
  5
44
330
1E
100
AcDbEntity
  8
0
100
AcDbLine
 10
6.39889999999999
 20
32.93039999999999
 30
0.0
 11
6.93209999999999
 21
37.3394
 31
0.0
  0
LINE
  5
47
330
1E
100
AcDbEntity
  8
0
100
AcDbLine
 10
6.93209999999999
 20
37.3394
 30
0.0
 11
7.818599999999999
 21
43.9763
 31
0.0
  0
LINE
  5
49
330
1E
100
AcDbEntity
  8
0
100
AcDbLine
 10
7.818599999999999
 20
43.9763
 30
0.0
 11
9.69999999999999
 21
51.7139
 31
0.0
  0
LINE
  5
4A
330
1E
100
AcDbEntity
  8
0
100
AcDbLine
 10
6.0987
 20
66.13739999999999
 30
0.0
 11
8.478899999999999
 21
75.8618
 31
0.0
  0
LINE
  5
4B
330
1E
100
AcDbEntity
  8
0
100
AcDbLine
 10
8.478899999999999
 20
75.8618
 30
0.0
 11
10.6122
 21
85.88469999999999
 31
0.0
  0
LINE
  5
4E
330
1E
100
AcDbEntity
  8
0
100
AcDbLine
 10
9.69999999999999
 20
51.7139
 30
0.0
 11
12.7374
 21
62.7583
 31
0.0
  0
LINE
  5
50
330
1E
100
AcDbEntity
  8
0
100
AcDbLine
 10
11.4411
 20
90.82600000000001
 30
0.0
 11
11.9603
 21
93.56019999999999
 31
0.0
  0
LINE
  5
51
330
1E
100
AcDbEntity
  8
0
100
AcDbLine
 10
10.6122
 20
85.88469999999999
 30
0.0
 11
11.4411
 21
90.82600000000001
 31
0.0
  0
LINE
  5
53
330
1E
100
AcDbEntity
  8
0
100
AcDbLine
 10
12.7374
 20
62.7583
 30
0.0
 11
15.8327
 21
74.3981
 31
0.0
  0
LINE
  5
54
330
1E
100
AcDbEntity
  8
0
100
AcDbLine
 10
15.8327
 20
74.3981
 30
0.0
 11
17.60559999999999
 21
82.37860000000001
 31
0.0
  0
LINE
  5
58
330
1E
100
AcDbEntity
  8
0
100
AcDbLine
 10
19.3002
 20
90.82600000000001
 30
0.0
 11
19.5695
 21
92.01170000000001
 31
0.0
  0
LINE
  5
59
330
1E
100
AcDbEntity
  8
0
100
AcDbLine
 10
19.5695
 20
92.01170000000001
 30
0.0
 11
20.96039999999999
 21
95.01040000000001
 31
0.0
  0
LINE
  5
5A
330
1E
100
AcDbEntity
  8
0
100
AcDbLine
 10
17.60559999999999
 20
82.37860000000001
 30
0.0
 11
19.3002
 21
90.82600000000001
 31
0.0
  0
LINE
  5
5D
330
1E
100
AcDbEntity
  8
0
100
AcDbLine
 10
11.9603
 20
93.56019999999999
 30
0.0
 11
12.7923
 21
100.8113
 31
0.0
  0
LINE
  5
61
330
1E
100
AcDbEntity
  8
0
100
AcDbLine
 10
36.1416
 20
97.5824
 30
0.0
 11
36.2316
 21
97.5824
 31
0.0
  0
LINE
  5
62
330
1E
100
AcDbEntity
  8
0
100
AcDbLine
 10
36.1416
 20
97.5824
 30
0.0
 11
36.1416
 21
97.8091673446328
 31
0.0
  0
LINE
  5
63
330
1E
100
AcDbEntity
  8
0
100
AcDbLine
 10
36.2316
 20
97.5824
 30
0.0
 11
36.4716
 21
97.5824
 31
0.0
  0
LINE
  5
64
330
1E
100
AcDbEntity
  8
0
100
AcDbLine
 10
36.4716
 20
97.5824
 30
0.0
 11
36.8716
 21
97.5824
 31
0.0
  0
LINE
  5
65
330
1E
100
AcDbEntity
  8
0
100
AcDbLine
 10
36.8716
 20
97.5824
 30
0.0
 11
37.4016
 21
97.5824
 31
0.0
  0
LINE
  5
66
330
1E
100
AcDbEntity
  8
0
100
AcDbLine
 10
37.4016
 20
97.5824
 30
0.0
 11
38.0016
 21
97.5824
 31
0.0
  0
LINE
  5
67
330
1E
100
AcDbEntity
  8
0
100
AcDbLine
 10
38.0016
 20
97.5824
 30
0.0
 11
38.6416
 21
97.5824
 31
0.0
  0
LINE
  5
68
330
1E
100
AcDbEntity
  8
0
100
AcDbLine
 10
41.1416
 20
97.5824
 30
0.0
 11
41.1416
 21
97.80938464146021
 31
0.0
  0
LINE
  5
69
330
1E
100
AcDbEntity
  8
0
100
AcDbLine
 10
41.0516
 20
97.5824
 30
0.0
 11
41.1416
 21
97.5824
 31
0.0
  0
LINE
  5
6A
330
1E
100
AcDbEntity
  8
0
100
AcDbLine
 10
40.81159999999999
 20
97.5824
 30
0.0
 11
41.0516
 21
97.5824
 31
0.0
  0
LINE
  5
6B
330
1E
100
AcDbEntity
  8
0
100
AcDbLine
 10
40.4116
 20
97.5824
 30
0.0
 11
40.81159999999999
 21
97.5824
 31
0.0
  0
LINE
  5
6C
330
1E
100
AcDbEntity
  8
0
100
AcDbLine
 10
39.8816
 20
97.5824
 30
0.0
 11
40.4116
 21
97.5824
 31
0.0
  0
LINE
  5
6D
330
1E
100
AcDbEntity
  8
0
100
AcDbLine
 10
39.2816
 20
97.5824
 30
0.0
 11
39.8816
 21
97.5824
 31
0.0
  0
LINE
  5
6E
330
1E
100
AcDbEntity
  8
0
100
AcDbLine
 10
38.6416
 20
97.5824
 30
0.0
 11
39.2816
 21
97.5824
 31
0.0
  0
LINE
  5
6F
330
1E
100
AcDbEntity
  8
0
100
AcDbLine
 10
56.0
 20
97.77000000000001
 30
0.0
 11
56.0
 21
98.43600000000002
 31
0.0
  0
LINE
  5
70
330
1E
100
AcDbEntity
  8
0
100
AcDbLine
 10
56.0
 20
97.77000000000001
 30
0.0
 11
56.6
 21
97.32600000000001
 31
0.0
  0
LINE
  5
71
330
1E
100
AcDbEntity
  8
0
100
AcDbLine
 10
56.0
 20
97.77000000000001
 30
0.0
 11
56.0
 21
98.32600000000001
 31
0.0
  0
LINE
  5
72
330
1E
100
AcDbEntity
  8
0
100
AcDbLine
 10
56.6
 20
97.32600000000001
 30
0.0
 11
56.6
 21
97.992
 31
0.0
  0
LINE
  5
73
330
1E
100
AcDbEntity
  8
0
100
AcDbLine
 10
56.6
 20
97.32600000000001
 30
0.0
 11
66.0117511111111
 21
97.32600000000001
 31
0.0
  0
LINE
  5
74
330
1E
100
AcDbEntity
  8
0
100
AcDbLine
 10
56.6
 20
97.32600000000001
 30
0.0
 11
66.0117511111111
 21
97.32600000000001
 31
0.0
  0
LINE
  5
75
330
1E
100
AcDbEntity
  8
0
100
AcDbLine
 10
23.1963
 20
97.01109999999999
 30
0.0
 11
25.388
 21
97.8087
 31
0.0
  0
LINE
  5
76
330
1E
100
AcDbEntity
  8
0
100
AcDbLine
 10
36.1416
 20
97.8091673446328
 30
0.0
 11
36.1416
 21
97.5824
 31
0.0
  0
LINE
  5
77
330
1E
100
AcDbEntity
  8
0
100
AcDbLine
 10
12.7923
 20
100.8113
 30
0.0
 11
12.7923
 21
132.084
 31
0.0
  0
LINE
  5
7B
330
1E
100
AcDbEntity
  8
0
100
AcDbLine
 10
53.0
 20
98.32600000000001
 30
0.0
 11
56.0
 21
98.32600000000001
 31
0.0
  0
LINE
  5
7C
330
1E
100
AcDbEntity
  8
0
100
AcDbLine
 10
56.0
 20
98.32600000000001
 30
0.0
 11
56.0
 21
97.77000000000001
 31
0.0
  0
LINE
  5
7D
330
1E
100
AcDbEntity
  8
0
100
AcDbLine
 10
56.0
 20
98.43600000000002
 30
0.0
 11
56.0
 21
100.212
 31
0.0
  0
LINE
  5
7E
330
1E
100
AcDbEntity
  8
0
100
AcDbLine
 10
56.0
 20
98.43600000000002
 30
0.0
 11
56.0
 21
97.77000000000001
 31
0.0
  0
LINE
  5
7F
330
1E
100
AcDbEntity
  8
0
100
AcDbLine
 10
56.6
 20
97.992
 30
0.0
 11
56.6
 21
99.76799999999999
 31
0.0
  0
LINE
  5
80
330
1E
100
AcDbEntity
  8
0
100
AcDbLine
 10
56.6
 20
97.992
 30
0.0
 11
56.6
 21
97.32600000000001
 31
0.0
  0
LINE
  5
81
330
1E
100
AcDbEntity
  8
0
100
AcDbLine
 10
56.0
 20
98.9623
 30
0.0
 11
56.0
 21
98.4851
 31
0.0
  0
LINE
  5
82
330
1E
100
AcDbEntity
  8
0
100
AcDbLine
 10
56.0
 20
98.4851
 30
0.0
 11
56.0
 21
98.32600000000001
 31
0.0
  0
LINE
  5
83
330
1E
100
AcDbEntity
  8
0
100
AcDbLine
 10
53.0
 20
98.20990000000001
 30
0.0
 11
53.0
 21
97.8099
 31
0.0
  0
LINE
  5
84
330
1E
100
AcDbEntity
  8
0
100
AcDbLine
 10
56.0
 20
100.212
 30
0.0
 11
56.0
 21
103.098
 31
0.0
  0
LINE
  5
85
330
1E
100
AcDbEntity
  8
0
100
AcDbLine
 10
56.0
 20
100.212
 30
0.0
 11
56.0
 21
98.43600000000002
 31
0.0
  0
LINE
  5
86
330
1E
100
AcDbEntity
  8
0
100
AcDbLine
 10
56.0
 20
106.872
 30
0.0
 11
56.0
 21
111.1639999999999
 31
0.0
  0
LINE
  5
87
330
1E
100
AcDbEntity
  8
0
100
AcDbLine
 10
56.0
 20
106.872
 30
0.0
 11
56.0
 21
103.098
 31
0.0
  0
LINE
  5
88
330
1E
100
AcDbEntity
  8
0
100
AcDbLine
 10
56.0
 20
103.098
 30
0.0
 11
56.0
 21
106.872
 31
0.0
  0
LINE
  5
89
330
1E
100
AcDbEntity
  8
0
100
AcDbLine
 10
56.0
 20
103.098
 30
0.0
 11
56.0
 21
100.212
 31
0.0
  0
LINE
  5
8A
330
1E
100
AcDbEntity
  8
0
100
AcDbLine
 10
56.0
 20
103.4964999999999
 30
0.0
 11
56.0
 21
101.9851
 31
0.0
  0
LINE
  5
8B
330
1E
100
AcDbEntity
  8
0
100
AcDbLine
 10
56.0
 20
101.9851
 30
0.0
 11
56.0
 21
100.6328
 31
0.0
  0
LINE
  5
8C
330
1E
100
AcDbEntity
  8
0
100
AcDbLine
 10
56.0
 20
100.6328
 30
0.0
 11
56.0
 21
99.67829999999999
 31
0.0
  0
LINE
  5
8D
330
1E
100
AcDbEntity
  8
0
100
AcDbLine
 10
56.0
 20
99.67829999999999
 30
0.0
 11
56.0
 21
98.9623
 31
0.0
  0
LINE
  5
8E
330
1E
100
AcDbEntity
  8
0
100
AcDbLine
 10
56.0
 20
105.1668999999999
 30
0.0
 11
56.0
 21
103.4964999999999
 31
0.0
  0
LINE
  5
8F
330
1E
100
AcDbEntity
  8
0
100
AcDbLine
 10
56.0
 20
111.1639999999999
 30
0.0
 11
56.0
 21
115.826
 31
0.0
  0
LINE
  5
90
330
1E
100
AcDbEntity
  8
0
100
AcDbLine
 10
56.0
 20
111.1639999999999
 30
0.0
 11
56.0
 21
106.872
 31
0.0
  0
LINE
  5
91
330
1E
100
AcDbEntity
  8
0
100
AcDbLine
 10
56.0
 20
107.076
 30
0.0
 11
56.0
 21
105.1668999999999
 31
0.0
  0
LINE
  5
92
330
1E
100
AcDbEntity
  8
0
100
AcDbLine
 10
56.0
 20
109.1442
 30
0.0
 11
56.0
 21
107.076
 31
0.0
  0
LINE
  5
93
330
1E
100
AcDbEntity
  8
0
100
AcDbLine
 10
56.0
 20
111.292
 30
0.0
 11
56.0
 21
109.1442
 31
0.0
  0
LINE
  5
94
330
1E
100
AcDbEntity
  8
0
100
AcDbLine
 10
56.6
 20
115.826
 30
0.0
 11
56.6
 21
111.0899999999999
 31
0.0
  0
LINE
  5
95
330
1E
100
AcDbEntity
  8
0
100
AcDbLine
 10
56.6
 20
115.826
 30
0.0
 11
56.6
 21
120.562
 31
0.0
  0
LINE
  5
96
330
1E
100
AcDbEntity
  8
0
100
AcDbLine
 10
56.6
 20
111.0899999999999
 30
0.0
 11
56.6
 21
115.826
 31
0.0
  0
LINE
  5
97
330
1E
100
AcDbEntity
  8
0
100
AcDbLine
 10
56.6
 20
111.0899999999999
 30
0.0
 11
56.6
 21
106.65
 31
0.0
  0
LINE
  5
98
330
1E
100
AcDbEntity
  8
0
100
AcDbLine
 10
56.6
 20
106.65
 30
0.0
 11
56.6
 21
111.0899999999999
 31
0.0
  0
LINE
  5
99
330
1E
100
AcDbEntity
  8
0
100
AcDbLine
 10
56.6
 20
106.65
 30
0.0
 11
56.6
 21
102.7279999999999
 31
0.0
  0
LINE
  5
9A
330
1E
100
AcDbEntity
  8
0
100
AcDbLine
 10
56.6
 20
102.7279999999999
 30
0.0
 11
56.6
 21
106.65
 31
0.0
  0
LINE
  5
9B
330
1E
100
AcDbEntity
  8
0
100
AcDbLine
 10
56.6
 20
102.7279999999999
 30
0.0
 11
56.6
 21
99.76799999999999
 31
0.0
  0
LINE
  5
9C
330
1E
100
AcDbEntity
  8
0
100
AcDbLine
 10
56.6
 20
99.76799999999999
 30
0.0
 11
56.6
 21
102.7279999999999
 31
0.0
  0
LINE
  5
9D
330
1E
100
AcDbEntity
  8
0
100
AcDbLine
 10
56.6
 20
99.76799999999999
 30
0.0
 11
56.6
 21
97.992
 31
0.0
  0
LINE
  5
9E
330
1E
100
AcDbEntity
  8
0
100
AcDbLine
 10
56.0
 20
113.5191999999999
 30
0.0
 11
56.0
 21
111.292
 31
0.0
  0
LINE
  5
9F
330
1E
100
AcDbEntity
  8
0
100
AcDbLine
 10
56.0
 20
120.4879999999999
 30
0.0
 11
56.0
 21
124.78
 31
0.0
  0
LINE
  5
A0
330
1E
100
AcDbEntity
  8
0
100
AcDbLine
 10
56.0
 20
120.4879999999999
 30
0.0
 11
56.0
 21
115.826
 31
0.0
  0
LINE
  5
A1
330
1E
100
AcDbEntity
  8
0
100
AcDbLine
 10
56.0
 20
124.78
 30
0.0
 11
56.0
 21
128.554
 31
0.0
  0
LINE
  5
A2
330
1E
100
AcDbEntity
  8
0
100
AcDbLine
 10
56.0
 20
124.78
 30
0.0
 11
56.0
 21
120.4879999999999
 31
0.0
  0
LINE
  5
A3
330
1E
100
AcDbEntity
  8
0
100
AcDbLine
 10
56.0
 20
126.485
 30
0.0
 11
56.0
 21
124.576
 31
0.0
  0
LINE
  5
A4
330
1E
100
AcDbEntity
  8
0
100
AcDbLine
 10
56.0
 20
124.576
 30
0.0
 11
56.0
 21
122.5078
 31
0.0
  0
LINE
  5
A5
330
1E
100
AcDbEntity
  8
0
100
AcDbLine
 10
56.0
 20
122.5078
 30
0.0
 11
56.0
 21
120.36
 31
0.0
  0
LINE
  5
A6
330
1E
100
AcDbEntity
  8
0
100
AcDbLine
 10
56.0
 20
120.36
 30
0.0
 11
56.0
 21
118.1328
 31
0.0
  0
LINE
  5
A7
330
1E
100
AcDbEntity
  8
0
100
AcDbLine
 10
56.6
 20
120.562
 30
0.0
 11
56.6
 21
125.002
 31
0.0
  0
LINE
  5
A8
330
1E
100
AcDbEntity
  8
0
100
AcDbLine
 10
56.6
 20
120.562
 30
0.0
 11
56.6
 21
115.826
 31
0.0
  0
LINE
  5
A9
330
1E
100
AcDbEntity
  8
0
100
AcDbLine
 10
56.6
 20
125.002
 30
0.0
 11
56.6
 21
128.924
 31
0.0
  0
LINE
  5
AA
330
1E
100
AcDbEntity
  8
0
100
AcDbLine
 10
56.6
 20
125.002
 30
0.0
 11
56.6
 21
120.562
 31
0.0
  0
LINE
  5
AB
330
1E
100
AcDbEntity
  8
0
100
AcDbLine
 10
56.0
 20
118.1328
 30
0.0
 11
56.0
 21
115.826
 31
0.0
  0
LINE
  5
AC
330
1E
100
AcDbEntity
  8
0
100
AcDbLine
 10
56.0
 20
115.826
 30
0.0
 11
56.0
 21
113.5191999999999
 31
0.0
  0
LINE
  5
AD
330
1E
100
AcDbEntity
  8
0
100
AcDbLine
 10
56.0
 20
115.826
 30
0.0
 11
56.0
 21
111.1639999999999
 31
0.0
  0
LINE
  5
AE
330
1E
100
AcDbEntity
  8
0
100
AcDbLine
 10
56.0
 20
115.826
 30
0.0
 11
56.0
 21
120.4879999999999
 31
0.0
  0
LINE
  5
AF
330
1E
100
AcDbEntity
  8
0
100
AcDbLine
 10
53.0
 20
115.826
 30
0.0
 11
53.0
 21
99.30979999999999
 31
0.0
  0
LINE
  5
B0
330
1E
100
AcDbEntity
  8
0
100
AcDbLine
 10
53.0
 20
99.30979999999999
 30
0.0
 11
53.0
 21
98.20990000000001
 31
0.0
  0
LINE
  5
B1
330
1E
100
AcDbEntity
  8
0
100
AcDbLine
 10
41.1416
 20
97.80938464146021
 30
0.0
 11
53.0
 21
97.8099
 31
0.0
  0
LINE
  5
B2
330
1E
100
AcDbEntity
  8
0
100
AcDbLine
 10
41.1416
 20
97.80938464146021
 30
0.0
 11
41.1416
 21
97.5824
 31
0.0
  0
LINE
  5
B3
330
1E
100
AcDbEntity
  8
0
100
AcDbLine
 10
25.388
 20
97.8087
 30
0.0
 11
36.1416
 21
97.8091673446328
 31
0.0
  0
LINE
  5
B4
330
1E
100
AcDbEntity
  8
0
100
AcDbLine
 10
66.0
 20
97.32600000000001
 30
0.0
 11
66.0
 21
93.32600000000001
 31
0.0
  0
LINE
  5
B5
330
1E
100
AcDbEntity
  8
0
100
AcDbLine
 10
66.0
 20
93.32600000000001
 30
0.0
 11
66.4
 21
92.22599999999999
 31
0.0
  0
LINE
  5
B6
330
1E
100
AcDbEntity
  8
0
100
AcDbLine
 10
66.0
 20
93.32600000000001
 30
0.0
 11
66.0
 21
97.32600000000001
 31
0.0
  0
LINE
  5
B7
330
1E
100
AcDbEntity
  8
0
100
AcDbLine
 10
85.97230000000001
 20
90.17402
 30
0.0
 11
87.0723
 21
90.17402
 31
0.0
  0
LINE
  5
B8
330
1E
100
AcDbEntity
  8
0
100
AcDbLine
 10
85.5723
 20
90.17402
 30
0.0
 11
86.5723
 21
60.174
 31
0.0
  0
LINE
  5
B9
330
1E
100
AcDbEntity
  8
0
100
AcDbLine
 10
85.5723
 20
90.17402
 30
0.0
 11
85.97230000000001
 21
90.17402
 31
0.0
  0
LINE
  5
BA
330
1E
100
AcDbEntity
  8
0
100
AcDbLine
 10
86.5723
 20
60.174
 30
0.0
 11
86.97230000000001
 21
60.174
 31
0.0
  0
LINE
  5
BB
330
1E
100
AcDbEntity
  8
0
100
AcDbLine
 10
87.0723
 20
90.17402
 30
0.0
 11
88.9723
 21
90.17402
 31
0.0
  0
LINE
  5
BC
330
1E
100
AcDbEntity
  8
0
100
AcDbLine
 10
86.97230000000001
 20
60.174
 30
0.0
 11
87.9723
 21
60.174
 31
0.0
  0
LINE
  5
BD
330
1E
100
AcDbEntity
  8
0
100
AcDbLine
 10
86.07229999999999
 20
90.53402
 30
0.0
 11
86.46829999999999
 21
90.53402
 31
0.0
  0
LINE
  5
BE
330
1E
100
AcDbEntity
  8
0
100
AcDbLine
 10
86.07229999999999
 20
90.53402
 30
0.0
 11
86.3363
 21
90.17402
 31
0.0
  0
LINE
  5
BF
330
1E
100
AcDbEntity
  8
0
100
AcDbLine
 10
86.07229999999999
 20
90.53402
 30
0.0
 11
86.07229999999999
 21
91.826
 31
0.0
  0
LINE
  5
C0
330
1E
100
AcDbEntity
  8
0
100
AcDbLine
 10
86.46829999999999
 20
90.53402
 30
0.0
 11
87.5243
 21
90.53402
 31
0.0
  0
LINE
  5
C1
330
1E
100
AcDbEntity
  8
0
100
AcDbLine
 10
89.5723
 20
60.174
 30
0.0
 11
89.5723
 21
4.4358
 31
0.0
  0
LINE
  5
C2
330
1E
100
AcDbEntity
  8
0
100
AcDbLine
 10
89.5723
 20
60.174
 30
0.0
 11
89.8723
 21
60.174
 31
0.0
  0
LINE
  5
C3
330
1E
100
AcDbEntity
  8
0
100
AcDbLine
 10
89.8723
 20
5.785199999999999
 30
0.0
 11
90.5723
 21
6.98459999999999
 31
0.0
  0
LINE
  5
C4
330
1E
100
AcDbEntity
  8
0
100
AcDbLine
 10
89.6723
 20
60.174
 30
0.0
 11
91.87229999999999
 21
60.174
 31
0.0
  0
LINE
  5
C5
330
1E
100
AcDbEntity
  8
0
100
AcDbLine
 10
89.8723
 20
60.174
 30
0.0
 11
90.5723
 21
60.174
 31
0.0
  0
LINE
  5
C6
330
1E
100
AcDbEntity
  8
0
100
AcDbLine
 10
90.5723
 20
60.174
 30
0.0
 11
91.77229999999999
 21
60.174
 31
0.0
  0
LINE
  5
C7
330
1E
100
AcDbEntity
  8
0
100
AcDbLine
 10
90.5723
 20
6.98459999999999
 30
0.0
 11
91.77229999999999
 21
8.183999999999999
 31
0.0
  0
LINE
  5
C8
330
1E
100
AcDbEntity
  8
0
100
AcDbLine
 10
89.5723
 20
4.4358
 30
0.0
 11
89.8723
 21
2.449200000000019
 31
0.0
  0
LINE
  5
C9
330
1E
100
AcDbEntity
  8
0
100
AcDbLine
 10
89.5723
 20
4.4358
 30
0.0
 11
89.5723
 21
60.174
 31
0.0
  0
LINE
  5
CA
330
1E
100
AcDbEntity
  8
0
100
AcDbLine
 10
89.5723
 20
4.4358
 30
0.0
 11
89.8723
 21
5.785199999999999
 31
0.0
  0
LINE
  5
CB
330
1E
100
AcDbEntity
  8
0
100
AcDbLine
 10
89.8723
 20
2.449200000000019
 30
0.0
 11
90.5723
 21
1.324700000000009
 31
0.0
  0
LINE
  5
CC
330
1E
100
AcDbEntity
  8
0
100
AcDbLine
 10
90.5723
 20
1.324700000000009
 30
0.0
 11
91.77229999999999
 21
0.650100000000025
 31
0.0
  0
LINE
  5
CD
330
1E
100
AcDbEntity
  8
0
100
AcDbLine
 10
88.9723
 20
90.17402
 30
0.0
 11
91.3723
 21
90.17402
 31
0.0
  0
LINE
  5
CE
330
1E
100
AcDbEntity
  8
0
100
AcDbLine
 10
91.3723
 20
90.17402
 30
0.0
 11
94.07200000000001
 21
90.17402
 31
0.0
  0
LINE
  5
CF
330
1E
100
AcDbEntity
  8
0
100
AcDbLine
 10
87.9723
 20
60.174
 30
0.0
 11
89.5723
 21
60.174
 31
0.0
  0
LINE
  5
D0
330
1E
100
AcDbEntity
  8
0
100
AcDbLine
 10
87.9723
 20
60.174
 30
0.0
 11
89.6723
 21
60.174
 31
0.0
  0
LINE
  5
D1
330
1E
100
AcDbEntity
  8
0
100
AcDbLine
 10
87.5243
 20
90.53402
 30
0.0
 11
89.2843
 21
90.53402
 31
0.0
  0
LINE
  5
D2
330
1E
100
AcDbEntity
  8
0
100
AcDbLine
 10
89.2843
 20
90.53402
 30
0.0
 11
91.6163
 21
90.53402
 31
0.0
  0
LINE
  5
D3
330
1E
100
AcDbEntity
  8
0
100
AcDbLine
 10
97.072
 20
0.174000000000021
 30
0.0
 11
98.97200000000001
 21
0.200300000000023
 31
0.0
  0
LINE
  5
D4
330
1E
100
AcDbEntity
  8
0
100
AcDbLine
 10
91.77229999999999
 20
8.183999999999999
 30
0.0
 11
93.37229999999999
 21
9.233499999999999
 31
0.0
  0
LINE
  5
D5
330
1E
100
AcDbEntity
  8
0
100
AcDbLine
 10
91.87229999999999
 20
60.174
 30
0.0
 11
94.37200000000002
 21
60.174
 31
0.0
  0
LINE
  5
D6
330
1E
100
AcDbEntity
  8
0
100
AcDbLine
 10
91.77229999999999
 20
60.174
 30
0.0
 11
93.37229999999999
 21
60.174
 31
0.0
  0
LINE
  5
D7
330
1E
100
AcDbEntity
  8
0
100
AcDbLine
 10
93.37229999999999
 20
9.233499999999999
 30
0.0
 11
95.172
 21
9.945700000000009
 31
0.0
  0
LINE
  5
D8
330
1E
100
AcDbEntity
  8
0
100
AcDbLine
 10
93.37229999999999
 20
60.174
 30
0.0
 11
94.37200000000002
 21
60.174
 31
0.0
  0
LINE
  5
D9
330
1E
100
AcDbEntity
  8
0
100
AcDbLine
 10
91.77229999999999
 20
0.650100000000025
 30
0.0
 11
93.37229999999999
 21
0.275200000000018
 31
0.0
  0
LINE
  5
DA
330
1E
100
AcDbEntity
  8
0
100
AcDbLine
 10
94.37200000000002
 20
60.174
 30
0.0
 11
97.072
 21
60.174
 31
0.0
  0
LINE
  5
DB
330
1E
100
AcDbEntity
  8
0
100
AcDbLine
 10
97.072
 20
10.174
 30
0.0
 11
98.97200000000001
 21
9.945700000000009
 31
0.0
  0
LINE
  5
DC
330
1E
100
AcDbEntity
  8
0
100
AcDbLine
 10
97.072
 20
60.174
 30
0.0
 11
99.77200000000001
 21
60.174
 31
0.0
  0
LINE
  5
DD
330
1E
100
AcDbEntity
  8
0
100
AcDbLine
 10
97.072
 20
60.174
 30
0.0
 11
98.97200000000001
 21
60.174
 31
0.0
  0
LINE
  5
DE
330
1E
100
AcDbEntity
  8
0
100
AcDbLine
 10
95.172
 20
9.945700000000009
 30
0.0
 11
97.072
 21
10.174
 31
0.0
  0
LINE
  5
DF
330
1E
100
AcDbEntity
  8
0
100
AcDbLine
 10
97.072
 20
90.17402
 30
0.0
 11
100.072
 21
90.17402
 31
0.0
  0
LINE
  5
E0
330
1E
100
AcDbEntity
  8
0
100
AcDbLine
 10
94.07200000000001
 20
90.17402
 30
0.0
 11
97.072
 21
90.17402
 31
0.0
  0
LINE
  5
E1
330
1E
100
AcDbEntity
  8
0
100
AcDbLine
 10
95.172
 20
60.174
 30
0.0
 11
97.072
 21
60.174
 31
0.0
  0
LINE
  5
E2
330
1E
100
AcDbEntity
  8
0
100
AcDbLine
 10
93.37229999999999
 20
0.275200000000018
 30
0.0
 11
95.172
 21
0.200300000000023
 31
0.0
  0
LINE
  5
E3
330
1E
100
AcDbEntity
  8
0
100
AcDbLine
 10
95.172
 20
0.200300000000023
 30
0.0
 11
97.072
 21
0.174000000000021
 31
0.0
  0
LINE
  5
E4
330
1E
100
AcDbEntity
  8
0
100
AcDbLine
 10
91.6163
 20
90.53402
 30
0.0
 11
94.25600000000001
 21
90.53402
 31
0.0
  0
LINE
  5
E5
330
1E
100
AcDbEntity
  8
0
100
AcDbLine
 10
86.07229999999999
 20
91.826
 30
0.0
 11
86.07229999999999
 21
90.53402
 31
0.0
  0
LINE
  5
E6
330
1E
100
AcDbEntity
  8
0
100
AcDbLine
 10
94.25600000000001
 20
90.53402
 30
0.0
 11
97.072
 21
90.53402
 31
0.0
  0
LINE
  5
E7
330
1E
100
AcDbEntity
  8
0
100
AcDbLine
 10
98.97200000000001
 20
0.200300000000023
 30
0.0
 11
100.772
 21
0.275200000000018
 31
0.0
  0
LINE
  5
E8
330
1E
100
AcDbEntity
  8
0
100
AcDbLine
 10
100.772
 20
0.275200000000018
 30
0.0
 11
102.372
 21
0.650100000000025
 31
0.0
  0
LINE
  5
E9
330
1E
100
AcDbEntity
  8
0
100
AcDbLine
 10
100.772
 20
9.233499999999999
 30
0.0
 11
102.372
 21
8.183999999999999
 31
0.0
  0
LINE
  5
EA
330
1E
100
AcDbEntity
  8
0
100
AcDbLine
 10
100.772
 20
60.174
 30
0.0
 11
102.372
 21
60.174
 31
0.0
  0
LINE
  5
EB
330
1E
100
AcDbEntity
  8
0
100
AcDbLine
 10
98.97200000000001
 20
9.945700000000009
 30
0.0
 11
100.772
 21
9.233499999999999
 31
0.0
  0
LINE
  5
EC
330
1E
100
AcDbEntity
  8
0
100
AcDbLine
 10
98.97200000000001
 20
60.174
 30
0.0
 11
100.772
 21
60.174
 31
0.0
  0
LINE
  5
ED
330
1E
100
AcDbEntity
  8
0
100
AcDbLine
 10
102.372
 20
0.650100000000025
 30
0.0
 11
103.5719999999999
 21
1.324700000000009
 31
0.0
  0
LINE
  5
EE
330
1E
100
AcDbEntity
  8
0
100
AcDbLine
 10
102.372
 20
60.174
 30
0.0
 11
103.5719999999999
 21
60.174
 31
0.0
  0
LINE
  5
EF
330
1E
100
AcDbEntity
  8
0
100
AcDbLine
 10
102.372
 20
8.183999999999999
 30
0.0
 11
103.5719999999999
 21
6.98459999999999
 31
0.0
  0
LINE
  5
F0
330
1E
100
AcDbEntity
  8
0
100
AcDbLine
 10
102.272
 20
60.174
 30
0.0
 11
104.472
 21
60.174
 31
0.0
  0
LINE
  5
F1
330
1E
100
AcDbEntity
  8
0
100
AcDbLine
 10
100.072
 20
90.17402
 30
0.0
 11
102.7719999999999
 21
90.17402
 31
0.0
  0
LINE
  5
F2
330
1E
100
AcDbEntity
  8
0
100
AcDbLine
 10
99.77200000000001
 20
60.174
 30
0.0
 11
102.272
 21
60.174
 31
0.0
  0
LINE
  5
F3
330
1E
100
AcDbEntity
  8
0
100
AcDbLine
 10
103.5719999999999
 20
1.324700000000009
 30
0.0
 11
104.272
 21
2.449200000000019
 31
0.0
  0
LINE
  5
F4
330
1E
100
AcDbEntity
  8
0
100
AcDbLine
 10
103.5719999999999
 20
60.174
 30
0.0
 11
104.272
 21
60.174
 31
0.0
  0
LINE
  5
F5
330
1E
100
AcDbEntity
  8
0
100
AcDbLine
 10
104.5719999999999
 20
4.4358
 30
0.0
 11
104.5719999999999
 21
60.174
 31
0.0
  0
LINE
  5
F6
330
1E
100
AcDbEntity
  8
0
100
AcDbLine
 10
104.272
 20
2.449200000000019
 30
0.0
 11
104.5719999999999
 21
4.4358
 31
0.0
  0
LINE
  5
F7
330
1E
100
AcDbEntity
  8
0
100
AcDbLine
 10
104.272
 20
60.174
 30
0.0
 11
104.5719999999999
 21
60.174
 31
0.0
  0
LINE
  5
F8
330
1E
100
AcDbEntity
  8
0
100
AcDbLine
 10
104.272
 20
5.785199999999999
 30
0.0
 11
104.5719999999999
 21
4.4358
 31
0.0
  0
LINE
  5
F9
330
1E
100
AcDbEntity
  8
0
100
AcDbLine
 10
103.5719999999999
 20
6.98459999999999
 30
0.0
 11
104.272
 21
5.785199999999999
 31
0.0
  0
LINE
  5
FA
330
1E
100
AcDbEntity
  8
0
100
AcDbLine
 10
104.472
 20
60.174
 30
0.0
 11
106.172
 21
60.174
 31
0.0
  0
LINE
  5
FB
330
1E
100
AcDbEntity
  8
0
100
AcDbLine
 10
106.172
 20
60.174
 30
0.0
 11
107.172
 21
60.174
 31
0.0
  0
LINE
  5
FC
330
1E
100
AcDbEntity
  8
0
100
AcDbLine
 10
105.172
 20
90.17402
 30
0.0
 11
107.072
 21
90.17402
 31
0.0
  0
LINE
  5
FD
330
1E
100
AcDbEntity
  8
0
100
AcDbLine
 10
102.7719999999999
 20
90.17402
 30
0.0
 11
105.172
 21
90.17402
 31
0.0
  0
LINE
  5
FE
330
1E
100
AcDbEntity
  8
0
100
AcDbLine
 10
104.5719999999999
 20
60.174
 30
0.0
 11
106.172
 21
60.174
 31
0.0
  0
LINE
  5
FF
330
1E
100
AcDbEntity
  8
0
100
AcDbLine
 10
104.5719999999999
 20
60.174
 30
0.0
 11
104.5719999999999
 21
4.4358
 31
0.0
  0
LINE
  5
100
330
1E
100
AcDbEntity
  8
0
100
AcDbLine
 10
107.072
 20
90.17402
 30
0.0
 11
108.172
 21
90.17402
 31
0.0
  0
LINE
  5
101
330
1E
100
AcDbEntity
  8
0
100
AcDbLine
 10
107.572
 20
60.174
 30
0.0
 11
108.572
 21
90.17402
 31
0.0
  0
LINE
  5
102
330
1E
100
AcDbEntity
  8
0
100
AcDbLine
 10
107.172
 20
60.174
 30
0.0
 11
107.572
 21
60.174
 31
0.0
  0
LINE
  5
103
330
1E
100
AcDbEntity
  8
0
100
AcDbLine
 10
107.6759999999999
 20
90.53402
 30
0.0
 11
108.072
 21
90.53402
 31
0.0
  0
LINE
  5
104
330
1E
100
AcDbEntity
  8
0
100
AcDbLine
 10
106.62
 20
90.53402
 30
0.0
 11
107.6759999999999
 21
90.53402
 31
0.0
  0
LINE
  5
105
330
1E
100
AcDbEntity
  8
0
100
AcDbLine
 10
104.8599999999999
 20
90.53402
 30
0.0
 11
106.62
 21
90.53402
 31
0.0
  0
LINE
  5
106
330
1E
100
AcDbEntity
  8
0
100
AcDbLine
 10
102.5279999999999
 20
90.53402
 30
0.0
 11
104.8599999999999
 21
90.53402
 31
0.0
  0
LINE
  5
107
330
1E
100
AcDbEntity
  8
0
100
AcDbLine
 10
99.88799999999999
 20
90.53402
 30
0.0
 11
102.5279999999999
 21
90.53402
 31
0.0
  0
LINE
  5
108
330
1E
100
AcDbEntity
  8
0
100
AcDbLine
 10
97.072
 20
90.53402
 30
0.0
 11
99.88799999999999
 21
90.53402
 31
0.0
  0
LINE
  5
109
330
1E
100
AcDbEntity
  8
0
100
AcDbLine
 10
67.5
 20
91.826
 30
0.0
 11
67.6322
 21
91.826
 31
0.0
  0
LINE
  5
10A
330
1E
100
AcDbEntity
  8
0
100
AcDbLine
 10
108.072
 20
90.53402
 30
0.0
 11
108.072
 21
91.826
 31
0.0
  0
LINE
  5
10B
330
1E
100
AcDbEntity
  8
0
100
AcDbLine
 10
107.8079999999999
 20
90.17402
 30
0.0
 11
108.072
 21
90.53402
 31
0.0
  0
LINE
  5
10C
330
1E
100
AcDbEntity
  8
0
100
AcDbLine
 10
108.172
 20
90.17402
 30
0.0
 11
108.572
 21
90.17402
 31
0.0
  0
LINE
  5
10D
330
1E
100
AcDbEntity
  8
0
100
AcDbLine
 10
108.072
 20
91.826
 30
0.0
 11
108.072
 21
90.53402
 31
0.0
  0
LINE
  5
10E
330
1E
100
AcDbEntity
  8
0
100
AcDbLine
 10
110.4999999999999
 20
91.826
 30
0.0
 11
111.5999999999999
 21
92.22599999999999
 31
0.0
  0
LINE
  5
10F
330
1E
100
AcDbEntity
  8
0
100
AcDbLine
 10
107.6759999999999
 20
91.826
 30
0.0
 11
110.4999999999999
 21
91.826
 31
0.0
  0
LINE
  5
110
330
1E
100
AcDbEntity
  8
0
100
AcDbLine
 10
66.53220000000001
 20
92.22599999999999
 30
0.0
 11
66.8297
 21
92.2526
 31
0.0
  0
LINE
  5
113
330
1E
100
AcDbEntity
  8
0
100
AcDbLine
 10
67.34189999999999
 20
92.33259999999999
 30
0.0
 11
68.11060000000001
 21
92.3845
 31
0.0
  0
LINE
  5
114
330
1E
100
AcDbEntity
  8
0
100
AcDbLine
 10
68.11060000000001
 20
92.3845
 30
0.0
 11
69.1186
 21
92.53100000000001
 31
0.0
  0
LINE
  5
115
330
1E
100
AcDbEntity
  8
0
100
AcDbLine
 10
66.8297
 20
92.2526
 30
0.0
 11
67.34189999999999
 21
92.33259999999999
 31
0.0
  0
LINE
  5
116
330
1E
100
AcDbEntity
  8
0
100
AcDbLine
 10
67.6322
 20
91.826
 30
0.0
 11
86.55029113700859
 21
91.826
 31
0.0
  0
LINE
  5
117
330
1E
100
AcDbEntity
  8
0
100
AcDbLine
 10
111.5999999999999
 20
92.22599999999999
 30
0.0
 11
112.0
 21
93.32600000000001
 31
0.0
  0
LINE
  5
11D
330
1E
100
AcDbEntity
  8
0
100
AcDbLine
 10
111.5999999999999
 20
92.53100000000001
 30
0.0
 11
111.5999999999999
 21
92.6917
 31
0.0
  0
LINE
  5
120
330
1E
100
AcDbEntity
  8
0
100
AcDbLine
 10
111.5999999999999
 20
93.18459999999999
 30
0.0
 11
111.5999999999999
 21
92.9156
 31
0.0
  0
LINE
  5
121
330
1E
100
AcDbEntity
  8
0
100
AcDbLine
 10
111.5999999999999
 20
93.18459999999999
 30
0.0
 11
111.5999999999999
 21
93.464
 31
0.0
  0
LINE
  5
122
330
1E
100
AcDbEntity
  8
0
100
AcDbLine
 10
111.5999999999999
 20
92.9156
 30
0.0
 11
111.5999999999999
 21
93.18459999999999
 31
0.0
  0
LINE
  5
123
330
1E
100
AcDbEntity
  8
0
100
AcDbLine
 10
111.5999999999999
 20
92.9156
 30
0.0
 11
111.5999999999999
 21
92.6917
 31
0.0
  0
LINE
  5
124
330
1E
100
AcDbEntity
  8
0
100
AcDbLine
 10
111.5999999999999
 20
93.79139999999999
 30
0.0
 11
111.5999999999999
 21
93.464
 31
0.0
  0
LINE
  5
125
330
1E
100
AcDbEntity
  8
0
100
AcDbLine
 10
111.5999999999999
 20
93.79139999999999
 30
0.0
 11
111.5999999999999
 21
94.15649999999999
 31
0.0
  0
LINE
  5
126
330
1E
100
AcDbEntity
  8
0
100
AcDbLine
 10
111.5999999999999
 20
93.464
 30
0.0
 11
111.5999999999999
 21
93.79139999999999
 31
0.0
  0
LINE
  5
127
330
1E
100
AcDbEntity
  8
0
100
AcDbLine
 10
111.5999999999999
 20
93.464
 30
0.0
 11
111.5999999999999
 21
93.18459999999999
 31
0.0
  0
LINE
  5
128
330
1E
100
AcDbEntity
  8
0
100
AcDbLine
 10
89.22299999999999
 20
96.2169
 30
0.0
 11
90.3406
 21
96.904
 31
0.0
  0
LINE
  5
129
330
1E
100
AcDbEntity
  8
0
100
AcDbLine
 10
87.8311
 20
95.5911
 30
0.0
 11
89.22299999999999
 21
96.2169
 31
0.0
  0
LINE
  5
12A
330
1E
100
AcDbEntity
  8
0
100
AcDbLine
 10
86.11130000000001
 20
95.05219999999999
 30
0.0
 11
87.8311
 21
95.5911
 31
0.0
  0
LINE
  5
12B
330
1E
100
AcDbEntity
  8
0
100
AcDbLine
 10
90.3406
 20
96.904
 30
0.0
 11
91.19809999999999
 21
97.6251
 31
0.0
  0
LINE
  5
12C
330
1E
100
AcDbEntity
  8
0
100
AcDbLine
 10
91.19809999999999
 20
97.6251
 30
0.0
 11
91.96890000000001
 21
98.4932
 31
0.0
  0
LINE
  5
12D
330
1E
100
AcDbEntity
  8
0
100
AcDbLine
 10
91.96890000000001
 20
98.4932
 30
0.0
 11
92.4
 21
99.226
 31
0.0
  0
LINE
  5
12E
330
1E
100
AcDbEntity
  8
0
100
AcDbLine
 10
111.5999999999999
 20
95.5911
 30
0.0
 11
111.5999999999999
 21
96.2169
 31
0.0
  0
LINE
  5
12F
330
1E
100
AcDbEntity
  8
0
100
AcDbLine
 10
111.5999999999999
 20
95.5911
 30
0.0
 11
111.5999999999999
 21
95.05219999999999
 31
0.0
  0
LINE
  5
130
330
1E
100
AcDbEntity
  8
0
100
AcDbLine
 10
111.5999999999999
 20
96.2169
 30
0.0
 11
111.5999999999999
 21
96.904
 31
0.0
  0
LINE
  5
131
330
1E
100
AcDbEntity
  8
0
100
AcDbLine
 10
111.5999999999999
 20
96.2169
 30
0.0
 11
111.5999999999999
 21
95.5911
 31
0.0
  0
LINE
  5
132
330
1E
100
AcDbEntity
  8
0
100
AcDbLine
 10
111.5999999999999
 20
96.904
 30
0.0
 11
111.5999999999999
 21
97.6251
 31
0.0
  0
LINE
  5
133
330
1E
100
AcDbEntity
  8
0
100
AcDbLine
 10
111.5999999999999
 20
96.904
 30
0.0
 11
111.5999999999999
 21
96.2169
 31
0.0
  0
LINE
  5
134
330
1E
100
AcDbEntity
  8
0
100
AcDbLine
 10
110.4999999999999
 20
99.226
 30
0.0
 11
111.2999999999999
 21
99.226
 31
0.0
  0
LINE
  5
135
330
1E
100
AcDbEntity
  8
0
100
AcDbLine
 10
111.2999999999999
 20
99.226
 30
0.0
 11
111.5999999999999
 21
99.226
 31
0.0
  0
LINE
  5
136
330
1E
100
AcDbEntity
  8
0
100
AcDbLine
 10
111.2999999999999
 20
99.226
 30
0.0
 11
111.5999999999999
 21
100.326
 31
0.0
  0
LINE
  5
137
330
1E
100
AcDbEntity
  8
0
100
AcDbLine
 10
111.5999999999999
 20
99.226
 30
0.0
 11
111.5999999999999
 21
98.4932
 31
0.0
  0
LINE
  5
138
330
1E
100
AcDbEntity
  8
0
100
AcDbLine
 10
111.5999999999999
 20
98.4932
 30
0.0
 11
111.5999999999999
 21
97.6251
 31
0.0
  0
LINE
  5
139
330
1E
100
AcDbEntity
  8
0
100
AcDbLine
 10
111.5999999999999
 20
98.4932
 30
0.0
 11
111.5999999999999
 21
99.226
 31
0.0
  0
LINE
  5
13A
330
1E
100
AcDbEntity
  8
0
100
AcDbLine
 10
111.5999999999999
 20
97.6251
 30
0.0
 11
111.5999999999999
 21
98.4932
 31
0.0
  0
LINE
  5
13B
330
1E
100
AcDbEntity
  8
0
100
AcDbLine
 10
111.5999999999999
 20
97.6251
 30
0.0
 11
111.5999999999999
 21
96.904
 31
0.0
  0
LINE
  5
13C
330
1E
100
AcDbEntity
  8
0
100
AcDbLine
 10
92.70000000000001
 20
99.226
 30
0.0
 11
93.49999999999999
 21
99.226
 31
0.0
  0
LINE
  5
13D
330
1E
100
AcDbEntity
  8
0
100
AcDbLine
 10
92.4
 20
99.226
 30
0.0
 11
92.70000000000001
 21
99.226
 31
0.0
  0
LINE
  5
13E
330
1E
100
AcDbEntity
  8
0
100
AcDbLine
 10
93.49999999999999
 20
99.226
 30
0.0
 11
110.4999999999999
 21
99.226
 31
0.0
  0
LINE
  5
13F
330
1E
100
AcDbEntity
  8
0
100
AcDbLine
 10
111.5999999999999
 20
95.05219999999999
 30
0.0
 11
111.5999999999999
 21
94.5737
 31
0.0
  0
LINE
  5
140
330
1E
100
AcDbEntity
  8
0
100
AcDbLine
 10
111.5999999999999
 20
95.05219999999999
 30
0.0
 11
111.5999999999999
 21
95.5911
 31
0.0
  0
LINE
  5
141
330
1E
100
AcDbEntity
  8
0
100
AcDbLine
 10
84.0591
 20
94.5737
 30
0.0
 11
86.11130000000001
 21
95.05219999999999
 31
0.0
  0
LINE
  5
142
330
1E
100
AcDbEntity
  8
0
100
AcDbLine
 10
111.5999999999999
 20
94.5737
 30
0.0
 11
111.5999999999999
 21
94.15649999999999
 31
0.0
  0
LINE
  5
143
330
1E
100
AcDbEntity
  8
0
100
AcDbLine
 10
111.5999999999999
 20
94.5737
 30
0.0
 11
111.5999999999999
 21
95.05219999999999
 31
0.0
  0
LINE
  5
144
330
1E
100
AcDbEntity
  8
0
100
AcDbLine
 10
111.5999999999999
 20
94.15649999999999
 30
0.0
 11
111.5999999999999
 21
94.5737
 31
0.0
  0
LINE
  5
145
330
1E
100
AcDbEntity
  8
0
100
AcDbLine
 10
111.5999999999999
 20
94.15649999999999
 30
0.0
 11
111.5999999999999
 21
93.79139999999999
 31
0.0
  0
LINE
  5
146
330
1E
100
AcDbEntity
  8
0
100
AcDbLine
 10
81.62209999999999
 20
94.15649999999999
 30
0.0
 11
84.0591
 21
94.5737
 31
0.0
  0
LINE
  5
147
330
1E
100
AcDbEntity
  8
0
100
AcDbLine
 10
78.6722
 20
93.79139999999999
 30
0.0
 11
81.62209999999999
 21
94.15649999999999
 31
0.0
  0
LINE
  5
148
330
1E
100
AcDbEntity
  8
0
100
AcDbLine
 10
76.0547
 20
93.464
 30
0.0
 11
78.6722
 21
93.79139999999999
 31
0.0
  0
LINE
  5
149
330
1E
100
AcDbEntity
  8
0
100
AcDbLine
 10
73.80379999999999
 20
93.18459999999999
 30
0.0
 11
76.0547
 21
93.464
 31
0.0
  0
LINE
  5
14A
330
1E
100
AcDbEntity
  8
0
100
AcDbLine
 10
71.9321
 20
92.9156
 30
0.0
 11
73.80379999999999
 21
93.18459999999999
 31
0.0
  0
LINE
  5
14B
330
1E
100
AcDbEntity
  8
0
100
AcDbLine
 10
70.4
 20
92.6917
 30
0.0
 11
71.9321
 21
92.9156
 31
0.0
  0
LINE
  5
14C
330
1E
100
AcDbEntity
  8
0
100
AcDbLine
 10
111.5999999999999
 20
92.6917
 30
0.0
 11
111.5999999999999
 21
92.53100000000001
 31
0.0
  0
LINE
  5
14D
330
1E
100
AcDbEntity
  8
0
100
AcDbLine
 10
111.5999999999999
 20
92.6917
 30
0.0
 11
111.5999999999999
 21
92.9156
 31
0.0
  0
LINE
  5
14E
330
1E
100
AcDbEntity
  8
0
100
AcDbLine
 10
69.1186
 20
92.53100000000001
 30
0.0
 11
70.4
 21
92.6917
 31
0.0
  0
LINE
  5
14F
330
1E
100
AcDbEntity
  8
0
100
AcDbLine
 10
112.0
 20
93.32600000000001
 30
0.0
 11
112.0
 21
93.48449999999999
 31
0.0
  0
LINE
  5
150
330
1E
100
AcDbEntity
  8
0
100
AcDbLine
 10
112.0
 20
95.2565
 30
0.0
 11
112.0
 21
95.6737
 31
0.0
  0
LINE
  5
151
330
1E
100
AcDbEntity
  8
0
100
AcDbLine
 10
112.0
 20
96.1522
 30
0.0
 11
112.0
 21
96.69110000000001
 31
0.0
  0
LINE
  5
152
330
1E
100
AcDbEntity
  8
0
100
AcDbLine
 10
112.0
 20
98.00399999999999
 30
0.0
 11
112.0
 21
98.7251
 31
0.0
  0
LINE
  5
153
330
1E
100
AcDbEntity
  8
0
100
AcDbLine
 10
112.0
 20
99.59319999999999
 30
0.0
 11
112.0
 21
98.7251
 31
0.0
  0
LINE
  5
154
330
1E
100
AcDbEntity
  8
0
100
AcDbLine
 10
112.0
 20
98.7251
 30
0.0
 11
112.0
 21
98.00399999999999
 31
0.0
  0
LINE
  5
155
330
1E
100
AcDbEntity
  8
0
100
AcDbLine
 10
112.0
 20
98.7251
 30
0.0
 11
112.0
 21
99.59319999999999
 31
0.0
  0
LINE
  5
156
330
1E
100
AcDbEntity
  8
0
100
AcDbLine
 10
112.0
 20
97.3169
 30
0.0
 11
112.0
 21
96.69110000000001
 31
0.0
  0
LINE
  5
157
330
1E
100
AcDbEntity
  8
0
100
AcDbLine
 10
112.0
 20
96.69110000000001
 30
0.0
 11
112.0
 21
96.1522
 31
0.0
  0
LINE
  5
158
330
1E
100
AcDbEntity
  8
0
100
AcDbLine
 10
112.0
 20
96.69110000000001
 30
0.0
 11
112.0
 21
97.3169
 31
0.0
  0
LINE
  5
159
330
1E
100
AcDbEntity
  8
0
100
AcDbLine
 10
112.0
 20
95.6737
 30
0.0
 11
112.0
 21
95.2565
 31
0.0
  0
LINE
  5
15A
330
1E
100
AcDbEntity
  8
0
100
AcDbLine
 10
112.0
 20
93.63100000000001
 30
0.0
 11
112.0
 21
93.48449999999999
 31
0.0
  0
LINE
  5
15B
330
1E
100
AcDbEntity
  8
0
100
AcDbLine
 10
112.0
 20
93.48449999999999
 30
0.0
 11
112.0
 21
93.43259999999999
 31
0.0
  0
LINE
  5
15C
330
1E
100
AcDbEntity
  8
0
100
AcDbLine
 10
112.0
 20
93.48449999999999
 30
0.0
 11
112.0
 21
93.63100000000001
 31
0.0
  0
LINE
  5
15D
330
1E
100
AcDbEntity
  8
0
100
AcDbLine
 10
111.5999999999999
 20
100.326
 30
0.0
 11
111.5999999999999
 21
131.3259999999999
 31
0.0
  0
LINE
  5
15E
330
1E
100
AcDbEntity
  8
0
100
AcDbLine
 10
114.0
 20
128.8259999999999
 30
0.0
 11
114.0
 21
104.526
 31
0.0
  0
LINE
  5
164
330
1E
100
AcDbEntity
  8
0
100
AcDbLine
 10
114.0
 20
104.526
 30
0.0
 11
114.0
 21
128.8259999999999
 31
0.0
  0
LINE
  5
165
330
1E
100
AcDbEntity
  8
0
100
AcDbLine
 10
114.0
 20
104.526
 30
0.0
 11
114.0
 21
102.826
 31
0.0
  0
LINE
  5
166
330
1E
100
AcDbEntity
  8
0
100
AcDbLine
 10
114.0
 20
102.826
 30
0.0
 11
114.0
 21
104.526
 31
0.0
  0
LINE
  5
167
330
1E
100
AcDbEntity
  8
0
100
AcDbLine
 10
112.0
 20
104.826
 30
0.0
 11
114.0
 21
102.826
 31
0.0
  0
LINE
  5
168
330
1E
100
AcDbEntity
  8
0
100
AcDbLine
 10
92.4
 20
100.326
 30
0.0
 11
92.4
 21
131.3259999999999
 31
0.0
  0
LINE
  5
169
330
1E
100
AcDbEntity
  8
0
100
AcDbLine
 10
92.4
 20
100.326
 30
0.0
 11
92.70000000000001
 21
99.226
 31
0.0
  0
LINE
  5
16A
330
1E
100
AcDbEntity
  8
0
100
AcDbLine
 10
66.4
 20
92.22599999999999
 30
0.0
 11
67.5
 21
91.826
 31
0.0
  0
LINE
  5
16B
330
1E
100
AcDbEntity
  8
0
100
AcDbLine
 10
66.4
 20
92.22599999999999
 30
0.0
 11
66.53220000000001
 21
92.22599999999999
 31
0.0
  0
LINE
  5
173
330
1E
100
AcDbEntity
  8
0
100
AcDbLine
 10
56.0
 20
128.554
 30
0.0
 11
56.0
 21
131.44
 31
0.0
  0
LINE
  5
174
330
1E
100
AcDbEntity
  8
0
100
AcDbLine
 10
56.0
 20
128.554
 30
0.0
 11
56.0
 21
124.78
 31
0.0
  0
LINE
  5
175
330
1E
100
AcDbEntity
  8
0
100
AcDbLine
 10
56.0
 20
129.6669999999999
 30
0.0
 11
56.0
 21
128.1555999999999
 31
0.0
  0
LINE
  5
176
330
1E
100
AcDbEntity
  8
0
100
AcDbLine
 10
56.0
 20
131.44
 30
0.0
 11
56.0
 21
133.216
 31
0.0
  0
LINE
  5
177
330
1E
100
AcDbEntity
  8
0
100
AcDbLine
 10
56.0
 20
131.44
 30
0.0
 11
56.0
 21
128.554
 31
0.0
  0
LINE
  5
178
330
1E
100
AcDbEntity
  8
0
100
AcDbLine
 10
56.0
 20
131.0192
 30
0.0
 11
56.0
 21
129.6669999999999
 31
0.0
  0
LINE
  5
179
330
1E
100
AcDbEntity
  8
0
100
AcDbLine
 10
56.6
 20
128.924
 30
0.0
 11
56.6
 21
131.8839999999999
 31
0.0
  0
LINE
  5
17A
330
1E
100
AcDbEntity
  8
0
100
AcDbLine
 10
56.6
 20
128.924
 30
0.0
 11
56.6
 21
125.002
 31
0.0
  0
LINE
  5
17B
330
1E
100
AcDbEntity
  8
0
100
AcDbLine
 10
56.6
 20
131.8839999999999
 30
0.0
 11
56.6
 21
133.66
 31
0.0
  0
LINE
  5
17C
330
1E
100
AcDbEntity
  8
0
100
AcDbLine
 10
56.6
 20
131.8839999999999
 30
0.0
 11
56.6
 21
128.924
 31
0.0
  0
LINE
  5
17D
330
1E
100
AcDbEntity
  8
0
100
AcDbLine
 10
56.0
 20
131.9738
 30
0.0
 11
56.0
 21
131.0192
 31
0.0
  0
LINE
  5
17E
330
1E
100
AcDbEntity
  8
0
100
AcDbLine
 10
56.0
 20
128.1555999999999
 30
0.0
 11
56.0
 21
126.485
 31
0.0
  0
LINE
  5
17F
330
1E
100
AcDbEntity
  8
0
100
AcDbLine
 10
48.574
 20
131.317
 30
0.0
 11
53.0
 21
115.826
 31
0.0
  0
LINE
  5
180
330
1E
100
AcDbEntity
  8
0
100
AcDbLine
 10
48.1095671661065
 20
132.942439562942
 30
0.0
 11
51.0
 21
133.3259999999999
 31
0.0
  0
LINE
  5
181
330
1E
100
AcDbEntity
  8
0
100
AcDbLine
 10
56.0
 20
132.6894
 30
0.0
 11
56.0
 21
131.9738
 31
0.0
  0
LINE
  5
182
330
1E
100
AcDbEntity
  8
0
100
AcDbLine
 10
48.1454
 20
132.817
 30
0.0
 11
48.2597
 21
132.417
 31
0.0
  0
LINE
  5
183
330
1E
100
AcDbEntity
  8
0
100
AcDbLine
 10
48.2597
 20
132.417
 30
0.0
 11
48.574
 21
131.317
 31
0.0
  0
LINE
  5
185
330
1E
100
AcDbEntity
  8
0
100
AcDbLine
 10
56.0
 20
133.216
 30
0.0
 11
56.0
 21
133.882
 31
0.0
  0
LINE
  5
186
330
1E
100
AcDbEntity
  8
0
100
AcDbLine
 10
56.0
 20
133.216
 30
0.0
 11
56.0
 21
131.44
 31
0.0
  0
LINE
  5
187
330
1E
100
AcDbEntity
  8
0
100
AcDbLine
 10
56.0
 20
133.1673999999999
 30
0.0
 11
56.0
 21
132.6894
 31
0.0
  0
LINE
  5
188
330
1E
100
AcDbEntity
  8
0
100
AcDbLine
 10
56.0
 20
133.3259999999999
 30
0.0
 11
56.0
 21
133.1673999999999
 31
0.0
  0
LINE
  5
189
330
1E
100
AcDbEntity
  8
0
100
AcDbLine
 10
56.0
 20
133.3259999999999
 30
0.0
 11
56.0
 21
133.882
 31
0.0
  0
LINE
  5
18A
330
1E
100
AcDbEntity
  8
0
100
AcDbLine
 10
51.0
 20
133.3259999999999
 30
0.0
 11
56.0
 21
133.3259999999999
 31
0.0
  0
LINE
  5
18B
330
1E
100
AcDbEntity
  8
0
100
AcDbLine
 10
56.6
 20
133.66
 30
0.0
 11
56.6
 21
134.3259999999999
 31
0.0
  0
LINE
  5
18C
330
1E
100
AcDbEntity
  8
0
100
AcDbLine
 10
56.6
 20
133.66
 30
0.0
 11
56.6
 21
131.8839999999999
 31
0.0
  0
LINE
  5
18D
330
1E
100
AcDbEntity
  8
0
100
AcDbLine
 10
48.0
 20
133.3259999999999
 30
0.0
 11
48.1454
 21
132.817
 31
0.0
  0
LINE
  5
18E
330
1E
100
AcDbEntity
  8
0
100
AcDbLine
 10
47.8866
 20
133.7229999999999
 30
0.0
 11
48.0
 21
133.3259999999999
 31
0.0
  0
LINE
  5
18F
330
1E
100
AcDbEntity
  8
0
100
AcDbLine
 10
56.0
 20
133.882
 30
0.0
 11
56.6
 21
134.3259999999999
 31
0.0
  0
LINE
  5
190
330
1E
100
AcDbEntity
  8
0
100
AcDbLine
 10
56.0
 20
133.882
 30
0.0
 11
56.0
 21
133.216
 31
0.0
  0
LINE
  5
191
330
1E
100
AcDbEntity
  8
0
100
AcDbLine
 10
56.0
 20
133.882
 30
0.0
 11
56.0
 21
133.3259999999999
 31
0.0
  0
LINE
  5
192
330
1E
100
AcDbEntity
  8
0
100
AcDbLine
 10
56.6
 20
134.3259999999999
 30
0.0
 11
66.0
 21
134.3259999999999
 31
0.0
  0
LINE
  5
193
330
1E
100
AcDbEntity
  8
0
100
AcDbLine
 10
56.6
 20
134.3259999999999
 30
0.0
 11
56.6
 21
133.66
 31
0.0
  0
LINE
  5
194
330
1E
100
AcDbEntity
  8
0
100
AcDbLine
 10
47.85829999999999
 20
133.8219999999999
 30
0.0
 11
47.8866
 21
133.7229999999999
 31
0.0
  0
LINE
  5
195
330
1E
100
AcDbEntity
  8
0
100
AcDbLine
 10
14.4439
 20
133.826
 30
0.0
 11
47.85829999999999
 21
133.8219999999999
 31
0.0
  0
LINE
  5
196
330
1E
100
AcDbEntity
  8
0
100
AcDbLine
 10
13.2237
 20
133.126
 30
0.0
 11
14.4439
 21
133.826
 31
0.0
  0
LINE
  5
198
330
1E
100
AcDbEntity
  8
0
100
AcDbLine
 10
12.7923
 20
132.084
 30
0.0
 11
13.2237
 21
133.126
 31
0.0
  0
LINE
  5
199
330
1E
100
AcDbEntity
  8
0
100
AcDbLine
 10
12.7923
 20
132.084
 30
0.0
 11
12.7923
 21
100.8113
 31
0.0
  0
LINE
  5
19A
330
1E
100
AcDbEntity
  8
0
100
AcDbLine
 10
66.0
 20
134.3259999999999
 30
0.0
 11
66.0
 21
138.3259999999999
 31
0.0
  0
LINE
  5
19E
330
1E
100
AcDbEntity
  8
0
100
AcDbLine
 10
111.5999999999999
 20
131.3259999999999
 30
0.0
 11
111.5999999999999
 21
100.326
 31
0.0
  0
LINE
  5
19F
330
1E
100
AcDbEntity
  8
0
100
AcDbLine
 10
92.70000000000001
 20
132.426
 30
0.0
 11
93.49999999999999
 21
132.426
 31
0.0
  0
LINE
  5
1A0
330
1E
100
AcDbEntity
  8
0
100
AcDbLine
 10
92.4
 20
132.426
 30
0.0
 11
92.70000000000001
 21
132.426
 31
0.0
  0
LINE
  5
1A2
330
1E
100
AcDbEntity
  8
0
100
AcDbLine
 10
111.5999999999999
 20
132.426
 30
0.0
 11
111.5999999999999
 21
133.1588
 31
0.0
  0
LINE
  5
1A3
330
1E
100
AcDbEntity
  8
0
100
AcDbLine
 10
110.4999999999999
 20
132.426
 30
0.0
 11
111.2999999999999
 21
132.426
 31
0.0
  0
LINE
  5
1A4
330
1E
100
AcDbEntity
  8
0
100
AcDbLine
 10
111.2999999999999
 20
132.426
 30
0.0
 11
111.5999999999999
 21
131.3259999999999
 31
0.0
  0
LINE
  5
1A5
330
1E
100
AcDbEntity
  8
0
100
AcDbLine
 10
111.2999999999999
 20
132.426
 30
0.0
 11
111.5999999999999
 21
132.426
 31
0.0
  0
LINE
  5
1A6
330
1E
100
AcDbEntity
  8
0
100
AcDbLine
 10
93.49999999999999
 20
132.426
 30
0.0
 11
110.4999999999999
 21
132.426
 31
0.0
  0
LINE
  5
1A7
330
1E
100
AcDbEntity
  8
0
100
AcDbLine
 10
90.3406
 20
134.748
 30
0.0
 11
91.19809999999999
 21
134.0269
 31
0.0
  0
LINE
  5
1A8
330
1E
100
AcDbEntity
  8
0
100
AcDbLine
 10
111.5999999999999
 20
133.1588
 30
0.0
 11
111.5999999999999
 21
132.426
 31
0.0
  0
LINE
  5
1A9
330
1E
100
AcDbEntity
  8
0
100
AcDbLine
 10
111.5999999999999
 20
133.1588
 30
0.0
 11
111.5999999999999
 21
134.0269
 31
0.0
  0
LINE
  5
1AA
330
1E
100
AcDbEntity
  8
0
100
AcDbLine
 10
111.5999999999999
 20
134.748
 30
0.0
 11
111.5999999999999
 21
134.0269
 31
0.0
  0
LINE
  5
1AB
330
1E
100
AcDbEntity
  8
0
100
AcDbLine
 10
111.5999999999999
 20
134.748
 30
0.0
 11
111.5999999999999
 21
135.4351
 31
0.0
  0
LINE
  5
1AD
330
1E
100
AcDbEntity
  8
0
100
AcDbLine
 10
111.5999999999999
 20
134.0269
 30
0.0
 11
111.5999999999999
 21
133.1588
 31
0.0
  0
LINE
  5
1AE
330
1E
100
AcDbEntity
  8
0
100
AcDbLine
 10
111.5999999999999
 20
134.0269
 30
0.0
 11
111.5999999999999
 21
134.748
 31
0.0
  0
LINE
  5
1AF
330
1E
100
AcDbEntity
  8
0
100
AcDbLine
 10
91.96890000000001
 20
133.1588
 30
0.0
 11
92.4
 21
132.426
 31
0.0
  0
LINE
  5
1B0
330
1E
100
AcDbEntity
  8
0
100
AcDbLine
 10
91.19809999999999
 20
134.0269
 30
0.0
 11
91.96890000000001
 21
133.1588
 31
0.0
  0
LINE
  5
1B4
330
1E
100
AcDbEntity
  8
0
100
AcDbLine
 10
111.5999999999999
 20
135.4351
 30
0.0
 11
111.5999999999999
 21
136.0608999999999
 31
0.0
  0
LINE
  5
1B5
330
1E
100
AcDbEntity
  8
0
100
AcDbLine
 10
111.5999999999999
 20
135.4351
 30
0.0
 11
111.5999999999999
 21
134.748
 31
0.0
  0
LINE
  5
1B6
330
1E
100
AcDbEntity
  8
0
100
AcDbLine
 10
111.5999999999999
 20
136.0608999999999
 30
0.0
 11
111.5999999999999
 21
136.5997999999999
 31
0.0
  0
LINE
  5
1B7
330
1E
100
AcDbEntity
  8
0
100
AcDbLine
 10
111.5999999999999
 20
136.0608999999999
 30
0.0
 11
111.5999999999999
 21
135.4351
 31
0.0
  0
LINE
  5
1B8
330
1E
100
AcDbEntity
  8
0
100
AcDbLine
 10
89.22299999999999
 20
135.4351
 30
0.0
 11
90.3406
 21
134.748
 31
0.0
  0
LINE
  5
1B9
330
1E
100
AcDbEntity
  8
0
100
AcDbLine
 10
87.8311
 20
136.0608999999999
 30
0.0
 11
89.22299999999999
 21
135.4351
 31
0.0
  0
LINE
  5
1BE
330
1E
100
AcDbEntity
  8
0
100
AcDbLine
 10
76.0547
 20
138.1879999999999
 30
0.0
 11
78.6722
 21
137.8605999999999
 31
0.0
  0
LINE
  5
1BF
330
1E
100
AcDbEntity
  8
0
100
AcDbLine
 10
78.6722
 20
137.8605999999999
 30
0.0
 11
81.62209999999999
 21
137.4954999999999
 31
0.0
  0
LINE
  5
1C0
330
1E
100
AcDbEntity
  8
0
100
AcDbLine
 10
86.11130000000001
 20
136.5997999999999
 30
0.0
 11
87.8311
 21
136.0608999999999
 31
0.0
  0
LINE
  5
1C1
330
1E
100
AcDbEntity
  8
0
100
AcDbLine
 10
111.5999999999999
 20
136.5997999999999
 30
0.0
 11
111.5999999999999
 21
137.0783
 31
0.0
  0
LINE
  5
1C2
330
1E
100
AcDbEntity
  8
0
100
AcDbLine
 10
111.5999999999999
 20
136.5997999999999
 30
0.0
 11
111.5999999999999
 21
136.0608999999999
 31
0.0
  0
LINE
  5
1C3
330
1E
100
AcDbEntity
  8
0
100
AcDbLine
 10
84.0591
 20
137.0783
 30
0.0
 11
86.11130000000001
 21
136.5997999999999
 31
0.0
  0
LINE
  5
1C4
330
1E
100
AcDbEntity
  8
0
100
AcDbLine
 10
111.5999999999999
 20
137.0783
 30
0.0
 11
111.5999999999999
 21
137.4954999999999
 31
0.0
  0
LINE
  5
1C5
330
1E
100
AcDbEntity
  8
0
100
AcDbLine
 10
111.5999999999999
 20
137.0783
 30
0.0
 11
111.5999999999999
 21
136.5997999999999
 31
0.0
  0
LINE
  5
1C6
330
1E
100
AcDbEntity
  8
0
100
AcDbLine
 10
111.5999999999999
 20
137.8605999999999
 30
0.0
 11
111.5999999999999
 21
137.4954999999999
 31
0.0
  0
LINE
  5
1C7
330
1E
100
AcDbEntity
  8
0
100
AcDbLine
 10
111.5999999999999
 20
137.8605999999999
 30
0.0
 11
111.5999999999999
 21
138.1879999999999
 31
0.0
  0
LINE
  5
1C8
330
1E
100
AcDbEntity
  8
0
100
AcDbLine
 10
112.0
 20
138.021
 30
0.0
 11
112.0
 21
138.1674999999999
 31
0.0
  0
LINE
  5
1C9
330
1E
100
AcDbEntity
  8
0
100
AcDbLine
 10
111.5999999999999
 20
137.4954999999999
 30
0.0
 11
111.5999999999999
 21
137.8605999999999
 31
0.0
  0
LINE
  5
1CA
330
1E
100
AcDbEntity
  8
0
100
AcDbLine
 10
111.5999999999999
 20
137.4954999999999
 30
0.0
 11
111.5999999999999
 21
137.0783
 31
0.0
  0
LINE
  5
1CB
330
1E
100
AcDbEntity
  8
0
100
AcDbLine
 10
111.5999999999999
 20
138.1879999999999
 30
0.0
 11
111.5999999999999
 21
138.4673999999999
 31
0.0
  0
LINE
  5
1CC
330
1E
100
AcDbEntity
  8
0
100
AcDbLine
 10
111.5999999999999
 20
138.1879999999999
 30
0.0
 11
111.5999999999999
 21
137.8605999999999
 31
0.0
  0
LINE
  5
1CD
330
1E
100
AcDbEntity
  8
0
100
AcDbLine
 10
81.62209999999999
 20
137.4954999999999
 30
0.0
 11
84.0591
 21
137.0783
 31
0.0
  0
LINE
  5
1CF
330
1E
100
AcDbEntity
  8
0
100
AcDbLine
 10
112.0
 20
138.1674999999999
 30
0.0
 11
112.0
 21
138.021
 31
0.0
  0
LINE
  5
1D0
330
1E
100
AcDbEntity
  8
0
100
AcDbLine
 10
112.0
 20
138.1674999999999
 30
0.0
 11
112.0
 21
138.2607999999999
 31
0.0
  0
LINE
  5
1D1
330
1E
100
AcDbEntity
  8
0
100
AcDbLine
 10
67.34189999999999
 20
139.3194
 30
0.0
 11
68.11060000000001
 21
139.2675
 31
0.0
  0
LINE
  5
1D2
330
1E
100
AcDbEntity
  8
0
100
AcDbLine
 10
68.11060000000001
 20
139.2675
 30
0.0
 11
69.1186
 21
139.121
 31
0.0
  0
LINE
  5
1D3
330
1E
100
AcDbEntity
  8
0
100
AcDbLine
 10
66.8297
 20
139.3994
 30
0.0
 11
67.34189999999999
 21
139.3194
 31
0.0
  0
LINE
  5
1D4
330
1E
100
AcDbEntity
  8
0
100
AcDbLine
 10
70.4
 20
138.9602999999999
 30
0.0
 11
71.9321
 21
138.7364
 31
0.0
  0
LINE
  5
1D5
330
1E
100
AcDbEntity
  8
0
100
AcDbLine
 10
71.9321
 20
138.7364
 30
0.0
 11
73.80379999999999
 21
138.4673999999999
 31
0.0
  0
LINE
  5
1D6
330
1E
100
AcDbEntity
  8
0
100
AcDbLine
 10
111.5999999999999
 20
138.4673999999999
 30
0.0
 11
111.5999999999999
 21
138.1879999999999
 31
0.0
  0
LINE
  5
1D7
330
1E
100
AcDbEntity
  8
0
100
AcDbLine
 10
111.5999999999999
 20
138.4673999999999
 30
0.0
 11
111.5999999999999
 21
138.7364
 31
0.0
  0
LINE
  5
1D8
330
1E
100
AcDbEntity
  8
0
100
AcDbLine
 10
111.5999999999999
 20
138.7364
 30
0.0
 11
111.5999999999999
 21
138.9602999999999
 31
0.0
  0
LINE
  5
1D9
330
1E
100
AcDbEntity
  8
0
100
AcDbLine
 10
111.5999999999999
 20
138.7364
 30
0.0
 11
111.5999999999999
 21
138.4673999999999
 31
0.0
  0
LINE
  5
1DA
330
1E
100
AcDbEntity
  8
0
100
AcDbLine
 10
73.80379999999999
 20
138.4673999999999
 30
0.0
 11
76.0547
 21
138.1879999999999
 31
0.0
  0
LINE
  5
1DB
330
1E
100
AcDbEntity
  8
0
100
AcDbLine
 10
111.5999999999999
 20
139.2675
 30
0.0
 11
111.5999999999999
 21
139.121
 31
0.0
  0
LINE
  5
1E0
330
1E
100
AcDbEntity
  8
0
100
AcDbLine
 10
111.5999999999999
 20
139.121
 30
0.0
 11
111.5999999999999
 21
138.9602999999999
 31
0.0
  0
LINE
  5
1E1
330
1E
100
AcDbEntity
  8
0
100
AcDbLine
 10
111.5999999999999
 20
139.121
 30
0.0
 11
111.5999999999999
 21
139.2675
 31
0.0
  0
LINE
  5
1E2
330
1E
100
AcDbEntity
  8
0
100
AcDbLine
 10
111.5999999999999
 20
138.9602999999999
 30
0.0
 11
111.5999999999999
 21
139.121
 31
0.0
  0
LINE
  5
1E3
330
1E
100
AcDbEntity
  8
0
100
AcDbLine
 10
111.5999999999999
 20
138.9602999999999
 30
0.0
 11
111.5999999999999
 21
138.7364
 31
0.0
  0
LINE
  5
1E4
330
1E
100
AcDbEntity
  8
0
100
AcDbLine
 10
69.1186
 20
139.121
 30
0.0
 11
70.4
 21
138.9602999999999
 31
0.0
  0
LINE
  5
1E5
330
1E
100
AcDbEntity
  8
0
100
AcDbLine
 10
112.0
 20
138.2607999999999
 30
0.0
 11
112.0
 21
138.1674999999999
 31
0.0
  0
LINE
  5
1E6
330
1E
100
AcDbEntity
  8
0
100
AcDbLine
 10
92.4
 20
131.3259999999999
 30
0.0
 11
92.4
 21
100.326
 31
0.0
  0
LINE
  5
1E7
330
1E
100
AcDbEntity
  8
0
100
AcDbLine
 10
92.4
 20
131.3259999999999
 30
0.0
 11
92.70000000000001
 21
132.426
 31
0.0
  0
LINE
  5
1E8
330
1E
100
AcDbEntity
  8
0
100
AcDbLine
 10
66.0
 20
138.3259999999999
 30
0.0
 11
66.4
 21
139.426
 31
0.0
  0
LINE
  5
1E9
330
1E
100
AcDbEntity
  8
0
100
AcDbLine
 10
66.0
 20
138.3259999999999
 30
0.0
 11
66.0
 21
134.3259999999999
 31
0.0
  0
LINE
  5
1EA
330
1E
100
AcDbEntity
  8
0
100
AcDbLine
 10
66.53220000000001
 20
139.426
 30
0.0
 11
66.8297
 21
139.3994
 31
0.0
  0
LINE
  5
1EB
330
1E
100
AcDbEntity
  8
0
100
AcDbLine
 10
110.4999999999999
 20
139.826
 30
0.0
 11
111.5999999999999
 21
139.426
 31
0.0
  0
LINE
  5
1EE
330
1E
100
AcDbEntity
  8
0
100
AcDbLine
 10
67.5
 20
139.826
 30
0.0
 11
67.6322
 21
139.826
 31
0.0
  0
LINE
  5
1EF
330
1E
100
AcDbEntity
  8
0
100
AcDbLine
 10
67.6322
 20
139.826
 30
0.0
 11
110.4999999999999
 21
139.826
 31
0.0
  0
LINE
  5
1F1
330
1E
100
AcDbEntity
  8
0
100
AcDbLine
 10
66.4
 20
139.426
 30
0.0
 11
67.5
 21
139.826
 31
0.0
  0
LINE
  5
1F2
330
1E
100
AcDbEntity
  8
0
100
AcDbLine
 10
66.4
 20
139.426
 30
0.0
 11
66.53220000000001
 21
139.426
 31
0.0
  0
LINE
  5
1F3
330
1E
100
AcDbEntity
  8
0
100
AcDbLine
 10
111.5999999999999
 20
139.426
 30
0.0
 11
112.0
 21
138.3259999999999
 31
0.0
  0
LINE
  5
1F4
330
1E
100
AcDbEntity
  8
0
100
AcDbLine
 10
114.0
 20
128.8259999999999
 30
0.0
 11
116.0
 21
129.8259999999999
 31
0.0
  0
LINE
  5
1F5
330
1E
100
AcDbEntity
  8
0
100
AcDbLine
 10
112.0
 20
126.826
 30
0.0
 11
114.0
 21
128.8259999999999
 31
0.0
  0
LINE
  5
1F6
330
1E
100
AcDbEntity
  8
0
100
AcDbLine
 10
147.0
 20
98.426
 30
0.0
 11
147.0
 21
106.826
 31
0.0
  0
LINE
  5
1F7
330
1E
100
AcDbEntity
  8
0
100
AcDbLine
 10
147.0
 20
98.426
 30
0.0
 11
147.0
 21
91.126
 31
0.0
  0
LINE
  5
1F8
330
1E
100
AcDbEntity
  8
0
100
AcDbLine
 10
147.0
 20
91.126
 30
0.0
 11
147.0
 21
98.426
 31
0.0
  0
LINE
  5
1F9
330
1E
100
AcDbEntity
  8
0
100
AcDbLine
 10
147.0
 20
91.126
 30
0.0
 11
147.0
 21
85.52600000000001
 31
0.0
  0
LINE
  5
1FA
330
1E
100
AcDbEntity
  8
0
100
AcDbLine
 10
147.0
 20
85.52600000000001
 30
0.0
 11
147.0
 21
91.126
 31
0.0
  0
LINE
  5
1FB
330
1E
100
AcDbEntity
  8
0
100
AcDbLine
 10
147.0
 20
85.52600000000001
 30
0.0
 11
147.0
 21
82.126
 31
0.0
  0
LINE
  5
1FC
330
1E
100
AcDbEntity
  8
0
100
AcDbLine
 10
147.0
 20
82.126
 30
0.0
 11
147.0
 21
85.52600000000001
 31
0.0
  0
LINE
  5
1FD
330
1E
100
AcDbEntity
  8
0
100
AcDbLine
 10
147.0
 20
82.126
 30
0.0
 11
147.0
 21
80.82600000000001
 31
0.0
  0
LINE
  5
1FE
330
1E
100
AcDbEntity
  8
0
100
AcDbLine
 10
122.0
 20
101.826
 30
0.0
 11
124.0
 21
102.826
 31
0.0
  0
LINE
  5
1FF
330
1E
100
AcDbEntity
  8
0
100
AcDbLine
 10
152.0
 20
98.426
 30
0.0
 11
152.0
 21
106.826
 31
0.0
  0
LINE
  5
200
330
1E
100
AcDbEntity
  8
0
100
AcDbLine
 10
152.0
 20
91.126
 30
0.0
 11
152.0
 21
98.426
 31
0.0
  0
LINE
  5
201
330
1E
100
AcDbEntity
  8
0
100
AcDbLine
 10
152.0
 20
85.52600000000001
 30
0.0
 11
152.0
 21
91.126
 31
0.0
  0
LINE
  5
202
330
1E
100
AcDbEntity
  8
0
100
AcDbLine
 10
152.0
 20
82.126
 30
0.0
 11
152.0
 21
85.52600000000001
 31
0.0
  0
LINE
  5
203
330
1E
100
AcDbEntity
  8
0
100
AcDbLine
 10
152.0
 20
80.82600000000001
 30
0.0
 11
152.0
 21
82.126
 31
0.0
  0
LINE
  5
204
330
1E
100
AcDbEntity
  8
0
100
AcDbLine
 10
147.0
 20
80.82600000000001
 30
0.0
 11
152.0
 21
80.82600000000001
 31
0.0
  0
LINE
  5
205
330
1E
100
AcDbEntity
  8
0
100
AcDbLine
 10
147.0
 20
80.82600000000001
 30
0.0
 11
147.0
 21
82.126
 31
0.0
  0
LINE
  5
206
330
1E
100
AcDbEntity
  8
0
100
AcDbLine
 10
127.0
 20
101.826
 30
0.0
 11
147.0
 21
80.82600000000001
 31
0.0
  0
LINE
  5
207
330
1E
100
AcDbEntity
  8
0
100
AcDbLine
 10
127.0
 20
101.826
 30
0.0
 11
127.0
 21
102.326
 31
0.0
  0
LINE
  5
208
330
1E
100
AcDbEntity
  8
0
100
AcDbLine
 10
119.0
 20
101.826
 30
0.0
 11
122.0
 21
101.826
 31
0.0
  0
LINE
  5
209
330
1E
100
AcDbEntity
  8
0
100
AcDbLine
 10
124.0
 20
103.326
 30
0.0
 11
124.0
 21
104.526
 31
0.0
  0
LINE
  5
212
330
1E
100
AcDbEntity
  8
0
100
AcDbLine
 10
124.0
 20
128.8259999999999
 30
0.0
 11
124.0
 21
104.526
 31
0.0
  0
LINE
  5
213
330
1E
100
AcDbEntity
  8
0
100
AcDbLine
 10
124.0
 20
104.526
 30
0.0
 11
124.0
 21
102.826
 31
0.0
  0
LINE
  5
214
330
1E
100
AcDbEntity
  8
0
100
AcDbLine
 10
124.0
 20
104.526
 30
0.0
 11
124.0
 21
128.8259999999999
 31
0.0
  0
LINE
  5
215
330
1E
100
AcDbEntity
  8
0
100
AcDbLine
 10
124.0
 20
102.826
 30
0.0
 11
126.0
 21
104.826
 31
0.0
  0
LINE
  5
216
330
1E
100
AcDbEntity
  8
0
100
AcDbLine
 10
119.0
 20
129.8259999999999
 30
0.0
 11
122.0
 21
129.8259999999999
 31
0.0
  0
LINE
  5
217
330
1E
100
AcDbEntity
  8
0
100
AcDbLine
 10
122.0
 20
129.8259999999999
 30
0.0
 11
124.0
 21
128.8259999999999
 31
0.0
  0
LINE
  5
218
330
1E
100
AcDbEntity
  8
0
100
AcDbLine
 10
126.0
 20
118.626
 30
0.0
 11
126.0
 21
121.326
 31
0.0
  0
LINE
  5
219
330
1E
100
AcDbEntity
  8
0
100
AcDbLine
 10
126.0
 20
118.626
 30
0.0
 11
126.0
 21
115.826
 31
0.0
  0
LINE
  5
21A
330
1E
100
AcDbEntity
  8
0
100
AcDbLine
 10
126.0
 20
121.326
 30
0.0
 11
126.0
 21
123.626
 31
0.0
  0
LINE
  5
21B
330
1E
100
AcDbEntity
  8
0
100
AcDbLine
 10
126.0
 20
121.326
 30
0.0
 11
126.0
 21
118.626
 31
0.0
  0
LINE
  5
21C
330
1E
100
AcDbEntity
  8
0
100
AcDbLine
 10
126.0
 20
123.626
 30
0.0
 11
126.0
 21
125.326
 31
0.0
  0
LINE
  5
21D
330
1E
100
AcDbEntity
  8
0
100
AcDbLine
 10
126.0
 20
123.626
 30
0.0
 11
126.0
 21
121.326
 31
0.0
  0
LINE
  5
21E
330
1E
100
AcDbEntity
  8
0
100
AcDbLine
 10
126.0
 20
125.326
 30
0.0
 11
126.0
 21
126.4259999999999
 31
0.0
  0
LINE
  5
21F
330
1E
100
AcDbEntity
  8
0
100
AcDbLine
 10
126.0
 20
125.326
 30
0.0
 11
126.0
 21
123.626
 31
0.0
  0
LINE
  5
220
330
1E
100
AcDbEntity
  8
0
100
AcDbLine
 10
126.0
 20
126.4259999999999
 30
0.0
 11
126.0
 21
126.826
 31
0.0
  0
LINE
  5
221
330
1E
100
AcDbEntity
  8
0
100
AcDbLine
 10
126.0
 20
126.4259999999999
 30
0.0
 11
126.0
 21
125.326
 31
0.0
  0
LINE
  5
222
330
1E
100
AcDbEntity
  8
0
100
AcDbLine
 10
126.0
 20
115.826
 30
0.0
 11
126.0
 21
113.026
 31
0.0
  0
LINE
  5
223
330
1E
100
AcDbEntity
  8
0
100
AcDbLine
 10
126.0
 20
115.826
 30
0.0
 11
126.0
 21
118.626
 31
0.0
  0
LINE
  5
224
330
1E
100
AcDbEntity
  8
0
100
AcDbLine
 10
126.0
 20
113.026
 30
0.0
 11
126.0
 21
115.826
 31
0.0
  0
LINE
  5
225
330
1E
100
AcDbEntity
  8
0
100
AcDbLine
 10
126.0
 20
113.026
 30
0.0
 11
126.0
 21
110.326
 31
0.0
  0
LINE
  5
226
330
1E
100
AcDbEntity
  8
0
100
AcDbLine
 10
126.0
 20
110.326
 30
0.0
 11
126.0
 21
113.026
 31
0.0
  0
LINE
  5
227
330
1E
100
AcDbEntity
  8
0
100
AcDbLine
 10
126.0
 20
110.326
 30
0.0
 11
126.0
 21
108.026
 31
0.0
  0
LINE
  5
228
330
1E
100
AcDbEntity
  8
0
100
AcDbLine
 10
126.0
 20
108.026
 30
0.0
 11
126.0
 21
110.326
 31
0.0
  0
LINE
  5
229
330
1E
100
AcDbEntity
  8
0
100
AcDbLine
 10
126.0
 20
108.026
 30
0.0
 11
126.0
 21
106.326
 31
0.0
  0
LINE
  5
22A
330
1E
100
AcDbEntity
  8
0
100
AcDbLine
 10
126.0
 20
106.326
 30
0.0
 11
126.0
 21
108.026
 31
0.0
  0
LINE
  5
22B
330
1E
100
AcDbEntity
  8
0
100
AcDbLine
 10
126.0
 20
106.326
 30
0.0
 11
126.0
 21
105.2259999999999
 31
0.0
  0
LINE
  5
22C
330
1E
100
AcDbEntity
  8
0
100
AcDbLine
 10
126.0
 20
105.2259999999999
 30
0.0
 11
126.0
 21
106.326
 31
0.0
  0
LINE
  5
22D
330
1E
100
AcDbEntity
  8
0
100
AcDbLine
 10
126.0
 20
105.2259999999999
 30
0.0
 11
126.0
 21
104.826
 31
0.0
  0
LINE
  5
22E
330
1E
100
AcDbEntity
  8
0
100
AcDbLine
 10
126.0
 20
126.826
 30
0.0
 11
127.0
 21
126.826
 31
0.0
  0
LINE
  5
22F
330
1E
100
AcDbEntity
  8
0
100
AcDbLine
 10
126.0
 20
126.826
 30
0.0
 11
126.0
 21
126.4259999999999
 31
0.0
  0
LINE
  5
230
330
1E
100
AcDbEntity
  8
0
100
AcDbLine
 10
124.0
 20
128.8259999999999
 30
0.0
 11
126.0
 21
126.826
 31
0.0
  0
LINE
  5
231
330
1E
100
AcDbEntity
  8
0
100
AcDbLine
 10
116.0
 20
129.8259999999999
 30
0.0
 11
119.0
 21
129.8259999999999
 31
0.0
  0
LINE
  5
232
330
1E
100
AcDbEntity
  8
0
100
AcDbLine
 10
127.0
 20
105.926
 30
0.0
 11
127.0
 21
108.826
 31
0.0
  0
LINE
  5
233
330
1E
100
AcDbEntity
  8
0
100
AcDbLine
 10
127.0
 20
105.926
 30
0.0
 11
127.0
 21
103.726
 31
0.0
  0
LINE
  5
234
330
1E
100
AcDbEntity
  8
0
100
AcDbLine
 10
127.0
 20
108.826
 30
0.0
 11
127.0
 21
112.226
 31
0.0
  0
LINE
  5
235
330
1E
100
AcDbEntity
  8
0
100
AcDbLine
 10
127.0
 20
108.826
 30
0.0
 11
127.0
 21
105.926
 31
0.0
  0
LINE
  5
236
330
1E
100
AcDbEntity
  8
0
100
AcDbLine
 10
127.0
 20
112.226
 30
0.0
 11
127.0
 21
115.826
 31
0.0
  0
LINE
  5
237
330
1E
100
AcDbEntity
  8
0
100
AcDbLine
 10
127.0
 20
112.226
 30
0.0
 11
127.0
 21
108.826
 31
0.0
  0
LINE
  5
238
330
1E
100
AcDbEntity
  8
0
100
AcDbLine
 10
127.0
 20
113.026
 30
0.0
 11
127.0
 21
115.826
 31
0.0
  0
LINE
  5
239
330
1E
100
AcDbEntity
  8
0
100
AcDbLine
 10
127.0
 20
113.026
 30
0.0
 11
127.0
 21
110.326
 31
0.0
  0
LINE
  5
23A
330
1E
100
AcDbEntity
  8
0
100
AcDbLine
 10
127.0
 20
110.326
 30
0.0
 11
127.0
 21
113.026
 31
0.0
  0
LINE
  5
23B
330
1E
100
AcDbEntity
  8
0
100
AcDbLine
 10
127.0
 20
110.326
 30
0.0
 11
127.0
 21
108.026
 31
0.0
  0
LINE
  5
23C
330
1E
100
AcDbEntity
  8
0
100
AcDbLine
 10
127.0
 20
108.026
 30
0.0
 11
127.0
 21
110.326
 31
0.0
  0
LINE
  5
23D
330
1E
100
AcDbEntity
  8
0
100
AcDbLine
 10
127.0
 20
108.026
 30
0.0
 11
127.0
 21
106.326
 31
0.0
  0
LINE
  5
23E
330
1E
100
AcDbEntity
  8
0
100
AcDbLine
 10
127.0
 20
106.326
 30
0.0
 11
127.0
 21
108.026
 31
0.0
  0
LINE
  5
23F
330
1E
100
AcDbEntity
  8
0
100
AcDbLine
 10
127.0
 20
106.326
 30
0.0
 11
127.0
 21
105.2259999999999
 31
0.0
  0
LINE
  5
240
330
1E
100
AcDbEntity
  8
0
100
AcDbLine
 10
127.0
 20
105.2259999999999
 30
0.0
 11
127.0
 21
106.326
 31
0.0
  0
LINE
  5
241
330
1E
100
AcDbEntity
  8
0
100
AcDbLine
 10
127.0
 20
105.2259999999999
 30
0.0
 11
127.0
 21
104.826
 31
0.0
  0
LINE
  5
242
330
1E
100
AcDbEntity
  8
0
100
AcDbLine
 10
127.0
 20
118.626
 30
0.0
 11
127.0
 21
115.826
 31
0.0
  0
LINE
  5
243
330
1E
100
AcDbEntity
  8
0
100
AcDbLine
 10
127.0
 20
118.626
 30
0.0
 11
127.0
 21
121.326
 31
0.0
  0
LINE
  5
244
330
1E
100
AcDbEntity
  8
0
100
AcDbLine
 10
127.0
 20
115.826
 30
0.0
 11
127.0
 21
119.426
 31
0.0
  0
LINE
  5
245
330
1E
100
AcDbEntity
  8
0
100
AcDbLine
 10
127.0
 20
115.826
 30
0.0
 11
127.0
 21
113.026
 31
0.0
  0
LINE
  5
246
330
1E
100
AcDbEntity
  8
0
100
AcDbLine
 10
127.0
 20
115.826
 30
0.0
 11
127.0
 21
112.226
 31
0.0
  0
LINE
  5
247
330
1E
100
AcDbEntity
  8
0
100
AcDbLine
 10
127.0
 20
115.826
 30
0.0
 11
127.0
 21
118.626
 31
0.0
  0
LINE
  5
248
330
1E
100
AcDbEntity
  8
0
100
AcDbLine
 10
127.0
 20
119.426
 30
0.0
 11
127.0
 21
122.826
 31
0.0
  0
LINE
  5
249
330
1E
100
AcDbEntity
  8
0
100
AcDbLine
 10
127.0
 20
119.426
 30
0.0
 11
127.0
 21
115.826
 31
0.0
  0
LINE
  5
24A
330
1E
100
AcDbEntity
  8
0
100
AcDbLine
 10
127.0
 20
121.326
 30
0.0
 11
127.0
 21
118.626
 31
0.0
  0
LINE
  5
24B
330
1E
100
AcDbEntity
  8
0
100
AcDbLine
 10
127.0
 20
121.326
 30
0.0
 11
127.0
 21
123.626
 31
0.0
  0
LINE
  5
24C
330
1E
100
AcDbEntity
  8
0
100
AcDbLine
 10
127.0
 20
122.826
 30
0.0
 11
127.0
 21
125.726
 31
0.0
  0
LINE
  5
24D
330
1E
100
AcDbEntity
  8
0
100
AcDbLine
 10
127.0
 20
122.826
 30
0.0
 11
127.0
 21
119.426
 31
0.0
  0
LINE
  5
24E
330
1E
100
AcDbEntity
  8
0
100
AcDbLine
 10
127.0
 20
123.626
 30
0.0
 11
127.0
 21
121.326
 31
0.0
  0
LINE
  5
24F
330
1E
100
AcDbEntity
  8
0
100
AcDbLine
 10
127.0
 20
123.626
 30
0.0
 11
127.0
 21
125.326
 31
0.0
  0
LINE
  5
250
330
1E
100
AcDbEntity
  8
0
100
AcDbLine
 10
127.0
 20
125.726
 30
0.0
 11
127.0
 21
127.926
 31
0.0
  0
LINE
  5
251
330
1E
100
AcDbEntity
  8
0
100
AcDbLine
 10
127.0
 20
125.726
 30
0.0
 11
127.0
 21
122.826
 31
0.0
  0
LINE
  5
252
330
1E
100
AcDbEntity
  8
0
100
AcDbLine
 10
127.0
 20
125.326
 30
0.0
 11
127.0
 21
123.626
 31
0.0
  0
LINE
  5
253
330
1E
100
AcDbEntity
  8
0
100
AcDbLine
 10
127.0
 20
125.326
 30
0.0
 11
127.0
 21
126.4259999999999
 31
0.0
  0
LINE
  5
254
330
1E
100
AcDbEntity
  8
0
100
AcDbLine
 10
127.0
 20
126.4259999999999
 30
0.0
 11
127.0
 21
125.326
 31
0.0
  0
LINE
  5
255
330
1E
100
AcDbEntity
  8
0
100
AcDbLine
 10
127.0
 20
126.4259999999999
 30
0.0
 11
127.0
 21
126.826
 31
0.0
  0
LINE
  5
256
330
1E
100
AcDbEntity
  8
0
100
AcDbLine
 10
127.0
 20
126.826
 30
0.0
 11
127.0
 21
127.926
 31
0.0
  0
LINE
  5
257
330
1E
100
AcDbEntity
  8
0
100
AcDbLine
 10
127.0
 20
126.826
 30
0.0
 11
127.0
 21
126.4259999999999
 31
0.0
  0
LINE
  5
258
330
1E
100
AcDbEntity
  8
0
100
AcDbLine
 10
127.0
 20
127.926
 30
0.0
 11
127.0
 21
126.826
 31
0.0
  0
LINE
  5
259
330
1E
100
AcDbEntity
  8
0
100
AcDbLine
 10
127.0
 20
127.926
 30
0.0
 11
127.0
 21
129.3259999999999
 31
0.0
  0
LINE
  5
25A
330
1E
100
AcDbEntity
  8
0
100
AcDbLine
 10
127.0
 20
127.926
 30
0.0
 11
127.0
 21
125.726
 31
0.0
  0
LINE
  5
25B
330
1E
100
AcDbEntity
  8
0
100
AcDbLine
 10
127.0
 20
129.3259999999999
 30
0.0
 11
127.0
 21
127.926
 31
0.0
  0
LINE
  5
25C
330
1E
100
AcDbEntity
  8
0
100
AcDbLine
 10
127.0
 20
129.3259999999999
 30
0.0
 11
127.0
 21
129.8259999999999
 31
0.0
  0
LINE
  5
25D
330
1E
100
AcDbEntity
  8
0
100
AcDbLine
 10
127.0
 20
129.8259999999999
 30
0.0
 11
127.0
 21
129.3259999999999
 31
0.0
  0
LINE
  5
25E
330
1E
100
AcDbEntity
  8
0
100
AcDbLine
 10
127.0
 20
129.8259999999999
 30
0.0
 11
147.0
 21
150.8259999999999
 31
0.0
  0
LINE
  5
25F
330
1E
100
AcDbEntity
  8
0
100
AcDbLine
 10
127.0
 20
104.826
 30
0.0
 11
127.0
 21
103.726
 31
0.0
  0
LINE
  5
260
330
1E
100
AcDbEntity
  8
0
100
AcDbLine
 10
127.0
 20
104.826
 30
0.0
 11
127.0
 21
105.2259999999999
 31
0.0
  0
LINE
  5
261
330
1E
100
AcDbEntity
  8
0
100
AcDbLine
 10
147.0
 20
106.826
 30
0.0
 11
147.0
 21
115.826
 31
0.0
  0
LINE
  5
262
330
1E
100
AcDbEntity
  8
0
100
AcDbLine
 10
147.0
 20
106.826
 30
0.0
 11
147.0
 21
98.426
 31
0.0
  0
LINE
  5
263
330
1E
100
AcDbEntity
  8
0
100
AcDbLine
 10
147.0
 20
115.826
 30
0.0
 11
147.0
 21
124.826
 31
0.0
  0
LINE
  5
264
330
1E
100
AcDbEntity
  8
0
100
AcDbLine
 10
147.0
 20
115.826
 30
0.0
 11
147.0
 21
106.826
 31
0.0
  0
LINE
  5
265
330
1E
100
AcDbEntity
  8
0
100
AcDbLine
 10
147.0
 20
124.826
 30
0.0
 11
147.0
 21
133.2259999999999
 31
0.0
  0
LINE
  5
266
330
1E
100
AcDbEntity
  8
0
100
AcDbLine
 10
147.0
 20
124.826
 30
0.0
 11
147.0
 21
115.826
 31
0.0
  0
LINE
  5
267
330
1E
100
AcDbEntity
  8
0
100
AcDbLine
 10
147.0
 20
133.2259999999999
 30
0.0
 11
147.0
 21
140.526
 31
0.0
  0
LINE
  5
268
330
1E
100
AcDbEntity
  8
0
100
AcDbLine
 10
147.0
 20
133.2259999999999
 30
0.0
 11
147.0
 21
124.826
 31
0.0
  0
LINE
  5
269
330
1E
100
AcDbEntity
  8
0
100
AcDbLine
 10
147.0
 20
140.526
 30
0.0
 11
147.0
 21
146.126
 31
0.0
  0
LINE
  5
26A
330
1E
100
AcDbEntity
  8
0
100
AcDbLine
 10
147.0
 20
140.526
 30
0.0
 11
147.0
 21
133.2259999999999
 31
0.0
  0
LINE
  5
26B
330
1E
100
AcDbEntity
  8
0
100
AcDbLine
 10
147.0
 20
146.126
 30
0.0
 11
147.0
 21
149.526
 31
0.0
  0
LINE
  5
26C
330
1E
100
AcDbEntity
  8
0
100
AcDbLine
 10
147.0
 20
146.126
 30
0.0
 11
147.0
 21
140.526
 31
0.0
  0
LINE
  5
26D
330
1E
100
AcDbEntity
  8
0
100
AcDbLine
 10
152.0
 20
106.826
 30
0.0
 11
152.0
 21
115.826
 31
0.0
  0
LINE
  5
26E
330
1E
100
AcDbEntity
  8
0
100
AcDbLine
 10
152.0
 20
115.826
 30
0.0
 11
152.0
 21
124.826
 31
0.0
  0
LINE
  5
26F
330
1E
100
AcDbEntity
  8
0
100
AcDbLine
 10
152.0
 20
124.826
 30
0.0
 11
152.0
 21
133.2259999999999
 31
0.0
  0
LINE
  5
270
330
1E
100
AcDbEntity
  8
0
100
AcDbLine
 10
152.0
 20
133.2259999999999
 30
0.0
 11
152.0
 21
140.526
 31
0.0
  0
LINE
  5
271
330
1E
100
AcDbEntity
  8
0
100
AcDbLine
 10
152.0
 20
140.526
 30
0.0
 11
152.0
 21
146.126
 31
0.0
  0
LINE
  5
272
330
1E
100
AcDbEntity
  8
0
100
AcDbLine
 10
152.0
 20
146.126
 30
0.0
 11
152.0
 21
149.526
 31
0.0
  0
LINE
  5
273
330
1E
100
AcDbEntity
  8
0
100
AcDbLine
 10
152.0
 20
149.526
 30
0.0
 11
152.0
 21
150.8259999999999
 31
0.0
  0
LINE
  5
274
330
1E
100
AcDbEntity
  8
0
100
AcDbLine
 10
147.0
 20
149.526
 30
0.0
 11
147.0
 21
150.8259999999999
 31
0.0
  0
LINE
  5
275
330
1E
100
AcDbEntity
  8
0
100
AcDbLine
 10
147.0
 20
149.526
 30
0.0
 11
147.0
 21
146.126
 31
0.0
  0
LINE
  5
276
330
1E
100
AcDbEntity
  8
0
100
AcDbLine
 10
147.0
 20
150.8259999999999
 30
0.0
 11
152.0
 21
150.8259999999999
 31
0.0
  0
LINE
  5
277
330
1E
100
AcDbEntity
  8
0
100
AcDbLine
 10
147.0
 20
150.8259999999999
 30
0.0
 11
147.0
 21
149.526
 31
0.0
  0
LINE
  5
278
330
1E
100
AcDbEntity
  8
0
100
AcDbLine
 10
127.0
 20
103.726
 30
0.0
 11
127.0
 21
102.326
 31
0.0
  0
LINE
  5
279
330
1E
100
AcDbEntity
  8
0
100
AcDbLine
 10
127.0
 20
103.726
 30
0.0
 11
127.0
 21
104.826
 31
0.0
  0
LINE
  5
27A
330
1E
100
AcDbEntity
  8
0
100
AcDbLine
 10
127.0
 20
103.726
 30
0.0
 11
127.0
 21
105.926
 31
0.0
  0
LINE
  5
27B
330
1E
100
AcDbEntity
  8
0
100
AcDbLine
 10
127.0
 20
102.326
 30
0.0
 11
127.0
 21
101.826
 31
0.0
  0
LINE
  5
27C
330
1E
100
AcDbEntity
  8
0
100
AcDbLine
 10
127.0
 20
102.326
 30
0.0
 11
127.0
 21
103.726
 31
0.0
  0
LINE
  5
27D
330
1E
100
AcDbEntity
  8
0
100
AcDbLine
 10
126.0
 20
104.826
 30
0.0
 11
127.0
 21
104.826
 31
0.0
  0
LINE
  5
27E
330
1E
100
AcDbEntity
  8
0
100
AcDbLine
 10
126.0
 20
104.826
 30
0.0
 11
126.0
 21
105.2259999999999
 31
0.0
  0
LINE
  5
27F
330
1E
100
AcDbEntity
  8
0
100
AcDbLine
 10
116.0
 20
101.826
 30
0.0
 11
119.0
 21
101.826
 31
0.0
  0
LINE
  5
280
330
1E
100
AcDbEntity
  8
0
100
AcDbLine
 10
114.0
 20
102.826
 30
0.0
 11
116.0
 21
101.826
 31
0.0
  0
LINE
  5
285
330
1E
100
AcDbEntity
  8
0
100
AcDbLine
 10
112.0
 20
138.2607999999999
 30
0.0
 11
112.0
 21
126.826
 31
0.0
  0
LINE
  5
286
330
1E
100
AcDbEntity
  8
0
100
AcDbLine
 10
112.0
 20
126.826
 30
0.0
 11
112.0
 21
104.826
 31
0.0
  0
LINE
  5
287
330
1E
100
AcDbEntity
  8
0
100
AcDbLine
 10
112.0
 20
104.826
 30
0.0
 11
112.0
 21
93.63100000000001
 31
0.0
  0
LINE
  5
288
330
1E
100
AcDbEntity
  8
0
100
AcDbLine
 10
20.96039999999999
 20
95.01040000000001
 30
0.0
 11
23.1963
 21
97.01109999999999
 31
0.0
  0
ENDSEC
  0
SECTION
  2
OBJECTS
  0
DICTIONARY
  5
C
330
0
100
AcDbDictionary
281
     1
  3
ACAD_GROUP
350
D
  3
ACAD_LAYOUT
350
19
  3
ACAD_MLINESTYLE
350
16
  3
ACAD_PLOTSETTINGS
350
18
  3
ACAD_PLOTSTYLENAME
350
E
  3
AcDbVariableDictionary
350
289
  0
DICTIONARY
  5
D
102
{ACAD_REACTORS
330
C
102
}
330
C
100
AcDbDictionary
281
     1
  0
DICTIONARY
  5
19
102
{ACAD_REACTORS
330
C
102
}
330
C
100
AcDbDictionary
281
     1
  3
Layout1
350
1D
  3
Model
350
21
  0
DICTIONARY
  5
16
102
{ACAD_REACTORS
330
C
102
}
330
C
100
AcDbDictionary
281
     1
  3
Standard
350
17
  0
DICTIONARY
  5
18
102
{ACAD_REACTORS
330
C
102
}
330
C
100
AcDbDictionary
281
     1
  0
ACDBDICTIONARYWDFLT
  5
E
102
{ACAD_REACTORS
330
C
102
}
330
C
100
AcDbDictionary
281
     1
  3
Normal
350
F
100
AcDbDictionaryWithDefault
340
F
  0
DICTIONARY
  5
289
102
{ACAD_REACTORS
330
C
102
}
330
C
100
AcDbDictionary
281
     1
  3
DIMASSOC
350
28A
  0
LAYOUT
  5
1D
102
{ACAD_REACTORS
330
19
102
}
330
19
100
AcDbPlotSettings
  1

  2
hp deskjet 980c series
  4

  6

 40
0.0
 41
0.0
 42
0.0
 43
0.0
 44
0.0
 45
0.0
 46
0.0
 47
0.0
 48
0.0
 49
0.0
140
0.0
141
0.0
142
1.0
143
1.0
 70
   688
 72
     0
 73
     0
 74
     5
  7

 75
    16
147
1.0
148
0.0
149
0.0
100
AcDbLayout
  1
Layout1
 70
     1
 71
     1
 10
0.0
 20
0.0
 11
12.0
 21
9.0
 12
0.0
 22
0.0
 32
0.0
 14
1.000000000000000E+20
 24
1.000000000000000E+20
 34
1.000000000000000E+20
 15
-1.000000000000000E+20
 25
-1.000000000000000E+20
 35
-1.000000000000000E+20
146
0.0
 13
0.0
 23
0.0
 33
0.0
 16
1.0
 26
0.0
 36
0.0
 17
0.0
 27
1.0
 37
0.0
 76
     0
330
1A
  0
LAYOUT
  5
21
102
{ACAD_REACTORS
330
19
102
}
330
19
100
AcDbPlotSettings
  1

  2
hp deskjet 980c series
  4

  6

 40
0.0
 41
0.0
 42
0.0
 43
0.0
 44
0.0
 45
0.0
 46
0.0
 47
0.0
 48
0.0
 49
0.0
140
0.0
141
0.0
142
1.0
143
1.0
 70
  1712
 72
     0
 73
     0
 74
     0
  7

 75
     0
147
1.0
148
0.0
149
0.0
100
AcDbLayout
  1
Model
 70
     1
 71
     0
 10
0.0
 20
0.0
 11
12.0
 21
9.0
 12
0.0
 22
0.0
 32
0.0
 14
0.0
 24
0.0
 34
0.0
 15
0.0
 25
0.0
 35
0.0
146
0.0
 13
0.0
 23
0.0
 33
0.0
 16
1.0
 26
0.0
 36
0.0
 17
0.0
 27
1.0
 37
0.0
 76
     0
330
1E
  0
MLINESTYLE
  5
17
102
{ACAD_REACTORS
330
16
102
}
330
16
100
AcDbMlineStyle
  2
STANDARD
 70
     0
  3

 62
   256
 51
90.0
 52
90.0
 71
     2
 49
0.5
 62
   256
  6
BYLAYER
 49
-0.5
 62
   256
  6
BYLAYER
  0
ACDBPLACEHOLDER
  5
F
102
{ACAD_REACTORS
330
E
102
}
330
E
  0
DICTIONARYVAR
  5
28A
102
{ACAD_REACTORS
330
289
102
}
330
289
100
DictionaryVariables
280
     0
  1
1
  0
ENDSEC
  0
EOF
