  0
SECTION
  2
HEADER
  9
$ACADVER
  1
AC1015
  9
$ACADMAINTVER
 70
    13
  9
$DWGCODEPAGE
  3
ANSI_1252
  9
$INSBASE
 10
0.0
 20
0.0
 30
0.0
  9
$EXTMIN
 10
0.0
 20
0.122146500000002
 30
0.0
  9
$EXTMAX
 10
220.0
 20
208.8778534999999
 30
0.0
  9
$LIMMIN
 10
0.0
 20
0.0
  9
$LIMMAX
 10
12.0
 20
9.0
  9
$ORTHOMODE
 70
     0
  9
$REGENMODE
 70
     1
  9
$FILLMODE
 70
     1
  9
$QTEXTMODE
 70
     0
  9
$MIRRTEXT
 70
     1
  9
$LTSCALE
 40
1.0
  9
$ATTMODE
 70
     1
  9
$TEXTSIZE
 40
0.2
  9
$TRACEWID
 40
0.05
  9
$TEXTSTYLE
  7
Standard
  9
$CLAYER
  8
0
  9
$CELTYPE
  6
Continuous
  9
$CECOLOR
 62
   256
  9
$CELTSCALE
 40
1.0
  9
$DISPSILH
 70
     0
  9
$DIMSCALE
 40
1.0
  9
$DIMASZ
 40
0.18
  9
$DIMEXO
 40
0.0625
  9
$DIMDLI
 40
0.38
  9
$DIMRND
 40
0.0
  9
$DIMDLE
 40
0.0
  9
$DIMEXE
 40
0.18
  9
$DIMTP
 40
0.0
  9
$DIMTM
 40
0.0
  9
$DIMTXT
 40
0.18
  9
$DIMCEN
 40
0.09
  9
$DIMTSZ
 40
0.0
  9
$DIMTOL
 70
     0
  9
$DIMLIM
 70
     0
  9
$DIMTIH
 70
     1
  9
$DIMTOH
 70
     1
  9
$DIMSE1
 70
     0
  9
$DIMSE2
 70
     0
  9
$DIMTAD
 70
     0
  9
$DIMZIN
 70
     0
  9
$DIMBLK
  1

  9
$DIMASO
 70
     1
  9
$DIMSHO
 70
     1
  9
$DIMPOST
  1

  9
$DIMAPOST
  1

  9
$DIMALT
 70
     0
  9
$DIMALTD
 70
     2
  9
$DIMALTF
 40
25.4
  9
$DIMLFAC
 40
1.0
  9
$DIMTOFL
 70
     0
  9
$DIMTVP
 40
0.0
  9
$DIMTIX
 70
     0
  9
$DIMSOXD
 70
     0
  9
$DIMSAH
 70
     0
  9
$DIMBLK1
  1

  9
$DIMBLK2
  1

  9
$DIMSTYLE
  2
Standard
  9
$DIMCLRD
 70
     0
  9
$DIMCLRE
 70
     0
  9
$DIMCLRT
 70
     0
  9
$DIMTFAC
 40
1.0
  9
$DIMGAP
 40
0.09
  9
$DIMJUST
 70
     0
  9
$DIMSD1
 70
     0
  9
$DIMSD2
 70
     0
  9
$DIMTOLJ
 70
     1
  9
$DIMTZIN
 70
     0
  9
$DIMALTZ
 70
     0
  9
$DIMALTTZ
 70
     0
  9
$DIMUPT
 70
     0
  9
$DIMDEC
 70
     4
  9
$DIMTDEC
 70
     4
  9
$DIMALTU
 70
     2
  9
$DIMALTTD
 70
     2
  9
$DIMTXSTY
  7
Standard
  9
$DIMAUNIT
 70
     0
  9
$DIMADEC
 70
     0
  9
$DIMALTRND
 40
0.0
  9
$DIMAZIN
 70
     0
  9
$DIMDSEP
 70
    46
  9
$DIMATFIT
 70
     3
  9
$DIMFRAC
 70
     0
  9
$DIMLDRBLK
  1

  9
$DIMLUNIT
 70
     2
  9
$DIMLWD
 70
    -2
  9
$DIMLWE
 70
    -2
  9
$DIMTMOVE
 70
     0
  9
$LUNITS
 70
     2
  9
$LUPREC
 70
     4
  9
$SKETCHINC
 40
0.1
  9
$FILLETRAD
 40
0.0
  9
$AUNITS
 70
     0
  9
$AUPREC
 70
     0
  9
$MENU
  1
.
  9
$ELEVATION
 40
0.0
  9
$PELEVATION
 40
0.0
  9
$THICKNESS
 40
0.0
  9
$LIMCHECK
 70
     0
  9
$CHAMFERA
 40
0.0
  9
$CHAMFERB
 40
0.0
  9
$CHAMFERC
 40
0.0
  9
$CHAMFERD
 40
0.0
  9
$SKPOLY
 70
     0
  9
$TDCREATE
 40
2454831.873082674
  9
$TDUCREATE
 40
2454831.831416007
  9
$TDUPDATE
 40
2454831.876229375
  9
$TDUUPDATE
 40
2454831.834562708
  9
$TDINDWG
 40
0.0031467014
  9
$TDUSRTIMER
 40
0.0031467014
  9
$USRTIMER
 70
     1
  9
$ANGBASE
 50
0.0
  9
$ANGDIR
 70
     0
  9
$PDMODE
 70
     0
  9
$PDSIZE
 40
0.0
  9
$PLINEWID
 40
0.0
  9
$SPLFRAME
 70
     0
  9
$SPLINETYPE
 70
     6
  9
$SPLINESEGS
 70
     8
  9
$HANDSEED
  5
292
  9
$SURFTAB1
 70
     6
  9
$SURFTAB2
 70
     6
  9
$SURFTYPE
 70
     6
  9
$SURFU
 70
     6
  9
$SURFV
 70
     6
  9
$UCSBASE
  2

  9
$UCSNAME
  2

  9
$UCSORG
 10
0.0
 20
0.0
 30
0.0
  9
$UCSXDIR
 10
1.0
 20
0.0
 30
0.0
  9
$UCSYDIR
 10
0.0
 20
1.0
 30
0.0
  9
$UCSORTHOREF
  2

  9
$UCSORTHOVIEW
 70
     1
  9
$UCSORGTOP
 10
0.0
 20
0.0
 30
0.0
  9
$UCSORGBOTTOM
 10
0.0
 20
0.0
 30
0.0
  9
$UCSORGLEFT
 10
0.0
 20
0.0
 30
0.0
  9
$UCSORGRIGHT
 10
0.0
 20
0.0
 30
0.0
  9
$UCSORGFRONT
 10
0.0
 20
0.0
 30
0.0
  9
$UCSORGBACK
 10
0.0
 20
0.0
 30
0.0
  9
$PUCSBASE
  2

  9
$PUCSNAME
  2

  9
$PUCSORG
 10
0.0
 20
0.0
 30
0.0
  9
$PUCSXDIR
 10
1.0
 20
0.0
 30
0.0
  9
$PUCSYDIR
 10
0.0
 20
1.0
 30
0.0
  9
$PUCSORTHOREF
  2

  9
$PUCSORTHOVIEW
 70
     0
  9
$PUCSORGTOP
 10
0.0
 20
0.0
 30
0.0
  9
$PUCSORGBOTTOM
 10
0.0
 20
0.0
 30
0.0
  9
$PUCSORGLEFT
 10
0.0
 20
0.0
 30
0.0
  9
$PUCSORGRIGHT
 10
0.0
 20
0.0
 30
0.0
  9
$PUCSORGFRONT
 10
0.0
 20
0.0
 30
0.0
  9
$PUCSORGBACK
 10
0.0
 20
0.0
 30
0.0
  9
$USERI1
 70
     0
  9
$USERI2
 70
     0
  9
$USERI3
 70
     0
  9
$USERI4
 70
     0
  9
$USERI5
 70
     0
  9
$USERR1
 40
0.0
  9
$USERR2
 40
0.0
  9
$USERR3
 40
0.0
  9
$USERR4
 40
0.0
  9
$USERR5
 40
0.0
  9
$WORLDVIEW
 70
     1
  9
$SHADEDGE
 70
     3
  9
$SHADEDIF
 70
    70
  9
$TILEMODE
 70
     1
  9
$MAXACTVP
 70
    64
  9
$PINSBASE
 10
0.0
 20
0.0
 30
0.0
  9
$PLIMCHECK
 70
     0
  9
$PEXTMIN
 10
1.000000000000000E+20
 20
1.000000000000000E+20
 30
1.000000000000000E+20
  9
$PEXTMAX
 10
-1.000000000000000E+20
 20
-1.000000000000000E+20
 30
-1.000000000000000E+20
  9
$PLIMMIN
 10
0.0
 20
0.0
  9
$PLIMMAX
 10
12.0
 20
9.0
  9
$UNITMODE
 70
     0
  9
$VISRETAIN
 70
     1
  9
$PLINEGEN
 70
     0
  9
$PSLTSCALE
 70
     1
  9
$TREEDEPTH
 70
  3020
  9
$CMLSTYLE
  2
Standard
  9
$CMLJUST
 70
     0
  9
$CMLSCALE
 40
1.0
  9
$PROXYGRAPHICS
 70
     1
  9
$MEASUREMENT
 70
     0
  9
$CELWEIGHT
370
    -1
  9
$ENDCAPS
280
     0
  9
$JOINSTYLE
280
     0
  9
$LWDISPLAY
290
     0
  9
$INSUNITS
 70
     0
  9
$HYPERLINKBASE
  1

  9
$STYLESHEET
  1

  9
$XEDIT
290
     1
  9
$CEPSNTYPE
380
     0
  9
$PSTYLEMODE
290
     1
  9
$FINGERPRINTGUID
  2
{C5D20145-D2B8-461A-9CAC-A75C765B2663}
  9
$VERSIONGUID
  2
{3D0E4CD5-36C8-412B-AF49-4881125CCA30}
  9
$EXTNAMES
290
     1
  9
$PSVPSCALE
 40
0.0
  9
$OLESTARTUP
290
     0
  0
ENDSEC
  0
SECTION
  2
CLASSES
  0
CLASS
  1
ACDBDICTIONARYWDFLT
  2
AcDbDictionaryWithDefault
  3
AutoCAD 2000
 90
        0
280
     0
281
     0
  0
CLASS
  1
ACDBPLACEHOLDER
  2
AcDbPlaceHolder
  3
AutoCAD 2000
 90
        0
280
     0
281
     0
  0
CLASS
  1
LAYOUT
  2
AcDbLayout
  3
AutoCAD 2000
 90
        0
280
     0
281
     0
  0
CLASS
  1
DICTIONARYVAR
  2
AcDbDictionaryVar
  3
AutoCAD 2000
 90
        0
280
     0
281
     0
  0
ENDSEC
  0
SECTION
  2
TABLES
  0
TABLE
  2
VPORT
  5
8
330
0
100
AcDbSymbolTable
 70
     2
  0
VPORT
  5
291
330
8
100
AcDbSymbolTableRecord
100
AcDbViewportTableRecord
  2
*Active
 70
     0
 10
0.0
 20
0.0
 11
1.0
 21
1.0
 12
110.0
 22
104.4999999999999
 13
0.0
 23
0.0
 14
1.0
 24
1.0
 15
0.0
 25
0.0
 16
0.0
 26
0.0
 36
1.0
 17
0.0
 27
0.0
 37
0.0
 40
210.3574131918158
 41
2.078104993597951
 42
50.0
 43
0.0
 44
0.0
 50
0.0
 51
0.0
 71
     0
 72
   100
 73
     1
 74
     3
 75
     0
 76
     0
 77
     0
 78
     0
281
     0
 65
     1
110
0.0
120
0.0
130
0.0
111
1.0
121
0.0
131
0.0
112
0.0
122
1.0
132
0.0
 79
     1
146
0.0
  0
ENDTAB
  0
TABLE
  2
LTYPE
  5
5
330
0
100
AcDbSymbolTable
 70
     1
  0
LTYPE
  5
13
330
5
100
AcDbSymbolTableRecord
100
AcDbLinetypeTableRecord
  2
ByBlock
 70
     0
  3

 72
    65
 73
     0
 40
0.0
  0
LTYPE
  5
14
330
5
100
AcDbSymbolTableRecord
100
AcDbLinetypeTableRecord
  2
ByLayer
 70
     0
  3

 72
    65
 73
     0
 40
0.0
  0
LTYPE
  5
15
330
5
100
AcDbSymbolTableRecord
100
AcDbLinetypeTableRecord
  2
Continuous
 70
     0
  3
Solid line
 72
    65
 73
     0
 40
0.0
  0
ENDTAB
  0
TABLE
  2
LAYER
  5
2
330
0
100
AcDbSymbolTable
 70
     1
  0
LAYER
  5
10
330
2
100
AcDbSymbolTableRecord
100
AcDbLayerTableRecord
  2
0
 70
     0
 62
     7
  6
Continuous
370
    -3
390
F
  0
ENDTAB
  0
TABLE
  2
STYLE
  5
3
330
0
100
AcDbSymbolTable
 70
     1
  0
STYLE
  5
11
330
3
100
AcDbSymbolTableRecord
100
AcDbTextStyleTableRecord
  2
Standard
 70
     0
 40
0.0
 41
1.0
 50
0.0
 71
     0
 42
0.2
  3
txt
  4

  0
ENDTAB
  0
TABLE
  2
VIEW
  5
6
330
0
100
AcDbSymbolTable
 70
     0
  0
ENDTAB
  0
TABLE
  2
UCS
  5
7
330
0
100
AcDbSymbolTable
 70
     0
  0
ENDTAB
  0
TABLE
  2
APPID
  5
9
330
0
100
AcDbSymbolTable
 70
     1
  0
APPID
  5
12
330
9
100
AcDbSymbolTableRecord
100
AcDbRegAppTableRecord
  2
ACAD
 70
     0
  0
ENDTAB
  0
TABLE
  2
DIMSTYLE
  5
A
330
0
100
AcDbSymbolTable
 70
     1
100
AcDbDimStyleTable
 71
     0
  0
DIMSTYLE
105
279
330
A
100
AcDbSymbolTableRecord
100
AcDbDimStyleTableRecord
  2
Standard
 70
     0
340
11
  0
ENDTAB
  0
TABLE
  2
BLOCK_RECORD
  5
1
330
0
100
AcDbSymbolTable
 70
     0
  0
BLOCK_RECORD
  5
1E
330
1
100
AcDbSymbolTableRecord
100
AcDbBlockTableRecord
  2
*Model_Space
340
21
  0
BLOCK_RECORD
  5
1A
330
1
100
AcDbSymbolTableRecord
100
AcDbBlockTableRecord
  2
*Paper_Space
340
1D
  0
ENDTAB
  0
ENDSEC
  0
SECTION
  2
BLOCKS
  0
BLOCK
  5
1F
330
1E
100
AcDbEntity
  8
0
100
AcDbBlockBegin
  2
*Model_Space
 70
     0
 10
0.0
 20
0.0
 30
0.0
  3
*Model_Space
  1

  0
ENDBLK
  5
20
330
1E
100
AcDbEntity
  8
0
100
AcDbBlockEnd
  0
BLOCK
  5
1B
330
1A
100
AcDbEntity
 67
     1
  8
0
100
AcDbBlockBegin
  2
*Paper_Space
 70
     0
 10
0.0
 20
0.0
 30
0.0
  3
*Paper_Space
  1

  0
ENDBLK
  5
1C
330
1A
100
AcDbEntity
 67
     1
  8
0
100
AcDbBlockEnd
  0
ENDSEC
  0
SECTION
  2
ENTITIES
  0
LINE
  5
22
330
1E
100
AcDbEntity
  8
0
100
AcDbLine
 10
15.0
 20
150.3778534999999
 30
0.0
 11
15.4
 21
149.2778535
 31
0.0
  0
LINE
  5
23
330
1E
100
AcDbEntity
  8
0
100
AcDbLine
 10
15.0
 20
150.3778534999999
 30
0.0
 11
15.0
 21
167.3778534999999
 31
0.0
  0
LINE
  5
27
330
1E
100
AcDbEntity
  8
0
100
AcDbLine
 10
15.0
 20
167.3778534999999
 30
0.0
 11
15.4
 21
168.4778534999999
 31
0.0
  0
LINE
  5
28
330
1E
100
AcDbEntity
  8
0
100
AcDbLine
 10
15.0
 20
167.3778534999999
 30
0.0
 11
15.0
 21
150.3778534999999
 31
0.0
  0
LINE
  5
2C
330
1E
100
AcDbEntity
  8
0
100
AcDbLine
 10
0.0
 20
203.8778535
 30
0.0
 11
21.0
 21
183.8778534999999
 31
0.0
  0
LINE
  5
2D
330
1E
100
AcDbEntity
  8
0
100
AcDbLine
 10
0.0
 20
203.8778535
 30
0.0
 11
1.3
 21
203.8778535
 31
0.0
  0
LINE
  5
2E
330
1E
100
AcDbEntity
  8
0
100
AcDbLine
 10
0.0
 20
203.8778535
 30
0.0
 11
0.0
 21
208.8778534999999
 31
0.0
  0
LINE
  5
2F
330
1E
100
AcDbEntity
  8
0
100
AcDbLine
 10
1.3
 20
203.8778535
 30
0.0
 11
4.7
 21
203.8778535
 31
0.0
  0
LINE
  5
30
330
1E
100
AcDbEntity
  8
0
100
AcDbLine
 10
0.0
 20
208.8778534999999
 30
0.0
 11
1.3
 21
208.8778534999999
 31
0.0
  0
LINE
  5
31
330
1E
100
AcDbEntity
  8
0
100
AcDbLine
 10
0.0
 20
208.8778534999999
 30
0.0
 11
0.0
 21
203.8778535
 31
0.0
  0
LINE
  5
32
330
1E
100
AcDbEntity
  8
0
100
AcDbLine
 10
1.3
 20
208.8778534999999
 30
0.0
 11
4.7
 21
208.8778534999999
 31
0.0
  0
LINE
  5
33
330
1E
100
AcDbEntity
  8
0
100
AcDbLine
 10
4.7
 20
208.8778534999999
 30
0.0
 11
10.3
 21
208.8778534999999
 31
0.0
  0
LINE
  5
34
330
1E
100
AcDbEntity
  8
0
100
AcDbLine
 10
10.3
 20
208.8778534999999
 30
0.0
 11
17.6
 21
208.8778534999999
 31
0.0
  0
LINE
  5
35
330
1E
100
AcDbEntity
  8
0
100
AcDbLine
 10
4.7
 20
203.8778535
 30
0.0
 11
10.3
 21
203.8778535
 31
0.0
  0
LINE
  5
36
330
1E
100
AcDbEntity
  8
0
100
AcDbLine
 10
10.3
 20
203.8778535
 30
0.0
 11
17.6
 21
203.8778535
 31
0.0
  0
LINE
  5
38
330
1E
100
AcDbEntity
  8
0
100
AcDbLine
 10
15.4
 20
168.4778534999999
 30
0.0
 11
16.5
 21
168.8778534999999
 31
0.0
  0
LINE
  5
39
330
1E
100
AcDbEntity
  8
0
100
AcDbLine
 10
21.5131
 20
148.4468534999999
 30
0.0
 11
26.5131
 21
147.6758534999999
 31
0.0
  0
LINE
  5
3A
330
1E
100
AcDbEntity
  8
0
100
AcDbLine
 10
16.5
 20
148.8778534999999
 30
0.0
 11
21.5131
 21
148.4468534999999
 31
0.0
  0
LINE
  5
3D
330
1E
100
AcDbEntity
  8
0
100
AcDbLine
 10
26.5131
 20
147.6758534999999
 30
0.0
 11
31.5131
 21
146.8188534999999
 31
0.0
  0
LINE
  5
3F
330
1E
100
AcDbEntity
  8
0
100
AcDbLine
 10
36.5
 20
145.7008534999999
 30
0.0
 11
41.5261
 21
144.3088535
 31
0.0
  0
LINE
  5
43
330
1E
100
AcDbEntity
  8
0
100
AcDbLine
 10
46.5131
 20
142.5888535
 30
0.0
 11
51.4739
 21
140.5368534999999
 31
0.0
  0
LINE
  5
44
330
1E
100
AcDbEntity
  8
0
100
AcDbLine
 10
51.4739
 20
140.5368534999999
 30
0.0
 11
56.4957
 21
138.0998535
 31
0.0
  0
LINE
  5
45
330
1E
100
AcDbEntity
  8
0
100
AcDbLine
 10
41.5261
 20
144.3088535
 30
0.0
 11
46.5131
 21
142.5888535
 31
0.0
  0
LINE
  5
48
330
1E
100
AcDbEntity
  8
0
100
AcDbLine
 10
56.4957
 20
138.0998535
 30
0.0
 11
61.5293
 21
135.1498534999999
 31
0.0
  0
LINE
  5
4C
330
1E
100
AcDbEntity
  8
0
100
AcDbLine
 10
66.4854
 20
132.5328534999999
 30
0.0
 11
71.5
 21
130.2818534999999
 31
0.0
  0
LINE
  5
4D
330
1E
100
AcDbEntity
  8
0
100
AcDbLine
 10
61.5293
 20
135.1498534999999
 30
0.0
 11
66.4854
 21
132.5328534999999
 31
0.0
  0
LINE
  5
53
330
1E
100
AcDbEntity
  8
0
100
AcDbLine
 10
81.5
 20
126.8778534999999
 30
0.0
 11
86.5
 21
125.5968535
 31
0.0
  0
LINE
  5
5C
330
1E
100
AcDbEntity
  8
0
100
AcDbLine
 10
92.0
 20
6.4433135
 30
0.0
 11
92.0
 21
2.3933735
 31
0.0
  0
LINE
  5
5D
330
1E
100
AcDbEntity
  8
0
100
AcDbLine
 10
92.0
 20
2.3933735
 30
0.0
 11
92.4
 21
1.4226235
 31
0.0
  0
LINE
  5
5E
330
1E
100
AcDbEntity
  8
0
100
AcDbLine
 10
92.0
 20
2.3933735
 30
0.0
 11
92.0
 21
6.4433135
 31
0.0
  0
LINE
  5
67
330
1E
100
AcDbEntity
  8
0
100
AcDbLine
 10
92.0
 20
58.9684535
 30
0.0
 11
92.0
 21
66.72445350000001
 31
0.0
  0
LINE
  5
68
330
1E
100
AcDbEntity
  8
0
100
AcDbLine
 10
92.0
 20
64.4742535
 30
0.0
 11
92.0
 21
6.443313500000002
 31
0.0
  0
LINE
  5
6C
330
1E
100
AcDbEntity
  8
0
100
AcDbLine
 10
92.0
 20
6.443313500000002
 30
0.0
 11
92.0
 21
64.4742535
 31
0.0
  0
LINE
  5
6F
330
1E
100
AcDbEntity
  8
0
100
AcDbLine
 10
92.0
 20
66.72445350000001
 30
0.0
 11
92.0
 21
58.9684535
 31
0.0
  0
LINE
  5
71
330
1E
100
AcDbEntity
  8
0
100
AcDbLine
 10
92.0
 20
64.5719535
 30
0.0
 11
92.4
 21
63.3098535
 31
0.0
  0
LINE
  5
72
330
1E
100
AcDbEntity
  8
0
100
AcDbLine
 10
92.0
 20
64.5719535
 30
0.0
 11
92.0
 21
69.06255350000001
 31
0.0
  0
LINE
  5
73
330
1E
100
AcDbEntity
  8
0
100
AcDbLine
 10
92.0
 20
69.06255350000001
 30
0.0
 11
92.0
 21
64.5719535
 31
0.0
  0
LINE
  5
75
330
1E
100
AcDbEntity
  8
0
100
AcDbLine
 10
92.0
 20
85.31875349999999
 30
0.0
 11
92.0
 21
95.9045535
 31
0.0
  0
LINE
  5
76
330
1E
100
AcDbEntity
  8
0
100
AcDbLine
 10
92.0
 20
91.93255349999999
 30
0.0
 11
92.0
 21
85.01055349999999
 31
0.0
  0
LINE
  5
77
330
1E
100
AcDbEntity
  8
0
100
AcDbLine
 10
92.0
 20
85.01055349999999
 30
0.0
 11
92.0
 21
91.93255349999999
 31
0.0
  0
LINE
  5
7C
330
1E
100
AcDbEntity
  8
0
100
AcDbLine
 10
92.0
 20
69.06255350000001
 30
0.0
 11
92.0
 21
95.1812535
 31
0.0
  0
LINE
  5
7D
330
1E
100
AcDbEntity
  8
0
100
AcDbLine
 10
92.0
 20
95.9045535
 30
0.0
 11
92.0
 21
85.31875349999999
 31
0.0
  0
LINE
  5
7E
330
1E
100
AcDbEntity
  8
0
100
AcDbLine
 10
92.0
 20
95.9045535
 30
0.0
 11
92.0
 21
109.2398535
 31
0.0
  0
LINE
  5
7F
330
1E
100
AcDbEntity
  8
0
100
AcDbLine
 10
92.0
 20
106.9478535
 30
0.0
 11
92.0
 21
114.6988534999999
 31
0.0
  0
LINE
  5
80
330
1E
100
AcDbEntity
  8
0
100
AcDbLine
 10
92.0
 20
106.7208535
 30
0.0
 11
92.0
 21
96.81685350000002
 31
0.0
  0
LINE
  5
81
330
1E
100
AcDbEntity
  8
0
100
AcDbLine
 10
92.0
 20
95.1812535
 30
0.0
 11
92.0
 21
69.06255350000001
 31
0.0
  0
LINE
  5
83
330
1E
100
AcDbEntity
  8
0
100
AcDbLine
 10
92.4
 20
1.4226235
 30
0.0
 11
92.70000000000001
 21
1.1700235
 31
0.0
  0
LINE
  5
98
330
1E
100
AcDbEntity
  8
0
100
AcDbLine
 10
92.4
 20
63.3098535
 30
0.0
 11
93.49999999999999
 21
62.8572535
 31
0.0
  0
LINE
  5
A5
330
1E
100
AcDbEntity
  8
0
100
AcDbLine
 10
92.0
 20
96.81685350000002
 30
0.0
 11
92.0
 21
106.7208535
 31
0.0
  0
LINE
  5
A6
330
1E
100
AcDbEntity
  8
0
100
AcDbLine
 10
92.0
 20
109.2398535
 30
0.0
 11
92.0
 21
95.9045535
 31
0.0
  0
LINE
  5
A7
330
1E
100
AcDbEntity
  8
0
100
AcDbLine
 10
92.0
 20
109.2398535
 30
0.0
 11
92.0
 21
122.3138534999999
 31
0.0
  0
LINE
  5
A8
330
1E
100
AcDbEntity
  8
0
100
AcDbLine
 10
92.0
 20
122.3138534999999
 30
0.0
 11
92.0
 21
109.2398535
 31
0.0
  0
LINE
  5
A9
330
1E
100
AcDbEntity
  8
0
100
AcDbLine
 10
92.0
 20
122.3138534999999
 30
0.0
 11
92.0
 21
124.5119042524819
 31
0.0
  0
LINE
  5
AA
330
1E
100
AcDbEntity
  8
0
100
AcDbLine
 10
92.0
 20
114.6988534999999
 30
0.0
 11
92.0
 21
106.9478535
 31
0.0
  0
LINE
  5
AB
330
1E
100
AcDbEntity
  8
0
100
AcDbLine
 10
92.0
 20
114.6988534999999
 30
0.0
 11
92.0
 21
122.3778534999999
 31
0.0
  0
LINE
  5
AC
330
1E
100
AcDbEntity
  8
0
100
AcDbLine
 10
92.0
 20
122.3778534999999
 30
0.0
 11
92.0
 21
114.6988534999999
 31
0.0
  0
LINE
  5
AD
330
1E
100
AcDbEntity
  8
0
100
AcDbLine
 10
92.0
 20
122.3778534999999
 30
0.0
 11
92.0
 21
124.3228534999999
 31
0.0
  0
LINE
  5
B0
330
1E
100
AcDbEntity
  8
0
100
AcDbLine
 10
93.49999999999999
 20
0.9052735000000019
 30
0.0
 11
98.50000000000001
 21
0.5134265000000021
 31
0.0
  0
LINE
  5
B1
330
1E
100
AcDbEntity
  8
0
100
AcDbLine
 10
92.70000000000001
 20
1.1700235
 30
0.0
 11
93.49999999999999
 21
0.9052735000000019
 31
0.0
  0
LINE
  5
B2
330
1E
100
AcDbEntity
  8
0
100
AcDbLine
 10
93.49999999999999
 20
62.8572535
 30
0.0
 11
98.50000000000001
 21
62.61645350000001
 31
0.0
  0
LINE
  5
B8
330
1E
100
AcDbEntity
  8
0
100
AcDbLine
 10
92.0
 20
124.5119042524819
 30
0.0
 11
92.0
 21
122.3138534999999
 31
0.0
  0
LINE
  5
B9
330
1E
100
AcDbEntity
  8
0
100
AcDbLine
 10
92.0
 20
124.3228534999999
 30
0.0
 11
92.0
 21
122.3778534999999
 31
0.0
  0
LINE
  5
BC
330
1E
100
AcDbEntity
  8
0
100
AcDbLine
 10
92.0
 20
124.5119042524819
 30
0.0
 11
92.0
 21
132.3628535
 31
0.0
  0
LINE
  5
BF
330
1E
100
AcDbEntity
  8
0
100
AcDbLine
 10
91.5
 20
124.5888534999999
 30
0.0
 11
92.0
 21
124.5119042524819
 31
0.0
  0
LINE
  5
C0
330
1E
100
AcDbEntity
  8
0
100
AcDbLine
 10
92.0
 20
130.8618534999999
 30
0.0
 11
92.0
 21
147.3778534999999
 31
0.0
  0
LINE
  5
C1
330
1E
100
AcDbEntity
  8
0
100
AcDbLine
 10
92.0
 20
127.6708535
 30
0.0
 11
92.0
 21
130.1958535
 31
0.0
  0
LINE
  5
C6
330
1E
100
AcDbEntity
  8
0
100
AcDbLine
 10
92.0
 20
147.3778534999999
 30
0.0
 11
92.0
 21
162.8688535
 31
0.0
  0
LINE
  5
C7
330
1E
100
AcDbEntity
  8
0
100
AcDbLine
 10
92.0
 20
132.3628535
 30
0.0
 11
92.0
 21
124.5119042524819
 31
0.0
  0
LINE
  5
C8
330
1E
100
AcDbEntity
  8
0
100
AcDbLine
 10
92.0
 20
130.1958535
 30
0.0
 11
92.0
 21
127.6708535
 31
0.0
  0
LINE
  5
C9
330
1E
100
AcDbEntity
  8
0
100
AcDbLine
 10
92.0
 20
130.1958535
 30
0.0
 11
92.0
 21
130.8598534999999
 31
0.0
  0
LINE
  5
CA
330
1E
100
AcDbEntity
  8
0
100
AcDbLine
 10
92.0
 20
162.8688535
 30
0.0
 11
92.4
 21
163.9688534999999
 31
0.0
  0
LINE
  5
CB
330
1E
100
AcDbEntity
  8
0
100
AcDbLine
 10
92.0
 20
162.8688535
 30
0.0
 11
92.0
 21
130.8598534999999
 31
0.0
  0
LINE
  5
D1
330
1E
100
AcDbEntity
  8
0
100
AcDbLine
 10
93.49999999999999
 20
164.3688535
 30
0.0
 11
98.50000000000001
 21
164.8848534999999
 31
0.0
  0
LINE
  5
D3
330
1E
100
AcDbEntity
  8
0
100
AcDbLine
 10
92.4
 20
163.9688534999999
 30
0.0
 11
93.49999999999999
 21
164.3688535
 31
0.0
  0
LINE
  5
D5
330
1E
100
AcDbEntity
  8
0
100
AcDbLine
 10
92.0
 20
130.8598534999999
 30
0.0
 11
92.0
 21
130.1958535
 31
0.0
  0
LINE
  5
D6
330
1E
100
AcDbEntity
  8
0
100
AcDbLine
 10
92.0
 20
130.8598534999999
 30
0.0
 11
92.0
 21
162.8688535
 31
0.0
  0
LINE
  5
D8
330
1E
100
AcDbEntity
  8
0
100
AcDbLine
 10
98.50000000000001
 20
0.5134265000000021
 30
0.0
 11
104.4999999999999
 21
0.2039065000000019
 31
0.0
  0
LINE
  5
D9
330
1E
100
AcDbEntity
  8
0
100
AcDbLine
 10
98.50000000000001
 20
62.61645350000001
 30
0.0
 11
104.4999999999999
 21
62.4512535
 31
0.0
  0
LINE
  5
DB
330
1E
100
AcDbEntity
  8
0
100
AcDbLine
 10
104.4999999999999
 20
0.2039065000000019
 30
0.0
 11
110.0
 21
0.122146500000002
 31
0.0
  0
LINE
  5
DC
330
1E
100
AcDbEntity
  8
0
100
AcDbLine
 10
104.4999999999999
 20
62.4512535
 30
0.0
 11
110.0
 21
62.3778535
 31
0.0
  0
LINE
  5
DD
330
1E
100
AcDbEntity
  8
0
100
AcDbLine
 10
110.0
 20
0.122146500000002
 30
0.0
 11
115.5
 21
0.2039065000000019
 31
0.0
  0
LINE
  5
DE
330
1E
100
AcDbEntity
  8
0
100
AcDbLine
 10
115.5
 20
0.2039065000000019
 30
0.0
 11
121.5
 21
0.5134265000000021
 31
0.0
  0
LINE
  5
DF
330
1E
100
AcDbEntity
  8
0
100
AcDbLine
 10
110.0
 20
62.3778535
 30
0.0
 11
115.5
 21
62.4512535
 31
0.0
  0
LINE
  5
E0
330
1E
100
AcDbEntity
  8
0
100
AcDbLine
 10
115.5
 20
62.4512535
 30
0.0
 11
121.5
 21
62.61645350000001
 31
0.0
  0
LINE
  5
E2
330
1E
100
AcDbEntity
  8
0
100
AcDbLine
 10
121.5
 20
0.5134265000000021
 30
0.0
 11
126.5
 21
0.9052735000000019
 31
0.0
  0
LINE
  5
E3
330
1E
100
AcDbEntity
  8
0
100
AcDbLine
 10
126.5
 20
0.9052735000000019
 30
0.0
 11
127.2999999999999
 21
1.1700235
 31
0.0
  0
LINE
  5
E4
330
1E
100
AcDbEntity
  8
0
100
AcDbLine
 10
127.2999999999999
 20
1.1700235
 30
0.0
 11
127.6
 21
1.4226235
 31
0.0
  0
LINE
  5
E5
330
1E
100
AcDbEntity
  8
0
100
AcDbLine
 10
127.6
 20
1.4226235
 30
0.0
 11
128.0
 21
2.3933735
 31
0.0
  0
LINE
  5
E9
330
1E
100
AcDbEntity
  8
0
100
AcDbLine
 10
128.0
 20
2.3933735
 30
0.0
 11
128.0
 21
12.3917535
 31
0.0
  0
LINE
  5
F0
330
1E
100
AcDbEntity
  8
0
100
AcDbLine
 10
128.0
 20
12.3917535
 30
0.0
 11
128.0
 21
2.3933735
 31
0.0
  0
LINE
  5
F1
330
1E
100
AcDbEntity
  8
0
100
AcDbLine
 10
128.0
 20
12.3917535
 30
0.0
 11
128.0
 21
17.8091535
 31
0.0
  0
LINE
  5
F2
330
1E
100
AcDbEntity
  8
0
100
AcDbLine
 10
128.0
 20
17.8091535
 30
0.0
 11
128.0
 21
12.3917535
 31
0.0
  0
LINE
  5
F3
330
1E
100
AcDbEntity
  8
0
100
AcDbLine
 10
128.0
 20
17.8091535
 30
0.0
 11
128.0
 21
23.2223535
 31
0.0
  0
LINE
  5
F8
330
1E
100
AcDbEntity
  8
0
100
AcDbLine
 10
128.0
 20
23.2223535
 30
0.0
 11
128.0
 21
17.8091535
 31
0.0
  0
LINE
  5
F9
330
1E
100
AcDbEntity
  8
0
100
AcDbLine
 10
128.0
 20
23.2223535
 30
0.0
 11
128.0
 21
29.39595349999999
 31
0.0
  0
LINE
  5
FA
330
1E
100
AcDbEntity
  8
0
100
AcDbLine
 10
128.0
 20
29.39595349999999
 30
0.0
 11
128.0
 21
23.2223535
 31
0.0
  0
LINE
  5
FB
330
1E
100
AcDbEntity
  8
0
100
AcDbLine
 10
128.0
 20
29.39595349999999
 30
0.0
 11
128.0
 21
36.2532535
 31
0.0
  0
LINE
  5
100
330
1E
100
AcDbEntity
  8
0
100
AcDbLine
 10
128.0
 20
36.2532535
 30
0.0
 11
128.0
 21
29.39595349999999
 31
0.0
  0
LINE
  5
101
330
1E
100
AcDbEntity
  8
0
100
AcDbLine
 10
128.0
 20
36.2532535
 30
0.0
 11
128.0
 21
42.1341535
 31
0.0
  0
LINE
  5
102
330
1E
100
AcDbEntity
  8
0
100
AcDbLine
 10
128.0
 20
42.1341535
 30
0.0
 11
128.0
 21
36.2532535
 31
0.0
  0
LINE
  5
103
330
1E
100
AcDbEntity
  8
0
100
AcDbLine
 10
128.0
 20
42.1341535
 30
0.0
 11
128.0
 21
48.1111535
 31
0.0
  0
LINE
  5
106
330
1E
100
AcDbEntity
  8
0
100
AcDbLine
 10
128.0
 20
48.1111535
 30
0.0
 11
128.0
 21
42.1341535
 31
0.0
  0
LINE
  5
107
330
1E
100
AcDbEntity
  8
0
100
AcDbLine
 10
128.0
 20
48.1111535
 30
0.0
 11
128.0
 21
53.5782535
 31
0.0
  0
LINE
  5
108
330
1E
100
AcDbEntity
  8
0
100
AcDbLine
 10
128.0
 20
53.5782535
 30
0.0
 11
128.0
 21
48.1111535
 31
0.0
  0
LINE
  5
109
330
1E
100
AcDbEntity
  8
0
100
AcDbLine
 10
128.0
 20
53.5782535
 30
0.0
 11
128.0
 21
58.9684535
 31
0.0
  0
LINE
  5
10C
330
1E
100
AcDbEntity
  8
0
100
AcDbLine
 10
128.0
 20
58.9684535
 30
0.0
 11
128.0
 21
53.5782535
 31
0.0
  0
LINE
  5
10D
330
1E
100
AcDbEntity
  8
0
100
AcDbLine
 10
128.0
 20
58.9684535
 30
0.0
 11
128.0
 21
64.5719535
 31
0.0
  0
LINE
  5
10E
330
1E
100
AcDbEntity
  8
0
100
AcDbLine
 10
121.5
 20
62.61645350000001
 30
0.0
 11
126.5
 21
62.8572535
 31
0.0
  0
LINE
  5
111
330
1E
100
AcDbEntity
  8
0
100
AcDbLine
 10
126.5
 20
62.8572535
 30
0.0
 11
127.6
 21
63.3098535
 31
0.0
  0
LINE
  5
115
330
1E
100
AcDbEntity
  8
0
100
AcDbLine
 10
127.6
 20
63.3098535
 30
0.0
 11
128.0
 21
64.5719535
 31
0.0
  0
LINE
  5
128
330
1E
100
AcDbEntity
  8
0
100
AcDbLine
 10
128.0
 20
64.5719535
 30
0.0
 11
128.0
 21
58.9684535
 31
0.0
  0
LINE
  5
131
330
1E
100
AcDbEntity
  8
0
100
AcDbLine
 10
98.50000000000001
 20
164.8848534999999
 30
0.0
 11
104.4999999999999
 21
165.2788535
 31
0.0
  0
LINE
  5
13A
330
1E
100
AcDbEntity
  8
0
100
AcDbLine
 10
126.5
 20
164.3688535
 30
0.0
 11
127.6
 21
163.9688534999999
 31
0.0
  0
LINE
  5
13F
330
1E
100
AcDbEntity
  8
0
100
AcDbLine
 10
127.6
 20
163.9688534999999
 30
0.0
 11
128.0
 21
162.8688535
 31
0.0
  0
LINE
  5
144
330
1E
100
AcDbEntity
  8
0
100
AcDbLine
 10
110.0
 20
165.3778534999999
 30
0.0
 11
115.5
 21
165.2788535
 31
0.0
  0
LINE
  5
145
330
1E
100
AcDbEntity
  8
0
100
AcDbLine
 10
115.5
 20
165.2788535
 30
0.0
 11
121.5
 21
164.8848534999999
 31
0.0
  0
LINE
  5
146
330
1E
100
AcDbEntity
  8
0
100
AcDbLine
 10
121.5
 20
164.8848534999999
 30
0.0
 11
126.5
 21
164.3688535
 31
0.0
  0
LINE
  5
148
330
1E
100
AcDbEntity
  8
0
100
AcDbLine
 10
104.4999999999999
 20
165.2788535
 30
0.0
 11
110.0
 21
165.3778534999999
 31
0.0
  0
LINE
  5
160
330
1E
100
AcDbEntity
  8
0
100
AcDbLine
 10
205.0
 20
150.3778534999999
 30
0.0
 11
205.0
 21
167.3778534999999
 31
0.0
  0
LINE
  5
161
330
1E
100
AcDbEntity
  8
0
100
AcDbLine
 10
205.0
 20
167.3778534999999
 30
0.0
 11
205.0
 21
150.3778534999999
 31
0.0
  0
LINE
  5
162
330
1E
100
AcDbEntity
  8
0
100
AcDbLine
 10
204.5999999999999
 20
149.2778535
 30
0.0
 11
205.0
 21
150.3778534999999
 31
0.0
  0
LINE
  5
163
330
1E
100
AcDbEntity
  8
0
100
AcDbLine
 10
198.4869999999999
 20
148.4468534999999
 30
0.0
 11
203.5
 21
148.8778534999999
 31
0.0
  0
LINE
  5
164
330
1E
100
AcDbEntity
  8
0
100
AcDbLine
 10
193.487
 20
147.6758534999999
 30
0.0
 11
198.4869999999999
 21
148.4468534999999
 31
0.0
  0
LINE
  5
165
330
1E
100
AcDbEntity
  8
0
100
AcDbLine
 10
173.4869999999999
 20
142.5888535
 30
0.0
 11
178.474
 21
144.3088535
 31
0.0
  0
LINE
  5
166
330
1E
100
AcDbEntity
  8
0
100
AcDbLine
 10
163.504
 20
138.0998535
 30
0.0
 11
168.5259999999999
 21
140.5368534999999
 31
0.0
  0
LINE
  5
167
330
1E
100
AcDbEntity
  8
0
100
AcDbLine
 10
148.5
 20
130.2818534999999
 30
0.0
 11
153.5149999999999
 21
132.5328534999999
 31
0.0
  0
LINE
  5
168
330
1E
100
AcDbEntity
  8
0
100
AcDbLine
 10
128.0
 20
124.5119073322989
 30
0.0
 11
128.4999999999999
 21
124.5888534999999
 31
0.0
  0
LINE
  5
182
330
1E
100
AcDbEntity
  8
0
100
AcDbLine
 10
204.5999999999999
 20
168.4778534999999
 30
0.0
 11
205.0
 21
167.3778534999999
 31
0.0
  0
LINE
  5
191
330
1E
100
AcDbEntity
  8
0
100
AcDbLine
 10
26.5131
 20
168.8778534999999
 30
0.0
 11
31.5
 21
168.8778534999999
 31
0.0
  0
LINE
  5
192
330
1E
100
AcDbEntity
  8
0
100
AcDbLine
 10
36.5
 20
168.8778534999999
 30
0.0
 11
41.5
 21
168.8778534999999
 31
0.0
  0
LINE
  5
193
330
1E
100
AcDbEntity
  8
0
100
AcDbLine
 10
56.4826
 20
168.8778534999999
 30
0.0
 11
61.5
 21
168.8778534999999
 31
0.0
  0
LINE
  5
194
330
1E
100
AcDbEntity
  8
0
100
AcDbLine
 10
61.5
 20
168.8778534999999
 30
0.0
 11
66.5
 21
168.8778534999999
 31
0.0
  0
LINE
  5
195
330
1E
100
AcDbEntity
  8
0
100
AcDbLine
 10
66.5
 20
168.8778534999999
 30
0.0
 11
71.5
 21
168.8778534999999
 31
0.0
  0
LINE
  5
196
330
1E
100
AcDbEntity
  8
0
100
AcDbLine
 10
71.5
 20
168.8778534999999
 30
0.0
 11
76.5
 21
168.8778534999999
 31
0.0
  0
LINE
  5
197
330
1E
100
AcDbEntity
  8
0
100
AcDbLine
 10
196.0
 20
168.8778534999999
 30
0.0
 11
198.0
 21
170.8778534999999
 31
0.0
  0
LINE
  5
198
330
1E
100
AcDbEntity
  8
0
100
AcDbLine
 10
198.4869999999999
 20
168.8778534999999
 30
0.0
 11
203.5
 21
168.8778534999999
 31
0.0
  0
LINE
  5
199
330
1E
100
AcDbEntity
  8
0
100
AcDbLine
 10
193.487
 20
168.8778534999999
 30
0.0
 11
198.4869999999999
 21
168.8778534999999
 31
0.0
  0
LINE
  5
19A
330
1E
100
AcDbEntity
  8
0
100
AcDbLine
 10
188.4999999999999
 20
168.8778534999999
 30
0.0
 11
193.487
 21
168.8778534999999
 31
0.0
  0
LINE
  5
19B
330
1E
100
AcDbEntity
  8
0
100
AcDbLine
 10
183.4999999999999
 20
168.8778534999999
 30
0.0
 11
188.4999999999999
 21
168.8778534999999
 31
0.0
  0
LINE
  5
19C
330
1E
100
AcDbEntity
  8
0
100
AcDbLine
 10
178.5
 20
168.8778534999999
 30
0.0
 11
183.4999999999999
 21
168.8778534999999
 31
0.0
  0
LINE
  5
19D
330
1E
100
AcDbEntity
  8
0
100
AcDbLine
 10
173.5
 20
168.8778534999999
 30
0.0
 11
178.5
 21
168.8778534999999
 31
0.0
  0
LINE
  5
19E
330
1E
100
AcDbEntity
  8
0
100
AcDbLine
 10
168.5
 20
168.8778534999999
 30
0.0
 11
173.5
 21
168.8778534999999
 31
0.0
  0
LINE
  5
19F
330
1E
100
AcDbEntity
  8
0
100
AcDbLine
 10
163.517
 20
168.8778534999999
 30
0.0
 11
168.5
 21
168.8778534999999
 31
0.0
  0
LINE
  5
1A0
330
1E
100
AcDbEntity
  8
0
100
AcDbLine
 10
158.4999999999999
 20
168.8778534999999
 30
0.0
 11
163.517
 21
168.8778534999999
 31
0.0
  0
LINE
  5
1A1
330
1E
100
AcDbEntity
  8
0
100
AcDbLine
 10
153.5
 20
168.8778534999999
 30
0.0
 11
158.4999999999999
 21
168.8778534999999
 31
0.0
  0
LINE
  5
1A2
330
1E
100
AcDbEntity
  8
0
100
AcDbLine
 10
148.5
 20
168.8778534999999
 30
0.0
 11
153.5
 21
168.8778534999999
 31
0.0
  0
LINE
  5
1A3
330
1E
100
AcDbEntity
  8
0
100
AcDbLine
 10
143.5
 20
168.8778534999999
 30
0.0
 11
148.5
 21
168.8778534999999
 31
0.0
  0
LINE
  5
1A4
330
1E
100
AcDbEntity
  8
0
100
AcDbLine
 10
138.5
 20
168.8778534999999
 30
0.0
 11
143.5
 21
168.8778534999999
 31
0.0
  0
LINE
  5
1A5
330
1E
100
AcDbEntity
  8
0
100
AcDbLine
 10
133.4999999999999
 20
168.8778534999999
 30
0.0
 11
138.5
 21
168.8778534999999
 31
0.0
  0
LINE
  5
1A6
330
1E
100
AcDbEntity
  8
0
100
AcDbLine
 10
128.4999999999999
 20
168.8778534999999
 30
0.0
 11
133.4999999999999
 21
168.8778534999999
 31
0.0
  0
LINE
  5
1A7
330
1E
100
AcDbEntity
  8
0
100
AcDbLine
 10
123.487
 20
168.8778534999999
 30
0.0
 11
128.4999999999999
 21
168.8778534999999
 31
0.0
  0
LINE
  5
1A9
330
1E
100
AcDbEntity
  8
0
100
AcDbLine
 10
118.5
 20
168.8778534999999
 30
0.0
 11
123.487
 21
168.8778534999999
 31
0.0
  0
LINE
  5
1AA
330
1E
100
AcDbEntity
  8
0
100
AcDbLine
 10
113.5
 20
168.8778534999999
 30
0.0
 11
118.5
 21
168.8778534999999
 31
0.0
  0
LINE
  5
1AB
330
1E
100
AcDbEntity
  8
0
100
AcDbLine
 10
110.0
 20
168.8778534999999
 30
0.0
 11
113.5
 21
168.8778534999999
 31
0.0
  0
LINE
  5
1AC
330
1E
100
AcDbEntity
  8
0
100
AcDbLine
 10
203.5
 20
168.8778534999999
 30
0.0
 11
204.5999999999999
 21
168.4778534999999
 31
0.0
  0
LINE
  5
1AD
330
1E
100
AcDbEntity
  8
0
100
AcDbLine
 10
106.4999999999999
 20
168.8778534999999
 30
0.0
 11
110.0
 21
168.8778534999999
 31
0.0
  0
LINE
  5
1AF
330
1E
100
AcDbEntity
  8
0
100
AcDbLine
 10
96.51330000000001
 20
168.8778534999999
 30
0.0
 11
101.5
 21
168.8778534999999
 31
0.0
  0
LINE
  5
1B0
330
1E
100
AcDbEntity
  8
0
100
AcDbLine
 10
91.5
 20
168.8778534999999
 30
0.0
 11
96.51330000000001
 21
168.8778534999999
 31
0.0
  0
LINE
  5
1B1
330
1E
100
AcDbEntity
  8
0
100
AcDbLine
 10
86.5
 20
168.8778534999999
 30
0.0
 11
91.5
 21
168.8778534999999
 31
0.0
  0
LINE
  5
1B2
330
1E
100
AcDbEntity
  8
0
100
AcDbLine
 10
101.5
 20
168.8778534999999
 30
0.0
 11
106.4999999999999
 21
168.8778534999999
 31
0.0
  0
LINE
  5
1B3
330
1E
100
AcDbEntity
  8
0
100
AcDbLine
 10
76.5
 20
168.8778534999999
 30
0.0
 11
81.5
 21
168.8778534999999
 31
0.0
  0
LINE
  5
1B4
330
1E
100
AcDbEntity
  8
0
100
AcDbLine
 10
81.5
 20
168.8778534999999
 30
0.0
 11
86.5
 21
168.8778534999999
 31
0.0
  0
LINE
  5
1B5
330
1E
100
AcDbEntity
  8
0
100
AcDbLine
 10
46.0
 20
168.8778534999999
 30
0.0
 11
48.0
 21
170.8778534999999
 31
0.0
  0
LINE
  5
1B6
330
1E
100
AcDbEntity
  8
0
100
AcDbLine
 10
51.5
 20
168.8778534999999
 30
0.0
 11
56.4826
 21
168.8778534999999
 31
0.0
  0
LINE
  5
1B7
330
1E
100
AcDbEntity
  8
0
100
AcDbLine
 10
41.5
 20
168.8778534999999
 30
0.0
 11
46.5
 21
168.8778534999999
 31
0.0
  0
LINE
  5
1B8
330
1E
100
AcDbEntity
  8
0
100
AcDbLine
 10
46.5
 20
168.8778534999999
 30
0.0
 11
51.5
 21
168.8778534999999
 31
0.0
  0
LINE
  5
1B9
330
1E
100
AcDbEntity
  8
0
100
AcDbLine
 10
31.5
 20
168.8778534999999
 30
0.0
 11
36.5
 21
168.8778534999999
 31
0.0
  0
LINE
  5
1BA
330
1E
100
AcDbEntity
  8
0
100
AcDbLine
 10
22.0
 20
178.8778534999999
 30
0.0
 11
22.0
 21
175.8778534999999
 31
0.0
  0
LINE
  5
1BB
330
1E
100
AcDbEntity
  8
0
100
AcDbLine
 10
22.0
 20
178.8778534999999
 30
0.0
 11
22.0
 21
180.8778534999999
 31
0.0
  0
LINE
  5
1BC
330
1E
100
AcDbEntity
  8
0
100
AcDbLine
 10
22.0
 20
180.8778534999999
 30
0.0
 11
24.0
 21
182.8778534999999
 31
0.0
  0
LINE
  5
1BD
330
1E
100
AcDbEntity
  8
0
100
AcDbLine
 10
22.0
 20
180.8778534999999
 30
0.0
 11
22.0
 21
178.8778534999999
 31
0.0
  0
LINE
  5
1BE
330
1E
100
AcDbEntity
  8
0
100
AcDbLine
 10
22.0
 20
180.8778534999999
 30
0.0
 11
22.5
 21
180.8778534999999
 31
0.0
  0
LINE
  5
1BF
330
1E
100
AcDbEntity
  8
0
100
AcDbLine
 10
22.0
 20
175.8778534999999
 30
0.0
 11
22.0
 21
172.8778535
 31
0.0
  0
LINE
  5
1C0
330
1E
100
AcDbEntity
  8
0
100
AcDbLine
 10
22.0
 20
175.8778534999999
 30
0.0
 11
22.0
 21
178.8778534999999
 31
0.0
  0
LINE
  5
1C1
330
1E
100
AcDbEntity
  8
0
100
AcDbLine
 10
22.0
 20
172.8778535
 30
0.0
 11
22.0
 21
170.8778534999999
 31
0.0
  0
LINE
  5
1C2
330
1E
100
AcDbEntity
  8
0
100
AcDbLine
 10
22.0
 20
172.8778535
 30
0.0
 11
22.0
 21
175.8778534999999
 31
0.0
  0
LINE
  5
1C3
330
1E
100
AcDbEntity
  8
0
100
AcDbLine
 10
24.39999999999999
 20
182.8778534999999
 30
0.0
 11
25.5
 21
182.8778534999999
 31
0.0
  0
LINE
  5
1C4
330
1E
100
AcDbEntity
  8
0
100
AcDbLine
 10
25.5
 20
182.8778534999999
 30
0.0
 11
27.2
 21
182.8778534999999
 31
0.0
  0
LINE
  5
1C5
330
1E
100
AcDbEntity
  8
0
100
AcDbLine
 10
27.2
 20
182.8778534999999
 30
0.0
 11
29.5
 21
182.8778534999999
 31
0.0
  0
LINE
  5
1C9
330
1E
100
AcDbEntity
  8
0
100
AcDbLine
 10
29.5
 20
182.8778534999999
 30
0.0
 11
32.2
 21
182.8778534999999
 31
0.0
  0
LINE
  5
1CA
330
1E
100
AcDbEntity
  8
0
100
AcDbLine
 10
32.2
 20
182.8778534999999
 30
0.0
 11
35.0
 21
182.8778534999999
 31
0.0
  0
LINE
  5
1CC
330
1E
100
AcDbEntity
  8
0
100
AcDbLine
 10
24.0
 20
182.8778534999999
 30
0.0
 11
24.39999999999999
 21
182.8778534999999
 31
0.0
  0
LINE
  5
1CD
330
1E
100
AcDbEntity
  8
0
100
AcDbLine
 10
24.0
 20
182.8778534999999
 30
0.0
 11
24.0
 21
183.8778534999999
 31
0.0
  0
LINE
  5
1CE
330
1E
100
AcDbEntity
  8
0
100
AcDbLine
 10
22.0
 20
170.8778534999999
 30
0.0
 11
24.0
 21
168.8778534999999
 31
0.0
  0
LINE
  5
1CF
330
1E
100
AcDbEntity
  8
0
100
AcDbLine
 10
22.0
 20
170.8778534999999
 30
0.0
 11
48.0
 21
170.8778534999999
 31
0.0
  0
LINE
  5
1D0
330
1E
100
AcDbEntity
  8
0
100
AcDbLine
 10
22.0
 20
170.8778534999999
 30
0.0
 11
22.0
 21
172.8778535
 31
0.0
  0
LINE
  5
1D1
330
1E
100
AcDbEntity
  8
0
100
AcDbLine
 10
37.79999999999999
 20
182.8778534999999
 30
0.0
 11
40.49999999999999
 21
182.8778534999999
 31
0.0
  0
LINE
  5
1D3
330
1E
100
AcDbEntity
  8
0
100
AcDbLine
 10
24.0
 20
183.8778534999999
 30
0.0
 11
24.39999999999999
 21
183.8778534999999
 31
0.0
  0
LINE
  5
1D4
330
1E
100
AcDbEntity
  8
0
100
AcDbLine
 10
24.0
 20
183.8778534999999
 30
0.0
 11
24.0
 21
182.8778534999999
 31
0.0
  0
LINE
  5
1D5
330
1E
100
AcDbEntity
  8
0
100
AcDbLine
 10
21.0
 20
183.8778534999999
 30
0.0
 11
21.49999999999999
 21
183.8778534999999
 31
0.0
  0
LINE
  5
1D6
330
1E
100
AcDbEntity
  8
0
100
AcDbLine
 10
24.39999999999999
 20
183.8778534999999
 30
0.0
 11
25.5
 21
183.8778534999999
 31
0.0
  0
LINE
  5
1D7
330
1E
100
AcDbEntity
  8
0
100
AcDbLine
 10
21.49999999999999
 20
183.8778534999999
 30
0.0
 11
22.9
 21
183.8778534999999
 31
0.0
  0
LINE
  5
1D8
330
1E
100
AcDbEntity
  8
0
100
AcDbLine
 10
25.5
 20
183.8778534999999
 30
0.0
 11
27.2
 21
183.8778534999999
 31
0.0
  0
LINE
  5
1D9
330
1E
100
AcDbEntity
  8
0
100
AcDbLine
 10
22.9
 20
183.8778534999999
 30
0.0
 11
25.1
 21
183.8778534999999
 31
0.0
  0
LINE
  5
1DA
330
1E
100
AcDbEntity
  8
0
100
AcDbLine
 10
22.9
 20
183.8778534999999
 30
0.0
 11
24.0
 21
183.8778534999999
 31
0.0
  0
LINE
  5
1DB
330
1E
100
AcDbEntity
  8
0
100
AcDbLine
 10
27.2
 20
183.8778534999999
 30
0.0
 11
29.5
 21
183.8778534999999
 31
0.0
  0
LINE
  5
1DC
330
1E
100
AcDbEntity
  8
0
100
AcDbLine
 10
25.1
 20
183.8778534999999
 30
0.0
 11
28.0
 21
183.8778534999999
 31
0.0
  0
LINE
  5
1DD
330
1E
100
AcDbEntity
  8
0
100
AcDbLine
 10
29.5
 20
183.8778534999999
 30
0.0
 11
32.2
 21
183.8778534999999
 31
0.0
  0
LINE
  5
1DE
330
1E
100
AcDbEntity
  8
0
100
AcDbLine
 10
17.6
 20
203.8778535
 30
0.0
 11
26.0
 21
203.8778535
 31
0.0
  0
LINE
  5
1DF
330
1E
100
AcDbEntity
  8
0
100
AcDbLine
 10
26.0
 20
203.8778535
 30
0.0
 11
35.0
 21
203.8778535
 31
0.0
  0
LINE
  5
1E0
330
1E
100
AcDbEntity
  8
0
100
AcDbLine
 10
28.0
 20
183.8778534999999
 30
0.0
 11
31.4
 21
183.8778534999999
 31
0.0
  0
LINE
  5
1E1
330
1E
100
AcDbEntity
  8
0
100
AcDbLine
 10
32.2
 20
183.8778534999999
 30
0.0
 11
35.0
 21
183.8778534999999
 31
0.0
  0
LINE
  5
1E2
330
1E
100
AcDbEntity
  8
0
100
AcDbLine
 10
31.4
 20
183.8778534999999
 30
0.0
 11
35.0
 21
183.8778534999999
 31
0.0
  0
LINE
  5
1E3
330
1E
100
AcDbEntity
  8
0
100
AcDbLine
 10
17.6
 20
208.8778534999999
 30
0.0
 11
26.0
 21
208.8778534999999
 31
0.0
  0
LINE
  5
1E4
330
1E
100
AcDbEntity
  8
0
100
AcDbLine
 10
26.0
 20
208.8778534999999
 30
0.0
 11
35.0
 21
208.8778534999999
 31
0.0
  0
LINE
  5
1E5
330
1E
100
AcDbEntity
  8
0
100
AcDbLine
 10
35.0
 20
208.8778534999999
 30
0.0
 11
44.0
 21
208.8778534999999
 31
0.0
  0
LINE
  5
1E6
330
1E
100
AcDbEntity
  8
0
100
AcDbLine
 10
35.0
 20
203.8778535
 30
0.0
 11
44.0
 21
203.8778535
 31
0.0
  0
LINE
  5
1E7
330
1E
100
AcDbEntity
  8
0
100
AcDbLine
 10
37.79999999999999
 20
183.8778534999999
 30
0.0
 11
40.49999999999999
 21
183.8778534999999
 31
0.0
  0
LINE
  5
1E8
330
1E
100
AcDbEntity
  8
0
100
AcDbLine
 10
35.0
 20
183.8778534999999
 30
0.0
 11
37.79999999999999
 21
183.8778534999999
 31
0.0
  0
LINE
  5
1E9
330
1E
100
AcDbEntity
  8
0
100
AcDbLine
 10
35.0
 20
183.8778534999999
 30
0.0
 11
38.6
 21
183.8778534999999
 31
0.0
  0
LINE
  5
1EA
330
1E
100
AcDbEntity
  8
0
100
AcDbLine
 10
35.0
 20
182.8778534999999
 30
0.0
 11
37.79999999999999
 21
182.8778534999999
 31
0.0
  0
LINE
  5
1EC
330
1E
100
AcDbEntity
  8
0
100
AcDbLine
 10
198.0
 20
170.8778534999999
 30
0.0
 11
198.0
 21
172.8778535
 31
0.0
  0
LINE
  5
1ED
330
1E
100
AcDbEntity
  8
0
100
AcDbLine
 10
172.5
 20
170.8778534999999
 30
0.0
 11
198.0
 21
170.8778534999999
 31
0.0
  0
LINE
  5
1F1
330
1E
100
AcDbEntity
  8
0
100
AcDbLine
 10
172.0
 20
170.8778534999999
 30
0.0
 11
174.0
 21
168.8778534999999
 31
0.0
  0
LINE
  5
1F2
330
1E
100
AcDbEntity
  8
0
100
AcDbLine
 10
172.0
 20
170.8778534999999
 30
0.0
 11
172.0
 21
172.8778535
 31
0.0
  0
LINE
  5
1F3
330
1E
100
AcDbEntity
  8
0
100
AcDbLine
 10
172.0
 20
170.8778534999999
 30
0.0
 11
172.5
 21
170.8778534999999
 31
0.0
  0
LINE
  5
1F5
330
1E
100
AcDbEntity
  8
0
100
AcDbLine
 10
38.6
 20
183.8778534999999
 30
0.0
 11
42.0
 21
183.8778534999999
 31
0.0
  0
LINE
  5
1F6
330
1E
100
AcDbEntity
  8
0
100
AcDbLine
 10
40.49999999999999
 20
183.8778534999999
 30
0.0
 11
42.8
 21
183.8778534999999
 31
0.0
  0
LINE
  5
1F7
330
1E
100
AcDbEntity
  8
0
100
AcDbLine
 10
40.49999999999999
 20
182.8778534999999
 30
0.0
 11
42.8
 21
182.8778534999999
 31
0.0
  0
LINE
  5
1F8
330
1E
100
AcDbEntity
  8
0
100
AcDbLine
 10
48.0
 20
170.8778534999999
 30
0.0
 11
48.0
 21
180.8778534999999
 31
0.0
  0
LINE
  5
1F9
330
1E
100
AcDbEntity
  8
0
100
AcDbLine
 10
198.0
 20
172.8778535
 30
0.0
 11
198.0
 21
170.8778534999999
 31
0.0
  0
LINE
  5
1FA
330
1E
100
AcDbEntity
  8
0
100
AcDbLine
 10
198.0
 20
172.8778535
 30
0.0
 11
198.0
 21
175.8778534999999
 31
0.0
  0
LINE
  5
1FB
330
1E
100
AcDbEntity
  8
0
100
AcDbLine
 10
172.0
 20
178.8778534999999
 30
0.0
 11
172.0
 21
175.8778534999999
 31
0.0
  0
LINE
  5
1FC
330
1E
100
AcDbEntity
  8
0
100
AcDbLine
 10
172.0
 20
178.8778534999999
 30
0.0
 11
172.0
 21
180.8778534999999
 31
0.0
  0
LINE
  5
1FD
330
1E
100
AcDbEntity
  8
0
100
AcDbLine
 10
172.0
 20
180.8778534999999
 30
0.0
 11
172.5
 21
180.8778534999999
 31
0.0
  0
LINE
  5
1FE
330
1E
100
AcDbEntity
  8
0
100
AcDbLine
 10
172.0
 20
180.8778534999999
 30
0.0
 11
174.0
 21
182.8778534999999
 31
0.0
  0
LINE
  5
1FF
330
1E
100
AcDbEntity
  8
0
100
AcDbLine
 10
172.0
 20
180.8778534999999
 30
0.0
 11
172.0
 21
178.8778534999999
 31
0.0
  0
LINE
  5
200
330
1E
100
AcDbEntity
  8
0
100
AcDbLine
 10
198.0
 20
180.8778534999999
 30
0.0
 11
198.0
 21
175.8778534999999
 31
0.0
  0
LINE
  5
201
330
1E
100
AcDbEntity
  8
0
100
AcDbLine
 10
172.5
 20
180.8778534999999
 30
0.0
 11
198.0
 21
180.8778534999999
 31
0.0
  0
LINE
  5
204
330
1E
100
AcDbEntity
  8
0
100
AcDbLine
 10
198.0
 20
175.8778534999999
 30
0.0
 11
198.0
 21
172.8778535
 31
0.0
  0
LINE
  5
205
330
1E
100
AcDbEntity
  8
0
100
AcDbLine
 10
198.0
 20
175.8778534999999
 30
0.0
 11
198.0
 21
180.8778534999999
 31
0.0
  0
LINE
  5
208
330
1E
100
AcDbEntity
  8
0
100
AcDbLine
 10
172.0
 20
175.8778534999999
 30
0.0
 11
172.0
 21
172.8778535
 31
0.0
  0
LINE
  5
209
330
1E
100
AcDbEntity
  8
0
100
AcDbLine
 10
172.0
 20
175.8778534999999
 30
0.0
 11
172.0
 21
178.8778534999999
 31
0.0
  0
LINE
  5
20A
330
1E
100
AcDbEntity
  8
0
100
AcDbLine
 10
172.0
 20
172.8778535
 30
0.0
 11
172.0
 21
170.8778534999999
 31
0.0
  0
LINE
  5
20B
330
1E
100
AcDbEntity
  8
0
100
AcDbLine
 10
172.0
 20
172.8778535
 30
0.0
 11
172.0
 21
175.8778534999999
 31
0.0
  0
LINE
  5
20C
330
1E
100
AcDbEntity
  8
0
100
AcDbLine
 10
48.0
 20
180.8778534999999
 30
0.0
 11
48.0
 21
170.8778534999999
 31
0.0
  0
LINE
  5
20D
330
1E
100
AcDbEntity
  8
0
100
AcDbLine
 10
45.6
 20
182.8778534999999
 30
0.0
 11
46.0
 21
182.8778534999999
 31
0.0
  0
LINE
  5
20E
330
1E
100
AcDbEntity
  8
0
100
AcDbLine
 10
174.0
 20
182.8778534999999
 30
0.0
 11
174.3999999999999
 21
182.8778534999999
 31
0.0
  0
LINE
  5
20F
330
1E
100
AcDbEntity
  8
0
100
AcDbLine
 10
174.0
 20
182.8778534999999
 30
0.0
 11
174.0
 21
183.8778534999999
 31
0.0
  0
LINE
  5
210
330
1E
100
AcDbEntity
  8
0
100
AcDbLine
 10
174.3999999999999
 20
182.8778534999999
 30
0.0
 11
175.5
 21
182.8778534999999
 31
0.0
  0
LINE
  5
211
330
1E
100
AcDbEntity
  8
0
100
AcDbLine
 10
175.5
 20
182.8778534999999
 30
0.0
 11
177.2
 21
182.8778534999999
 31
0.0
  0
LINE
  5
212
330
1E
100
AcDbEntity
  8
0
100
AcDbLine
 10
177.2
 20
182.8778534999999
 30
0.0
 11
179.4999999999999
 21
182.8778534999999
 31
0.0
  0
LINE
  5
213
330
1E
100
AcDbEntity
  8
0
100
AcDbLine
 10
195.5999999999999
 20
182.8778534999999
 30
0.0
 11
196.0
 21
182.8778534999999
 31
0.0
  0
LINE
  5
214
330
1E
100
AcDbEntity
  8
0
100
AcDbLine
 10
194.5
 20
182.8778534999999
 30
0.0
 11
195.5999999999999
 21
182.8778534999999
 31
0.0
  0
LINE
  5
215
330
1E
100
AcDbEntity
  8
0
100
AcDbLine
 10
192.8
 20
182.8778534999999
 30
0.0
 11
194.5
 21
182.8778534999999
 31
0.0
  0
LINE
  5
216
330
1E
100
AcDbEntity
  8
0
100
AcDbLine
 10
190.5
 20
182.8778534999999
 30
0.0
 11
192.8
 21
182.8778534999999
 31
0.0
  0
LINE
  5
217
330
1E
100
AcDbEntity
  8
0
100
AcDbLine
 10
187.8
 20
182.8778534999999
 30
0.0
 11
190.5
 21
182.8778534999999
 31
0.0
  0
LINE
  5
218
330
1E
100
AcDbEntity
  8
0
100
AcDbLine
 10
185.0
 20
182.8778534999999
 30
0.0
 11
187.8
 21
182.8778534999999
 31
0.0
  0
LINE
  5
219
330
1E
100
AcDbEntity
  8
0
100
AcDbLine
 10
196.0
 20
182.8778534999999
 30
0.0
 11
198.0
 21
180.8778534999999
 31
0.0
  0
LINE
  5
21A
330
1E
100
AcDbEntity
  8
0
100
AcDbLine
 10
196.0
 20
182.8778534999999
 30
0.0
 11
196.0
 21
183.8778534999999
 31
0.0
  0
LINE
  5
21B
330
1E
100
AcDbEntity
  8
0
100
AcDbLine
 10
179.4999999999999
 20
182.8778534999999
 30
0.0
 11
182.1999999999999
 21
182.8778534999999
 31
0.0
  0
LINE
  5
21C
330
1E
100
AcDbEntity
  8
0
100
AcDbLine
 10
182.1999999999999
 20
182.8778534999999
 30
0.0
 11
185.0
 21
182.8778534999999
 31
0.0
  0
LINE
  5
21D
330
1E
100
AcDbEntity
  8
0
100
AcDbLine
 10
46.0
 20
182.8778534999999
 30
0.0
 11
48.0
 21
180.8778534999999
 31
0.0
  0
LINE
  5
21E
330
1E
100
AcDbEntity
  8
0
100
AcDbLine
 10
46.0
 20
182.8778534999999
 30
0.0
 11
46.0
 21
183.8778534999999
 31
0.0
  0
LINE
  5
21F
330
1E
100
AcDbEntity
  8
0
100
AcDbLine
 10
22.5
 20
180.8778534999999
 30
0.0
 11
48.0
 21
180.8778534999999
 31
0.0
  0
LINE
  5
220
330
1E
100
AcDbEntity
  8
0
100
AcDbLine
 10
44.5
 20
182.8778534999999
 30
0.0
 11
45.6
 21
182.8778534999999
 31
0.0
  0
LINE
  5
221
330
1E
100
AcDbEntity
  8
0
100
AcDbLine
 10
42.0
 20
183.8778534999999
 30
0.0
 11
44.9
 21
183.8778534999999
 31
0.0
  0
LINE
  5
222
330
1E
100
AcDbEntity
  8
0
100
AcDbLine
 10
44.9
 20
183.8778534999999
 30
0.0
 11
47.09999999999999
 21
183.8778534999999
 31
0.0
  0
LINE
  5
223
330
1E
100
AcDbEntity
  8
0
100
AcDbLine
 10
45.6
 20
183.8778534999999
 30
0.0
 11
46.0
 21
183.8778534999999
 31
0.0
  0
LINE
  5
224
330
1E
100
AcDbEntity
  8
0
100
AcDbLine
 10
44.5
 20
183.8778534999999
 30
0.0
 11
45.6
 21
183.8778534999999
 31
0.0
  0
LINE
  5
225
330
1E
100
AcDbEntity
  8
0
100
AcDbLine
 10
44.0
 20
208.8778534999999
 30
0.0
 11
52.4
 21
208.8778534999999
 31
0.0
  0
LINE
  5
226
330
1E
100
AcDbEntity
  8
0
100
AcDbLine
 10
44.0
 20
203.8778535
 30
0.0
 11
52.4
 21
203.8778535
 31
0.0
  0
LINE
  5
227
330
1E
100
AcDbEntity
  8
0
100
AcDbLine
 10
42.8
 20
183.8778534999999
 30
0.0
 11
44.5
 21
183.8778534999999
 31
0.0
  0
LINE
  5
228
330
1E
100
AcDbEntity
  8
0
100
AcDbLine
 10
171.0
 20
183.8778534999999
 30
0.0
 11
171.5
 21
183.8778534999999
 31
0.0
  0
LINE
  5
229
330
1E
100
AcDbEntity
  8
0
100
AcDbLine
 10
171.5
 20
183.8778534999999
 30
0.0
 11
172.9
 21
183.8778534999999
 31
0.0
  0
LINE
  5
22A
330
1E
100
AcDbEntity
  8
0
100
AcDbLine
 10
175.0999999999999
 20
183.8778534999999
 30
0.0
 11
178.0
 21
183.8778534999999
 31
0.0
  0
LINE
  5
22B
330
1E
100
AcDbEntity
  8
0
100
AcDbLine
 10
174.0
 20
183.8778534999999
 30
0.0
 11
174.0
 21
182.8778534999999
 31
0.0
  0
LINE
  5
22C
330
1E
100
AcDbEntity
  8
0
100
AcDbLine
 10
174.0
 20
183.8778534999999
 30
0.0
 11
174.3999999999999
 21
183.8778534999999
 31
0.0
  0
LINE
  5
22D
330
1E
100
AcDbEntity
  8
0
100
AcDbLine
 10
174.3999999999999
 20
183.8778534999999
 30
0.0
 11
175.5
 21
183.8778534999999
 31
0.0
  0
LINE
  5
22E
330
1E
100
AcDbEntity
  8
0
100
AcDbLine
 10
178.0
 20
183.8778534999999
 30
0.0
 11
181.4
 21
183.8778534999999
 31
0.0
  0
LINE
  5
22F
330
1E
100
AcDbEntity
  8
0
100
AcDbLine
 10
175.5
 20
183.8778534999999
 30
0.0
 11
177.2
 21
183.8778534999999
 31
0.0
  0
LINE
  5
230
330
1E
100
AcDbEntity
  8
0
100
AcDbLine
 10
177.2
 20
183.8778534999999
 30
0.0
 11
179.4999999999999
 21
183.8778534999999
 31
0.0
  0
LINE
  5
231
330
1E
100
AcDbEntity
  8
0
100
AcDbLine
 10
196.0
 20
183.8778534999999
 30
0.0
 11
196.0
 21
182.8778534999999
 31
0.0
  0
LINE
  5
232
330
1E
100
AcDbEntity
  8
0
100
AcDbLine
 10
196.0
 20
183.8778534999999
 30
0.0
 11
197.1
 21
183.8778534999999
 31
0.0
  0
LINE
  5
233
330
1E
100
AcDbEntity
  8
0
100
AcDbLine
 10
199.0
 20
183.8778534999999
 30
0.0
 11
220.0
 21
203.8778535
 31
0.0
  0
LINE
  5
234
330
1E
100
AcDbEntity
  8
0
100
AcDbLine
 10
195.5999999999999
 20
183.8778534999999
 30
0.0
 11
196.0
 21
183.8778534999999
 31
0.0
  0
LINE
  5
235
330
1E
100
AcDbEntity
  8
0
100
AcDbLine
 10
198.5
 20
183.8778534999999
 30
0.0
 11
199.0
 21
183.8778534999999
 31
0.0
  0
LINE
  5
236
330
1E
100
AcDbEntity
  8
0
100
AcDbLine
 10
194.5
 20
183.8778534999999
 30
0.0
 11
195.5999999999999
 21
183.8778534999999
 31
0.0
  0
LINE
  5
237
330
1E
100
AcDbEntity
  8
0
100
AcDbLine
 10
197.1
 20
183.8778534999999
 30
0.0
 11
198.5
 21
183.8778534999999
 31
0.0
  0
LINE
  5
238
330
1E
100
AcDbEntity
  8
0
100
AcDbLine
 10
192.8
 20
183.8778534999999
 30
0.0
 11
194.5
 21
183.8778534999999
 31
0.0
  0
LINE
  5
239
330
1E
100
AcDbEntity
  8
0
100
AcDbLine
 10
194.9
 20
183.8778534999999
 30
0.0
 11
197.1
 21
183.8778534999999
 31
0.0
  0
LINE
  5
23A
330
1E
100
AcDbEntity
  8
0
100
AcDbLine
 10
190.5
 20
183.8778534999999
 30
0.0
 11
192.8
 21
183.8778534999999
 31
0.0
  0
LINE
  5
23B
330
1E
100
AcDbEntity
  8
0
100
AcDbLine
 10
192.0
 20
183.8778534999999
 30
0.0
 11
194.9
 21
183.8778534999999
 31
0.0
  0
LINE
  5
23C
330
1E
100
AcDbEntity
  8
0
100
AcDbLine
 10
187.8
 20
183.8778534999999
 30
0.0
 11
190.5
 21
183.8778534999999
 31
0.0
  0
LINE
  5
23D
330
1E
100
AcDbEntity
  8
0
100
AcDbLine
 10
188.5999999999999
 20
183.8778534999999
 30
0.0
 11
192.0
 21
183.8778534999999
 31
0.0
  0
LINE
  5
23E
330
1E
100
AcDbEntity
  8
0
100
AcDbLine
 10
185.0
 20
183.8778534999999
 30
0.0
 11
188.5999999999999
 21
183.8778534999999
 31
0.0
  0
LINE
  5
23F
330
1E
100
AcDbEntity
  8
0
100
AcDbLine
 10
185.0
 20
183.8778534999999
 30
0.0
 11
187.8
 21
183.8778534999999
 31
0.0
  0
LINE
  5
240
330
1E
100
AcDbEntity
  8
0
100
AcDbLine
 10
181.4
 20
183.8778534999999
 30
0.0
 11
185.0
 21
183.8778534999999
 31
0.0
  0
LINE
  5
241
330
1E
100
AcDbEntity
  8
0
100
AcDbLine
 10
179.4999999999999
 20
183.8778534999999
 30
0.0
 11
182.1999999999999
 21
183.8778534999999
 31
0.0
  0
LINE
  5
242
330
1E
100
AcDbEntity
  8
0
100
AcDbLine
 10
182.1999999999999
 20
183.8778534999999
 30
0.0
 11
185.0
 21
183.8778534999999
 31
0.0
  0
LINE
  5
243
330
1E
100
AcDbEntity
  8
0
100
AcDbLine
 10
172.9
 20
183.8778534999999
 30
0.0
 11
174.0
 21
183.8778534999999
 31
0.0
  0
LINE
  5
244
330
1E
100
AcDbEntity
  8
0
100
AcDbLine
 10
172.9
 20
183.8778534999999
 30
0.0
 11
175.0999999999999
 21
183.8778534999999
 31
0.0
  0
LINE
  5
245
330
1E
100
AcDbEntity
  8
0
100
AcDbLine
 10
49.0
 20
183.8778534999999
 30
0.0
 11
70.0
 21
203.8778535
 31
0.0
  0
LINE
  5
246
330
1E
100
AcDbEntity
  8
0
100
AcDbLine
 10
48.5
 20
183.8778534999999
 30
0.0
 11
49.0
 21
183.8778534999999
 31
0.0
  0
LINE
  5
247
330
1E
100
AcDbEntity
  8
0
100
AcDbLine
 10
68.7
 20
203.8778535
 30
0.0
 11
70.0
 21
203.8778535
 31
0.0
  0
LINE
  5
248
330
1E
100
AcDbEntity
  8
0
100
AcDbLine
 10
65.3
 20
203.8778535
 30
0.0
 11
68.7
 21
203.8778535
 31
0.0
  0
LINE
  5
249
330
1E
100
AcDbEntity
  8
0
100
AcDbLine
 10
59.7
 20
203.8778535
 30
0.0
 11
65.3
 21
203.8778535
 31
0.0
  0
LINE
  5
24A
330
1E
100
AcDbEntity
  8
0
100
AcDbLine
 10
68.7
 20
208.8778534999999
 30
0.0
 11
70.0
 21
208.8778534999999
 31
0.0
  0
LINE
  5
24B
330
1E
100
AcDbEntity
  8
0
100
AcDbLine
 10
70.0
 20
208.8778534999999
 30
0.0
 11
70.0
 21
203.8778535
 31
0.0
  0
LINE
  5
24C
330
1E
100
AcDbEntity
  8
0
100
AcDbLine
 10
65.3
 20
208.8778534999999
 30
0.0
 11
68.7
 21
208.8778534999999
 31
0.0
  0
LINE
  5
24D
330
1E
100
AcDbEntity
  8
0
100
AcDbLine
 10
59.7
 20
208.8778534999999
 30
0.0
 11
65.3
 21
208.8778534999999
 31
0.0
  0
LINE
  5
24E
330
1E
100
AcDbEntity
  8
0
100
AcDbLine
 10
52.4
 20
208.8778534999999
 30
0.0
 11
59.7
 21
208.8778534999999
 31
0.0
  0
LINE
  5
24F
330
1E
100
AcDbEntity
  8
0
100
AcDbLine
 10
52.4
 20
203.8778535
 30
0.0
 11
59.7
 21
203.8778535
 31
0.0
  0
LINE
  5
250
330
1E
100
AcDbEntity
  8
0
100
AcDbLine
 10
151.3
 20
203.8778535
 30
0.0
 11
154.6999999999999
 21
203.8778535
 31
0.0
  0
LINE
  5
251
330
1E
100
AcDbEntity
  8
0
100
AcDbLine
 10
154.6999999999999
 20
203.8778535
 30
0.0
 11
160.3
 21
203.8778535
 31
0.0
  0
LINE
  5
252
330
1E
100
AcDbEntity
  8
0
100
AcDbLine
 10
160.3
 20
203.8778535
 30
0.0
 11
167.5999999999999
 21
203.8778535
 31
0.0
  0
LINE
  5
253
330
1E
100
AcDbEntity
  8
0
100
AcDbLine
 10
167.5999999999999
 20
203.8778535
 30
0.0
 11
176.0
 21
203.8778535
 31
0.0
  0
LINE
  5
254
330
1E
100
AcDbEntity
  8
0
100
AcDbLine
 10
220.0
 20
203.8778535
 30
0.0
 11
220.0
 21
208.8778534999999
 31
0.0
  0
LINE
  5
255
330
1E
100
AcDbEntity
  8
0
100
AcDbLine
 10
218.6999999999999
 20
203.8778535
 30
0.0
 11
220.0
 21
203.8778535
 31
0.0
  0
LINE
  5
256
330
1E
100
AcDbEntity
  8
0
100
AcDbLine
 10
215.3
 20
203.8778535
 30
0.0
 11
218.6999999999999
 21
203.8778535
 31
0.0
  0
LINE
  5
257
330
1E
100
AcDbEntity
  8
0
100
AcDbLine
 10
209.6999999999999
 20
203.8778535
 30
0.0
 11
215.3
 21
203.8778535
 31
0.0
  0
LINE
  5
258
330
1E
100
AcDbEntity
  8
0
100
AcDbLine
 10
202.4
 20
203.8778535
 30
0.0
 11
209.6999999999999
 21
203.8778535
 31
0.0
  0
LINE
  5
259
330
1E
100
AcDbEntity
  8
0
100
AcDbLine
 10
194.0
 20
203.8778535
 30
0.0
 11
202.4
 21
203.8778535
 31
0.0
  0
LINE
  5
25A
330
1E
100
AcDbEntity
  8
0
100
AcDbLine
 10
185.0
 20
203.8778535
 30
0.0
 11
194.0
 21
203.8778535
 31
0.0
  0
LINE
  5
25B
330
1E
100
AcDbEntity
  8
0
100
AcDbLine
 10
176.0
 20
203.8778535
 30
0.0
 11
185.0
 21
203.8778535
 31
0.0
  0
LINE
  5
25C
330
1E
100
AcDbEntity
  8
0
100
AcDbLine
 10
150.0
 20
208.8778534999999
 30
0.0
 11
150.0
 21
203.8778535
 31
0.0
  0
LINE
  5
25D
330
1E
100
AcDbEntity
  8
0
100
AcDbLine
 10
150.0
 20
208.8778534999999
 30
0.0
 11
151.3
 21
208.8778534999999
 31
0.0
  0
LINE
  5
25E
330
1E
100
AcDbEntity
  8
0
100
AcDbLine
 10
151.3
 20
208.8778534999999
 30
0.0
 11
154.6999999999999
 21
208.8778534999999
 31
0.0
  0
LINE
  5
25F
330
1E
100
AcDbEntity
  8
0
100
AcDbLine
 10
154.6999999999999
 20
208.8778534999999
 30
0.0
 11
160.3
 21
208.8778534999999
 31
0.0
  0
LINE
  5
260
330
1E
100
AcDbEntity
  8
0
100
AcDbLine
 10
160.3
 20
208.8778534999999
 30
0.0
 11
167.5999999999999
 21
208.8778534999999
 31
0.0
  0
LINE
  5
261
330
1E
100
AcDbEntity
  8
0
100
AcDbLine
 10
167.5999999999999
 20
208.8778534999999
 30
0.0
 11
176.0
 21
208.8778534999999
 31
0.0
  0
LINE
  5
262
330
1E
100
AcDbEntity
  8
0
100
AcDbLine
 10
220.0
 20
208.8778534999999
 30
0.0
 11
220.0
 21
203.8778535
 31
0.0
  0
LINE
  5
263
330
1E
100
AcDbEntity
  8
0
100
AcDbLine
 10
218.6999999999999
 20
208.8778534999999
 30
0.0
 11
220.0
 21
208.8778534999999
 31
0.0
  0
LINE
  5
264
330
1E
100
AcDbEntity
  8
0
100
AcDbLine
 10
215.3
 20
208.8778534999999
 30
0.0
 11
218.6999999999999
 21
208.8778534999999
 31
0.0
  0
LINE
  5
265
330
1E
100
AcDbEntity
  8
0
100
AcDbLine
 10
209.6999999999999
 20
208.8778534999999
 30
0.0
 11
215.3
 21
208.8778534999999
 31
0.0
  0
LINE
  5
266
330
1E
100
AcDbEntity
  8
0
100
AcDbLine
 10
202.4
 20
208.8778534999999
 30
0.0
 11
209.6999999999999
 21
208.8778534999999
 31
0.0
  0
LINE
  5
267
330
1E
100
AcDbEntity
  8
0
100
AcDbLine
 10
194.0
 20
208.8778534999999
 30
0.0
 11
202.4
 21
208.8778534999999
 31
0.0
  0
LINE
  5
268
330
1E
100
AcDbEntity
  8
0
100
AcDbLine
 10
185.0
 20
208.8778534999999
 30
0.0
 11
194.0
 21
208.8778534999999
 31
0.0
  0
LINE
  5
269
330
1E
100
AcDbEntity
  8
0
100
AcDbLine
 10
176.0
 20
208.8778534999999
 30
0.0
 11
185.0
 21
208.8778534999999
 31
0.0
  0
LINE
  5
26A
330
1E
100
AcDbEntity
  8
0
100
AcDbLine
 10
150.0
 20
203.8778535
 30
0.0
 11
171.0
 21
183.8778534999999
 31
0.0
  0
LINE
  5
26B
330
1E
100
AcDbEntity
  8
0
100
AcDbLine
 10
150.0
 20
203.8778535
 30
0.0
 11
150.0
 21
208.8778534999999
 31
0.0
  0
LINE
  5
26C
330
1E
100
AcDbEntity
  8
0
100
AcDbLine
 10
150.0
 20
203.8778535
 30
0.0
 11
151.3
 21
203.8778535
 31
0.0
  0
LINE
  5
26D
330
1E
100
AcDbEntity
  8
0
100
AcDbLine
 10
70.0
 20
203.8778535
 30
0.0
 11
70.0
 21
208.8778534999999
 31
0.0
  0
LINE
  5
26E
330
1E
100
AcDbEntity
  8
0
100
AcDbLine
 10
47.09999999999999
 20
183.8778534999999
 30
0.0
 11
48.5
 21
183.8778534999999
 31
0.0
  0
LINE
  5
26F
330
1E
100
AcDbEntity
  8
0
100
AcDbLine
 10
46.0
 20
183.8778534999999
 30
0.0
 11
47.09999999999999
 21
183.8778534999999
 31
0.0
  0
LINE
  5
270
330
1E
100
AcDbEntity
  8
0
100
AcDbLine
 10
46.0
 20
183.8778534999999
 30
0.0
 11
46.0
 21
182.8778534999999
 31
0.0
  0
LINE
  5
271
330
1E
100
AcDbEntity
  8
0
100
AcDbLine
 10
42.8
 20
182.8778534999999
 30
0.0
 11
44.5
 21
182.8778534999999
 31
0.0
  0
LINE
  5
275
330
1E
100
AcDbEntity
  8
0
100
AcDbLine
 10
21.5131
 20
168.8778534999999
 30
0.0
 11
26.5131
 21
168.8778534999999
 31
0.0
  0
LINE
  5
276
330
1E
100
AcDbEntity
  8
0
100
AcDbLine
 10
16.5
 20
168.8778534999999
 30
0.0
 11
21.5131
 21
168.8778534999999
 31
0.0
  0
LINE
  5
27D
330
1E
100
AcDbEntity
  8
0
100
AcDbLine
 10
16.5
 20
148.8778534999999
 30
0.0
 11
15.4
 21
149.2778535
 31
0.0
  0
LINE
  5
27E
330
1E
100
AcDbEntity
  8
0
100
AcDbLine
 10
31.5131
 20
146.8188534999999
 30
0.0
 11
36.5
 21
145.7008534999999
 31
0.0
  0
LINE
  5
27F
330
1E
100
AcDbEntity
  8
0
100
AcDbLine
 10
91.5
 20
124.5888534999999
 30
0.0
 11
86.5
 21
125.5968535
 31
0.0
  0
LINE
  5
280
330
1E
100
AcDbEntity
  8
0
100
AcDbLine
 10
81.5
 20
126.8778534999999
 30
0.0
 11
71.5
 21
130.2818534999999
 31
0.0
  0
LINE
  5
281
330
1E
100
AcDbEntity
  8
0
100
AcDbLine
 10
128.4999999999999
 20
124.5888534999999
 30
0.0
 11
133.5134904990761
 21
125.7026706650855
 31
0.0
  0
LINE
  5
282
330
1E
100
AcDbEntity
  8
0
100
AcDbLine
 10
133.5134904990761
 20
125.7026706650855
 30
0.0
 11
137.616012118267
 21
126.7749261549545
 31
0.0
  0
LINE
  5
283
330
1E
100
AcDbEntity
  8
0
100
AcDbLine
 10
137.616012118267
 20
126.7749261549545
 30
0.0
 11
142.7283855887567
 21
128.3517719449986
 31
0.0
  0
LINE
  5
284
330
1E
100
AcDbEntity
  8
0
100
AcDbLine
 10
142.7283855887567
 20
128.3517719449986
 30
0.0
 11
146.7677909583381
 21
129.6763230747317
 31
0.0
  0
LINE
  5
285
330
1E
100
AcDbEntity
  8
0
100
AcDbLine
 10
146.7677909583381
 20
129.6763230747317
 30
0.0
 11
148.5
 21
130.2818534999999
 31
0.0
  0
LINE
  5
286
330
1E
100
AcDbEntity
  8
0
100
AcDbLine
 10
153.5149999999999
 20
132.5328534999999
 30
0.0
 11
159.9953699118068
 21
136.1427391196933
 31
0.0
  0
LINE
  5
287
330
1E
100
AcDbEntity
  8
0
100
AcDbLine
 10
159.9953699118068
 20
136.1427391196933
 30
0.0
 11
163.504
 21
138.0998535
 31
0.0
  0
LINE
  5
288
330
1E
100
AcDbEntity
  8
0
100
AcDbLine
 10
168.5259999999999
 20
140.5368534999999
 30
0.0
 11
173.4869999999999
 21
142.5888535
 31
0.0
  0
LINE
  5
289
330
1E
100
AcDbEntity
  8
0
100
AcDbLine
 10
178.474
 20
144.3088535
 30
0.0
 11
182.1644009358005
 21
145.4810445184578
 31
0.0
  0
LINE
  5
28A
330
1E
100
AcDbEntity
  8
0
100
AcDbLine
 10
182.1644009358005
 20
145.4810445184578
 30
0.0
 11
185.5155336389655
 21
146.2538697455495
 31
0.0
  0
LINE
  5
28B
330
1E
100
AcDbEntity
  8
0
100
AcDbLine
 10
185.5155336389655
 20
146.2538697455495
 30
0.0
 11
188.9955563355078
 21
147.0266949726413
 31
0.0
  0
LINE
  5
28C
330
1E
100
AcDbEntity
  8
0
100
AcDbLine
 10
188.9955563355078
 20
147.0266949726413
 30
0.0
 11
193.487
 21
147.6758534999999
 31
0.0
  0
LINE
  5
28D
330
1E
100
AcDbEntity
  8
0
100
AcDbLine
 10
203.5
 20
148.8778534999999
 30
0.0
 11
204.5999999999999
 21
149.2778535
 31
0.0
  0
LINE
  5
28E
330
1E
100
AcDbEntity
  8
0
100
AcDbLine
 10
128.0
 20
162.8688535
 30
0.0
 11
128.0
 21
64.5719535
 31
0.0
  0
ENDSEC
  0
SECTION
  2
OBJECTS
  0
DICTIONARY
  5
C
330
0
100
AcDbDictionary
281
     1
  3
ACAD_GROUP
350
D
  3
ACAD_LAYOUT
350
19
  3
ACAD_MLINESTYLE
350
16
  3
ACAD_PLOTSETTINGS
350
18
  3
ACAD_PLOTSTYLENAME
350
E
  3
AcDbVariableDictionary
350
28F
  0
DICTIONARY
  5
D
102
{ACAD_REACTORS
330
C
102
}
330
C
100
AcDbDictionary
281
     1
  0
DICTIONARY
  5
19
102
{ACAD_REACTORS
330
C
102
}
330
C
100
AcDbDictionary
281
     1
  3
Layout1
350
1D
  3
Model
350
21
  0
DICTIONARY
  5
16
102
{ACAD_REACTORS
330
C
102
}
330
C
100
AcDbDictionary
281
     1
  3
Standard
350
17
  0
DICTIONARY
  5
18
102
{ACAD_REACTORS
330
C
102
}
330
C
100
AcDbDictionary
281
     1
  0
ACDBDICTIONARYWDFLT
  5
E
102
{ACAD_REACTORS
330
C
102
}
330
C
100
AcDbDictionary
281
     1
  3
Normal
350
F
100
AcDbDictionaryWithDefault
340
F
  0
DICTIONARY
  5
28F
102
{ACAD_REACTORS
330
C
102
}
330
C
100
AcDbDictionary
281
     1
  3
DIMASSOC
350
290
  0
LAYOUT
  5
1D
102
{ACAD_REACTORS
330
19
102
}
330
19
100
AcDbPlotSettings
  1

  2
hp deskjet 980c series
  4

  6

 40
0.0
 41
0.0
 42
0.0
 43
0.0
 44
0.0
 45
0.0
 46
0.0
 47
0.0
 48
0.0
 49
0.0
140
0.0
141
0.0
142
1.0
143
1.0
 70
   688
 72
     0
 73
     0
 74
     5
  7

 75
    16
147
1.0
148
0.0
149
0.0
100
AcDbLayout
  1
Layout1
 70
     1
 71
     1
 10
0.0
 20
0.0
 11
12.0
 21
9.0
 12
0.0
 22
0.0
 32
0.0
 14
1.000000000000000E+20
 24
1.000000000000000E+20
 34
1.000000000000000E+20
 15
-1.000000000000000E+20
 25
-1.000000000000000E+20
 35
-1.000000000000000E+20
146
0.0
 13
0.0
 23
0.0
 33
0.0
 16
1.0
 26
0.0
 36
0.0
 17
0.0
 27
1.0
 37
0.0
 76
     0
330
1A
  0
LAYOUT
  5
21
102
{ACAD_REACTORS
330
19
102
}
330
19
100
AcDbPlotSettings
  1

  2
hp deskjet 980c series
  4

  6

 40
0.0
 41
0.0
 42
0.0
 43
0.0
 44
0.0
 45
0.0
 46
0.0
 47
0.0
 48
0.0
 49
0.0
140
0.0
141
0.0
142
1.0
143
1.0
 70
  1712
 72
     0
 73
     0
 74
     0
  7

 75
     0
147
1.0
148
0.0
149
0.0
100
AcDbLayout
  1
Model
 70
     1
 71
     0
 10
0.0
 20
0.0
 11
12.0
 21
9.0
 12
0.0
 22
0.0
 32
0.0
 14
0.0
 24
0.0
 34
0.0
 15
0.0
 25
0.0
 35
0.0
146
0.0
 13
0.0
 23
0.0
 33
0.0
 16
1.0
 26
0.0
 36
0.0
 17
0.0
 27
1.0
 37
0.0
 76
     0
330
1E
  0
MLINESTYLE
  5
17
102
{ACAD_REACTORS
330
16
102
}
330
16
100
AcDbMlineStyle
  2
STANDARD
 70
     0
  3

 62
   256
 51
90.0
 52
90.0
 71
     2
 49
0.5
 62
   256
  6
BYLAYER
 49
-0.5
 62
   256
  6
BYLAYER
  0
ACDBPLACEHOLDER
  5
F
102
{ACAD_REACTORS
330
E
102
}
330
E
  0
DICTIONARYVAR
  5
290
102
{ACAD_REACTORS
330
28F
102
}
330
28F
100
DictionaryVariables
280
     0
  1
1
  0
ENDSEC
  0
EOF
