  0
SECTION
  2
HEADER
  9
$ACADVER
  1
AC1015
  9
$ACADMAINTVER
 70
    13
  9
$DWGCODEPAGE
  3
ANSI_1252
  9
$INSBASE
 10
0.0
 20
0.0
 30
0.0
  9
$EXTMIN
 10
-0.133417999999997
 20
-0.0000000000000085
 30
0.0
  9
$EXTMAX
 10
151.133418
 20
163.0
 30
0.0
  9
$LIMMIN
 10
0.0
 20
0.0
  9
$LIMMAX
 10
12.0
 20
9.0
  9
$ORTHOMODE
 70
     0
  9
$REGENMODE
 70
     1
  9
$FILLMODE
 70
     1
  9
$QTEXTMODE
 70
     0
  9
$MIRRTEXT
 70
     1
  9
$LTSCALE
 40
1.0
  9
$ATTMODE
 70
     1
  9
$TEXTSIZE
 40
0.2
  9
$TRACEWID
 40
0.05
  9
$TEXTSTYLE
  7
Standard
  9
$CLAYER
  8
0
  9
$CELTYPE
  6
Continuous
  9
$CECOLOR
 62
   256
  9
$CELTSCALE
 40
1.0
  9
$DISPSILH
 70
     0
  9
$DIMSCALE
 40
1.0
  9
$DIMASZ
 40
0.18
  9
$DIMEXO
 40
0.0625
  9
$DIMDLI
 40
0.38
  9
$DIMRND
 40
0.0
  9
$DIMDLE
 40
0.0
  9
$DIMEXE
 40
0.18
  9
$DIMTP
 40
0.0
  9
$DIMTM
 40
0.0
  9
$DIMTXT
 40
0.18
  9
$DIMCEN
 40
0.09
  9
$DIMTSZ
 40
0.0
  9
$DIMTOL
 70
     0
  9
$DIMLIM
 70
     0
  9
$DIMTIH
 70
     1
  9
$DIMTOH
 70
     1
  9
$DIMSE1
 70
     0
  9
$DIMSE2
 70
     0
  9
$DIMTAD
 70
     0
  9
$DIMZIN
 70
     0
  9
$DIMBLK
  1

  9
$DIMASO
 70
     1
  9
$DIMSHO
 70
     1
  9
$DIMPOST
  1

  9
$DIMAPOST
  1

  9
$DIMALT
 70
     0
  9
$DIMALTD
 70
     2
  9
$DIMALTF
 40
25.4
  9
$DIMLFAC
 40
1.0
  9
$DIMTOFL
 70
     0
  9
$DIMTVP
 40
0.0
  9
$DIMTIX
 70
     0
  9
$DIMSOXD
 70
     0
  9
$DIMSAH
 70
     0
  9
$DIMBLK1
  1

  9
$DIMBLK2
  1

  9
$DIMSTYLE
  2
Standard
  9
$DIMCLRD
 70
     0
  9
$DIMCLRE
 70
     0
  9
$DIMCLRT
 70
     0
  9
$DIMTFAC
 40
1.0
  9
$DIMGAP
 40
0.09
  9
$DIMJUST
 70
     0
  9
$DIMSD1
 70
     0
  9
$DIMSD2
 70
     0
  9
$DIMTOLJ
 70
     1
  9
$DIMTZIN
 70
     0
  9
$DIMALTZ
 70
     0
  9
$DIMALTTZ
 70
     0
  9
$DIMUPT
 70
     0
  9
$DIMDEC
 70
     4
  9
$DIMTDEC
 70
     4
  9
$DIMALTU
 70
     2
  9
$DIMALTTD
 70
     2
  9
$DIMTXSTY
  7
Standard
  9
$DIMAUNIT
 70
     0
  9
$DIMADEC
 70
     0
  9
$DIMALTRND
 40
0.0
  9
$DIMAZIN
 70
     0
  9
$DIMDSEP
 70
    46
  9
$DIMATFIT
 70
     3
  9
$DIMFRAC
 70
     0
  9
$DIMLDRBLK
  1

  9
$DIMLUNIT
 70
     2
  9
$DIMLWD
 70
    -2
  9
$DIMLWE
 70
    -2
  9
$DIMTMOVE
 70
     0
  9
$LUNITS
 70
     2
  9
$LUPREC
 70
     4
  9
$SKETCHINC
 40
0.1
  9
$FILLETRAD
 40
0.0
  9
$AUNITS
 70
     0
  9
$AUPREC
 70
     0
  9
$MENU
  1
.
  9
$ELEVATION
 40
0.0
  9
$PELEVATION
 40
0.0
  9
$THICKNESS
 40
0.0
  9
$LIMCHECK
 70
     0
  9
$CHAMFERA
 40
0.0
  9
$CHAMFERB
 40
0.0
  9
$CHAMFERC
 40
0.0
  9
$CHAMFERD
 40
0.0
  9
$SKPOLY
 70
     0
  9
$TDCREATE
 40
2454831.624400856
  9
$TDUCREATE
 40
2454831.582734190
  9
$TDUPDATE
 40
2454831.627473773
  9
$TDUUPDATE
 40
2454831.585807106
  9
$TDINDWG
 40
0.0030731019
  9
$TDUSRTIMER
 40
0.0030731019
  9
$USRTIMER
 70
     1
  9
$ANGBASE
 50
0.0
  9
$ANGDIR
 70
     0
  9
$PDMODE
 70
     0
  9
$PDSIZE
 40
0.0
  9
$PLINEWID
 40
0.0
  9
$SPLFRAME
 70
     0
  9
$SPLINETYPE
 70
     6
  9
$SPLINESEGS
 70
     8
  9
$HANDSEED
  5
19D
  9
$SURFTAB1
 70
     6
  9
$SURFTAB2
 70
     6
  9
$SURFTYPE
 70
     6
  9
$SURFU
 70
     6
  9
$SURFV
 70
     6
  9
$UCSBASE
  2

  9
$UCSNAME
  2

  9
$UCSORG
 10
0.0
 20
0.0
 30
0.0
  9
$UCSXDIR
 10
1.0
 20
0.0
 30
0.0
  9
$UCSYDIR
 10
0.0
 20
1.0
 30
0.0
  9
$UCSORTHOREF
  2

  9
$UCSORTHOVIEW
 70
     1
  9
$UCSORGTOP
 10
0.0
 20
0.0
 30
0.0
  9
$UCSORGBOTTOM
 10
0.0
 20
0.0
 30
0.0
  9
$UCSORGLEFT
 10
0.0
 20
0.0
 30
0.0
  9
$UCSORGRIGHT
 10
0.0
 20
0.0
 30
0.0
  9
$UCSORGFRONT
 10
0.0
 20
0.0
 30
0.0
  9
$UCSORGBACK
 10
0.0
 20
0.0
 30
0.0
  9
$PUCSBASE
  2

  9
$PUCSNAME
  2

  9
$PUCSORG
 10
0.0
 20
0.0
 30
0.0
  9
$PUCSXDIR
 10
1.0
 20
0.0
 30
0.0
  9
$PUCSYDIR
 10
0.0
 20
1.0
 30
0.0
  9
$PUCSORTHOREF
  2

  9
$PUCSORTHOVIEW
 70
     0
  9
$PUCSORGTOP
 10
0.0
 20
0.0
 30
0.0
  9
$PUCSORGBOTTOM
 10
0.0
 20
0.0
 30
0.0
  9
$PUCSORGLEFT
 10
0.0
 20
0.0
 30
0.0
  9
$PUCSORGRIGHT
 10
0.0
 20
0.0
 30
0.0
  9
$PUCSORGFRONT
 10
0.0
 20
0.0
 30
0.0
  9
$PUCSORGBACK
 10
0.0
 20
0.0
 30
0.0
  9
$USERI1
 70
     0
  9
$USERI2
 70
     0
  9
$USERI3
 70
     0
  9
$USERI4
 70
     0
  9
$USERI5
 70
     0
  9
$USERR1
 40
0.0
  9
$USERR2
 40
0.0
  9
$USERR3
 40
0.0
  9
$USERR4
 40
0.0
  9
$USERR5
 40
0.0
  9
$WORLDVIEW
 70
     1
  9
$SHADEDGE
 70
     3
  9
$SHADEDIF
 70
    70
  9
$TILEMODE
 70
     1
  9
$MAXACTVP
 70
    64
  9
$PINSBASE
 10
0.0
 20
0.0
 30
0.0
  9
$PLIMCHECK
 70
     0
  9
$PEXTMIN
 10
1.000000000000000E+20
 20
1.000000000000000E+20
 30
1.000000000000000E+20
  9
$PEXTMAX
 10
-1.000000000000000E+20
 20
-1.000000000000000E+20
 30
-1.000000000000000E+20
  9
$PLIMMIN
 10
0.0
 20
0.0
  9
$PLIMMAX
 10
12.0
 20
9.0
  9
$UNITMODE
 70
     0
  9
$VISRETAIN
 70
     1
  9
$PLINEGEN
 70
     0
  9
$PSLTSCALE
 70
     1
  9
$TREEDEPTH
 70
  3020
  9
$CMLSTYLE
  2
Standard
  9
$CMLJUST
 70
     0
  9
$CMLSCALE
 40
1.0
  9
$PROXYGRAPHICS
 70
     1
  9
$MEASUREMENT
 70
     0
  9
$CELWEIGHT
370
    -1
  9
$ENDCAPS
280
     0
  9
$JOINSTYLE
280
     0
  9
$LWDISPLAY
290
     0
  9
$INSUNITS
 70
     0
  9
$HYPERLINKBASE
  1

  9
$STYLESHEET
  1

  9
$XEDIT
290
     1
  9
$CEPSNTYPE
380
     0
  9
$PSTYLEMODE
290
     1
  9
$FINGERPRINTGUID
  2
{833E83C6-83A5-4068-B33A-B88FD6285998}
  9
$VERSIONGUID
  2
{F78A4731-EC52-48D0-BB3B-86E621124495}
  9
$EXTNAMES
290
     1
  9
$PSVPSCALE
 40
0.0
  9
$OLESTARTUP
290
     0
  0
ENDSEC
  0
SECTION
  2
CLASSES
  0
CLASS
  1
ACDBDICTIONARYWDFLT
  2
AcDbDictionaryWithDefault
  3
AutoCAD 2000
 90
        0
280
     0
281
     0
  0
CLASS
  1
ACDBPLACEHOLDER
  2
AcDbPlaceHolder
  3
AutoCAD 2000
 90
        0
280
     0
281
     0
  0
CLASS
  1
LAYOUT
  2
AcDbLayout
  3
AutoCAD 2000
 90
        0
280
     0
281
     0
  0
CLASS
  1
DICTIONARYVAR
  2
AcDbDictionaryVar
  3
AutoCAD 2000
 90
        0
280
     0
281
     0
  0
ENDSEC
  0
SECTION
  2
TABLES
  0
TABLE
  2
VPORT
  5
8
330
0
100
AcDbSymbolTable
 70
     2
  0
VPORT
  5
19C
330
8
100
AcDbSymbolTableRecord
100
AcDbViewportTableRecord
  2
*Active
 70
     0
 10
0.0
 20
0.0
 11
1.0
 21
1.0
 12
75.50000000000001
 22
81.49999999999998
 13
0.0
 23
0.0
 14
1.0
 24
1.0
 15
0.0
 25
0.0
 16
0.0
 26
0.0
 36
1.0
 17
0.0
 27
0.0
 37
0.0
 40
164.2506393861892
 41
2.078104993597951
 42
50.0
 43
0.0
 44
0.0
 50
0.0
 51
0.0
 71
     0
 72
   100
 73
     1
 74
     3
 75
     0
 76
     0
 77
     0
 78
     0
281
     0
 65
     1
110
0.0
120
0.0
130
0.0
111
1.0
121
0.0
131
0.0
112
0.0
122
1.0
132
0.0
 79
     1
146
0.0
  0
ENDTAB
  0
TABLE
  2
LTYPE
  5
5
330
0
100
AcDbSymbolTable
 70
     1
  0
LTYPE
  5
13
330
5
100
AcDbSymbolTableRecord
100
AcDbLinetypeTableRecord
  2
ByBlock
 70
     0
  3

 72
    65
 73
     0
 40
0.0
  0
LTYPE
  5
14
330
5
100
AcDbSymbolTableRecord
100
AcDbLinetypeTableRecord
  2
ByLayer
 70
     0
  3

 72
    65
 73
     0
 40
0.0
  0
LTYPE
  5
15
330
5
100
AcDbSymbolTableRecord
100
AcDbLinetypeTableRecord
  2
Continuous
 70
     0
  3
Solid line
 72
    65
 73
     0
 40
0.0
  0
ENDTAB
  0
TABLE
  2
LAYER
  5
2
330
0
100
AcDbSymbolTable
 70
     1
  0
LAYER
  5
10
330
2
100
AcDbSymbolTableRecord
100
AcDbLayerTableRecord
  2
0
 70
     0
 62
     7
  6
Continuous
370
    -3
390
F
  0
ENDTAB
  0
TABLE
  2
STYLE
  5
3
330
0
100
AcDbSymbolTable
 70
     1
  0
STYLE
  5
11
330
3
100
AcDbSymbolTableRecord
100
AcDbTextStyleTableRecord
  2
Standard
 70
     0
 40
0.0
 41
1.0
 50
0.0
 71
     0
 42
0.2
  3
txt
  4

  0
ENDTAB
  0
TABLE
  2
VIEW
  5
6
330
0
100
AcDbSymbolTable
 70
     0
  0
ENDTAB
  0
TABLE
  2
UCS
  5
7
330
0
100
AcDbSymbolTable
 70
     0
  0
ENDTAB
  0
TABLE
  2
APPID
  5
9
330
0
100
AcDbSymbolTable
 70
     1
  0
APPID
  5
12
330
9
100
AcDbSymbolTableRecord
100
AcDbRegAppTableRecord
  2
ACAD
 70
     0
  0
ENDTAB
  0
TABLE
  2
DIMSTYLE
  5
A
330
0
100
AcDbSymbolTable
 70
     1
100
AcDbDimStyleTable
 71
     0
  0
DIMSTYLE
105
190
330
A
100
AcDbSymbolTableRecord
100
AcDbDimStyleTableRecord
  2
Standard
 70
     0
340
11
  0
ENDTAB
  0
TABLE
  2
BLOCK_RECORD
  5
1
330
0
100
AcDbSymbolTable
 70
     0
  0
BLOCK_RECORD
  5
1E
330
1
100
AcDbSymbolTableRecord
100
AcDbBlockTableRecord
  2
*Model_Space
340
21
  0
BLOCK_RECORD
  5
1A
330
1
100
AcDbSymbolTableRecord
100
AcDbBlockTableRecord
  2
*Paper_Space
340
1D
  0
ENDTAB
  0
ENDSEC
  0
SECTION
  2
BLOCKS
  0
BLOCK
  5
1F
330
1E
100
AcDbEntity
  8
0
100
AcDbBlockBegin
  2
*Model_Space
 70
     0
 10
0.0
 20
0.0
 30
0.0
  3
*Model_Space
  1

  0
ENDBLK
  5
20
330
1E
100
AcDbEntity
  8
0
100
AcDbBlockEnd
  0
BLOCK
  5
1B
330
1A
100
AcDbEntity
 67
     1
  8
0
100
AcDbBlockBegin
  2
*Paper_Space
 70
     0
 10
0.0
 20
0.0
 30
0.0
  3
*Paper_Space
  1

  0
ENDBLK
  5
1C
330
1A
100
AcDbEntity
 67
     1
  8
0
100
AcDbBlockEnd
  0
ENDSEC
  0
SECTION
  2
ENTITIES
  0
LINE
  5
22
330
1E
100
AcDbEntity
  8
0
100
AcDbLine
 10
30.744218
 20
93.5585
 30
0.0
 11
38.64491799999999
 21
93.6598
 31
0.0
  0
LINE
  5
23
330
1E
100
AcDbEntity
  8
0
100
AcDbLine
 10
8.597478
 20
95.92440000000001
 30
0.0
 11
8.914377999999999
 21
95.62189999999999
 31
0.0
  0
LINE
  5
24
330
1E
100
AcDbEntity
  8
0
100
AcDbLine
 10
8.914377999999999
 20
95.62189999999999
 30
0.0
 11
16.295618
 21
95.84419999999999
 31
0.0
  0
LINE
  5
25
330
1E
100
AcDbEntity
  8
0
100
AcDbLine
 10
0.5716780000000022
 20
96.65919999999999
 30
0.0
 11
0.826368000000002
 21
96.37869999999999
 31
0.0
  0
LINE
  5
26
330
1E
100
AcDbEntity
  8
0
100
AcDbLine
 10
0.826368000000002
 20
96.37869999999999
 30
0.0
 11
8.576667999999999
 21
96.6122
 31
0.0
  0
LINE
  5
27
330
1E
100
AcDbEntity
  8
0
100
AcDbLine
 10
0.826368000000002
 20
96.37869999999999
 30
0.0
 11
8.576667999999999
 21
96.6122
 31
0.0
  0
LINE
  5
28
330
1E
100
AcDbEntity
  8
0
100
AcDbLine
 10
0.5585900000000022
 20
97.09100000000001
 30
0.0
 11
0.5716780000000022
 21
96.65919999999999
 31
0.0
  0
LINE
  5
29
330
1E
100
AcDbEntity
  8
0
100
AcDbLine
 10
8.563677999999999
 20
97.0439
 30
0.0
 11
8.576667999999999
 21
96.6122
 31
0.0
  0
LINE
  5
2A
330
1E
100
AcDbEntity
  8
0
100
AcDbLine
 10
0.8133680000000021
 20
96.8105
 30
0.0
 11
0.826368000000002
 21
96.37869999999999
 31
0.0
  0
LINE
  5
2B
330
1E
100
AcDbEntity
  8
0
100
AcDbLine
 10
8.583368
 20
96.39220000000001
 30
0.0
 11
8.597478
 21
95.92440000000001
 31
0.0
  0
LINE
  5
2C
330
1E
100
AcDbEntity
  8
0
100
AcDbLine
 10
8.900267999999998
 20
96.08969999999999
 30
0.0
 11
8.914377999999999
 21
95.62189999999999
 31
0.0
  0
LINE
  5
2D
330
1E
100
AcDbEntity
  8
0
100
AcDbLine
 10
16.57301799999999
 20
96.85290000000001
 30
0.0
 11
28.3932535695405
 21
97.1565483711865
 31
0.0
  0
LINE
  5
2E
330
1E
100
AcDbEntity
  8
0
100
AcDbLine
 10
16.57301799999999
 20
96.85290000000001
 30
0.0
 11
28.3932535695405
 21
97.1565483711865
 31
0.0
  0
LINE
  5
2F
330
1E
100
AcDbEntity
  8
0
100
AcDbLine
 10
16.57961799999999
 20
96.63299999999999
 30
0.0
 11
16.593818
 21
96.16520000000001
 31
0.0
  0
LINE
  5
30
330
1E
100
AcDbEntity
  8
0
100
AcDbLine
 10
16.295618
 20
95.84419999999999
 30
0.0
 11
16.593818
 21
96.16520000000001
 31
0.0
  0
LINE
  5
31
330
1E
100
AcDbEntity
  8
0
100
AcDbLine
 10
16.28151799999999
 20
96.31200000000001
 30
0.0
 11
16.295618
 21
95.84419999999999
 31
0.0
  0
LINE
  5
32
330
1E
100
AcDbEntity
  8
0
100
AcDbLine
 10
0.523941000000002
 20
98.24250000000001
 30
0.0
 11
0.5585900000000022
 21
97.09100000000001
 31
0.0
  0
LINE
  5
33
330
1E
100
AcDbEntity
  8
0
100
AcDbLine
 10
0.467607000000002
 20
100.1139999999999
 30
0.0
 11
0.523941000000002
 21
98.24250000000001
 31
0.0
  0
LINE
  5
34
330
1E
100
AcDbEntity
  8
0
100
AcDbLine
 10
0.393984000000002
 20
102.56
 30
0.0
 11
0.467607000000002
 21
100.1139999999999
 31
0.0
  0
LINE
  5
35
330
1E
100
AcDbEntity
  8
0
100
AcDbLine
 10
0.310077000000003
 20
105.3429999999999
 30
0.0
 11
0.393984000000002
 21
102.56
 31
0.0
  0
LINE
  5
36
330
1E
100
AcDbEntity
  8
0
100
AcDbLine
 10
0.219069000000003
 20
108.366
 30
0.0
 11
0.310077000000003
 21
105.3429999999999
 31
0.0
  0
LINE
  5
37
330
1E
100
AcDbEntity
  8
0
100
AcDbLine
 10
0.7786280000000021
 20
97.962
 30
0.0
 11
0.8133680000000021
 21
96.8105
 31
0.0
  0
LINE
  5
38
330
1E
100
AcDbEntity
  8
0
100
AcDbLine
 10
0.7208680000000021
 20
99.88120000000002
 30
0.0
 11
0.7786280000000021
 21
97.962
 31
0.0
  0
LINE
  5
39
330
1E
100
AcDbEntity
  8
0
100
AcDbLine
 10
0.6443980000000022
 20
102.424
 30
0.0
 11
0.7208680000000021
 21
99.88120000000002
 31
0.0
  0
LINE
  5
3A
330
1E
100
AcDbEntity
  8
0
100
AcDbLine
 10
0.557591000000003
 20
105.3029999999999
 30
0.0
 11
0.6443980000000022
 21
102.424
 31
0.0
  0
LINE
  5
3B
330
1E
100
AcDbEntity
  8
0
100
AcDbLine
 10
0.4651840000000031
 20
108.3729999999999
 30
0.0
 11
0.557591000000003
 21
105.3029999999999
 31
0.0
  0
LINE
  5
3C
330
1E
100
AcDbEntity
  8
0
100
AcDbLine
 10
0.128086000000003
 20
111.3879999999999
 30
0.0
 11
0.219069000000003
 21
108.366
 31
0.0
  0
LINE
  5
3D
330
1E
100
AcDbEntity
  8
0
100
AcDbLine
 10
0.372655000000003
 20
111.444
 30
0.0
 11
0.4651840000000031
 21
108.3729999999999
 31
0.0
  0
LINE
  5
3E
330
1E
100
AcDbEntity
  8
0
100
AcDbLine
 10
8.307888
 20
105.536
 30
0.0
 11
8.36887589704607
 21
103.5133740859849
 31
0.0
  0
LINE
  5
3F
330
1E
100
AcDbEntity
  8
0
100
AcDbLine
 10
8.546522074074379
 20
97.61403127571
 30
0.0
 11
8.563677999999999
 21
97.0439
 31
0.0
  0
LINE
  5
40
330
1E
100
AcDbEntity
  8
0
100
AcDbLine
 10
8.54652207407439
 20
97.61403127570993
 30
0.0
 11
8.583368
 21
96.39220000000001
 31
0.0
  0
LINE
  5
41
330
1E
100
AcDbEntity
  8
0
100
AcDbLine
 10
8.546522074074379
 20
97.61403127571
 30
0.0
 11
8.583368
 21
96.39220000000001
 31
0.0
  0
LINE
  5
42
330
1E
100
AcDbEntity
  8
0
100
AcDbLine
 10
8.545747999999999
 20
97.6397
 30
0.0
 11
8.583368
 21
96.39220000000001
 31
0.0
  0
LINE
  5
43
330
1E
100
AcDbEntity
  8
0
100
AcDbLine
 10
8.484717999999999
 20
99.6667
 30
0.0
 11
8.545747999999999
 21
97.6397
 31
0.0
  0
LINE
  5
44
330
1E
100
AcDbEntity
  8
0
100
AcDbLine
 10
8.404867999999998
 20
102.3179999999999
 30
0.0
 11
8.484717999999999
 21
99.6667
 31
0.0
  0
LINE
  5
45
330
1E
100
AcDbEntity
  8
0
100
AcDbLine
 10
8.314117999999998
 20
105.332
 30
0.0
 11
8.404867999999998
 21
102.3179999999999
 31
0.0
  0
LINE
  5
46
330
1E
100
AcDbEntity
  8
0
100
AcDbLine
 10
8.314117999999998
 20
105.332
 30
0.0
 11
8.368875897046059
 21
103.5133740859849
 31
0.0
  0
LINE
  5
47
330
1E
100
AcDbEntity
  8
0
100
AcDbLine
 10
8.314117999999998
 20
105.332
 30
0.0
 11
8.36887589704607
 21
103.5133740859849
 31
0.0
  0
LINE
  5
48
330
1E
100
AcDbEntity
  8
0
100
AcDbLine
 10
8.215488
 20
108.607
 30
0.0
 11
8.314117999999998
 21
105.332
 31
0.0
  0
LINE
  5
49
330
1E
100
AcDbEntity
  8
0
100
AcDbLine
 10
8.215488
 20
108.607
 30
0.0
 11
8.307888
 21
105.536
 31
0.0
  0
LINE
  5
4A
330
1E
100
AcDbEntity
  8
0
100
AcDbLine
 10
8.862627999999999
 20
97.337
 30
0.0
 11
8.900267999999998
 21
96.08969999999999
 31
0.0
  0
LINE
  5
4B
330
1E
100
AcDbEntity
  8
0
100
AcDbLine
 10
8.800107999999999
 20
99.4162
 30
0.0
 11
8.862627999999999
 21
97.337
 31
0.0
  0
LINE
  5
4C
330
1E
100
AcDbEntity
  8
0
100
AcDbLine
 10
8.717067999999999
 20
102.171
 30
0.0
 11
8.800107999999999
 21
99.4162
 31
0.0
  0
LINE
  5
4D
330
1E
100
AcDbEntity
  8
0
100
AcDbLine
 10
8.623207999999999
 20
105.289
 30
0.0
 11
8.717067999999999
 21
102.171
 31
0.0
  0
LINE
  5
4E
330
1E
100
AcDbEntity
  8
0
100
AcDbLine
 10
8.122958
 20
111.677
 30
0.0
 11
8.215488
 21
108.607
 31
0.0
  0
LINE
  5
4F
330
1E
100
AcDbEntity
  8
0
100
AcDbLine
 10
8.522978
 20
108.616
 30
0.0
 11
8.623207999999999
 21
105.289
 31
0.0
  0
LINE
  5
50
330
1E
100
AcDbEntity
  8
0
100
AcDbLine
 10
8.116827999999999
 20
111.881
 30
0.0
 11
8.215488
 21
108.607
 31
0.0
  0
LINE
  5
51
330
1E
100
AcDbEntity
  8
0
100
AcDbLine
 10
0.044249000000003
 20
114.171
 30
0.0
 11
0.128086000000003
 21
111.3879999999999
 31
0.0
  0
LINE
  5
52
330
1E
100
AcDbEntity
  8
0
100
AcDbLine
 10
0.285970000000003
 20
114.3229999999999
 30
0.0
 11
0.372655000000003
 21
111.444
 31
0.0
  0
LINE
  5
53
330
1E
100
AcDbEntity
  8
0
100
AcDbLine
 10
8.422817999999999
 20
111.9429999999999
 30
0.0
 11
8.522978
 21
108.616
 31
0.0
  0
LINE
  5
54
330
1E
100
AcDbEntity
  8
0
100
AcDbLine
 10
16.56011799999999
 20
97.28480000000001
 30
0.0
 11
16.57301799999999
 21
96.85290000000001
 31
0.0
  0
LINE
  5
55
330
1E
100
AcDbEntity
  8
0
100
AcDbLine
 10
16.51685648341139
 20
98.71992777254142
 30
0.0
 11
16.52541799999999
 21
98.43620000000001
 31
0.0
  0
LINE
  5
56
330
1E
100
AcDbEntity
  8
0
100
AcDbLine
 10
16.52541799999999
 20
98.43620000000001
 30
0.0
 11
16.56011799999999
 21
97.28480000000001
 31
0.0
  0
LINE
  5
57
330
1E
100
AcDbEntity
  8
0
100
AcDbLine
 10
16.51685648341139
 20
98.71992777254142
 30
0.0
 11
16.52541799999999
 21
98.43620000000001
 31
0.0
  0
LINE
  5
58
330
1E
100
AcDbEntity
  8
0
100
AcDbLine
 10
16.54211799999999
 20
97.8805
 30
0.0
 11
16.57961799999999
 21
96.63299999999999
 31
0.0
  0
LINE
  5
59
330
1E
100
AcDbEntity
  8
0
100
AcDbLine
 10
16.243918
 20
97.5594
 30
0.0
 11
16.28151799999999
 21
96.31200000000001
 31
0.0
  0
LINE
  5
5A
330
1E
100
AcDbEntity
  8
0
100
AcDbLine
 10
16.48111799999999
 20
99.9075
 30
0.0
 11
16.54211799999999
 21
97.8805
 31
0.0
  0
LINE
  5
5B
330
1E
100
AcDbEntity
  8
0
100
AcDbLine
 10
16.181318
 20
99.63840000000001
 30
0.0
 11
16.243918
 21
97.5594
 31
0.0
  0
LINE
  5
5C
330
1E
100
AcDbEntity
  8
0
100
AcDbLine
 10
16.39101799999999
 20
102.898
 30
0.0
 11
16.4396196623576
 21
101.2823917990139
 31
0.0
  0
LINE
  5
5D
330
1E
100
AcDbEntity
  8
0
100
AcDbLine
 10
16.39101799999999
 20
102.898
 30
0.0
 11
16.4396196623576
 21
101.2823917990129
 31
0.0
  0
LINE
  5
5E
330
1E
100
AcDbEntity
  8
0
100
AcDbLine
 10
16.401118
 20
102.5579999999999
 30
0.0
 11
16.48111799999999
 21
99.9075
 31
0.0
  0
LINE
  5
5F
330
1E
100
AcDbEntity
  8
0
100
AcDbLine
 10
16.09841799999999
 20
102.3929999999999
 30
0.0
 11
16.181318
 21
99.63840000000001
 31
0.0
  0
LINE
  5
60
330
1E
100
AcDbEntity
  8
0
100
AcDbLine
 10
16.30441799999999
 20
105.777
 30
0.0
 11
16.39101799999999
 21
102.898
 31
0.0
  0
LINE
  5
61
330
1E
100
AcDbEntity
  8
0
100
AcDbLine
 10
16.31051799999999
 20
105.573
 30
0.0
 11
16.401118
 21
102.5579999999999
 31
0.0
  0
LINE
  5
62
330
1E
100
AcDbEntity
  8
0
100
AcDbLine
 10
16.004518
 20
105.512
 30
0.0
 11
16.09841799999999
 21
102.3929999999999
 31
0.0
  0
LINE
  5
63
330
1E
100
AcDbEntity
  8
0
100
AcDbLine
 10
16.211818
 20
108.848
 30
0.0
 11
16.31051799999999
 21
105.573
 31
0.0
  0
LINE
  5
64
330
1E
100
AcDbEntity
  8
0
100
AcDbLine
 10
16.211818
 20
108.848
 30
0.0
 11
16.30441799999999
 21
105.777
 31
0.0
  0
LINE
  5
65
330
1E
100
AcDbEntity
  8
0
100
AcDbLine
 10
15.90441799999999
 20
108.8379999999999
 30
0.0
 11
16.004518
 21
105.512
 31
0.0
  0
LINE
  5
66
330
1E
100
AcDbEntity
  8
0
100
AcDbLine
 10
16.11321799999999
 20
112.122
 30
0.0
 11
16.211818
 21
108.848
 31
0.0
  0
LINE
  5
67
330
1E
100
AcDbEntity
  8
0
100
AcDbLine
 10
15.804118
 20
112.165
 30
0.0
 11
15.90441799999999
 21
108.8379999999999
 31
0.0
  0
LINE
  5
68
330
1E
100
AcDbEntity
  8
0
100
AcDbLine
 10
28.3932535695405
 20
97.1565483711865
 30
0.0
 11
28.40381799999999
 21
95.07319999999999
 31
0.0
  0
LINE
  5
70
330
1E
100
AcDbEntity
  8
0
100
AcDbLine
 10
29.073918
 20
94.0933
 30
0.0
 11
30.744218
 21
93.5585
 31
0.0
  0
LINE
  5
72
330
1E
100
AcDbEntity
  8
0
100
AcDbLine
 10
28.40381799999999
 20
95.07319999999999
 30
0.0
 11
29.073918
 21
94.0933
 31
0.0
  0
LINE
  5
73
330
1E
100
AcDbEntity
  8
0
100
AcDbLine
 10
38.64491799999999
 20
93.6598
 30
0.0
 11
44.50731799999999
 21
92.78499999999999
 31
0.0
  0
LINE
  5
76
330
1E
100
AcDbEntity
  8
0
100
AcDbLine
 10
44.50731799999999
 20
92.78499999999999
 30
0.0
 11
51.378018
 21
90.8483
 31
0.0
  0
LINE
  5
77
330
1E
100
AcDbEntity
  8
0
100
AcDbLine
 10
51.378018
 20
90.8483
 30
0.0
 11
61.307418
 21
87.6195
 31
0.0
  0
LINE
  5
7B
330
1E
100
AcDbEntity
  8
0
100
AcDbLine
 10
61.307418
 20
87.6195
 30
0.0
 11
71.749718
 21
83.5157
 31
0.0
  0
LINE
  5
7C
330
1E
100
AcDbEntity
  8
0
100
AcDbLine
 10
71.749718
 20
83.5157
 30
0.0
 11
78.923918
 21
81.4588
 31
0.0
  0
LINE
  5
7F
330
1E
100
AcDbEntity
  8
0
100
AcDbLine
 10
78.923918
 20
81.4588
 30
0.0
 11
87.62851799999999
 21
79.455
 31
0.0
  0
LINE
  5
80
330
1E
100
AcDbEntity
  8
0
100
AcDbLine
 10
8.036367999999999
 20
114.5559999999999
 30
0.0
 11
8.122958
 21
111.677
 31
0.0
  0
LINE
  5
81
330
1E
100
AcDbEntity
  8
0
100
AcDbLine
 10
8.026167999999998
 20
114.8959999999999
 30
0.0
 11
8.116827999999999
 21
111.881
 31
0.0
  0
LINE
  5
82
330
1E
100
AcDbEntity
  8
0
100
AcDbLine
 10
8.328958
 20
115.061
 30
0.0
 11
8.422817999999999
 21
111.9429999999999
 31
0.0
  0
LINE
  5
83
330
1E
100
AcDbEntity
  8
0
100
AcDbLine
 10
-0.0294439999999969
 20
116.6179999999999
 30
0.0
 11
0.044249000000003
 21
114.171
 31
0.0
  0
LINE
  5
84
330
1E
100
AcDbEntity
  8
0
100
AcDbLine
 10
0.209403000000003
 20
116.8649999999999
 30
0.0
 11
0.285970000000003
 21
114.3229999999999
 31
0.0
  0
LINE
  5
85
330
1E
100
AcDbEntity
  8
0
100
AcDbLine
 10
8.00082993441012
 20
115.736270351248
 30
0.0
 11
8.036367999999999
 21
114.5559999999999
 31
0.0
  0
LINE
  5
86
330
1E
100
AcDbEntity
  8
0
100
AcDbLine
 10
8.00082993441012
 20
115.736270351248
 30
0.0
 11
8.026167999999998
 21
114.8959999999999
 31
0.0
  0
LINE
  5
87
330
1E
100
AcDbEntity
  8
0
100
AcDbLine
 10
7.946227999999999
 20
117.547
 30
0.0
 11
8.026167999999998
 21
114.8959999999999
 31
0.0
  0
LINE
  5
88
330
1E
100
AcDbEntity
  8
0
100
AcDbLine
 10
8.245988
 20
117.816
 30
0.0
 11
8.328958
 21
115.061
 31
0.0
  0
LINE
  5
89
330
1E
100
AcDbEntity
  8
0
100
AcDbLine
 10
-0.0857779999999967
 20
118.489
 30
0.0
 11
-0.0294439999999969
 21
116.6179999999999
 31
0.0
  0
LINE
  5
8A
330
1E
100
AcDbEntity
  8
0
100
AcDbLine
 10
0.151548000000003
 20
118.785
 30
0.0
 11
0.209403000000003
 21
116.8649999999999
 31
0.0
  0
LINE
  5
8B
330
1E
100
AcDbEntity
  8
0
100
AcDbLine
 10
-0.133417999999997
 20
120.0729999999999
 30
0.0
 11
-0.120426999999997
 21
119.6409999999999
 31
0.0
  0
LINE
  5
8C
330
1E
100
AcDbEntity
  8
0
100
AcDbLine
 10
-0.133417999999997
 20
120.0729999999999
 30
0.0
 11
0.103908000000003
 21
120.368
 31
0.0
  0
LINE
  5
8D
330
1E
100
AcDbEntity
  8
0
100
AcDbLine
 10
-0.120426999999997
 20
119.6409999999999
 30
0.0
 11
-0.0857779999999967
 21
118.489
 31
0.0
  0
LINE
  5
8E
330
1E
100
AcDbEntity
  8
0
100
AcDbLine
 10
0.116873000000003
 20
119.936
 30
0.0
 11
0.151548000000003
 21
118.785
 31
0.0
  0
LINE
  5
8F
330
1E
100
AcDbEntity
  8
0
100
AcDbLine
 10
7.885188
 20
119.574
 30
0.0
 11
7.946227999999999
 21
117.547
 31
0.0
  0
LINE
  5
90
330
1E
100
AcDbEntity
  8
0
100
AcDbLine
 10
8.183377999999999
 20
119.8949999999999
 30
0.0
 11
8.245988
 21
117.816
 31
0.0
  0
LINE
  5
91
330
1E
100
AcDbEntity
  8
0
100
AcDbLine
 10
0.103908000000003
 20
120.368
 30
0.0
 11
0.116873000000003
 21
119.936
 31
0.0
  0
LINE
  5
92
330
1E
100
AcDbEntity
  8
0
100
AcDbLine
 10
0.103908000000003
 20
120.368
 30
0.0
 11
7.854207999999999
 21
120.601
 31
0.0
  0
LINE
  5
93
330
1E
100
AcDbEntity
  8
0
100
AcDbLine
 10
7.854207999999999
 20
120.601
 30
0.0
 11
7.867267999999999
 21
120.1689999999999
 31
0.0
  0
LINE
  5
94
330
1E
100
AcDbEntity
  8
0
100
AcDbLine
 10
7.867267999999999
 20
120.1689999999999
 30
0.0
 11
7.87979962144166
 21
119.753086035774
 31
0.0
  0
LINE
  5
95
330
1E
100
AcDbEntity
  8
0
100
AcDbLine
 10
7.833558
 20
121.289
 30
0.0
 11
8.131747999999999
 21
121.6099999999999
 31
0.0
  0
LINE
  5
96
330
1E
100
AcDbEntity
  8
0
100
AcDbLine
 10
7.833558
 20
121.289
 30
0.0
 11
7.847667999999999
 21
120.821
 31
0.0
  0
LINE
  5
97
330
1E
100
AcDbEntity
  8
0
100
AcDbLine
 10
7.847667999999999
 20
120.821
 30
0.0
 11
7.885188
 21
119.574
 31
0.0
  0
LINE
  5
98
330
1E
100
AcDbEntity
  8
0
100
AcDbLine
 10
7.847667999999999
 20
120.821
 30
0.0
 11
7.87979962144166
 21
119.753086035774
 31
0.0
  0
LINE
  5
99
330
1E
100
AcDbEntity
  8
0
100
AcDbLine
 10
8.145728
 20
121.142
 30
0.0
 11
8.183377999999999
 21
119.8949999999999
 31
0.0
  0
LINE
  5
9A
330
1E
100
AcDbEntity
  8
0
100
AcDbLine
 10
8.131747999999999
 20
121.6099999999999
 30
0.0
 11
8.145728
 21
121.142
 31
0.0
  0
LINE
  5
9B
330
1E
100
AcDbEntity
  8
0
100
AcDbLine
 10
8.131747999999999
 20
121.6099999999999
 30
0.0
 11
15.513018
 21
121.832
 31
0.0
  0
LINE
  5
9C
330
1E
100
AcDbEntity
  8
0
100
AcDbLine
 10
15.829918
 20
121.53
 30
0.0
 11
15.844018
 21
121.062
 31
0.0
  0
LINE
  5
9D
330
1E
100
AcDbEntity
  8
0
100
AcDbLine
 10
15.52711799999999
 20
121.3649999999999
 30
0.0
 11
15.56471799999999
 21
120.117
 31
0.0
  0
LINE
  5
9E
330
1E
100
AcDbEntity
  8
0
100
AcDbLine
 10
15.85071799999999
 20
120.842
 30
0.0
 11
15.863718
 21
120.4099999999999
 31
0.0
  0
LINE
  5
9F
330
1E
100
AcDbEntity
  8
0
100
AcDbLine
 10
15.85071799999999
 20
120.842
 30
0.0
 11
28.2757748109503
 21
121.161020973922
 31
0.0
  0
LINE
  5
A0
330
1E
100
AcDbEntity
  8
0
100
AcDbLine
 10
15.863718
 20
120.4099999999999
 30
0.0
 11
15.8770682283101
 21
119.965892694078
 31
0.0
  0
LINE
  5
A1
330
1E
100
AcDbEntity
  8
0
100
AcDbLine
 10
15.863718
 20
120.4099999999999
 30
0.0
 11
15.8770682283101
 21
119.965892694078
 31
0.0
  0
LINE
  5
A2
330
1E
100
AcDbEntity
  8
0
100
AcDbLine
 10
15.844018
 20
121.062
 30
0.0
 11
15.88161799999999
 21
119.815
 31
0.0
  0
LINE
  5
A3
330
1E
100
AcDbEntity
  8
0
100
AcDbLine
 10
15.56471799999999
 20
120.117
 30
0.0
 11
15.627218
 21
118.0379999999999
 31
0.0
  0
LINE
  5
A4
330
1E
100
AcDbEntity
  8
0
100
AcDbLine
 10
15.915868313676
 20
118.67631744041
 30
0.0
 11
15.956118
 21
117.3399999999999
 31
0.0
  0
LINE
  5
A5
330
1E
100
AcDbEntity
  8
0
100
AcDbLine
 10
15.915868313676
 20
118.67631744041
 30
0.0
 11
15.956118
 21
117.3399999999999
 31
0.0
  0
LINE
  5
A6
330
1E
100
AcDbEntity
  8
0
100
AcDbLine
 10
15.88161799999999
 20
119.815
 30
0.0
 11
15.94261799999999
 21
117.787
 31
0.0
  0
LINE
  5
A7
330
1E
100
AcDbEntity
  8
0
100
AcDbLine
 10
15.627218
 20
118.0379999999999
 30
0.0
 11
15.710218
 21
115.2829999999999
 31
0.0
  0
LINE
  5
A8
330
1E
100
AcDbEntity
  8
0
100
AcDbLine
 10
15.956118
 20
117.3399999999999
 30
0.0
 11
15.96603128413319
 21
117.010464293455
 31
0.0
  0
LINE
  5
A9
330
1E
100
AcDbEntity
  8
0
100
AcDbLine
 10
15.956118
 20
117.3399999999999
 30
0.0
 11
15.96603128413319
 21
117.010464293455
 31
0.0
  0
LINE
  5
AA
330
1E
100
AcDbEntity
  8
0
100
AcDbLine
 10
15.94261799999999
 20
117.787
 30
0.0
 11
16.02251799999999
 21
115.137
 31
0.0
  0
LINE
  5
AB
330
1E
100
AcDbEntity
  8
0
100
AcDbLine
 10
15.710218
 20
115.2829999999999
 30
0.0
 11
15.804118
 21
112.165
 31
0.0
  0
LINE
  5
AE
330
1E
100
AcDbEntity
  8
0
100
AcDbLine
 10
16.02251799999999
 20
115.137
 30
0.0
 11
16.11321799999999
 21
112.122
 31
0.0
  0
LINE
  5
AF
330
1E
100
AcDbEntity
  8
0
100
AcDbLine
 10
15.513018
 20
121.832
 30
0.0
 11
15.52711799999999
 21
121.3649999999999
 31
0.0
  0
LINE
  5
B0
330
1E
100
AcDbEntity
  8
0
100
AcDbLine
 10
15.513018
 20
121.832
 30
0.0
 11
15.829918
 21
121.53
 31
0.0
  0
LINE
  5
B9
330
1E
100
AcDbEntity
  8
0
100
AcDbLine
 10
28.255318
 20
124.3579999999999
 30
0.0
 11
28.887618
 21
125.363
 31
0.0
  0
LINE
  5
BA
330
1E
100
AcDbEntity
  8
0
100
AcDbLine
 10
28.255318
 20
124.3579999999999
 30
0.0
 11
28.27153008168739
 21
121.160911987888
 31
0.0
  0
LINE
  5
BC
330
1E
100
AcDbEntity
  8
0
100
AcDbLine
 10
26.697418
 20
157.692
 30
0.0
 11
27.437518
 21
156.859
 31
0.0
  0
LINE
  5
BD
330
1E
100
AcDbEntity
  8
0
100
AcDbLine
 10
26.697418
 20
157.692
 30
0.0
 11
26.720018
 21
161.9169999999999
 31
0.0
  0
LINE
  5
CE
330
1E
100
AcDbEntity
  8
0
100
AcDbLine
 10
27.437518
 20
156.859
 30
0.0
 11
28.801718
 21
156.601
 31
0.0
  0
LINE
  5
D0
330
1E
100
AcDbEntity
  8
0
100
AcDbLine
 10
27.466918
 20
162.747
 30
0.0
 11
28.833218
 21
163.0
 31
0.0
  0
LINE
  5
D2
330
1E
100
AcDbEntity
  8
0
100
AcDbLine
 10
26.720018
 20
161.9169999999999
 30
0.0
 11
27.466918
 21
162.747
 31
0.0
  0
LINE
  5
D4
330
1E
100
AcDbEntity
  8
0
100
AcDbLine
 10
28.801718
 20
156.601
 30
0.0
 11
33.21081799999999
 21
156.0679999999999
 31
0.0
  0
LINE
  5
D7
330
1E
100
AcDbEntity
  8
0
100
AcDbLine
 10
28.833218
 20
163.0
 30
0.0
 11
35.32661799999999
 21
162.483
 31
0.0
  0
LINE
  5
D8
330
1E
100
AcDbEntity
  8
0
100
AcDbLine
 10
28.887618
 20
125.363
 30
0.0
 11
30.53631799999999
 21
125.961
 31
0.0
  0
LINE
  5
DB
330
1E
100
AcDbEntity
  8
0
100
AcDbLine
 10
33.21081799999999
 20
156.0679999999999
 30
0.0
 11
39.847718
 21
155.181
 31
0.0
  0
LINE
  5
DE
330
1E
100
AcDbEntity
  8
0
100
AcDbLine
 10
39.847718
 20
155.181
 30
0.0
 11
47.585318
 21
153.3
 31
0.0
  0
LINE
  5
E0
330
1E
100
AcDbEntity
  8
0
100
AcDbLine
 10
35.32661799999999
 20
162.483
 30
0.0
 11
41.828718
 21
161.677
 31
0.0
  0
LINE
  5
E1
330
1E
100
AcDbEntity
  8
0
100
AcDbLine
 10
41.828718
 20
161.677
 30
0.0
 11
50.667918
 21
159.755
 31
0.0
  0
LINE
  5
E2
330
1E
100
AcDbEntity
  8
0
100
AcDbLine
 10
30.53631799999999
 20
125.961
 30
0.0
 11
41.363718
 21
125.171
 31
0.0
  0
LINE
  5
E3
330
1E
100
AcDbEntity
  8
0
100
AcDbLine
 10
41.363718
 20
125.171
 30
0.0
 11
47.141418
 21
123.981
 31
0.0
  0
LINE
  5
E5
330
1E
100
AcDbEntity
  8
0
100
AcDbLine
 10
47.585318
 20
153.3
 30
0.0
 11
58.629718
 21
150.263
 31
0.0
  0
LINE
  5
E6
330
1E
100
AcDbEntity
  8
0
100
AcDbLine
 10
58.629718
 20
150.263
 30
0.0
 11
70.269518
 21
147.167
 31
0.0
  0
LINE
  5
EA
330
1E
100
AcDbEntity
  8
0
100
AcDbLine
 10
50.667918
 20
159.755
 30
0.0
 11
62.00881800000001
 21
156.901
 31
0.0
  0
LINE
  5
EB
330
1E
100
AcDbEntity
  8
0
100
AcDbLine
 10
62.00881800000001
 20
156.901
 30
0.0
 11
71.733218
 21
154.521
 31
0.0
  0
LINE
  5
EC
330
1E
100
AcDbEntity
  8
0
100
AcDbLine
 10
47.141418
 20
123.981
 30
0.0
 11
54.964218
 21
121.638
 31
0.0
  0
LINE
  5
ED
330
1E
100
AcDbEntity
  8
0
100
AcDbLine
 10
54.964218
 20
121.638
 30
0.0
 11
65.092218
 21
117.8109999999999
 31
0.0
  0
LINE
  5
EE
330
1E
100
AcDbEntity
  8
0
100
AcDbLine
 10
70.269518
 20
147.167
 30
0.0
 11
78.25001800000001
 21
145.394
 31
0.0
  0
LINE
  5
F2
330
1E
100
AcDbEntity
  8
0
100
AcDbLine
 10
78.25001800000001
 20
145.394
 30
0.0
 11
86.697418
 21
143.6999999999999
 31
0.0
  0
LINE
  5
F4
330
1E
100
AcDbEntity
  8
0
100
AcDbLine
 10
71.733218
 20
154.521
 30
0.0
 11
81.756118
 21
152.388
 31
0.0
  0
LINE
  5
F5
330
1E
100
AcDbEntity
  8
0
100
AcDbLine
 10
81.756118
 20
152.388
 30
0.0
 11
86.697418
 21
151.5589999999999
 31
0.0
  0
LINE
  5
F6
330
1E
100
AcDbEntity
  8
0
100
AcDbLine
 10
65.092218
 20
117.8109999999999
 30
0.0
 11
73.551518
 21
114.407
 31
0.0
  0
LINE
  5
F7
330
1E
100
AcDbEntity
  8
0
100
AcDbLine
 10
73.551518
 20
114.407
 30
0.0
 11
82.32041800000001
 21
111.229
 31
0.0
  0
LINE
  5
FA
330
1E
100
AcDbEntity
  8
0
100
AcDbLine
 10
85.697418
 20
1.999999999999989
 30
0.0
 11
87.79741800000001
 21
6.99999999999999
 31
0.0
  0
LINE
  5
FB
330
1E
100
AcDbEntity
  8
0
100
AcDbLine
 10
85.697418
 20
1.999999999999989
 30
0.0
 11
85.697418
 21
-0.0000000000000054
 31
0.0
  0
LINE
  5
FC
330
1E
100
AcDbEntity
  8
0
100
AcDbLine
 10
82.32041800000001
 20
111.229
 30
0.0
 11
89.36431800000001
 21
109.3729999999999
 31
0.0
  0
LINE
  5
FD
330
1E
100
AcDbEntity
  8
0
100
AcDbLine
 10
85.697418
 20
-0.0000000000000053
 30
0.0
 11
86.097418
 21
-0.0000000000000053
 31
0.0
  0
LINE
  5
FE
330
1E
100
AcDbEntity
  8
0
100
AcDbLine
 10
85.697418
 20
-0.0000000000000053
 30
0.0
 11
85.697418
 21
1.999999999999989
 31
0.0
  0
LINE
  5
FF
330
1E
100
AcDbEntity
  8
0
100
AcDbLine
 10
137.2974179999999
 20
-0.0000000000000084
 30
0.0
 11
137.6974179999999
 21
-0.0000000000000084
 31
0.0
  0
LINE
  5
101
330
1E
100
AcDbEntity
  8
0
100
AcDbLine
 10
136.197418
 20
-0.0000000000000084
 30
0.0
 11
137.2974179999999
 21
-0.0000000000000084
 31
0.0
  0
LINE
  5
102
330
1E
100
AcDbEntity
  8
0
100
AcDbLine
 10
137.6974179999999
 20
-0.0000000000000084
 30
0.0
 11
137.6974179999999
 21
1.999999999999989
 31
0.0
  0
LINE
  5
104
330
1E
100
AcDbEntity
  8
0
100
AcDbLine
 10
87.79741800000001
 20
6.99999999999999
 30
0.0
 11
89.69741799999999
 21
12.0
 31
0.0
  0
LINE
  5
107
330
1E
100
AcDbEntity
  8
0
100
AcDbLine
 10
86.697418
 20
143.6999999999999
 30
0.0
 11
87.883118
 21
143.43
 31
0.0
  0
LINE
  5
10C
330
1E
100
AcDbEntity
  8
0
100
AcDbLine
 10
87.883118
 20
143.43
 30
0.0
 11
90.881818
 21
142.0399999999999
 31
0.0
  0
LINE
  5
10D
330
1E
100
AcDbEntity
  8
0
100
AcDbLine
 10
86.697418
 20
151.5589999999999
 30
0.0
 11
89.431618
 21
151.0399999999999
 31
0.0
  0
LINE
  5
10E
330
1E
100
AcDbEntity
  8
0
100
AcDbLine
 10
87.62851799999999
 20
79.455
 30
0.0
 11
90.69081800000001
 21
77.7312
 31
0.0
  0
LINE
  5
113
330
1E
100
AcDbEntity
  8
0
100
AcDbLine
 10
93.09741800000001
 20
27.0
 30
0.0
 11
93.69741799999999
 21
32.0
 31
0.0
  0
LINE
  5
114
330
1E
100
AcDbEntity
  8
0
100
AcDbLine
 10
92.29741800000001
 20
22.0
 30
0.0
 11
93.09741800000001
 21
27.0
 31
0.0
  0
LINE
  5
115
330
1E
100
AcDbEntity
  8
0
100
AcDbLine
 10
91.19741799999999
 20
17.0
 30
0.0
 11
92.29741800000001
 21
22.0
 31
0.0
  0
LINE
  5
116
330
1E
100
AcDbEntity
  8
0
100
AcDbLine
 10
89.69741799999999
 20
12.0
 30
0.0
 11
91.19741799999999
 21
17.0
 31
0.0
  0
LINE
  5
117
330
1E
100
AcDbEntity
  8
0
100
AcDbLine
 10
129.697418
 20
32.0
 30
0.0
 11
129.697418
 21
106.4999999999999
 31
0.0
  0
LINE
  5
118
330
1E
100
AcDbEntity
  8
0
100
AcDbLine
 10
129.697418
 20
32.0
 30
0.0
 11
130.2974179999999
 21
27.0
 31
0.0
  0
LINE
  5
11A
330
1E
100
AcDbEntity
  8
0
100
AcDbLine
 10
93.69741799999999
 20
32.0
 30
0.0
 11
93.69741799999999
 21
72.0
 31
0.0
  0
LINE
  5
11F
330
1E
100
AcDbEntity
  8
0
100
AcDbLine
 10
130.2974179999999
 20
27.0
 30
0.0
 11
131.097418
 21
22.0
 31
0.0
  0
LINE
  5
120
330
1E
100
AcDbEntity
  8
0
100
AcDbLine
 10
131.097418
 20
22.0
 30
0.0
 11
132.1974179999999
 21
17.0
 31
0.0
  0
LINE
  5
121
330
1E
100
AcDbEntity
  8
0
100
AcDbLine
 10
129.697418
 20
32.5579461538461
 30
0.0
 11
131.733418
 21
44.3041
 31
0.0
  0
LINE
  5
122
330
1E
100
AcDbEntity
  8
0
100
AcDbLine
 10
129.697418
 20
32.5579461538461
 30
0.0
 11
131.733418
 21
44.3041
 31
0.0
  0
LINE
  5
128
330
1E
100
AcDbEntity
  8
0
100
AcDbLine
 10
132.1974179999999
 20
17.0
 30
0.0
 11
133.697418
 21
12.0
 31
0.0
  0
LINE
  5
129
330
1E
100
AcDbEntity
  8
0
100
AcDbLine
 10
133.697418
 20
12.0
 30
0.0
 11
135.597418
 21
6.99999999999999
 31
0.0
  0
LINE
  5
12A
330
1E
100
AcDbEntity
  8
0
100
AcDbLine
 10
135.597418
 20
6.99999999999999
 30
0.0
 11
137.6974179999999
 21
1.999999999999989
 31
0.0
  0
LINE
  5
12B
330
1E
100
AcDbEntity
  8
0
100
AcDbLine
 10
135.597418
 20
6.99999999999999
 30
0.0
 11
137.6974179999999
 21
1.999999999999989
 31
0.0
  0
LINE
  5
12C
330
1E
100
AcDbEntity
  8
0
100
AcDbLine
 10
137.6974179999999
 20
1.999999999999989
 30
0.0
 11
137.6974179999999
 21
-0.0000000000000085
 31
0.0
  0
LINE
  5
12D
330
1E
100
AcDbEntity
  8
0
100
AcDbLine
 10
131.733418
 20
44.3041
 30
0.0
 11
132.133418
 21
45.70409999999999
 31
0.0
  0
LINE
  5
12E
330
1E
100
AcDbEntity
  8
0
100
AcDbLine
 10
132.133418
 20
45.70409999999999
 30
0.0
 11
133.333418
 21
47.6041
 31
0.0
  0
LINE
  5
130
330
1E
100
AcDbEntity
  8
0
100
AcDbLine
 10
93.69741799999999
 20
72.0
 30
0.0
 11
93.69741799999999
 21
32.0
 31
0.0
  0
LINE
  5
131
330
1E
100
AcDbEntity
  8
0
100
AcDbLine
 10
133.333418
 20
47.6041
 30
0.0
 11
135.2334179999999
 21
48.9041
 31
0.0
  0
LINE
  5
132
330
1E
100
AcDbEntity
  8
0
100
AcDbLine
 10
151.133418
 20
45.0041
 30
0.0
 11
151.133418
 21
46.1041
 31
0.0
  0
LINE
  5
133
330
1E
100
AcDbEntity
  8
0
100
AcDbLine
 10
151.133418
 20
45.0041
 30
0.0
 11
151.133418
 21
44.3041
 31
0.0
  0
LINE
  5
134
330
1E
100
AcDbEntity
  8
0
100
AcDbLine
 10
151.133418
 20
46.1041
 30
0.0
 11
151.133418
 21
47.5041
 31
0.0
  0
LINE
  5
135
330
1E
100
AcDbEntity
  8
0
100
AcDbLine
 10
151.133418
 20
46.1041
 30
0.0
 11
151.133418
 21
45.0041
 31
0.0
  0
LINE
  5
136
330
1E
100
AcDbEntity
  8
0
100
AcDbLine
 10
151.133418
 20
47.5041
 30
0.0
 11
151.133418
 21
48.6041
 31
0.0
  0
LINE
  5
137
330
1E
100
AcDbEntity
  8
0
100
AcDbLine
 10
151.133418
 20
47.5041
 30
0.0
 11
151.133418
 21
46.1041
 31
0.0
  0
LINE
  5
138
330
1E
100
AcDbEntity
  8
0
100
AcDbLine
 10
151.133418
 20
49.3041
 30
0.0
 11
151.133418
 21
48.6041
 31
0.0
  0
LINE
  5
139
330
1E
100
AcDbEntity
  8
0
100
AcDbLine
 10
151.133418
 20
48.6041
 30
0.0
 11
151.133418
 21
49.3041
 31
0.0
  0
LINE
  5
13A
330
1E
100
AcDbEntity
  8
0
100
AcDbLine
 10
151.133418
 20
48.6041
 30
0.0
 11
151.133418
 21
47.5041
 31
0.0
  0
LINE
  5
13B
330
1E
100
AcDbEntity
  8
0
100
AcDbLine
 10
135.2334179999999
 20
48.9041
 30
0.0
 11
137.133418
 21
49.3041
 31
0.0
  0
LINE
  5
13C
330
1E
100
AcDbEntity
  8
0
100
AcDbLine
 10
137.133418
 20
44.3041
 30
0.0
 11
151.133418
 21
44.3041
 31
0.0
  0
LINE
  5
13D
330
1E
100
AcDbEntity
  8
0
100
AcDbLine
 10
151.133418
 20
44.3041
 30
0.0
 11
151.133418
 21
45.0041
 31
0.0
  0
LINE
  5
140
330
1E
100
AcDbEntity
  8
0
100
AcDbLine
 10
89.431618
 20
151.0399999999999
 30
0.0
 11
96.68271800000001
 21
150.208
 31
0.0
  0
LINE
  5
141
330
1E
100
AcDbEntity
  8
0
100
AcDbLine
 10
90.881818
 20
142.0399999999999
 30
0.0
 11
92.88251800000001
 21
139.8039999999999
 31
0.0
  0
LINE
  5
142
330
1E
100
AcDbEntity
  8
0
100
AcDbLine
 10
92.88251800000001
 20
139.8039999999999
 30
0.0
 11
93.68011800000001
 21
137.612
 31
0.0
  0
LINE
  5
143
330
1E
100
AcDbEntity
  8
0
100
AcDbLine
 10
90.69081800000001
 20
77.7312
 30
0.0
 11
92.79621800000001
 21
74.85809999999999
 31
0.0
  0
LINE
  5
144
330
1E
100
AcDbEntity
  8
0
100
AcDbLine
 10
95.697418
 20
108.1806851887129
 30
0.0
 11
95.697418
 21
110.0
 31
0.0
  0
LINE
  5
14A
330
1E
100
AcDbEntity
  8
0
100
AcDbLine
 10
129.697418
 20
106.4999999999999
 30
0.0
 11
129.697418
 21
32.0
 31
0.0
  0
LINE
  5
14B
330
1E
100
AcDbEntity
  8
0
100
AcDbLine
 10
129.2974179999999
 20
107.6
 30
0.0
 11
129.697418
 21
106.4999999999999
 31
0.0
  0
LINE
  5
14C
330
1E
100
AcDbEntity
  8
0
100
AcDbLine
 10
128.1974179999999
 20
108.0
 30
0.0
 11
129.2974179999999
 21
107.6
 31
0.0
  0
LINE
  5
14D
330
1E
100
AcDbEntity
  8
0
100
AcDbLine
 10
96.697418
 20
108.0
 30
0.0
 11
128.1974179999999
 21
108.0
 31
0.0
  0
LINE
  5
14E
330
1E
100
AcDbEntity
  8
0
100
AcDbLine
 10
127.697418
 20
110.0
 30
0.0
 11
127.697418
 21
108.0
 31
0.0
  0
LINE
  5
14F
330
1E
100
AcDbEntity
  8
0
100
AcDbLine
 10
111.6974179999999
 20
110.0
 30
0.0
 11
127.188418
 21
114.426
 31
0.0
  0
LINE
  5
150
330
1E
100
AcDbEntity
  8
0
100
AcDbLine
 10
127.697418
 20
108.0
 30
0.0
 11
127.697418
 21
110.0
 31
0.0
  0
LINE
  5
151
330
1E
100
AcDbEntity
  8
0
100
AcDbLine
 10
95.697418
 20
110.0
 30
0.0
 11
95.697418
 21
108.1806851887129
 31
0.0
  0
LINE
  5
152
330
1E
100
AcDbEntity
  8
0
100
AcDbLine
 10
95.18121800000001
 20
110.0
 30
0.0
 11
95.697418
 21
110.0
 31
0.0
  0
LINE
  5
153
330
1E
100
AcDbEntity
  8
0
100
AcDbLine
 10
95.18121800000001
 20
110.0
 30
0.0
 11
111.6974179999999
 21
110.0
 31
0.0
  0
LINE
  5
154
330
1E
100
AcDbEntity
  8
0
100
AcDbLine
 10
93.681318
 20
110.0
 30
0.0
 11
94.08131800000001
 21
110.0
 31
0.0
  0
LINE
  5
155
330
1E
100
AcDbEntity
  8
0
100
AcDbLine
 10
93.453818
 20
121.8579999999999
 30
0.0
 11
93.453818
 21
121.9479999999999
 31
0.0
  0
LINE
  5
156
330
1E
100
AcDbEntity
  8
0
100
AcDbLine
 10
93.453818
 20
121.8579999999999
 30
0.0
 11
93.68080265884399
 21
121.8579999999999
 31
0.0
  0
LINE
  5
157
330
1E
100
AcDbEntity
  8
0
100
AcDbLine
 10
93.453818
 20
121.9479999999999
 30
0.0
 11
93.453818
 21
122.1879999999999
 31
0.0
  0
LINE
  5
158
330
1E
100
AcDbEntity
  8
0
100
AcDbLine
 10
93.453818
 20
121.9479999999999
 30
0.0
 11
93.453818
 21
121.8579999999999
 31
0.0
  0
LINE
  5
159
330
1E
100
AcDbEntity
  8
0
100
AcDbLine
 10
93.453818
 20
122.1879999999999
 30
0.0
 11
93.453818
 21
122.5879999999999
 31
0.0
  0
LINE
  5
15A
330
1E
100
AcDbEntity
  8
0
100
AcDbLine
 10
93.453818
 20
122.1879999999999
 30
0.0
 11
93.453818
 21
121.9479999999999
 31
0.0
  0
LINE
  5
15B
330
1E
100
AcDbEntity
  8
0
100
AcDbLine
 10
93.453818
 20
122.5879999999999
 30
0.0
 11
93.453818
 21
123.1179999999999
 31
0.0
  0
LINE
  5
15C
330
1E
100
AcDbEntity
  8
0
100
AcDbLine
 10
93.453818
 20
122.5879999999999
 30
0.0
 11
93.453818
 21
122.1879999999999
 31
0.0
  0
LINE
  5
15D
330
1E
100
AcDbEntity
  8
0
100
AcDbLine
 10
93.453818
 20
126.8579999999999
 30
0.0
 11
93.453818
 21
126.7679999999999
 31
0.0
  0
LINE
  5
15E
330
1E
100
AcDbEntity
  8
0
100
AcDbLine
 10
93.453818
 20
126.8579999999999
 30
0.0
 11
93.68058536201649
 21
126.8579999999999
 31
0.0
  0
LINE
  5
15F
330
1E
100
AcDbEntity
  8
0
100
AcDbLine
 10
93.453818
 20
126.7679999999999
 30
0.0
 11
93.453818
 21
126.5279999999999
 31
0.0
  0
LINE
  5
160
330
1E
100
AcDbEntity
  8
0
100
AcDbLine
 10
93.453818
 20
126.7679999999999
 30
0.0
 11
93.453818
 21
126.8579999999999
 31
0.0
  0
LINE
  5
161
330
1E
100
AcDbEntity
  8
0
100
AcDbLine
 10
93.453818
 20
126.5279999999999
 30
0.0
 11
93.453818
 21
126.1279999999999
 31
0.0
  0
LINE
  5
162
330
1E
100
AcDbEntity
  8
0
100
AcDbLine
 10
93.453818
 20
126.5279999999999
 30
0.0
 11
93.453818
 21
126.7679999999999
 31
0.0
  0
LINE
  5
163
330
1E
100
AcDbEntity
  8
0
100
AcDbLine
 10
93.453818
 20
126.1279999999999
 30
0.0
 11
93.453818
 21
125.598
 31
0.0
  0
LINE
  5
164
330
1E
100
AcDbEntity
  8
0
100
AcDbLine
 10
93.453818
 20
126.1279999999999
 30
0.0
 11
93.453818
 21
126.5279999999999
 31
0.0
  0
LINE
  5
165
330
1E
100
AcDbEntity
  8
0
100
AcDbLine
 10
93.453818
 20
125.598
 30
0.0
 11
93.453818
 21
124.9979999999999
 31
0.0
  0
LINE
  5
166
330
1E
100
AcDbEntity
  8
0
100
AcDbLine
 10
93.453818
 20
125.598
 30
0.0
 11
93.453818
 21
126.1279999999999
 31
0.0
  0
LINE
  5
167
330
1E
100
AcDbEntity
  8
0
100
AcDbLine
 10
93.453818
 20
124.9979999999999
 30
0.0
 11
93.453818
 21
124.3579999999999
 31
0.0
  0
LINE
  5
168
330
1E
100
AcDbEntity
  8
0
100
AcDbLine
 10
93.453818
 20
124.9979999999999
 30
0.0
 11
93.453818
 21
125.598
 31
0.0
  0
LINE
  5
169
330
1E
100
AcDbEntity
  8
0
100
AcDbLine
 10
93.453818
 20
124.3579999999999
 30
0.0
 11
93.453818
 21
123.7179999999999
 31
0.0
  0
LINE
  5
16A
330
1E
100
AcDbEntity
  8
0
100
AcDbLine
 10
93.453818
 20
124.3579999999999
 30
0.0
 11
93.453818
 21
124.9979999999999
 31
0.0
  0
LINE
  5
16B
330
1E
100
AcDbEntity
  8
0
100
AcDbLine
 10
93.453818
 20
123.1179999999999
 30
0.0
 11
93.453818
 21
123.7179999999999
 31
0.0
  0
LINE
  5
16C
330
1E
100
AcDbEntity
  8
0
100
AcDbLine
 10
93.453818
 20
123.1179999999999
 30
0.0
 11
93.453818
 21
122.5879999999999
 31
0.0
  0
LINE
  5
16D
330
1E
100
AcDbEntity
  8
0
100
AcDbLine
 10
93.453818
 20
123.7179999999999
 30
0.0
 11
93.453818
 21
124.3579999999999
 31
0.0
  0
LINE
  5
16E
330
1E
100
AcDbEntity
  8
0
100
AcDbLine
 10
93.453818
 20
123.7179999999999
 30
0.0
 11
93.453818
 21
123.1179999999999
 31
0.0
  0
LINE
  5
171
330
1E
100
AcDbEntity
  8
0
100
AcDbLine
 10
127.188418
 20
114.426
 30
0.0
 11
128.288418
 21
114.7399999999999
 31
0.0
  0
LINE
  5
172
330
1E
100
AcDbEntity
  8
0
100
AcDbLine
 10
127.000838326
 20
114.372405807429
 30
0.0
 11
127.3334179999999
 21
113.0
 31
0.0
  0
LINE
  5
174
330
1E
100
AcDbEntity
  8
0
100
AcDbLine
 10
128.288418
 20
114.7399999999999
 30
0.0
 11
128.6884179999999
 21
114.8549999999999
 31
0.0
  0
LINE
  5
175
330
1E
100
AcDbEntity
  8
0
100
AcDbLine
 10
127.3334179999999
 20
113.0
 30
0.0
 11
127.697418
 21
110.0
 31
0.0
  0
LINE
  5
176
330
1E
100
AcDbEntity
  8
0
100
AcDbLine
 10
129.1974179999999
 20
115.0
 30
0.0
 11
129.594418
 21
115.1129999999999
 31
0.0
  0
LINE
  5
177
330
1E
100
AcDbEntity
  8
0
100
AcDbLine
 10
129.594418
 20
115.1129999999999
 30
0.0
 11
129.6934179999999
 21
115.142
 31
0.0
  0
LINE
  5
178
330
1E
100
AcDbEntity
  8
0
100
AcDbLine
 10
128.6884179999999
 20
114.8549999999999
 30
0.0
 11
129.1974179999999
 21
115.0
 31
0.0
  0
LINE
  5
179
330
1E
100
AcDbEntity
  8
0
100
AcDbLine
 10
129.6934179999999
 20
115.142
 30
0.0
 11
129.697418
 21
148.556
 31
0.0
  0
LINE
  5
17E
330
1E
100
AcDbEntity
  8
0
100
AcDbLine
 10
96.68271800000001
 20
150.208
 30
0.0
 11
127.9554179999999
 21
150.208
 31
0.0
  0
LINE
  5
185
330
1E
100
AcDbEntity
  8
0
100
AcDbLine
 10
128.9974179999999
 20
149.776
 30
0.0
 11
129.697418
 21
148.556
 31
0.0
  0
LINE
  5
186
330
1E
100
AcDbEntity
  8
0
100
AcDbLine
 10
127.9554179999999
 20
150.208
 30
0.0
 11
128.9974179999999
 21
149.776
 31
0.0
  0
LINE
  5
187
330
1E
100
AcDbEntity
  8
0
100
AcDbLine
 10
93.68080265884399
 20
121.8579999999999
 30
0.0
 11
93.681318
 21
110.0
 31
0.0
  0
LINE
  5
188
330
1E
100
AcDbEntity
  8
0
100
AcDbLine
 10
93.68011800000001
 20
137.612
 30
0.0
 11
93.68058536201649
 21
126.8579999999999
 31
0.0
  0
LINE
  5
189
330
1E
100
AcDbEntity
  8
0
100
AcDbLine
 10
94.08131800000001
 20
110.0
 30
0.0
 11
95.18121800000001
 21
110.0
 31
0.0
  0
LINE
  5
18B
330
1E
100
AcDbEntity
  8
0
100
AcDbLine
 10
92.79621800000001
 20
74.85809999999999
 30
0.0
 11
93.69741799999999
 21
72.0
 31
0.0
  0
LINE
  5
18C
330
1E
100
AcDbEntity
  8
0
100
AcDbLine
 10
89.36431800000001
 20
109.3729999999999
 30
0.0
 11
95.697418
 21
108.187233230148
 31
0.0
  0
LINE
  5
18D
330
1E
100
AcDbEntity
  8
0
100
AcDbLine
 10
87.19741799999999
 20
-0.0000000000000054
 30
0.0
 11
136.197418
 21
-0.0000000000000084
 31
0.0
  0
LINE
  5
18E
330
1E
100
AcDbEntity
  8
0
100
AcDbLine
 10
86.097418
 20
-0.0000000000000053
 30
0.0
 11
87.19741799999999
 21
-0.0000000000000054
 31
0.0
  0
LINE
  5
194
330
1E
100
AcDbEntity
  8
0
100
AcDbLine
 10
151.133418
 20
49.3041
 30
0.0
 11
137.133418
 21
49.3041
 31
0.0
  0
LINE
  5
195
330
1E
100
AcDbEntity
  8
0
100
AcDbLine
 10
137.133418
 20
44.3041
 30
0.0
 11
136.1637459251064
 21
43.8294594059621
 31
0.0
  0
LINE
  5
196
330
1E
100
AcDbEntity
  8
0
100
AcDbLine
 10
136.1637459251064
 20
43.8294594059621
 30
0.0
 11
135.6331011708723
 21
42.76887328679452
 31
0.0
  0
LINE
  5
197
330
1E
100
AcDbEntity
  8
0
100
AcDbLine
 10
135.6331011708723
 20
42.76887328679452
 30
0.0
 11
131.097418
 21
22.0
 31
0.0
  0
LINE
  5
198
330
1E
100
AcDbEntity
  8
0
100
AcDbLine
 10
95.697418
 20
108.1806851887129
 30
0.0
 11
96.697418
 21
108.0
 31
0.0
  0
LINE
  5
199
330
1E
100
AcDbEntity
  8
0
100
AcDbLine
 10
28.3932535695405
 20
97.1565483711865
 30
0.0
 11
28.2757748109503
 21
121.161020973922
 31
0.0
  0
ENDSEC
  0
SECTION
  2
OBJECTS
  0
DICTIONARY
  5
C
330
0
100
AcDbDictionary
281
     1
  3
ACAD_GROUP
350
D
  3
ACAD_LAYOUT
350
19
  3
ACAD_MLINESTYLE
350
16
  3
ACAD_PLOTSETTINGS
350
18
  3
ACAD_PLOTSTYLENAME
350
E
  3
AcDbVariableDictionary
350
19A
  0
DICTIONARY
  5
D
102
{ACAD_REACTORS
330
C
102
}
330
C
100
AcDbDictionary
281
     1
  0
DICTIONARY
  5
19
102
{ACAD_REACTORS
330
C
102
}
330
C
100
AcDbDictionary
281
     1
  3
Layout1
350
1D
  3
Model
350
21
  0
DICTIONARY
  5
16
102
{ACAD_REACTORS
330
C
102
}
330
C
100
AcDbDictionary
281
     1
  3
Standard
350
17
  0
DICTIONARY
  5
18
102
{ACAD_REACTORS
330
C
102
}
330
C
100
AcDbDictionary
281
     1
  0
ACDBDICTIONARYWDFLT
  5
E
102
{ACAD_REACTORS
330
C
102
}
330
C
100
AcDbDictionary
281
     1
  3
Normal
350
F
100
AcDbDictionaryWithDefault
340
F
  0
DICTIONARY
  5
19A
102
{ACAD_REACTORS
330
C
102
}
330
C
100
AcDbDictionary
281
     1
  3
DIMASSOC
350
19B
  0
LAYOUT
  5
1D
102
{ACAD_REACTORS
330
19
102
}
330
19
100
AcDbPlotSettings
  1

  2
hp deskjet 980c series
  4

  6

 40
0.0
 41
0.0
 42
0.0
 43
0.0
 44
0.0
 45
0.0
 46
0.0
 47
0.0
 48
0.0
 49
0.0
140
0.0
141
0.0
142
1.0
143
1.0
 70
   688
 72
     0
 73
     0
 74
     5
  7

 75
    16
147
1.0
148
0.0
149
0.0
100
AcDbLayout
  1
Layout1
 70
     1
 71
     1
 10
0.0
 20
0.0
 11
12.0
 21
9.0
 12
0.0
 22
0.0
 32
0.0
 14
1.000000000000000E+20
 24
1.000000000000000E+20
 34
1.000000000000000E+20
 15
-1.000000000000000E+20
 25
-1.000000000000000E+20
 35
-1.000000000000000E+20
146
0.0
 13
0.0
 23
0.0
 33
0.0
 16
1.0
 26
0.0
 36
0.0
 17
0.0
 27
1.0
 37
0.0
 76
     0
330
1A
  0
LAYOUT
  5
21
102
{ACAD_REACTORS
330
19
102
}
330
19
100
AcDbPlotSettings
  1

  2
hp deskjet 980c series
  4

  6

 40
0.0
 41
0.0
 42
0.0
 43
0.0
 44
0.0
 45
0.0
 46
0.0
 47
0.0
 48
0.0
 49
0.0
140
0.0
141
0.0
142
1.0
143
1.0
 70
  1712
 72
     0
 73
     0
 74
     0
  7

 75
     0
147
1.0
148
0.0
149
0.0
100
AcDbLayout
  1
Model
 70
     1
 71
     0
 10
0.0
 20
0.0
 11
12.0
 21
9.0
 12
0.0
 22
0.0
 32
0.0
 14
0.0
 24
0.0
 34
0.0
 15
0.0
 25
0.0
 35
0.0
146
0.0
 13
0.0
 23
0.0
 33
0.0
 16
1.0
 26
0.0
 36
0.0
 17
0.0
 27
1.0
 37
0.0
 76
     0
330
1E
  0
MLINESTYLE
  5
17
102
{ACAD_REACTORS
330
16
102
}
330
16
100
AcDbMlineStyle
  2
STANDARD
 70
     0
  3

 62
   256
 51
90.0
 52
90.0
 71
     2
 49
0.5
 62
   256
  6
BYLAYER
 49
-0.5
 62
   256
  6
BYLAYER
  0
ACDBPLACEHOLDER
  5
F
102
{ACAD_REACTORS
330
E
102
}
330
E
  0
DICTIONARYVAR
  5
19B
102
{ACAD_REACTORS
330
19A
102
}
330
19A
100
DictionaryVariables
280
     0
  1
1
  0
ENDSEC
  0
EOF
