  0
SECTION
  2
HEADER
  9
$ACADVER
  1
AC1015
  9
$ACADMAINTVER
 70
    13
  9
$DWGCODEPAGE
  3
ANSI_1252
  9
$INSBASE
 10
0.0
 20
0.0
 30
0.0
  9
$EXTMIN
 10
0.0000000000000497
 20
-0.0000000000000139
 30
0.0
  9
$EXTMAX
 10
895.0
 20
100.0
 30
0.0
  9
$LIMMIN
 10
0.0
 20
0.0
  9
$LIMMAX
 10
12.0
 20
9.0
  9
$ORTHOMODE
 70
     0
  9
$REGENMODE
 70
     1
  9
$FILLMODE
 70
     1
  9
$QTEXTMODE
 70
     0
  9
$MIRRTEXT
 70
     1
  9
$LTSCALE
 40
1.0
  9
$ATTMODE
 70
     1
  9
$TEXTSIZE
 40
0.2
  9
$TRACEWID
 40
0.05
  9
$TEXTSTYLE
  7
Standard
  9
$CLAYER
  8
0
  9
$CELTYPE
  6
Continuous
  9
$CECOLOR
 62
   256
  9
$CELTSCALE
 40
1.0
  9
$DISPSILH
 70
     0
  9
$DIMSCALE
 40
1.0
  9
$DIMASZ
 40
0.18
  9
$DIMEXO
 40
0.0625
  9
$DIMDLI
 40
0.38
  9
$DIMRND
 40
0.0
  9
$DIMDLE
 40
0.0
  9
$DIMEXE
 40
0.18
  9
$DIMTP
 40
0.0
  9
$DIMTM
 40
0.0
  9
$DIMTXT
 40
0.18
  9
$DIMCEN
 40
0.09
  9
$DIMTSZ
 40
0.0
  9
$DIMTOL
 70
     0
  9
$DIMLIM
 70
     0
  9
$DIMTIH
 70
     1
  9
$DIMTOH
 70
     1
  9
$DIMSE1
 70
     0
  9
$DIMSE2
 70
     0
  9
$DIMTAD
 70
     0
  9
$DIMZIN
 70
     0
  9
$DIMBLK
  1

  9
$DIMASO
 70
     1
  9
$DIMSHO
 70
     1
  9
$DIMPOST
  1

  9
$DIMAPOST
  1

  9
$DIMALT
 70
     0
  9
$DIMALTD
 70
     2
  9
$DIMALTF
 40
25.4
  9
$DIMLFAC
 40
1.0
  9
$DIMTOFL
 70
     0
  9
$DIMTVP
 40
0.0
  9
$DIMTIX
 70
     0
  9
$DIMSOXD
 70
     0
  9
$DIMSAH
 70
     0
  9
$DIMBLK1
  1

  9
$DIMBLK2
  1

  9
$DIMSTYLE
  2
Standard
  9
$DIMCLRD
 70
     0
  9
$DIMCLRE
 70
     0
  9
$DIMCLRT
 70
     0
  9
$DIMTFAC
 40
1.0
  9
$DIMGAP
 40
0.09
  9
$DIMJUST
 70
     0
  9
$DIMSD1
 70
     0
  9
$DIMSD2
 70
     0
  9
$DIMTOLJ
 70
     1
  9
$DIMTZIN
 70
     0
  9
$DIMALTZ
 70
     0
  9
$DIMALTTZ
 70
     0
  9
$DIMUPT
 70
     0
  9
$DIMDEC
 70
     4
  9
$DIMTDEC
 70
     4
  9
$DIMALTU
 70
     2
  9
$DIMALTTD
 70
     2
  9
$DIMTXSTY
  7
Standard
  9
$DIMAUNIT
 70
     0
  9
$DIMADEC
 70
     0
  9
$DIMALTRND
 40
0.0
  9
$DIMAZIN
 70
     0
  9
$DIMDSEP
 70
    46
  9
$DIMATFIT
 70
     3
  9
$DIMFRAC
 70
     0
  9
$DIMLDRBLK
  1

  9
$DIMLUNIT
 70
     2
  9
$DIMLWD
 70
    -2
  9
$DIMLWE
 70
    -2
  9
$DIMTMOVE
 70
     0
  9
$LUNITS
 70
     2
  9
$LUPREC
 70
     4
  9
$SKETCHINC
 40
0.1
  9
$FILLETRAD
 40
0.0
  9
$AUNITS
 70
     0
  9
$AUPREC
 70
     0
  9
$MENU
  1
.
  9
$ELEVATION
 40
0.0
  9
$PELEVATION
 40
0.0
  9
$THICKNESS
 40
0.0
  9
$LIMCHECK
 70
     0
  9
$CHAMFERA
 40
0.0
  9
$CHAMFERB
 40
0.0
  9
$CHAMFERC
 40
0.0
  9
$CHAMFERD
 40
0.0
  9
$SKPOLY
 70
     0
  9
$TDCREATE
 40
2454830.879102083
  9
$TDUCREATE
 40
2454830.837435416
  9
$TDUPDATE
 40
2454830.881894699
  9
$TDUUPDATE
 40
2454830.840228032
  9
$TDINDWG
 40
0.0027927894
  9
$TDUSRTIMER
 40
0.0027927894
  9
$USRTIMER
 70
     1
  9
$ANGBASE
 50
0.0
  9
$ANGDIR
 70
     0
  9
$PDMODE
 70
     0
  9
$PDSIZE
 40
0.0
  9
$PLINEWID
 40
0.0
  9
$SPLFRAME
 70
     0
  9
$SPLINETYPE
 70
     6
  9
$SPLINESEGS
 70
     8
  9
$HANDSEED
  5
4BD
  9
$SURFTAB1
 70
     6
  9
$SURFTAB2
 70
     6
  9
$SURFTYPE
 70
     6
  9
$SURFU
 70
     6
  9
$SURFV
 70
     6
  9
$UCSBASE
  2

  9
$UCSNAME
  2

  9
$UCSORG
 10
0.0
 20
0.0
 30
0.0
  9
$UCSXDIR
 10
1.0
 20
0.0
 30
0.0
  9
$UCSYDIR
 10
0.0
 20
1.0
 30
0.0
  9
$UCSORTHOREF
  2

  9
$UCSORTHOVIEW
 70
     1
  9
$UCSORGTOP
 10
0.0
 20
0.0
 30
0.0
  9
$UCSORGBOTTOM
 10
0.0
 20
0.0
 30
0.0
  9
$UCSORGLEFT
 10
0.0
 20
0.0
 30
0.0
  9
$UCSORGRIGHT
 10
0.0
 20
0.0
 30
0.0
  9
$UCSORGFRONT
 10
0.0
 20
0.0
 30
0.0
  9
$UCSORGBACK
 10
0.0
 20
0.0
 30
0.0
  9
$PUCSBASE
  2

  9
$PUCSNAME
  2

  9
$PUCSORG
 10
0.0
 20
0.0
 30
0.0
  9
$PUCSXDIR
 10
1.0
 20
0.0
 30
0.0
  9
$PUCSYDIR
 10
0.0
 20
1.0
 30
0.0
  9
$PUCSORTHOREF
  2

  9
$PUCSORTHOVIEW
 70
     0
  9
$PUCSORGTOP
 10
0.0
 20
0.0
 30
0.0
  9
$PUCSORGBOTTOM
 10
0.0
 20
0.0
 30
0.0
  9
$PUCSORGLEFT
 10
0.0
 20
0.0
 30
0.0
  9
$PUCSORGRIGHT
 10
0.0
 20
0.0
 30
0.0
  9
$PUCSORGFRONT
 10
0.0
 20
0.0
 30
0.0
  9
$PUCSORGBACK
 10
0.0
 20
0.0
 30
0.0
  9
$USERI1
 70
     0
  9
$USERI2
 70
     0
  9
$USERI3
 70
     0
  9
$USERI4
 70
     0
  9
$USERI5
 70
     0
  9
$USERR1
 40
0.0
  9
$USERR2
 40
0.0
  9
$USERR3
 40
0.0
  9
$USERR4
 40
0.0
  9
$USERR5
 40
0.0
  9
$WORLDVIEW
 70
     1
  9
$SHADEDGE
 70
     3
  9
$SHADEDIF
 70
    70
  9
$TILEMODE
 70
     1
  9
$MAXACTVP
 70
    64
  9
$PINSBASE
 10
0.0
 20
0.0
 30
0.0
  9
$PLIMCHECK
 70
     0
  9
$PEXTMIN
 10
1.000000000000000E+20
 20
1.000000000000000E+20
 30
1.000000000000000E+20
  9
$PEXTMAX
 10
-1.000000000000000E+20
 20
-1.000000000000000E+20
 30
-1.000000000000000E+20
  9
$PLIMMIN
 10
0.0
 20
0.0
  9
$PLIMMAX
 10
12.0
 20
9.0
  9
$UNITMODE
 70
     0
  9
$VISRETAIN
 70
     1
  9
$PLINEGEN
 70
     0
  9
$PSLTSCALE
 70
     1
  9
$TREEDEPTH
 70
  3020
  9
$CMLSTYLE
  2
Standard
  9
$CMLJUST
 70
     0
  9
$CMLSCALE
 40
1.0
  9
$PROXYGRAPHICS
 70
     1
  9
$MEASUREMENT
 70
     0
  9
$CELWEIGHT
370
    -1
  9
$ENDCAPS
280
     0
  9
$JOINSTYLE
280
     0
  9
$LWDISPLAY
290
     0
  9
$INSUNITS
 70
     0
  9
$HYPERLINKBASE
  1

  9
$STYLESHEET
  1

  9
$XEDIT
290
     1
  9
$CEPSNTYPE
380
     0
  9
$PSTYLEMODE
290
     1
  9
$FINGERPRINTGUID
  2
{3DE7F614-F306-4193-AF4C-DDAF1E0FD5BF}
  9
$VERSIONGUID
  2
{AFA19D14-146B-4403-840B-CA49843E7700}
  9
$EXTNAMES
290
     1
  9
$PSVPSCALE
 40
0.0
  9
$OLESTARTUP
290
     0
  0
ENDSEC
  0
SECTION
  2
CLASSES
  0
CLASS
  1
ACDBDICTIONARYWDFLT
  2
AcDbDictionaryWithDefault
  3
AutoCAD 2000
 90
        0
280
     0
281
     0
  0
CLASS
  1
ACDBPLACEHOLDER
  2
AcDbPlaceHolder
  3
AutoCAD 2000
 90
        0
280
     0
281
     0
  0
CLASS
  1
LAYOUT
  2
AcDbLayout
  3
AutoCAD 2000
 90
        0
280
     0
281
     0
  0
CLASS
  1
DICTIONARYVAR
  2
AcDbDictionaryVar
  3
AutoCAD 2000
 90
        0
280
     0
281
     0
  0
ENDSEC
  0
SECTION
  2
TABLES
  0
TABLE
  2
VPORT
  5
8
330
0
100
AcDbSymbolTable
 70
     2
  0
VPORT
  5
4BC
330
8
100
AcDbSymbolTableRecord
100
AcDbViewportTableRecord
  2
*Active
 70
     0
 10
0.0
 20
0.0
 11
1.0
 21
1.0
 12
447.5
 22
50.0
 13
0.0
 23
0.0
 14
1.0
 24
1.0
 15
0.0
 25
0.0
 16
0.0
 26
0.0
 36
1.0
 17
0.0
 27
0.0
 37
0.0
 40
432.2720233163059
 41
2.078104993597951
 42
50.0
 43
0.0
 44
0.0
 50
0.0
 51
0.0
 71
     0
 72
   100
 73
     1
 74
     3
 75
     0
 76
     0
 77
     0
 78
     0
281
     0
 65
     1
110
0.0
120
0.0
130
0.0
111
1.0
121
0.0
131
0.0
112
0.0
122
1.0
132
0.0
 79
     1
146
0.0
  0
ENDTAB
  0
TABLE
  2
LTYPE
  5
5
330
0
100
AcDbSymbolTable
 70
     1
  0
LTYPE
  5
13
330
5
100
AcDbSymbolTableRecord
100
AcDbLinetypeTableRecord
  2
ByBlock
 70
     0
  3

 72
    65
 73
     0
 40
0.0
  0
LTYPE
  5
14
330
5
100
AcDbSymbolTableRecord
100
AcDbLinetypeTableRecord
  2
ByLayer
 70
     0
  3

 72
    65
 73
     0
 40
0.0
  0
LTYPE
  5
15
330
5
100
AcDbSymbolTableRecord
100
AcDbLinetypeTableRecord
  2
Continuous
 70
     0
  3
Solid line
 72
    65
 73
     0
 40
0.0
  0
ENDTAB
  0
TABLE
  2
LAYER
  5
2
330
0
100
AcDbSymbolTable
 70
     1
  0
LAYER
  5
10
330
2
100
AcDbSymbolTableRecord
100
AcDbLayerTableRecord
  2
0
 70
     0
 62
     7
  6
Continuous
370
    -3
390
F
  0
ENDTAB
  0
TABLE
  2
STYLE
  5
3
330
0
100
AcDbSymbolTable
 70
     1
  0
STYLE
  5
11
330
3
100
AcDbSymbolTableRecord
100
AcDbTextStyleTableRecord
  2
Standard
 70
     0
 40
0.0
 41
1.0
 50
0.0
 71
     0
 42
0.2
  3
txt
  4

  0
ENDTAB
  0
TABLE
  2
VIEW
  5
6
330
0
100
AcDbSymbolTable
 70
     0
  0
ENDTAB
  0
TABLE
  2
UCS
  5
7
330
0
100
AcDbSymbolTable
 70
     0
  0
ENDTAB
  0
TABLE
  2
APPID
  5
9
330
0
100
AcDbSymbolTable
 70
     1
  0
APPID
  5
12
330
9
100
AcDbSymbolTableRecord
100
AcDbRegAppTableRecord
  2
ACAD
 70
     0
  0
ENDTAB
  0
TABLE
  2
DIMSTYLE
  5
A
330
0
100
AcDbSymbolTable
 70
     1
100
AcDbDimStyleTable
 71
     0
  0
DIMSTYLE
105
4B6
330
A
100
AcDbSymbolTableRecord
100
AcDbDimStyleTableRecord
  2
Standard
 70
     0
340
11
  0
ENDTAB
  0
TABLE
  2
BLOCK_RECORD
  5
1
330
0
100
AcDbSymbolTable
 70
     0
  0
BLOCK_RECORD
  5
1E
330
1
100
AcDbSymbolTableRecord
100
AcDbBlockTableRecord
  2
*Model_Space
340
21
  0
BLOCK_RECORD
  5
1A
330
1
100
AcDbSymbolTableRecord
100
AcDbBlockTableRecord
  2
*Paper_Space
340
1D
  0
ENDTAB
  0
ENDSEC
  0
SECTION
  2
BLOCKS
  0
BLOCK
  5
1F
330
1E
100
AcDbEntity
  8
0
100
AcDbBlockBegin
  2
*Model_Space
 70
     0
 10
0.0
 20
0.0
 30
0.0
  3
*Model_Space
  1

  0
ENDBLK
  5
20
330
1E
100
AcDbEntity
  8
0
100
AcDbBlockEnd
  0
BLOCK
  5
1B
330
1A
100
AcDbEntity
 67
     1
  8
0
100
AcDbBlockBegin
  2
*Paper_Space
 70
     0
 10
0.0
 20
0.0
 30
0.0
  3
*Paper_Space
  1

  0
ENDBLK
  5
1C
330
1A
100
AcDbEntity
 67
     1
  8
0
100
AcDbBlockEnd
  0
ENDSEC
  0
SECTION
  2
ENTITIES
  0
LINE
  5
22
330
1E
100
AcDbEntity
  8
0
100
AcDbLine
 10
69.62
 20
0.0000000000000179
 30
0.0
 11
86.73
 21
0.0000000000000169
 31
0.0
  0
LINE
  5
23
330
1E
100
AcDbEntity
  8
0
100
AcDbLine
 10
53.68999999999999
 20
0.0000000000000189
 30
0.0
 11
69.62
 21
0.0000000000000179
 31
0.0
  0
LINE
  5
24
330
1E
100
AcDbEntity
  8
0
100
AcDbLine
 10
40.11999999999999
 20
0.0000000000000197
 30
0.0
 11
53.68999999999999
 21
0.0000000000000189
 31
0.0
  0
LINE
  5
25
330
1E
100
AcDbEntity
  8
0
100
AcDbLine
 10
28.32
 20
0.0000000000000205
 30
0.0
 11
40.11999999999999
 21
0.0000000000000197
 31
0.0
  0
LINE
  5
26
330
1E
100
AcDbEntity
  8
0
100
AcDbLine
 10
18.28999999999999
 20
0.0000000000000211
 30
0.0
 11
28.32
 21
0.0000000000000205
 31
0.0
  0
LINE
  5
27
330
1E
100
AcDbEntity
  8
0
100
AcDbLine
 10
10.62
 20
0.0000000000000216
 30
0.0
 11
18.28999999999999
 21
0.0000000000000211
 31
0.0
  0
LINE
  5
28
330
1E
100
AcDbEntity
  8
0
100
AcDbLine
 10
4.72000000000005
 20
0.0000000000000219
 30
0.0
 11
10.62
 21
0.0000000000000216
 31
0.0
  0
LINE
  5
29
330
1E
100
AcDbEntity
  8
0
100
AcDbLine
 10
0.0000000000000558
 20
100.0
 30
0.0
 11
1.77000000000006
 21
100.0
 31
0.0
  0
LINE
  5
2A
330
1E
100
AcDbEntity
  8
0
100
AcDbLine
 10
69.62
 20
100.0
 30
0.0
 11
86.73
 21
100.0
 31
0.0
  0
LINE
  5
2B
330
1E
100
AcDbEntity
  8
0
100
AcDbLine
 10
53.6900000000001
 20
100.0
 30
0.0
 11
69.62
 21
100.0
 31
0.0
  0
LINE
  5
2C
330
1E
100
AcDbEntity
  8
0
100
AcDbLine
 10
40.1200000000001
 20
100.0
 30
0.0
 11
53.6900000000001
 21
100.0
 31
0.0
  0
LINE
  5
2D
330
1E
100
AcDbEntity
  8
0
100
AcDbLine
 10
28.32000000000009
 20
100.0
 30
0.0
 11
40.1200000000001
 21
100.0
 31
0.0
  0
LINE
  5
2E
330
1E
100
AcDbEntity
  8
0
100
AcDbLine
 10
18.2900000000001
 20
100.0
 30
0.0
 11
28.32000000000009
 21
100.0
 31
0.0
  0
LINE
  5
2F
330
1E
100
AcDbEntity
  8
0
100
AcDbLine
 10
10.6200000000001
 20
100.0
 30
0.0
 11
18.2900000000001
 21
100.0
 31
0.0
  0
LINE
  5
30
330
1E
100
AcDbEntity
  8
0
100
AcDbLine
 10
4.720000000000059
 20
100.0
 30
0.0
 11
10.6200000000001
 21
100.0
 31
0.0
  0
LINE
  5
31
330
1E
100
AcDbEntity
  8
0
100
AcDbLine
 10
1.77000000000006
 20
100.0
 30
0.0
 11
4.720000000000059
 21
100.0
 31
0.0
  0
LINE
  5
32
330
1E
100
AcDbEntity
  8
0
100
AcDbLine
 10
0.0000000000000559
 20
100.0
 30
0.0
 11
1.77000000000006
 21
100.0
 31
0.0
  0
LINE
  5
33
330
1E
100
AcDbEntity
  8
0
100
AcDbLine
 10
1.77000000000005
 20
0.0000000000000221
 30
0.0
 11
4.72000000000005
 21
0.0000000000000219
 31
0.0
  0
LINE
  5
34
330
1E
100
AcDbEntity
  8
0
100
AcDbLine
 10
0.0000000000000497
 20
0.0000000000000222
 30
0.0
 11
1.77000000000005
 21
0.0000000000000221
 31
0.0
  0
LINE
  5
35
330
1E
100
AcDbEntity
  8
0
100
AcDbLine
 10
0.0000000000000497
 20
0.0000000000000222
 30
0.0
 11
0.0000000000000558
 21
100.0
 31
0.0
  0
LINE
  5
36
330
1E
100
AcDbEntity
  8
0
100
AcDbLine
 10
86.73
 20
100.0
 30
0.0
 11
105.61
 21
100.0
 31
0.0
  0
LINE
  5
37
330
1E
100
AcDbEntity
  8
0
100
AcDbLine
 10
105.61
 20
100.0
 30
0.0
 11
125.67
 21
100.0
 31
0.0
  0
LINE
  5
38
330
1E
100
AcDbEntity
  8
0
100
AcDbLine
 10
125.67
 20
100.0
 30
0.0
 11
148.09
 21
100.0
 31
0.0
  0
LINE
  5
39
330
1E
100
AcDbEntity
  8
0
100
AcDbLine
 10
86.73
 20
0.0000000000000169
 30
0.0
 11
105.61
 21
0.0000000000000157
 31
0.0
  0
LINE
  5
3A
330
1E
100
AcDbEntity
  8
0
100
AcDbLine
 10
105.61
 20
0.0000000000000157
 30
0.0
 11
125.67
 21
0.0000000000000145
 31
0.0
  0
LINE
  5
3B
330
1E
100
AcDbEntity
  8
0
100
AcDbLine
 10
175.0
 20
50.0
 30
0.0
 11
177.138
 21
50.0
 31
0.0
  0
LINE
  5
3C
330
1E
100
AcDbEntity
  8
0
100
AcDbLine
 10
175.0
 20
50.0
 30
0.0
 11
194.11
 21
50.0
 31
0.0
  0
LINE
  5
3D
330
1E
100
AcDbEntity
  8
0
100
AcDbLine
 10
175.0
 20
50.0
 30
0.0
 11
175.0
 21
100.0
 31
0.0
  0
LINE
  5
3E
330
1E
100
AcDbEntity
  8
0
100
AcDbLine
 10
175.0
 20
100.0
 30
0.0
 11
177.138
 21
100.0
 31
0.0
  0
LINE
  5
3F
330
1E
100
AcDbEntity
  8
0
100
AcDbLine
 10
148.09
 20
100.0
 30
0.0
 11
175.0
 21
100.0
 31
0.0
  0
LINE
  5
40
330
1E
100
AcDbEntity
  8
0
100
AcDbLine
 10
125.67
 20
0.0000000000000145
 30
0.0
 11
148.09
 21
0.0000000000000131
 31
0.0
  0
LINE
  5
41
330
1E
100
AcDbEntity
  8
0
100
AcDbLine
 10
148.09
 20
0.0000000000000131
 30
0.0
 11
175.0
 21
0.0000000000000115
 31
0.0
  0
LINE
  5
42
330
1E
100
AcDbEntity
  8
0
100
AcDbLine
 10
148.09
 20
0.0000000000000131
 30
0.0
 11
170.5099999999999
 21
0.0000000000000118
 31
0.0
  0
LINE
  5
43
330
1E
100
AcDbEntity
  8
0
100
AcDbLine
 10
177.138
 20
50.0
 30
0.0
 11
183.615
 21
50.0
 31
0.0
  0
LINE
  5
44
330
1E
100
AcDbEntity
  8
0
100
AcDbLine
 10
194.11
 20
50.0
 30
0.0
 11
210.332
 21
50.0
 31
0.0
  0
LINE
  5
45
330
1E
100
AcDbEntity
  8
0
100
AcDbLine
 10
183.615
 20
50.0
 30
0.0
 11
194.4099999999999
 21
50.0
 31
0.0
  0
LINE
  5
46
330
1E
100
AcDbEntity
  8
0
100
AcDbLine
 10
194.4099999999999
 20
50.0
 30
0.0
 11
210.332
 21
50.0
 31
0.0
  0
LINE
  5
47
330
1E
100
AcDbEntity
  8
0
100
AcDbLine
 10
177.138
 20
100.0
 30
0.0
 11
183.615
 21
100.0
 31
0.0
  0
LINE
  5
48
330
1E
100
AcDbEntity
  8
0
100
AcDbLine
 10
183.615
 20
100.0
 30
0.0
 11
194.4099999999999
 21
100.0
 31
0.0
  0
LINE
  5
49
330
1E
100
AcDbEntity
  8
0
100
AcDbLine
 10
210.332
 20
50.0
 30
0.0
 11
228.684
 21
50.0
 31
0.0
  0
LINE
  5
4A
330
1E
100
AcDbEntity
  8
0
100
AcDbLine
 10
194.4099999999999
 20
100.0
 30
0.0
 11
210.332
 21
100.0
 31
0.0
  0
LINE
  5
4B
330
1E
100
AcDbEntity
  8
0
100
AcDbLine
 10
210.332
 20
100.0
 30
0.0
 11
228.684
 21
100.0
 31
0.0
  0
LINE
  5
4C
330
1E
100
AcDbEntity
  8
0
100
AcDbLine
 10
175.0
 20
0.0000000000000115
 30
0.0
 11
194.11
 21
0.0000000000000103
 31
0.0
  0
LINE
  5
4D
330
1E
100
AcDbEntity
  8
0
100
AcDbLine
 10
194.11
 20
0.0000000000000103
 30
0.0
 11
218.3
 21
0.0000000000000088
 31
0.0
  0
LINE
  5
4E
330
1E
100
AcDbEntity
  8
0
100
AcDbLine
 10
228.684
 20
50.0
 30
0.0
 11
243.67
 21
50.0
 31
0.0
  0
LINE
  5
4F
330
1E
100
AcDbEntity
  8
0
100
AcDbLine
 10
228.684
 20
50.0
 30
0.0
 11
249.734
 21
50.0
 31
0.0
  0
LINE
  5
50
330
1E
100
AcDbEntity
  8
0
100
AcDbLine
 10
243.67
 20
50.0
 30
0.0
 11
269.04
 21
50.0
 31
0.0
  0
LINE
  5
51
330
1E
100
AcDbEntity
  8
0
100
AcDbLine
 10
269.04
 20
50.0
 30
0.0
 11
295.0
 21
50.0
 31
0.0
  0
LINE
  5
52
330
1E
100
AcDbEntity
  8
0
100
AcDbLine
 10
249.734
 20
50.0
 30
0.0
 11
272.403
 21
50.0
 31
0.0
  0
LINE
  5
53
330
1E
100
AcDbEntity
  8
0
100
AcDbLine
 10
228.684
 20
100.0
 30
0.0
 11
249.734
 21
100.0
 31
0.0
  0
LINE
  5
54
330
1E
100
AcDbEntity
  8
0
100
AcDbLine
 10
249.734
 20
100.0
 30
0.0
 11
272.403
 21
100.0
 31
0.0
  0
LINE
  5
55
330
1E
100
AcDbEntity
  8
0
100
AcDbLine
 10
218.3
 20
0.0000000000000088
 30
0.0
 11
243.67
 21
0.0000000000000073
 31
0.0
  0
LINE
  5
56
330
1E
100
AcDbEntity
  8
0
100
AcDbLine
 10
243.67
 20
0.0000000000000073
 30
0.0
 11
269.04
 21
0.0000000000000057
 31
0.0
  0
LINE
  5
57
330
1E
100
AcDbEntity
  8
0
100
AcDbLine
 10
590.0
 20
-0.0000000000000139
 30
0.0
 11
590.0
 21
50.0
 31
0.0
  0
LINE
  5
58
330
1E
100
AcDbEntity
  8
0
100
AcDbLine
 10
536.3099999999999
 20
-0.0000000000000106
 30
0.0
 11
549.88
 21
-0.0000000000000115
 31
0.0
  0
LINE
  5
59
330
1E
100
AcDbEntity
  8
0
100
AcDbLine
 10
503.27
 20
-0.0000000000000086
 30
0.0
 11
520.38
 21
-0.0000000000000097
 31
0.0
  0
LINE
  5
5A
330
1E
100
AcDbEntity
  8
0
100
AcDbLine
 10
520.38
 20
-0.0000000000000097
 30
0.0
 11
536.0
 21
-0.0000000000000106
 31
0.0
  0
LINE
  5
5B
330
1E
100
AcDbEntity
  8
0
100
AcDbLine
 10
520.38
 20
-0.0000000000000097
 30
0.0
 11
536.3099999999999
 21
-0.0000000000000106
 31
0.0
  0
LINE
  5
5C
330
1E
100
AcDbEntity
  8
0
100
AcDbLine
 10
536.0
 20
-0.0000000000000106
 30
0.0
 11
549.88
 21
-0.0000000000000115
 31
0.0
  0
LINE
  5
5D
330
1E
100
AcDbEntity
  8
0
100
AcDbLine
 10
549.88
 20
-0.0000000000000115
 30
0.0
 11
561.6799999999999
 21
-0.0000000000000122
 31
0.0
  0
LINE
  5
5E
330
1E
100
AcDbEntity
  8
0
100
AcDbLine
 10
561.6799999999999
 20
-0.0000000000000122
 30
0.0
 11
571.71
 21
-0.0000000000000128
 31
0.0
  0
LINE
  5
5F
330
1E
100
AcDbEntity
  8
0
100
AcDbLine
 10
571.71
 20
-0.0000000000000128
 30
0.0
 11
579.38
 21
-0.0000000000000133
 31
0.0
  0
LINE
  5
60
330
1E
100
AcDbEntity
  8
0
100
AcDbLine
 10
579.38
 20
-0.0000000000000133
 30
0.0
 11
585.28
 21
-0.0000000000000136
 31
0.0
  0
LINE
  5
61
330
1E
100
AcDbEntity
  8
0
100
AcDbLine
 10
585.28
 20
-0.0000000000000136
 30
0.0
 11
588.2299999999999
 21
-0.0000000000000138
 31
0.0
  0
LINE
  5
62
330
1E
100
AcDbEntity
  8
0
100
AcDbLine
 10
588.2299999999999
 20
-0.0000000000000138
 30
0.0
 11
590.0
 21
-0.0000000000000139
 31
0.0
  0
LINE
  5
63
330
1E
100
AcDbEntity
  8
0
100
AcDbLine
 10
484.3899999999999
 20
-0.0000000000000075
 30
0.0
 11
503.27
 21
-0.0000000000000086
 31
0.0
  0
LINE
  5
64
330
1E
100
AcDbEntity
  8
0
100
AcDbLine
 10
464.3299999999999
 20
-0.0000000000000062
 30
0.0
 11
484.3899999999999
 21
-0.0000000000000075
 31
0.0
  0
LINE
  5
65
330
1E
100
AcDbEntity
  8
0
100
AcDbLine
 10
441.91
 20
-0.0000000000000049
 30
0.0
 11
464.3299999999999
 21
-0.0000000000000062
 31
0.0
  0
LINE
  5
66
330
1E
100
AcDbEntity
  8
0
100
AcDbLine
 10
419.49
 20
-0.0000000000000035
 30
0.0
 11
441.91
 21
-0.0000000000000049
 31
0.0
  0
LINE
  5
67
330
1E
100
AcDbEntity
  8
0
100
AcDbLine
 10
395.8899999999999
 20
-0.000000000000002
 30
0.0
 11
419.49
 21
-0.0000000000000035
 31
0.0
  0
LINE
  5
68
330
1E
100
AcDbEntity
  8
0
100
AcDbLine
 10
371.7
 20
-0.0000000000000006
 30
0.0
 11
395.8899999999999
 21
-0.000000000000002
 31
0.0
  0
LINE
  5
69
330
1E
100
AcDbEntity
  8
0
100
AcDbLine
 10
346.3299999999999
 20
0.000000000000001
 30
0.0
 11
371.7
 21
-0.0000000000000006
 31
0.0
  0
LINE
  5
6A
330
1E
100
AcDbEntity
  8
0
100
AcDbLine
 10
320.96
 20
50.0
 30
0.0
 11
346.3299999999999
 21
50.0
 31
0.0
  0
LINE
  5
6B
330
1E
100
AcDbEntity
  8
0
100
AcDbLine
 10
346.3299999999999
 20
50.0
 30
0.0
 11
371.7
 21
50.0
 31
0.0
  0
LINE
  5
6C
330
1E
100
AcDbEntity
  8
0
100
AcDbLine
 10
272.403
 20
50.0
 30
0.0
 11
295.0
 21
50.0
 31
0.0
  0
LINE
  5
6D
330
1E
100
AcDbEntity
  8
0
100
AcDbLine
 10
295.0
 20
50.0
 30
0.0
 11
348.995
 21
50.0
 31
0.0
  0
LINE
  5
6E
330
1E
100
AcDbEntity
  8
0
100
AcDbLine
 10
295.0
 20
50.0
 30
0.0
 11
320.96
 21
50.0
 31
0.0
  0
LINE
  5
6F
330
1E
100
AcDbEntity
  8
0
100
AcDbLine
 10
348.995
 20
50.0
 30
0.0
 11
395.7019999999999
 21
50.0
 31
0.0
  0
LINE
  5
70
330
1E
100
AcDbEntity
  8
0
100
AcDbLine
 10
295.0
 20
100.0
 30
0.0
 11
348.995
 21
100.0
 31
0.0
  0
LINE
  5
71
330
1E
100
AcDbEntity
  8
0
100
AcDbLine
 10
371.7
 20
50.0
 30
0.0
 11
395.7019999999999
 21
50.0
 31
0.0
  0
LINE
  5
72
330
1E
100
AcDbEntity
  8
0
100
AcDbLine
 10
395.7019999999999
 20
50.0
 30
0.0
 11
454.086
 21
50.0
 31
0.0
  0
LINE
  5
73
330
1E
100
AcDbEntity
  8
0
100
AcDbLine
 10
348.995
 20
100.0
 30
0.0
 11
395.7019999999999
 21
100.0
 31
0.0
  0
LINE
  5
74
330
1E
100
AcDbEntity
  8
0
100
AcDbLine
 10
272.403
 20
100.0
 30
0.0
 11
295.0
 21
100.0
 31
0.0
  0
LINE
  5
75
330
1E
100
AcDbEntity
  8
0
100
AcDbLine
 10
419.49
 20
50.0
 30
0.0
 11
441.91
 21
50.0
 31
0.0
  0
LINE
  5
76
330
1E
100
AcDbEntity
  8
0
100
AcDbLine
 10
441.91
 20
50.0
 30
0.0
 11
454.086
 21
50.0
 31
0.0
  0
LINE
  5
77
330
1E
100
AcDbEntity
  8
0
100
AcDbLine
 10
419.49
 20
100.0
 30
0.0
 11
441.91
 21
100.0
 31
0.0
  0
LINE
  5
78
330
1E
100
AcDbEntity
  8
0
100
AcDbLine
 10
395.8899999999999
 20
100.0
 30
0.0
 11
419.49
 21
100.0
 31
0.0
  0
LINE
  5
79
330
1E
100
AcDbEntity
  8
0
100
AcDbLine
 10
395.7019999999999
 20
100.0
 30
0.0
 11
395.8899999999999
 21
100.0
 31
0.0
  0
LINE
  5
7A
330
1E
100
AcDbEntity
  8
0
100
AcDbLine
 10
395.7019999999999
 20
100.0
 30
0.0
 11
454.086
 21
100.0
 31
0.0
  0
LINE
  5
7B
330
1E
100
AcDbEntity
  8
0
100
AcDbLine
 10
295.0
 20
0.0000000000000041
 30
0.0
 11
320.96
 21
0.0000000000000026
 31
0.0
  0
LINE
  5
7C
330
1E
100
AcDbEntity
  8
0
100
AcDbLine
 10
613.6689999999999
 20
50.0
 30
0.0
 11
653.5639999999999
 21
50.0
 31
0.0
  0
LINE
  5
7D
330
1E
100
AcDbEntity
  8
0
100
AcDbLine
 10
653.5639999999999
 20
50.0
 30
0.0
 11
683.7289999999999
 21
50.0
 31
0.0
  0
LINE
  5
7E
330
1E
100
AcDbEntity
  8
0
100
AcDbLine
 10
683.7289999999999
 20
50.0
 30
0.0
 11
710.0
 21
50.0
 31
0.0
  0
LINE
  5
7F
330
1E
100
AcDbEntity
  8
0
100
AcDbLine
 10
503.27
 20
50.0
 30
0.0
 11
520.38
 21
50.0
 31
0.0
  0
LINE
  5
80
330
1E
100
AcDbEntity
  8
0
100
AcDbLine
 10
510.524
 20
50.0
 30
0.0
 11
565.988
 21
50.0
 31
0.0
  0
LINE
  5
81
330
1E
100
AcDbEntity
  8
0
100
AcDbLine
 10
520.38
 20
50.0
 30
0.0
 11
536.3099999999999
 21
50.0
 31
0.0
  0
LINE
  5
82
330
1E
100
AcDbEntity
  8
0
100
AcDbLine
 10
536.3099999999999
 20
50.0
 30
0.0
 11
549.88
 21
50.0
 31
0.0
  0
LINE
  5
83
330
1E
100
AcDbEntity
  8
0
100
AcDbLine
 10
549.88
 20
50.0
 30
0.0
 11
561.6799999999999
 21
50.0
 31
0.0
  0
LINE
  5
84
330
1E
100
AcDbEntity
  8
0
100
AcDbLine
 10
565.988
 20
50.0
 30
0.0
 11
613.6689999999999
 21
50.0
 31
0.0
  0
LINE
  5
85
330
1E
100
AcDbEntity
  8
0
100
AcDbLine
 10
561.6799999999999
 20
50.0
 30
0.0
 11
565.988
 21
50.0
 31
0.0
  0
LINE
  5
86
330
1E
100
AcDbEntity
  8
0
100
AcDbLine
 10
590.0
 20
50.0
 30
0.0
 11
795.0
 21
50.0
 31
0.0
  0
LINE
  5
87
330
1E
100
AcDbEntity
  8
0
100
AcDbLine
 10
795.0
 20
50.0
 30
0.0
 11
795.0
 21
100.0
 31
0.0
  0
LINE
  5
88
330
1E
100
AcDbEntity
  8
0
100
AcDbLine
 10
710.0
 20
50.0
 30
0.0
 11
795.0
 21
50.0
 31
0.0
  0
LINE
  5
89
330
1E
100
AcDbEntity
  8
0
100
AcDbLine
 10
710.0
 20
50.0
 30
0.0
 11
710.0
 21
100.0
 31
0.0
  0
LINE
  5
8A
330
1E
100
AcDbEntity
  8
0
100
AcDbLine
 10
484.3899999999999
 20
50.0
 30
0.0
 11
503.27
 21
50.0
 31
0.0
  0
LINE
  5
8B
330
1E
100
AcDbEntity
  8
0
100
AcDbLine
 10
454.086
 20
50.0
 30
0.0
 11
510.524
 21
50.0
 31
0.0
  0
LINE
  5
8C
330
1E
100
AcDbEntity
  8
0
100
AcDbLine
 10
454.086
 20
100.0
 30
0.0
 11
510.524
 21
100.0
 31
0.0
  0
LINE
  5
8D
330
1E
100
AcDbEntity
  8
0
100
AcDbLine
 10
510.524
 20
100.0
 30
0.0
 11
565.988
 21
100.0
 31
0.0
  0
LINE
  5
8E
330
1E
100
AcDbEntity
  8
0
100
AcDbLine
 10
565.988
 20
100.0
 30
0.0
 11
613.6689999999999
 21
100.0
 31
0.0
  0
LINE
  5
8F
330
1E
100
AcDbEntity
  8
0
100
AcDbLine
 10
613.6689999999999
 20
100.0
 30
0.0
 11
653.5639999999999
 21
100.0
 31
0.0
  0
LINE
  5
90
330
1E
100
AcDbEntity
  8
0
100
AcDbLine
 10
613.6689999999999
 20
100.0
 30
0.0
 11
653.5639999999999
 21
100.0
 31
0.0
  0
LINE
  5
91
330
1E
100
AcDbEntity
  8
0
100
AcDbLine
 10
613.6689999999999
 20
100.0
 30
0.0
 11
683.7289999999999
 21
100.0
 31
0.0
  0
LINE
  5
92
330
1E
100
AcDbEntity
  8
0
100
AcDbLine
 10
653.5639999999999
 20
100.0
 30
0.0
 11
683.7289999999999
 21
100.0
 31
0.0
  0
LINE
  5
93
330
1E
100
AcDbEntity
  8
0
100
AcDbLine
 10
795.0
 20
83.0
 30
0.0
 11
845.0
 21
83.0
 31
0.0
  0
LINE
  5
94
330
1E
100
AcDbEntity
  8
0
100
AcDbLine
 10
795.0
 20
67.0
 30
0.0
 11
845.0
 21
67.0
 31
0.0
  0
LINE
  5
95
330
1E
100
AcDbEntity
  8
0
100
AcDbLine
 10
865.0
 20
65.0
 30
0.0
 11
865.0
 21
64.4818
 31
0.0
  0
LINE
  5
96
330
1E
100
AcDbEntity
  8
0
100
AcDbLine
 10
865.0
 20
65.0
 30
0.0
 11
865.0
 21
65.36
 31
0.0
  0
LINE
  5
97
330
1E
100
AcDbEntity
  8
0
100
AcDbLine
 10
865.0
 20
64.0682
 30
0.0
 11
865.1710000000001
 21
63.1818
 31
0.0
  0
LINE
  5
98
330
1E
100
AcDbEntity
  8
0
100
AcDbLine
 10
865.0
 20
64.0682
 30
0.0
 11
865.0
 21
64.4818
 31
0.0
  0
LINE
  5
99
330
1E
100
AcDbEntity
  8
0
100
AcDbLine
 10
865.571
 20
62.4973
 30
0.0
 11
865.571
 21
62.2954
 31
0.0
  0
LINE
  5
9A
330
1E
100
AcDbEntity
  8
0
100
AcDbLine
 10
871.8569999999999
 20
62.0
 30
0.0
 11
872.4289999999999
 21
62.2954
 31
0.0
  0
LINE
  5
9B
330
1E
100
AcDbEntity
  8
0
100
AcDbLine
 10
883.857
 20
62.0
 30
0.0
 11
884.4289999999999
 21
62.2954
 31
0.0
  0
LINE
  5
9C
330
1E
100
AcDbEntity
  8
0
100
AcDbLine
 10
878.143
 20
62.0
 30
0.0
 11
883.857
 21
62.0
 31
0.0
  0
LINE
  5
9E
330
1E
100
AcDbEntity
  8
0
100
AcDbLine
 10
872.4289999999999
 20
62.2954
 30
0.0
 11
872.4289999999999
 21
62.4973
 31
0.0
  0
LINE
  5
9F
330
1E
100
AcDbEntity
  8
0
100
AcDbLine
 10
872.4289999999999
 20
62.2954
 30
0.0
 11
872.8289999999999
 21
63.1818
 31
0.0
  0
LINE
  5
A0
330
1E
100
AcDbEntity
  8
0
100
AcDbLine
 10
872.8289999999999
 20
63.1818
 30
0.0
 11
873.0
 21
64.0682
 31
0.0
  0
LINE
  5
A1
330
1E
100
AcDbEntity
  8
0
100
AcDbLine
 10
872.4289999999999
 20
62.4973
 30
0.0
 11
872.761
 21
63.4553
 31
0.0
  0
LINE
  5
A2
330
1E
100
AcDbEntity
  8
0
100
AcDbLine
 10
872.4289999999999
 20
62.4973
 30
0.0
 11
872.4289999999999
 21
62.2954
 31
0.0
  0
LINE
  5
A4
330
1E
100
AcDbEntity
  8
0
100
AcDbLine
 10
884.4289999999999
 20
62.2954
 30
0.0
 11
884.4289999999999
 21
62.4973
 31
0.0
  0
LINE
  5
A5
330
1E
100
AcDbEntity
  8
0
100
AcDbLine
 10
884.4289999999999
 20
62.2954
 30
0.0
 11
884.829
 21
63.1818
 31
0.0
  0
LINE
  5
A6
330
1E
100
AcDbEntity
  8
0
100
AcDbLine
 10
877.571
 20
62.4973
 30
0.0
 11
877.571
 21
62.2954
 31
0.0
  0
LINE
  5
A7
330
1E
100
AcDbEntity
  8
0
100
AcDbLine
 10
884.829
 20
63.1818
 30
0.0
 11
885.0
 21
64.0682
 31
0.0
  0
LINE
  5
A8
330
1E
100
AcDbEntity
  8
0
100
AcDbLine
 10
884.4289999999999
 20
62.4973
 30
0.0
 11
884.7610000000001
 21
63.4553
 31
0.0
  0
LINE
  5
A9
330
1E
100
AcDbEntity
  8
0
100
AcDbLine
 10
884.4289999999999
 20
62.4973
 30
0.0
 11
884.4289999999999
 21
62.2954
 31
0.0
  0
LINE
  5
AA
330
1E
100
AcDbEntity
  8
0
100
AcDbLine
 10
877.571
 20
62.2954
 30
0.0
 11
878.143
 21
62.0
 31
0.0
  0
LINE
  5
AB
330
1E
100
AcDbEntity
  8
0
100
AcDbLine
 10
877.571
 20
62.2954
 30
0.0
 11
877.571
 21
62.4973
 31
0.0
  0
LINE
  5
AC
330
1E
100
AcDbEntity
  8
0
100
AcDbLine
 10
877.171
 20
63.1818
 30
0.0
 11
877.571
 21
62.2954
 31
0.0
  0
LINE
  5
AF
330
1E
100
AcDbEntity
  8
0
100
AcDbLine
 10
866.1430000000001
 20
62.0
 30
0.0
 11
871.8569999999999
 21
62.0
 31
0.0
  0
LINE
  5
B0
330
1E
100
AcDbEntity
  8
0
100
AcDbLine
 10
865.571
 20
62.2954
 30
0.0
 11
866.1430000000001
 21
62.0
 31
0.0
  0
LINE
  5
B1
330
1E
100
AcDbEntity
  8
0
100
AcDbLine
 10
865.571
 20
62.2954
 30
0.0
 11
865.571
 21
62.4973
 31
0.0
  0
LINE
  5
B2
330
1E
100
AcDbEntity
  8
0
100
AcDbLine
 10
865.2389999999998
 20
63.4553
 30
0.0
 11
865.571
 21
62.4973
 31
0.0
  0
LINE
  5
B3
330
1E
100
AcDbEntity
  8
0
100
AcDbLine
 10
872.761
 20
63.4553
 30
0.0
 11
872.8849999999999
 21
65.0279
 31
0.0
  0
LINE
  5
B7
330
1E
100
AcDbEntity
  8
0
100
AcDbLine
 10
873.0
 20
64.0682
 30
0.0
 11
873.0
 21
64.4818
 31
0.0
  0
LINE
  5
B8
330
1E
100
AcDbEntity
  8
0
100
AcDbLine
 10
873.0
 20
64.4818
 30
0.0
 11
873.0
 21
64.0682
 31
0.0
  0
LINE
  5
B9
330
1E
100
AcDbEntity
  8
0
100
AcDbLine
 10
873.0
 20
64.4818
 30
0.0
 11
873.0
 21
65.5455
 31
0.0
  0
LINE
  5
BA
330
1E
100
AcDbEntity
  8
0
100
AcDbLine
 10
873.7199999999999
 20
65.0
 30
0.0
 11
873.7949999999999
 21
65.3846
 31
0.0
  0
LINE
  5
BB
330
1E
100
AcDbEntity
  8
0
100
AcDbLine
 10
873.7199999999999
 20
65.0
 30
0.0
 11
873.943
 21
65.7692
 31
0.0
  0
LINE
  5
BC
330
1E
100
AcDbEntity
  8
0
100
AcDbLine
 10
874.76
 20
65.0
 30
0.0
 11
874.8339999999998
 21
65.3846
 31
0.0
  0
LINE
  5
BD
330
1E
100
AcDbEntity
  8
0
100
AcDbLine
 10
874.76
 20
65.0
 30
0.0
 11
874.9830000000001
 21
65.7692
 31
0.0
  0
LINE
  5
BE
330
1E
100
AcDbEntity
  8
0
100
AcDbLine
 10
875.7989999999999
 20
65.0
 30
0.0
 11
875.8739999999999
 21
65.3846
 31
0.0
  0
LINE
  5
BF
330
1E
100
AcDbEntity
  8
0
100
AcDbLine
 10
875.7989999999999
 20
65.0
 30
0.0
 11
876.022
 21
65.7692
 31
0.0
  0
LINE
  5
C0
330
1E
100
AcDbEntity
  8
0
100
AcDbLine
 10
876.839
 20
65.0
 30
0.0
 11
876.913
 21
65.3846
 31
0.0
  0
LINE
  5
C1
330
1E
100
AcDbEntity
  8
0
100
AcDbLine
 10
876.839
 20
65.0
 30
0.0
 11
877.0
 21
65.55559999999999
 31
0.0
  0
LINE
  5
C2
330
1E
100
AcDbEntity
  8
0
100
AcDbLine
 10
877.0
 20
64.0682
 30
0.0
 11
877.171
 21
63.1818
 31
0.0
  0
LINE
  5
C3
330
1E
100
AcDbEntity
  8
0
100
AcDbLine
 10
877.0
 20
64.0682
 30
0.0
 11
877.0
 21
64.4818
 31
0.0
  0
LINE
  5
C4
330
1E
100
AcDbEntity
  8
0
100
AcDbLine
 10
877.2389999999999
 20
63.4553
 30
0.0
 11
877.571
 21
62.4973
 31
0.0
  0
LINE
  5
C5
330
1E
100
AcDbEntity
  8
0
100
AcDbLine
 10
885.0
 20
64.0682
 30
0.0
 11
885.0
 21
65.5455
 31
0.0
  0
LINE
  5
C6
330
1E
100
AcDbEntity
  8
0
100
AcDbLine
 10
884.7610000000001
 20
63.4553
 30
0.0
 11
884.885
 21
65.0279
 31
0.0
  0
LINE
  5
CA
330
1E
100
AcDbEntity
  8
0
100
AcDbLine
 10
885.6810000000001
 20
65.0
 30
0.0
 11
885.7549999999999
 21
65.3846
 31
0.0
  0
LINE
  5
CB
330
1E
100
AcDbEntity
  8
0
100
AcDbLine
 10
885.6810000000001
 20
65.0
 30
0.0
 11
885.904
 21
65.7692
 31
0.0
  0
LINE
  5
CC
330
1E
100
AcDbEntity
  8
0
100
AcDbLine
 10
877.0
 20
64.4818
 30
0.0
 11
877.0
 21
64.0682
 31
0.0
  0
LINE
  5
CD
330
1E
100
AcDbEntity
  8
0
100
AcDbLine
 10
877.0
 20
64.4818
 30
0.0
 11
877.0
 21
65.5455
 31
0.0
  0
LINE
  5
D0
330
1E
100
AcDbEntity
  8
0
100
AcDbLine
 10
865.1710000000001
 20
63.1818
 30
0.0
 11
865.571
 21
62.2954
 31
0.0
  0
LINE
  5
D3
330
1E
100
AcDbEntity
  8
0
100
AcDbLine
 10
865.0
 20
64.4818
 30
0.0
 11
865.0
 21
64.0682
 31
0.0
  0
LINE
  5
D4
330
1E
100
AcDbEntity
  8
0
100
AcDbLine
 10
865.0
 20
64.4818
 30
0.0
 11
865.0
 21
65.0
 31
0.0
  0
LINE
  5
D7
330
1E
100
AcDbEntity
  8
0
100
AcDbLine
 10
865.0
 20
64.4818
 30
0.0
 11
865.0
 21
65.5455
 31
0.0
  0
LINE
  5
D8
330
1E
100
AcDbEntity
  8
0
100
AcDbLine
 10
865.0
 20
65.5455
 30
0.0
 11
865.0
 21
64.4818
 31
0.0
  0
LINE
  5
DC
330
1E
100
AcDbEntity
  8
0
100
AcDbLine
 10
873.0
 20
65.5455
 30
0.0
 11
873.0
 21
67.2591
 31
0.0
  0
LINE
  5
DD
330
1E
100
AcDbEntity
  8
0
100
AcDbLine
 10
873.0
 20
65.5455
 30
0.0
 11
873.0
 21
64.4818
 31
0.0
  0
LINE
  5
DE
330
1E
100
AcDbEntity
  8
0
100
AcDbLine
 10
865.1149999999999
 20
65.0279
 30
0.0
 11
865.2080000000001
 21
66.6091
 31
0.0
  0
LINE
  5
DF
330
1E
100
AcDbEntity
  8
0
100
AcDbLine
 10
865.1149999999999
 20
65.0279
 30
0.0
 11
865.2389999999998
 21
63.4553
 31
0.0
  0
LINE
  5
E0
330
1E
100
AcDbEntity
  8
0
100
AcDbLine
 10
865.0
 20
65.36
 30
0.0
 11
865.0
 21
66.31999999999999
 31
0.0
  0
LINE
  5
E1
330
1E
100
AcDbEntity
  8
0
100
AcDbLine
 10
873.0
 20
65.7692
 30
0.0
 11
873.497
 21
65.7692
 31
0.0
  0
LINE
  5
E2
330
1E
100
AcDbEntity
  8
0
100
AcDbLine
 10
873.0
 20
65.7692
 30
0.0
 11
873.671114690163
 21
65.7692
 31
0.0
  0
LINE
  5
E3
330
1E
100
AcDbEntity
  8
0
100
AcDbLine
 10
873.9183297703309
 20
65.7692
 30
0.0
 11
874.7101146901629
 21
65.7692
 31
0.0
  0
LINE
  5
E4
330
1E
100
AcDbEntity
  8
0
100
AcDbLine
 10
873.7949999999999
 20
65.3846
 30
0.0
 11
873.876
 21
66.38460000000001
 31
0.0
  0
LINE
  5
E5
330
1E
100
AcDbEntity
  8
0
100
AcDbLine
 10
874.957885309837
 20
65.7692
 30
0.0
 11
875.7501146901629
 21
65.7692
 31
0.0
  0
LINE
  5
E6
330
1E
100
AcDbEntity
  8
0
100
AcDbLine
 10
874.8339999999998
 20
65.3846
 30
0.0
 11
874.9160000000001
 21
66.38460000000001
 31
0.0
  0
LINE
  5
E7
330
1E
100
AcDbEntity
  8
0
100
AcDbLine
 10
873.943
 20
65.7692
 30
0.0
 11
874.5369999999999
 21
65.7692
 31
0.0
  0
LINE
  5
E8
330
1E
100
AcDbEntity
  8
0
100
AcDbLine
 10
873.943
 20
65.7692
 30
0.0
 11
874.0169999999999
 21
66.07689999999999
 31
0.0
  0
LINE
  5
E9
330
1E
100
AcDbEntity
  8
0
100
AcDbLine
 10
874.9830000000001
 20
65.7692
 30
0.0
 11
875.577
 21
65.7692
 31
0.0
  0
LINE
  5
EA
330
1E
100
AcDbEntity
  8
0
100
AcDbLine
 10
874.9830000000001
 20
65.7692
 30
0.0
 11
875.0569999999999
 21
66.07689999999999
 31
0.0
  0
LINE
  5
EB
330
1E
100
AcDbEntity
  8
0
100
AcDbLine
 10
873.497
 20
65.7692
 30
0.0
 11
873.7199999999999
 21
65.0
 31
0.0
  0
LINE
  5
EC
330
1E
100
AcDbEntity
  8
0
100
AcDbLine
 10
873.497
 20
65.7692
 30
0.0
 11
873.572
 21
66.07689999999999
 31
0.0
  0
LINE
  5
ED
330
1E
100
AcDbEntity
  8
0
100
AcDbLine
 10
874.5369999999999
 20
65.7692
 30
0.0
 11
874.76
 21
65.0
 31
0.0
  0
LINE
  5
EE
330
1E
100
AcDbEntity
  8
0
100
AcDbLine
 10
874.5369999999999
 20
65.7692
 30
0.0
 11
874.6110000000001
 21
66.07689999999999
 31
0.0
  0
LINE
  5
EF
330
1E
100
AcDbEntity
  8
0
100
AcDbLine
 10
875.8739999999999
 20
65.3846
 30
0.0
 11
875.955
 21
66.38460000000001
 31
0.0
  0
LINE
  5
F0
330
1E
100
AcDbEntity
  8
0
100
AcDbLine
 10
876.913
 20
65.3846
 30
0.0
 11
876.9949999999999
 21
66.38460000000001
 31
0.0
  0
LINE
  5
F1
330
1E
100
AcDbEntity
  8
0
100
AcDbLine
 10
876.958505755916
 20
65.52540631600709
 30
0.0
 11
877.0
 21
65.55559999999999
 31
0.0
  0
LINE
  5
F2
330
1E
100
AcDbEntity
  8
0
100
AcDbLine
 10
875.9973297703309
 20
65.7692
 30
0.0
 11
876.789670229669
 21
65.7692
 31
0.0
  0
LINE
  5
F3
330
1E
100
AcDbEntity
  8
0
100
AcDbLine
 10
877.0
 20
65.65380000000001
 30
0.0
 11
877.0
 21
66.39879999999999
 31
0.0
  0
LINE
  5
F4
330
1E
100
AcDbEntity
  8
0
100
AcDbLine
 10
877.0
 20
65.65380000000001
 30
0.0
 11
877.0
 21
65.55559999999999
 31
0.0
  0
LINE
  5
F5
330
1E
100
AcDbEntity
  8
0
100
AcDbLine
 10
877.0
 20
65.65380000000001
 30
0.0
 11
877.0
 21
65.48829999999999
 31
0.0
  0
LINE
  5
F6
330
1E
100
AcDbEntity
  8
0
100
AcDbLine
 10
877.0
 20
65.5455
 30
0.0
 11
877.0
 21
64.4818
 31
0.0
  0
LINE
  5
F8
330
1E
100
AcDbEntity
  8
0
100
AcDbLine
 10
877.0
 20
65.48829999999999
 30
0.0
 11
877.0
 21
65.55559999999999
 31
0.0
  0
LINE
  5
F9
330
1E
100
AcDbEntity
  8
0
100
AcDbLine
 10
877.0
 20
65.48829999999999
 30
0.0
 11
877.0
 21
65.65380000000001
 31
0.0
  0
LINE
  5
FC
330
1E
100
AcDbEntity
  8
0
100
AcDbLine
 10
877.115
 20
65.0279
 30
0.0
 11
877.208
 21
66.6091
 31
0.0
  0
LINE
  5
FD
330
1E
100
AcDbEntity
  8
0
100
AcDbLine
 10
877.115
 20
65.0279
 30
0.0
 11
877.2389999999999
 21
63.4553
 31
0.0
  0
LINE
  5
FE
330
1E
100
AcDbEntity
  8
0
100
AcDbLine
 10
885.0
 20
65.5455
 30
0.0
 11
885.0
 21
67.2591
 31
0.0
  0
LINE
  5
FF
330
1E
100
AcDbEntity
  8
0
100
AcDbLine
 10
885.0
 20
65.5455
 30
0.0
 11
885.0
 21
64.0682
 31
0.0
  0
LINE
  5
100
330
1E
100
AcDbEntity
  8
0
100
AcDbLine
 10
885.8788853098371
 20
65.7692
 30
0.0
 11
886.670670229669
 21
65.7692
 31
0.0
  0
LINE
  5
101
330
1E
100
AcDbEntity
  8
0
100
AcDbLine
 10
885.7549999999999
 20
65.3846
 30
0.0
 11
885.837
 21
66.38460000000001
 31
0.0
  0
LINE
  5
102
330
1E
100
AcDbEntity
  8
0
100
AcDbLine
 10
877.0
 20
65.55559999999999
 30
0.0
 11
877.0
 21
65.48829999999999
 31
0.0
  0
LINE
  5
103
330
1E
100
AcDbEntity
  8
0
100
AcDbLine
 10
877.0
 20
65.55559999999999
 30
0.0
 11
877.0
 21
65.65380000000001
 31
0.0
  0
LINE
  5
104
330
1E
100
AcDbEntity
  8
0
100
AcDbLine
 10
876.022
 20
65.7692
 30
0.0
 11
876.6160000000001
 21
65.7692
 31
0.0
  0
LINE
  5
105
330
1E
100
AcDbEntity
  8
0
100
AcDbLine
 10
876.022
 20
65.7692
 30
0.0
 11
876.096
 21
66.07689999999999
 31
0.0
  0
LINE
  5
106
330
1E
100
AcDbEntity
  8
0
100
AcDbLine
 10
875.577
 20
65.7692
 30
0.0
 11
875.7989999999999
 21
65.0
 31
0.0
  0
LINE
  5
107
330
1E
100
AcDbEntity
  8
0
100
AcDbLine
 10
875.577
 20
65.7692
 30
0.0
 11
875.651
 21
66.07689999999999
 31
0.0
  0
LINE
  5
108
330
1E
100
AcDbEntity
  8
0
100
AcDbLine
 10
876.6160000000001
 20
65.7692
 30
0.0
 11
876.839
 21
65.0
 31
0.0
  0
LINE
  5
109
330
1E
100
AcDbEntity
  8
0
100
AcDbLine
 10
876.6160000000001
 20
65.7692
 30
0.0
 11
876.6910000000001
 21
66.07689999999999
 31
0.0
  0
LINE
  5
10A
330
1E
100
AcDbEntity
  8
0
100
AcDbLine
 10
845.0
 20
65.36
 30
0.0
 11
845.0
 21
65.0
 31
0.0
  0
LINE
  5
10B
330
1E
100
AcDbEntity
  8
0
100
AcDbLine
 10
845.0
 20
65.36
 30
0.0
 11
845.0
 21
66.31999999999999
 31
0.0
  0
LINE
  5
10C
330
1E
100
AcDbEntity
  8
0
100
AcDbLine
 10
845.0
 20
65.0
 30
0.0
 11
865.0
 21
65.0
 31
0.0
  0
LINE
  5
10D
330
1E
100
AcDbEntity
  8
0
100
AcDbLine
 10
845.0
 20
65.0
 30
0.0
 11
845.0
 21
65.36
 31
0.0
  0
LINE
  5
10E
330
1E
100
AcDbEntity
  8
0
100
AcDbLine
 10
885.904
 20
65.7692
 30
0.0
 11
886.4969999999999
 21
65.7692
 31
0.0
  0
LINE
  5
10F
330
1E
100
AcDbEntity
  8
0
100
AcDbLine
 10
885.904
 20
65.7692
 30
0.0
 11
885.978
 21
66.07689999999999
 31
0.0
  0
LINE
  5
110
330
1E
100
AcDbEntity
  8
0
100
AcDbLine
 10
885.0
 20
65.7692
 30
0.0
 11
885.458
 21
65.7692
 31
0.0
  0
LINE
  5
111
330
1E
100
AcDbEntity
  8
0
100
AcDbLine
 10
885.0
 20
65.7692
 30
0.0
 11
885.631114690163
 21
65.7692
 31
0.0
  0
LINE
  5
112
330
1E
100
AcDbEntity
  8
0
100
AcDbLine
 10
886.917885309837
 20
65.7692
 30
0.0
 11
887.710114690163
 21
65.7692
 31
0.0
  0
LINE
  5
113
330
1E
100
AcDbEntity
  8
0
100
AcDbLine
 10
886.794
 20
65.3846
 30
0.0
 11
886.8760000000001
 21
66.38460000000001
 31
0.0
  0
LINE
  5
114
330
1E
100
AcDbEntity
  8
0
100
AcDbLine
 10
886.72
 20
65.0
 30
0.0
 11
886.794
 21
65.3846
 31
0.0
  0
LINE
  5
115
330
1E
100
AcDbEntity
  8
0
100
AcDbLine
 10
886.72
 20
65.0
 30
0.0
 11
886.9429999999999
 21
65.7692
 31
0.0
  0
LINE
  5
116
330
1E
100
AcDbEntity
  8
0
100
AcDbLine
 10
886.9429999999999
 20
65.7692
 30
0.0
 11
887.537
 21
65.7692
 31
0.0
  0
LINE
  5
117
330
1E
100
AcDbEntity
  8
0
100
AcDbLine
 10
886.9429999999999
 20
65.7692
 30
0.0
 11
887.0169999999999
 21
66.07689999999999
 31
0.0
  0
LINE
  5
118
330
1E
100
AcDbEntity
  8
0
100
AcDbLine
 10
886.4969999999999
 20
65.7692
 30
0.0
 11
886.72
 21
65.0
 31
0.0
  0
LINE
  5
119
330
1E
100
AcDbEntity
  8
0
100
AcDbLine
 10
886.4969999999999
 20
65.7692
 30
0.0
 11
886.5719999999999
 21
66.07689999999999
 31
0.0
  0
LINE
  5
11A
330
1E
100
AcDbEntity
  8
0
100
AcDbLine
 10
885.458
 20
65.7692
 30
0.0
 11
885.6810000000001
 21
65.0
 31
0.0
  0
LINE
  5
11B
330
1E
100
AcDbEntity
  8
0
100
AcDbLine
 10
885.458
 20
65.7692
 30
0.0
 11
885.5319999999998
 21
66.07689999999999
 31
0.0
  0
LINE
  5
11C
330
1E
100
AcDbEntity
  8
0
100
AcDbLine
 10
887.9578853098371
 20
65.7692
 30
0.0
 11
888.7501146901628
 21
65.7692
 31
0.0
  0
LINE
  5
11D
330
1E
100
AcDbEntity
  8
0
100
AcDbLine
 10
887.8339999999999
 20
65.3846
 30
0.0
 11
887.916
 21
66.38460000000001
 31
0.0
  0
LINE
  5
11E
330
1E
100
AcDbEntity
  8
0
100
AcDbLine
 10
887.7599999999999
 20
65.0
 30
0.0
 11
887.8339999999999
 21
65.3846
 31
0.0
  0
LINE
  5
11F
330
1E
100
AcDbEntity
  8
0
100
AcDbLine
 10
887.7599999999999
 20
65.0
 30
0.0
 11
887.983
 21
65.7692
 31
0.0
  0
LINE
  5
120
330
1E
100
AcDbEntity
  8
0
100
AcDbLine
 10
888.9973297703308
 20
65.7692
 30
0.0
 11
889.7896702296689
 21
65.7692
 31
0.0
  0
LINE
  5
121
330
1E
100
AcDbEntity
  8
0
100
AcDbLine
 10
888.8739999999998
 20
65.3846
 30
0.0
 11
888.9560000000001
 21
66.38460000000001
 31
0.0
  0
LINE
  5
122
330
1E
100
AcDbEntity
  8
0
100
AcDbLine
 10
888.799
 20
65.0
 30
0.0
 11
888.8739999999998
 21
65.3846
 31
0.0
  0
LINE
  5
123
330
1E
100
AcDbEntity
  8
0
100
AcDbLine
 10
888.799
 20
65.0
 30
0.0
 11
889.0219999999999
 21
65.7692
 31
0.0
  0
LINE
  5
124
330
1E
100
AcDbEntity
  8
0
100
AcDbLine
 10
887.983
 20
65.7692
 30
0.0
 11
888.577
 21
65.7692
 31
0.0
  0
LINE
  5
125
330
1E
100
AcDbEntity
  8
0
100
AcDbLine
 10
887.983
 20
65.7692
 30
0.0
 11
888.057
 21
66.07689999999999
 31
0.0
  0
LINE
  5
126
330
1E
100
AcDbEntity
  8
0
100
AcDbLine
 10
889.0219999999999
 20
65.7692
 30
0.0
 11
889.6160000000001
 21
65.7692
 31
0.0
  0
LINE
  5
127
330
1E
100
AcDbEntity
  8
0
100
AcDbLine
 10
889.0219999999999
 20
65.7692
 30
0.0
 11
889.0959999999999
 21
66.07689999999999
 31
0.0
  0
LINE
  5
128
330
1E
100
AcDbEntity
  8
0
100
AcDbLine
 10
887.537
 20
65.7692
 30
0.0
 11
887.7599999999999
 21
65.0
 31
0.0
  0
LINE
  5
129
330
1E
100
AcDbEntity
  8
0
100
AcDbLine
 10
887.537
 20
65.7692
 30
0.0
 11
887.611
 21
66.07689999999999
 31
0.0
  0
LINE
  5
12A
330
1E
100
AcDbEntity
  8
0
100
AcDbLine
 10
888.577
 20
65.7692
 30
0.0
 11
888.799
 21
65.0
 31
0.0
  0
LINE
  5
12B
330
1E
100
AcDbEntity
  8
0
100
AcDbLine
 10
888.577
 20
65.7692
 30
0.0
 11
888.6510000000001
 21
66.07689999999999
 31
0.0
  0
LINE
  5
12C
330
1E
100
AcDbEntity
  8
0
100
AcDbLine
 10
890.036885309837
 20
65.7692
 30
0.0
 11
890.829114690163
 21
65.7692
 31
0.0
  0
LINE
  5
12D
330
1E
100
AcDbEntity
  8
0
100
AcDbLine
 10
889.9129999999999
 20
65.3846
 30
0.0
 11
889.995
 21
66.38460000000001
 31
0.0
  0
LINE
  5
12E
330
1E
100
AcDbEntity
  8
0
100
AcDbLine
 10
889.8389999999999
 20
65.0
 30
0.0
 11
889.9129999999999
 21
65.3846
 31
0.0
  0
LINE
  5
12F
330
1E
100
AcDbEntity
  8
0
100
AcDbLine
 10
889.8389999999999
 20
65.0
 30
0.0
 11
890.0619999999999
 21
65.7692
 31
0.0
  0
LINE
  5
130
330
1E
100
AcDbEntity
  8
0
100
AcDbLine
 10
891.0768853098371
 20
65.7692
 30
0.0
 11
891.8691146901629
 21
65.7692
 31
0.0
  0
LINE
  5
131
330
1E
100
AcDbEntity
  8
0
100
AcDbLine
 10
890.953
 20
65.3846
 30
0.0
 11
891.0349999999999
 21
66.38460000000001
 31
0.0
  0
LINE
  5
132
330
1E
100
AcDbEntity
  8
0
100
AcDbLine
 10
890.8789999999999
 20
65.0
 30
0.0
 11
890.953
 21
65.3846
 31
0.0
  0
LINE
  5
133
330
1E
100
AcDbEntity
  8
0
100
AcDbLine
 10
890.8789999999999
 20
65.0
 30
0.0
 11
891.102
 21
65.7692
 31
0.0
  0
LINE
  5
134
330
1E
100
AcDbEntity
  8
0
100
AcDbLine
 10
890.0619999999999
 20
65.7692
 30
0.0
 11
890.656
 21
65.7692
 31
0.0
  0
LINE
  5
135
330
1E
100
AcDbEntity
  8
0
100
AcDbLine
 10
890.0619999999999
 20
65.7692
 30
0.0
 11
890.136
 21
66.07689999999999
 31
0.0
  0
LINE
  5
136
330
1E
100
AcDbEntity
  8
0
100
AcDbLine
 10
891.102
 20
65.7692
 30
0.0
 11
891.6949999999999
 21
65.7692
 31
0.0
  0
LINE
  5
137
330
1E
100
AcDbEntity
  8
0
100
AcDbLine
 10
891.102
 20
65.7692
 30
0.0
 11
891.1760000000001
 21
66.07689999999999
 31
0.0
  0
LINE
  5
138
330
1E
100
AcDbEntity
  8
0
100
AcDbLine
 10
889.6160000000001
 20
65.7692
 30
0.0
 11
889.8389999999999
 21
65.0
 31
0.0
  0
LINE
  5
139
330
1E
100
AcDbEntity
  8
0
100
AcDbLine
 10
889.6160000000001
 20
65.7692
 30
0.0
 11
889.691
 21
66.07689999999999
 31
0.0
  0
LINE
  5
13A
330
1E
100
AcDbEntity
  8
0
100
AcDbLine
 10
874.0169999999999
 20
66.07689999999999
 30
0.0
 11
874.092
 21
67.0
 31
0.0
  0
LINE
  5
13B
330
1E
100
AcDbEntity
  8
0
100
AcDbLine
 10
873.572
 20
66.07689999999999
 30
0.0
 11
873.6460000000001
 21
67.0
 31
0.0
  0
LINE
  5
13C
330
1E
100
AcDbEntity
  8
0
100
AcDbLine
 10
875.0569999999999
 20
66.07689999999999
 30
0.0
 11
875.1310000000001
 21
67.0
 31
0.0
  0
LINE
  5
13D
330
1E
100
AcDbEntity
  8
0
100
AcDbLine
 10
874.6110000000001
 20
66.07689999999999
 30
0.0
 11
874.6859999999999
 21
67.0
 31
0.0
  0
LINE
  5
13E
330
1E
100
AcDbEntity
  8
0
100
AcDbLine
 10
876.096
 20
66.07689999999999
 30
0.0
 11
876.171
 21
67.0
 31
0.0
  0
LINE
  5
13F
330
1E
100
AcDbEntity
  8
0
100
AcDbLine
 10
875.651
 20
66.07689999999999
 30
0.0
 11
875.725
 21
67.0
 31
0.0
  0
LINE
  5
140
330
1E
100
AcDbEntity
  8
0
100
AcDbLine
 10
877.0
 20
65.8148
 30
0.0
 11
877.0
 21
66.39879999999999
 31
0.0
  0
LINE
  5
141
330
1E
100
AcDbEntity
  8
0
100
AcDbLine
 10
876.6910000000001
 20
66.07689999999999
 30
0.0
 11
876.7649999999999
 21
67.0
 31
0.0
  0
LINE
  5
142
330
1E
100
AcDbEntity
  8
0
100
AcDbLine
 10
873.876
 20
66.38460000000001
 30
0.0
 11
873.9209999999999
 21
67.9231
 31
0.0
  0
LINE
  5
143
330
1E
100
AcDbEntity
  8
0
100
AcDbLine
 10
873.0
 20
66.3539
 30
0.0
 11
873.052
 21
67.0
 31
0.0
  0
LINE
  5
144
330
1E
100
AcDbEntity
  8
0
100
AcDbLine
 10
874.9160000000001
 20
66.38460000000001
 30
0.0
 11
874.96
 21
67.9231
 31
0.0
  0
LINE
  5
145
330
1E
100
AcDbEntity
  8
0
100
AcDbLine
 10
875.955
 20
66.38460000000001
 30
0.0
 11
876.0
 21
67.9231
 31
0.0
  0
LINE
  5
146
330
1E
100
AcDbEntity
  8
0
100
AcDbLine
 10
872.7919999999999
 20
66.6091
 30
0.0
 11
872.8849999999999
 21
65.0279
 31
0.0
  0
LINE
  5
149
330
1E
100
AcDbEntity
  8
0
100
AcDbLine
 10
865.2080000000001
 20
66.6091
 30
0.0
 11
865.571
 21
67.7165
 31
0.0
  0
LINE
  5
14A
330
1E
100
AcDbEntity
  8
0
100
AcDbLine
 10
877.0
 20
66.39879999999999
 30
0.0
 11
877.0
 21
66.5556
 31
0.0
  0
LINE
  5
14C
330
1E
100
AcDbEntity
  8
0
100
AcDbLine
 10
876.9949999999999
 20
66.38460000000001
 30
0.0
 11
877.0
 21
66.5556
 31
0.0
  0
LINE
  5
14D
330
1E
100
AcDbEntity
  8
0
100
AcDbLine
 10
884.792
 20
66.6091
 30
0.0
 11
884.885
 21
65.0279
 31
0.0
  0
LINE
  5
150
330
1E
100
AcDbEntity
  8
0
100
AcDbLine
 10
877.208
 20
66.6091
 30
0.0
 11
877.571
 21
67.7165
 31
0.0
  0
LINE
  5
151
330
1E
100
AcDbEntity
  8
0
100
AcDbLine
 10
877.0
 20
66.5556
 30
0.0
 11
877.0
 21
68.0128
 31
0.0
  0
LINE
  5
152
330
1E
100
AcDbEntity
  8
0
100
AcDbLine
 10
865.0
 20
66.31999999999999
 30
0.0
 11
865.0
 21
67.92
 31
0.0
  0
LINE
  5
153
330
1E
100
AcDbEntity
  8
0
100
AcDbLine
 10
885.978
 20
66.07689999999999
 30
0.0
 11
886.0520000000001
 21
67.0
 31
0.0
  0
LINE
  5
154
330
1E
100
AcDbEntity
  8
0
100
AcDbLine
 10
885.837
 20
66.38460000000001
 30
0.0
 11
885.8810000000001
 21
67.9231
 31
0.0
  0
LINE
  5
155
330
1E
100
AcDbEntity
  8
0
100
AcDbLine
 10
885.5319999999998
 20
66.07689999999999
 30
0.0
 11
885.6060000000001
 21
67.0
 31
0.0
  0
LINE
  5
156
330
1E
100
AcDbEntity
  8
0
100
AcDbLine
 10
874.092
 20
67.0
 30
0.0
 11
874.1289999999999
 21
68.4615
 31
0.0
  0
LINE
  5
157
330
1E
100
AcDbEntity
  8
0
100
AcDbLine
 10
873.6460000000001
 20
67.0
 30
0.0
 11
873.6829999999999
 21
68.4615
 31
0.0
  0
LINE
  5
158
330
1E
100
AcDbEntity
  8
0
100
AcDbLine
 10
873.052
 20
67.0
 30
0.0
 11
873.089
 21
68.4615
 31
0.0
  0
LINE
  5
159
330
1E
100
AcDbEntity
  8
0
100
AcDbLine
 10
875.1310000000001
 20
67.0
 30
0.0
 11
875.168
 21
68.4615
 31
0.0
  0
LINE
  5
15A
330
1E
100
AcDbEntity
  8
0
100
AcDbLine
 10
874.6859999999999
 20
67.0
 30
0.0
 11
874.723
 21
68.4615
 31
0.0
  0
LINE
  5
15B
330
1E
100
AcDbEntity
  8
0
100
AcDbLine
 10
876.171
 20
67.0
 30
0.0
 11
876.208
 21
68.4615
 31
0.0
  0
LINE
  5
15C
330
1E
100
AcDbEntity
  8
0
100
AcDbLine
 10
875.725
 20
67.0
 30
0.0
 11
875.7619999999999
 21
68.4615
 31
0.0
  0
LINE
  5
15E
330
1E
100
AcDbEntity
  8
0
100
AcDbLine
 10
876.7649999999999
 20
67.0
 30
0.0
 11
876.8019999999999
 21
68.4615
 31
0.0
  0
LINE
  5
160
330
1E
100
AcDbEntity
  8
0
100
AcDbLine
 10
885.6060000000001
 20
67.0
 30
0.0
 11
885.6439999999999
 21
68.4615
 31
0.0
  0
LINE
  5
161
330
1E
100
AcDbEntity
  8
0
100
AcDbLine
 10
885.012
 20
67.0
 30
0.0
 11
885.049
 21
68.4615
 31
0.0
  0
LINE
  5
162
330
1E
100
AcDbEntity
  8
0
100
AcDbLine
 10
885.0
 20
66.84619999999999
 30
0.0
 11
885.012
 21
67.0
 31
0.0
  0
LINE
  5
163
330
1E
100
AcDbEntity
  8
0
100
AcDbLine
 10
845.0
 20
66.31999999999999
 30
0.0
 11
845.0
 21
65.36
 31
0.0
  0
LINE
  5
164
330
1E
100
AcDbEntity
  8
0
100
AcDbLine
 10
845.0
 20
66.31999999999999
 30
0.0
 11
845.0
 21
67.0
 31
0.0
  0
LINE
  5
165
330
1E
100
AcDbEntity
  8
0
100
AcDbLine
 10
845.0
 20
66.31999999999999
 30
0.0
 11
845.0
 21
67.92
 31
0.0
  0
LINE
  5
166
330
1E
100
AcDbEntity
  8
0
100
AcDbLine
 10
845.0
 20
67.92
 30
0.0
 11
845.0
 21
66.31999999999999
 31
0.0
  0
LINE
  5
167
330
1E
100
AcDbEntity
  8
0
100
AcDbLine
 10
845.0
 20
67.92
 30
0.0
 11
845.0
 21
70.04000000000001
 31
0.0
  0
LINE
  5
168
330
1E
100
AcDbEntity
  8
0
100
AcDbLine
 10
845.0
 20
67.28799999999999
 30
0.0
 11
845.0
 21
67.0
 31
0.0
  0
LINE
  5
169
330
1E
100
AcDbEntity
  8
0
100
AcDbLine
 10
845.0
 20
67.28799999999999
 30
0.0
 11
845.0
 21
68.056
 31
0.0
  0
LINE
  5
16A
330
1E
100
AcDbEntity
  8
0
100
AcDbLine
 10
845.0
 20
68.056
 30
0.0
 11
845.0
 21
67.28799999999999
 31
0.0
  0
LINE
  5
16B
330
1E
100
AcDbEntity
  8
0
100
AcDbLine
 10
845.0
 20
68.056
 30
0.0
 11
845.0
 21
69.336
 31
0.0
  0
LINE
  5
16C
330
1E
100
AcDbEntity
  8
0
100
AcDbLine
 10
845.0
 20
70.04000000000001
 30
0.0
 11
845.0
 21
67.92
 31
0.0
  0
LINE
  5
16D
330
1E
100
AcDbEntity
  8
0
100
AcDbLine
 10
845.0
 20
70.04000000000001
 30
0.0
 11
845.0
 21
72.43999999999999
 31
0.0
  0
LINE
  5
16E
330
1E
100
AcDbEntity
  8
0
100
AcDbLine
 10
845.0
 20
72.43999999999999
 30
0.0
 11
845.0
 21
70.04000000000001
 31
0.0
  0
LINE
  5
16F
330
1E
100
AcDbEntity
  8
0
100
AcDbLine
 10
845.0
 20
72.43999999999999
 30
0.0
 11
845.0
 21
75.0
 31
0.0
  0
LINE
  5
170
330
1E
100
AcDbEntity
  8
0
100
AcDbLine
 10
845.0
 20
69.336
 30
0.0
 11
845.0
 21
68.056
 31
0.0
  0
LINE
  5
171
330
1E
100
AcDbEntity
  8
0
100
AcDbLine
 10
845.0
 20
69.336
 30
0.0
 11
845.0
 21
71.032
 31
0.0
  0
LINE
  5
172
330
1E
100
AcDbEntity
  8
0
100
AcDbLine
 10
845.0
 20
71.032
 30
0.0
 11
845.0
 21
69.336
 31
0.0
  0
LINE
  5
173
330
1E
100
AcDbEntity
  8
0
100
AcDbLine
 10
845.0
 20
71.032
 30
0.0
 11
845.0
 21
72.952
 31
0.0
  0
LINE
  5
174
330
1E
100
AcDbEntity
  8
0
100
AcDbLine
 10
845.0
 20
77.56
 30
0.0
 11
845.0
 21
75.0
 31
0.0
  0
LINE
  5
175
330
1E
100
AcDbEntity
  8
0
100
AcDbLine
 10
845.0
 20
77.56
 30
0.0
 11
845.0
 21
79.95999999999999
 31
0.0
  0
LINE
  5
176
330
1E
100
AcDbEntity
  8
0
100
AcDbLine
 10
845.0
 20
79.95999999999999
 30
0.0
 11
845.0
 21
77.56
 31
0.0
  0
LINE
  5
177
330
1E
100
AcDbEntity
  8
0
100
AcDbLine
 10
845.0
 20
79.95999999999999
 30
0.0
 11
845.0
 21
82.08
 31
0.0
  0
LINE
  5
178
330
1E
100
AcDbEntity
  8
0
100
AcDbLine
 10
845.0
 20
82.08
 30
0.0
 11
845.0
 21
79.95999999999999
 31
0.0
  0
LINE
  5
179
330
1E
100
AcDbEntity
  8
0
100
AcDbLine
 10
845.0
 20
82.08
 30
0.0
 11
845.0
 21
83.68
 31
0.0
  0
LINE
  5
17A
330
1E
100
AcDbEntity
  8
0
100
AcDbLine
 10
845.0
 20
82.712
 30
0.0
 11
845.0
 21
81.94399999999999
 31
0.0
  0
LINE
  5
17B
330
1E
100
AcDbEntity
  8
0
100
AcDbLine
 10
845.0
 20
82.712
 30
0.0
 11
845.0
 21
83.0
 31
0.0
  0
LINE
  5
17C
330
1E
100
AcDbEntity
  8
0
100
AcDbLine
 10
845.0
 20
81.94399999999999
 30
0.0
 11
845.0
 21
80.66399999999999
 31
0.0
  0
LINE
  5
17D
330
1E
100
AcDbEntity
  8
0
100
AcDbLine
 10
845.0
 20
81.94399999999999
 30
0.0
 11
845.0
 21
82.712
 31
0.0
  0
LINE
  5
17E
330
1E
100
AcDbEntity
  8
0
100
AcDbLine
 10
845.0
 20
80.66399999999999
 30
0.0
 11
845.0
 21
78.968
 31
0.0
  0
LINE
  5
17F
330
1E
100
AcDbEntity
  8
0
100
AcDbLine
 10
845.0
 20
80.66399999999999
 30
0.0
 11
845.0
 21
81.94399999999999
 31
0.0
  0
LINE
  5
180
330
1E
100
AcDbEntity
  8
0
100
AcDbLine
 10
845.0
 20
78.968
 30
0.0
 11
845.0
 21
77.048
 31
0.0
  0
LINE
  5
181
330
1E
100
AcDbEntity
  8
0
100
AcDbLine
 10
845.0
 20
78.968
 30
0.0
 11
845.0
 21
80.66399999999999
 31
0.0
  0
LINE
  5
182
330
1E
100
AcDbEntity
  8
0
100
AcDbLine
 10
845.0
 20
77.048
 30
0.0
 11
845.0
 21
75.0
 31
0.0
  0
LINE
  5
183
330
1E
100
AcDbEntity
  8
0
100
AcDbLine
 10
845.0
 20
77.048
 30
0.0
 11
845.0
 21
78.968
 31
0.0
  0
LINE
  5
184
330
1E
100
AcDbEntity
  8
0
100
AcDbLine
 10
845.0
 20
72.952
 30
0.0
 11
845.0
 21
71.032
 31
0.0
  0
LINE
  5
185
330
1E
100
AcDbEntity
  8
0
100
AcDbLine
 10
845.0
 20
72.952
 30
0.0
 11
845.0
 21
75.0
 31
0.0
  0
LINE
  5
186
330
1E
100
AcDbEntity
  8
0
100
AcDbLine
 10
845.0
 20
75.0
 30
0.0
 11
845.0
 21
72.952
 31
0.0
  0
LINE
  5
187
330
1E
100
AcDbEntity
  8
0
100
AcDbLine
 10
845.0
 20
75.0
 30
0.0
 11
845.0
 21
77.048
 31
0.0
  0
LINE
  5
188
330
1E
100
AcDbEntity
  8
0
100
AcDbLine
 10
845.0
 20
75.0
 30
0.0
 11
845.0
 21
72.43999999999999
 31
0.0
  0
LINE
  5
189
330
1E
100
AcDbEntity
  8
0
100
AcDbLine
 10
845.0
 20
75.0
 30
0.0
 11
845.0
 21
77.56
 31
0.0
  0
LINE
  5
18A
330
1E
100
AcDbEntity
  8
0
100
AcDbLine
 10
845.0
 20
83.68
 30
0.0
 11
845.0
 21
84.64
 31
0.0
  0
LINE
  5
18B
330
1E
100
AcDbEntity
  8
0
100
AcDbLine
 10
845.0
 20
83.68
 30
0.0
 11
845.0
 21
83.0
 31
0.0
  0
LINE
  5
18C
330
1E
100
AcDbEntity
  8
0
100
AcDbLine
 10
845.0
 20
83.68
 30
0.0
 11
845.0
 21
82.08
 31
0.0
  0
LINE
  5
18E
330
1E
100
AcDbEntity
  8
0
100
AcDbLine
 10
865.0
 20
67.92
 30
0.0
 11
865.0
 21
70.04000000000001
 31
0.0
  0
LINE
  5
18F
330
1E
100
AcDbEntity
  8
0
100
AcDbLine
 10
865.0
 20
72.16370000000001
 30
0.0
 11
865.0
 21
75.0
 31
0.0
  0
LINE
  5
190
330
1E
100
AcDbEntity
  8
0
100
AcDbLine
 10
865.0
 20
77.83629999999999
 30
0.0
 11
865.0
 21
75.0
 31
0.0
  0
LINE
  5
191
330
1E
100
AcDbEntity
  8
0
100
AcDbLine
 10
865.0
 20
83.68
 30
0.0
 11
865.0
 21
84.64
 31
0.0
  0
LINE
  5
192
330
1E
100
AcDbEntity
  8
0
100
AcDbLine
 10
865.0
 20
82.08
 30
0.0
 11
865.0
 21
83.68
 31
0.0
  0
LINE
  5
193
330
1E
100
AcDbEntity
  8
0
100
AcDbLine
 10
865.0
 20
79.95999999999999
 30
0.0
 11
865.0
 21
82.08
 31
0.0
  0
LINE
  5
194
330
1E
100
AcDbEntity
  8
0
100
AcDbLine
 10
865.0
 20
77.56
 30
0.0
 11
865.0
 21
79.95999999999999
 31
0.0
  0
LINE
  5
195
330
1E
100
AcDbEntity
  8
0
100
AcDbLine
 10
865.0
 20
75.0
 30
0.0
 11
865.0
 21
77.56
 31
0.0
  0
LINE
  5
196
330
1E
100
AcDbEntity
  8
0
100
AcDbLine
 10
865.0
 20
75.0
 30
0.0
 11
865.0
 21
77.83629999999999
 31
0.0
  0
LINE
  5
197
330
1E
100
AcDbEntity
  8
0
100
AcDbLine
 10
865.0
 20
75.0
 30
0.0
 11
865.0
 21
72.16370000000001
 31
0.0
  0
LINE
  5
198
330
1E
100
AcDbEntity
  8
0
100
AcDbLine
 10
865.0
 20
70.04000000000001
 30
0.0
 11
865.0
 21
72.43999999999999
 31
0.0
  0
LINE
  5
199
330
1E
100
AcDbEntity
  8
0
100
AcDbLine
 10
865.571
 20
67.7165
 30
0.0
 11
865.571
 21
68.67729999999989
 31
0.0
  0
LINE
  5
19A
330
1E
100
AcDbEntity
  8
0
100
AcDbLine
 10
872.4289999999999
 20
67.7165
 30
0.0
 11
872.7919999999999
 21
66.6091
 31
0.0
  0
LINE
  5
19B
330
1E
100
AcDbEntity
  8
0
100
AcDbLine
 10
872.4289999999999
 20
67.7165
 30
0.0
 11
872.4289999999999
 21
68.67729999999989
 31
0.0
  0
LINE
  5
19E
330
1E
100
AcDbEntity
  8
0
100
AcDbLine
 10
873.6829999999999
 20
68.4615
 30
0.0
 11
873.7199999999999
 21
70.3846
 31
0.0
  0
LINE
  5
19F
330
1E
100
AcDbEntity
  8
0
100
AcDbLine
 10
874.1289999999999
 20
68.4615
 30
0.0
 11
874.1660000000001
 21
70.3846
 31
0.0
  0
LINE
  5
1A0
330
1E
100
AcDbEntity
  8
0
100
AcDbLine
 10
873.9209999999999
 20
67.9231
 30
0.0
 11
873.9580000000001
 21
70.0
 31
0.0
  0
LINE
  5
1A1
330
1E
100
AcDbEntity
  8
0
100
AcDbLine
 10
873.089
 20
68.4615
 30
0.0
 11
873.126
 21
70.3846
 31
0.0
  0
LINE
  5
1A2
330
1E
100
AcDbEntity
  8
0
100
AcDbLine
 10
873.0
 20
67.2591
 30
0.0
 11
873.0
 21
69.5636
 31
0.0
  0
LINE
  5
1A3
330
1E
100
AcDbEntity
  8
0
100
AcDbLine
 10
873.0
 20
67.2591
 30
0.0
 11
873.0
 21
65.5455
 31
0.0
  0
LINE
  5
1A4
330
1E
100
AcDbEntity
  8
0
100
AcDbLine
 10
865.571
 20
68.67729999999989
 30
0.0
 11
865.571
 21
67.7165
 31
0.0
  0
LINE
  5
1A5
330
1E
100
AcDbEntity
  8
0
100
AcDbLine
 10
865.571
 20
68.67729999999989
 30
0.0
 11
865.571
 21
69.2626
 31
0.0
  0
LINE
  5
1AC
330
1E
100
AcDbEntity
  8
0
100
AcDbLine
 10
872.4289999999999
 20
68.67729999999989
 30
0.0
 11
872.4289999999999
 21
69.2626
 31
0.0
  0
LINE
  5
1AF
330
1E
100
AcDbEntity
  8
0
100
AcDbLine
 10
872.4289999999999
 20
68.67729999999989
 30
0.0
 11
872.4289999999999
 21
67.7165
 31
0.0
  0
LINE
  5
1B2
330
1E
100
AcDbEntity
  8
0
100
AcDbLine
 10
865.571
 20
68.48359999999999
 30
0.0
 11
872.4289999999999
 21
68.48359999999999
 31
0.0
  0
LINE
  5
1B4
330
1E
100
AcDbEntity
  8
0
100
AcDbLine
 10
865.571
 20
69.2626
 30
0.0
 11
865.571
 21
68.67729999999989
 31
0.0
  0
LINE
  5
1B5
330
1E
100
AcDbEntity
  8
0
100
AcDbLine
 10
872.4289999999999
 20
69.2626
 30
0.0
 11
872.863
 21
72.0218
 31
0.0
  0
LINE
  5
1B6
330
1E
100
AcDbEntity
  8
0
100
AcDbLine
 10
872.4289999999999
 20
69.2626
 30
0.0
 11
872.4289999999999
 21
68.67729999999989
 31
0.0
  0
LINE
  5
1B7
330
1E
100
AcDbEntity
  8
0
100
AcDbLine
 10
873.0
 20
69.5636
 30
0.0
 11
873.0
 21
72.16370000000001
 31
0.0
  0
LINE
  5
1B8
330
1E
100
AcDbEntity
  8
0
100
AcDbLine
 10
873.0
 20
69.5636
 30
0.0
 11
873.0
 21
67.2591
 31
0.0
  0
LINE
  5
1B9
330
1E
100
AcDbEntity
  8
0
100
AcDbLine
 10
873.7199999999999
 20
70.3846
 30
0.0
 11
873.7430000000001
 21
72.6154
 31
0.0
  0
LINE
  5
1BA
330
1E
100
AcDbEntity
  8
0
100
AcDbLine
 10
874.1660000000001
 20
70.3846
 30
0.0
 11
874.188
 21
72.6154
 31
0.0
  0
LINE
  5
1BB
330
1E
100
AcDbEntity
  8
0
100
AcDbLine
 10
873.9580000000001
 20
70.0
 30
0.0
 11
873.9730000000001
 21
72.3846
 31
0.0
  0
LINE
  5
1BC
330
1E
100
AcDbEntity
  8
0
100
AcDbLine
 10
865.137
 20
72.0218
 30
0.0
 11
865.571
 21
69.2626
 31
0.0
  0
LINE
  5
1BD
330
1E
100
AcDbEntity
  8
0
100
AcDbLine
 10
873.0
 20
72.16370000000001
 30
0.0
 11
873.0
 21
69.5636
 31
0.0
  0
LINE
  5
1BE
330
1E
100
AcDbEntity
  8
0
100
AcDbLine
 10
873.0
 20
72.16370000000001
 30
0.0
 11
873.0
 21
75.0
 31
0.0
  0
LINE
  5
1BF
330
1E
100
AcDbEntity
  8
0
100
AcDbLine
 10
872.863
 20
72.0218
 30
0.0
 11
872.943
 21
75.0
 31
0.0
  0
LINE
  5
1C2
330
1E
100
AcDbEntity
  8
0
100
AcDbLine
 10
873.0
 20
75.0
 30
0.0
 11
873.0
 21
77.83629999999999
 31
0.0
  0
LINE
  5
1C3
330
1E
100
AcDbEntity
  8
0
100
AcDbLine
 10
873.0
 20
75.0
 30
0.0
 11
873.0
 21
72.16370000000001
 31
0.0
  0
LINE
  5
1C4
330
1E
100
AcDbEntity
  8
0
100
AcDbLine
 10
865.057
 20
75.0
 30
0.0
 11
865.137
 21
77.9782
 31
0.0
  0
LINE
  5
1C5
330
1E
100
AcDbEntity
  8
0
100
AcDbLine
 10
865.057
 20
75.0
 30
0.0
 11
865.137
 21
72.0218
 31
0.0
  0
LINE
  5
1C6
330
1E
100
AcDbEntity
  8
0
100
AcDbLine
 10
873.7569999999999
 20
75.0
 30
0.0
 11
873.7719999999999
 21
77.3846
 31
0.0
  0
LINE
  5
1C7
330
1E
100
AcDbEntity
  8
0
100
AcDbLine
 10
873.7430000000001
 20
72.6154
 30
0.0
 11
873.7569999999999
 21
75.0
 31
0.0
  0
LINE
  5
1C8
330
1E
100
AcDbEntity
  8
0
100
AcDbLine
 10
873.98
 20
75.0
 30
0.0
 11
873.9880000000001
 21
77.6154
 31
0.0
  0
LINE
  5
1C9
330
1E
100
AcDbEntity
  8
0
100
AcDbLine
 10
874.2029999999999
 20
75.0
 30
0.0
 11
874.2180000000001
 21
77.3846
 31
0.0
  0
LINE
  5
1CA
330
1E
100
AcDbEntity
  8
0
100
AcDbLine
 10
874.188
 20
72.6154
 30
0.0
 11
874.2029999999999
 21
75.0
 31
0.0
  0
LINE
  5
1CB
330
1E
100
AcDbEntity
  8
0
100
AcDbLine
 10
873.9730000000001
 20
72.3846
 30
0.0
 11
873.98
 21
75.0
 31
0.0
  0
LINE
  5
1CC
330
1E
100
AcDbEntity
  8
0
100
AcDbLine
 10
873.163
 20
75.0
 30
0.0
 11
873.178
 21
77.3846
 31
0.0
  0
LINE
  5
1CD
330
1E
100
AcDbEntity
  8
0
100
AcDbLine
 10
873.1480000000001
 20
72.6154
 30
0.0
 11
873.163
 21
75.0
 31
0.0
  0
LINE
  5
1CE
330
1E
100
AcDbEntity
  8
0
100
AcDbLine
 10
873.126
 20
70.3846
 30
0.0
 11
873.1480000000001
 21
72.6154
 31
0.0
  0
LINE
  5
1CF
330
1E
100
AcDbEntity
  8
0
100
AcDbLine
 10
874.7819999999999
 20
72.6154
 30
0.0
 11
874.797
 21
75.0
 31
0.0
  0
LINE
  5
1D0
330
1E
100
AcDbEntity
  8
0
100
AcDbLine
 10
874.76
 20
70.3846
 30
0.0
 11
874.7819999999999
 21
72.6154
 31
0.0
  0
LINE
  5
1D1
330
1E
100
AcDbEntity
  8
0
100
AcDbLine
 10
874.723
 20
68.4615
 30
0.0
 11
874.76
 21
70.3846
 31
0.0
  0
LINE
  5
1D2
330
1E
100
AcDbEntity
  8
0
100
AcDbLine
 10
875.0119999999999
 20
72.3846
 30
0.0
 11
875.0199999999999
 21
75.0
 31
0.0
  0
LINE
  5
1D3
330
1E
100
AcDbEntity
  8
0
100
AcDbLine
 10
874.9969999999999
 20
70.0
 30
0.0
 11
875.0119999999999
 21
72.3846
 31
0.0
  0
LINE
  5
1D4
330
1E
100
AcDbEntity
  8
0
100
AcDbLine
 10
874.96
 20
67.9231
 30
0.0
 11
874.9969999999999
 21
70.0
 31
0.0
  0
LINE
  5
1D5
330
1E
100
AcDbEntity
  8
0
100
AcDbLine
 10
874.797
 20
75.0
 30
0.0
 11
874.812
 21
77.3846
 31
0.0
  0
LINE
  5
1D6
330
1E
100
AcDbEntity
  8
0
100
AcDbLine
 10
873.7719999999999
 20
77.3846
 30
0.0
 11
873.7949999999999
 21
79.61539999999999
 31
0.0
  0
LINE
  5
1D7
330
1E
100
AcDbEntity
  8
0
100
AcDbLine
 10
874.2180000000001
 20
77.3846
 30
0.0
 11
874.2399999999999
 21
79.61539999999999
 31
0.0
  0
LINE
  5
1D8
330
1E
100
AcDbEntity
  8
0
100
AcDbLine
 10
873.178
 20
77.3846
 30
0.0
 11
873.201
 21
79.61539999999999
 31
0.0
  0
LINE
  5
1D9
330
1E
100
AcDbEntity
  8
0
100
AcDbLine
 10
873.0
 20
77.83629999999999
 30
0.0
 11
873.0
 21
75.0
 31
0.0
  0
LINE
  5
1DA
330
1E
100
AcDbEntity
  8
0
100
AcDbLine
 10
873.0
 20
77.83629999999999
 30
0.0
 11
873.0
 21
80.4363
 31
0.0
  0
LINE
  5
1DB
330
1E
100
AcDbEntity
  8
0
100
AcDbLine
 10
865.137
 20
77.9782
 30
0.0
 11
865.571
 21
80.73739999999999
 31
0.0
  0
LINE
  5
1DC
330
1E
100
AcDbEntity
  8
0
100
AcDbLine
 10
872.863
 20
77.9782
 30
0.0
 11
872.943
 21
75.0
 31
0.0
  0
LINE
  5
1DF
330
1E
100
AcDbEntity
  8
0
100
AcDbLine
 10
873.7949999999999
 20
79.61539999999999
 30
0.0
 11
873.8319999999999
 21
81.5385
 31
0.0
  0
LINE
  5
1E0
330
1E
100
AcDbEntity
  8
0
100
AcDbLine
 10
873.9880000000001
 20
77.6154
 30
0.0
 11
874.003
 21
80.0
 31
0.0
  0
LINE
  5
1E1
330
1E
100
AcDbEntity
  8
0
100
AcDbLine
 10
874.003
 20
80.0
 30
0.0
 11
874.0399999999999
 21
82.07689999999999
 31
0.0
  0
LINE
  5
1E2
330
1E
100
AcDbEntity
  8
0
100
AcDbLine
 10
874.2399999999999
 20
79.61539999999999
 30
0.0
 11
874.277
 21
81.5385
 31
0.0
  0
LINE
  5
1E3
330
1E
100
AcDbEntity
  8
0
100
AcDbLine
 10
873.201
 20
79.61539999999999
 30
0.0
 11
873.238
 21
81.5385
 31
0.0
  0
LINE
  5
1E4
330
1E
100
AcDbEntity
  8
0
100
AcDbLine
 10
874.812
 20
77.3846
 30
0.0
 11
874.8339999999998
 21
79.61539999999999
 31
0.0
  0
LINE
  5
1E5
330
1E
100
AcDbEntity
  8
0
100
AcDbLine
 10
874.8339999999998
 20
79.61539999999999
 30
0.0
 11
874.871
 21
81.5385
 31
0.0
  0
LINE
  5
1E6
330
1E
100
AcDbEntity
  8
0
100
AcDbLine
 10
875.0199999999999
 20
75.0
 30
0.0
 11
875.0269999999998
 21
77.6154
 31
0.0
  0
LINE
  5
1E7
330
1E
100
AcDbEntity
  8
0
100
AcDbLine
 10
875.0269999999998
 20
77.6154
 30
0.0
 11
875.042
 21
80.0
 31
0.0
  0
LINE
  5
1E8
330
1E
100
AcDbEntity
  8
0
100
AcDbLine
 10
865.571
 20
81.3227999999999
 30
0.0
 11
865.571
 21
80.73739999999999
 31
0.0
  0
LINE
  5
1E9
330
1E
100
AcDbEntity
  8
0
100
AcDbLine
 10
865.571
 20
81.3227999999999
 30
0.0
 11
865.571
 21
82.2835
 31
0.0
  0
LINE
  5
1EE
330
1E
100
AcDbEntity
  8
0
100
AcDbLine
 10
865.571
 20
81.5165
 30
0.0
 11
872.4289999999999
 21
81.5165
 31
0.0
  0
LINE
  5
1F1
330
1E
100
AcDbEntity
  8
0
100
AcDbLine
 10
872.4289999999999
 20
81.3227999999999
 30
0.0
 11
872.4289999999999
 21
82.2835
 31
0.0
  0
LINE
  5
1F2
330
1E
100
AcDbEntity
  8
0
100
AcDbLine
 10
872.4289999999999
 20
81.3227999999999
 30
0.0
 11
872.4289999999999
 21
80.73739999999999
 31
0.0
  0
LINE
  5
1F8
330
1E
100
AcDbEntity
  8
0
100
AcDbLine
 10
865.571
 20
80.73739999999999
 30
0.0
 11
865.571
 21
81.3227999999999
 31
0.0
  0
LINE
  5
1F9
330
1E
100
AcDbEntity
  8
0
100
AcDbLine
 10
873.0
 20
82.74089999999999
 30
0.0
 11
873.0
 21
77.83629999999999
 31
0.0
  0
LINE
  5
1FC
330
1E
100
AcDbEntity
  8
0
100
AcDbLine
 10
872.4289999999999
 20
80.73739999999999
 30
0.0
 11
872.863
 21
77.9782
 31
0.0
  0
LINE
  5
1FD
330
1E
100
AcDbEntity
  8
0
100
AcDbLine
 10
872.4289999999999
 20
80.73739999999999
 30
0.0
 11
872.4289999999999
 21
81.3227999999999
 31
0.0
  0
LINE
  5
1FE
330
1E
100
AcDbEntity
  8
0
100
AcDbLine
 10
865.571
 20
82.2835
 30
0.0
 11
865.571
 21
81.3227999999999
 31
0.0
  0
LINE
  5
1FF
330
1E
100
AcDbEntity
  8
0
100
AcDbLine
 10
873.0
 20
82.74089999999999
 30
0.0
 11
873.0
 21
84.4546
 31
0.0
  0
LINE
  5
200
330
1E
100
AcDbEntity
  8
0
100
AcDbLine
 10
872.4289999999999
 20
82.2835
 30
0.0
 11
872.7919999999999
 21
83.3909
 31
0.0
  0
LINE
  5
201
330
1E
100
AcDbEntity
  8
0
100
AcDbLine
 10
872.4289999999999
 20
82.2835
 30
0.0
 11
872.4289999999999
 21
81.3227999999999
 31
0.0
  0
LINE
  5
202
330
1E
100
AcDbEntity
  8
0
100
AcDbLine
 10
873.0
 20
82.07689999999999
 30
0.0
 11
873.0449999999999
 21
83.61539999999999
 31
0.0
  0
LINE
  5
203
330
1E
100
AcDbEntity
  8
0
100
AcDbLine
 10
873.8319999999999
 20
81.5385
 30
0.0
 11
873.869
 21
83.0
 31
0.0
  0
LINE
  5
204
330
1E
100
AcDbEntity
  8
0
100
AcDbLine
 10
873.869
 20
83.0
 30
0.0
 11
873.943
 21
83.9231
 31
0.0
  0
LINE
  5
205
330
1E
100
AcDbEntity
  8
0
100
AcDbLine
 10
874.0399999999999
 20
82.07689999999999
 30
0.0
 11
874.084
 21
83.61539999999999
 31
0.0
  0
LINE
  5
206
330
1E
100
AcDbEntity
  8
0
100
AcDbLine
 10
874.277
 20
81.5385
 30
0.0
 11
874.314
 21
83.0
 31
0.0
  0
LINE
  5
207
330
1E
100
AcDbEntity
  8
0
100
AcDbLine
 10
874.314
 20
83.0
 30
0.0
 11
874.3889999999998
 21
83.9231
 31
0.0
  0
LINE
  5
208
330
1E
100
AcDbEntity
  8
0
100
AcDbLine
 10
873.238
 20
81.5385
 30
0.0
 11
873.2749999999999
 21
83.0
 31
0.0
  0
LINE
  5
209
330
1E
100
AcDbEntity
  8
0
100
AcDbLine
 10
873.2749999999999
 20
83.0
 30
0.0
 11
873.3489999999999
 21
83.9231
 31
0.0
  0
LINE
  5
20A
330
1E
100
AcDbEntity
  8
0
100
AcDbLine
 10
874.871
 20
81.5385
 30
0.0
 11
874.9080000000001
 21
83.0
 31
0.0
  0
LINE
  5
20B
330
1E
100
AcDbEntity
  8
0
100
AcDbLine
 10
872.7919999999999
 20
83.3909
 30
0.0
 11
872.8849999999999
 21
84.9721
 31
0.0
  0
LINE
  5
20E
330
1E
100
AcDbEntity
  8
0
100
AcDbLine
 10
865.2080000000001
 20
83.3909
 30
0.0
 11
865.571
 21
82.2835
 31
0.0
  0
LINE
  5
20F
330
1E
100
AcDbEntity
  8
0
100
AcDbLine
 10
873.249885309837
 20
84.2308
 30
0.0
 11
874.0421146901629
 21
84.2308
 31
0.0
  0
LINE
  5
210
330
1E
100
AcDbEntity
  8
0
100
AcDbLine
 10
873.0449999999999
 20
83.61539999999999
 30
0.0
 11
873.126
 21
84.61539999999999
 31
0.0
  0
LINE
  5
211
330
1E
100
AcDbEntity
  8
0
100
AcDbLine
 10
873.943
 20
83.9231
 30
0.0
 11
874.0169999999999
 21
84.2308
 31
0.0
  0
LINE
  5
212
330
1E
100
AcDbEntity
  8
0
100
AcDbLine
 10
874.084
 20
83.61539999999999
 30
0.0
 11
874.1660000000001
 21
84.61539999999999
 31
0.0
  0
LINE
  5
213
330
1E
100
AcDbEntity
  8
0
100
AcDbLine
 10
874.289885309837
 20
84.2308
 30
0.0
 11
875.081670229669
 21
84.2308
 31
0.0
  0
LINE
  5
214
330
1E
100
AcDbEntity
  8
0
100
AcDbLine
 10
874.3889999999998
 20
83.9231
 30
0.0
 11
874.463
 21
84.2308
 31
0.0
  0
LINE
  5
215
330
1E
100
AcDbEntity
  8
0
100
AcDbLine
 10
873.3489999999999
 20
83.9231
 30
0.0
 11
873.423
 21
84.2308
 31
0.0
  0
LINE
  5
216
330
1E
100
AcDbEntity
  8
0
100
AcDbLine
 10
874.9080000000001
 20
83.0
 30
0.0
 11
874.9830000000001
 21
83.9231
 31
0.0
  0
LINE
  5
217
330
1E
100
AcDbEntity
  8
0
100
AcDbLine
 10
874.9830000000001
 20
83.9231
 30
0.0
 11
875.0569999999999
 21
84.2308
 31
0.0
  0
LINE
  5
218
330
1E
100
AcDbEntity
  8
0
100
AcDbLine
 10
875.042
 20
80.0
 30
0.0
 11
875.079
 21
82.07689999999999
 31
0.0
  0
LINE
  5
219
330
1E
100
AcDbEntity
  8
0
100
AcDbLine
 10
865.0
 20
72.43999999999999
 30
0.0
 11
865.0
 21
75.0
 31
0.0
  0
LINE
  5
21A
330
1E
100
AcDbEntity
  8
0
100
AcDbLine
 10
874.0169999999999
 20
84.2308
 30
0.0
 11
874.2399999999999
 21
85.0
 31
0.0
  0
LINE
  5
21B
330
1E
100
AcDbEntity
  8
0
100
AcDbLine
 10
875.168
 20
68.4615
 30
0.0
 11
875.205
 21
70.3846
 31
0.0
  0
LINE
  5
21C
330
1E
100
AcDbEntity
  8
0
100
AcDbLine
 10
875.7619999999999
 20
68.4615
 30
0.0
 11
875.7989999999999
 21
70.3846
 31
0.0
  0
LINE
  5
21D
330
1E
100
AcDbEntity
  8
0
100
AcDbLine
 10
876.208
 20
68.4615
 30
0.0
 11
876.2449999999999
 21
70.3846
 31
0.0
  0
LINE
  5
21E
330
1E
100
AcDbEntity
  8
0
100
AcDbLine
 10
876.0
 20
67.9231
 30
0.0
 11
876.0369999999999
 21
70.0
 31
0.0
  0
LINE
  5
21F
330
1E
100
AcDbEntity
  8
0
100
AcDbLine
 10
875.228
 20
72.6154
 30
0.0
 11
875.243
 21
75.0
 31
0.0
  0
LINE
  5
220
330
1E
100
AcDbEntity
  8
0
100
AcDbLine
 10
875.205
 20
70.3846
 30
0.0
 11
875.228
 21
72.6154
 31
0.0
  0
LINE
  5
221
330
1E
100
AcDbEntity
  8
0
100
AcDbLine
 10
875.243
 20
75.0
 30
0.0
 11
875.257
 21
77.3846
 31
0.0
  0
LINE
  5
222
330
1E
100
AcDbEntity
  8
0
100
AcDbLine
 10
876.2449999999999
 20
70.3846
 30
0.0
 11
876.2669999999999
 21
72.6154
 31
0.0
  0
LINE
  5
223
330
1E
100
AcDbEntity
  8
0
100
AcDbLine
 10
875.8369999999999
 20
75.0
 30
0.0
 11
875.852
 21
77.3846
 31
0.0
  0
LINE
  5
224
330
1E
100
AcDbEntity
  8
0
100
AcDbLine
 10
876.059
 20
75.0
 30
0.0
 11
876.0670000000001
 21
77.6154
 31
0.0
  0
LINE
  5
225
330
1E
100
AcDbEntity
  8
0
100
AcDbLine
 10
876.2819999999999
 20
75.0
 30
0.0
 11
876.2970000000001
 21
77.3846
 31
0.0
  0
LINE
  5
226
330
1E
100
AcDbEntity
  8
0
100
AcDbLine
 10
876.2669999999999
 20
72.6154
 30
0.0
 11
876.2819999999999
 21
75.0
 31
0.0
  0
LINE
  5
227
330
1E
100
AcDbEntity
  8
0
100
AcDbLine
 10
875.8219999999999
 20
72.6154
 30
0.0
 11
875.8369999999999
 21
75.0
 31
0.0
  0
LINE
  5
228
330
1E
100
AcDbEntity
  8
0
100
AcDbLine
 10
876.0519999999999
 20
72.3846
 30
0.0
 11
876.059
 21
75.0
 31
0.0
  0
LINE
  5
229
330
1E
100
AcDbEntity
  8
0
100
AcDbLine
 10
875.7989999999999
 20
70.3846
 30
0.0
 11
875.8219999999999
 21
72.6154
 31
0.0
  0
LINE
  5
22A
330
1E
100
AcDbEntity
  8
0
100
AcDbLine
 10
876.0369999999999
 20
70.0
 30
0.0
 11
876.0519999999999
 21
72.3846
 31
0.0
  0
LINE
  5
22B
330
1E
100
AcDbEntity
  8
0
100
AcDbLine
 10
876.861
 20
72.6154
 30
0.0
 11
876.876
 21
75.0
 31
0.0
  0
LINE
  5
22C
330
1E
100
AcDbEntity
  8
0
100
AcDbLine
 10
876.839
 20
70.3846
 30
0.0
 11
876.861
 21
72.6154
 31
0.0
  0
LINE
  5
22D
330
1E
100
AcDbEntity
  8
0
100
AcDbLine
 10
876.8019999999999
 20
68.4615
 30
0.0
 11
876.839
 21
70.3846
 31
0.0
  0
LINE
  5
22E
330
1E
100
AcDbEntity
  8
0
100
AcDbLine
 10
877.571
 20
67.7165
 30
0.0
 11
877.571
 21
68.67729999999989
 31
0.0
  0
LINE
  5
230
330
1E
100
AcDbEntity
  8
0
100
AcDbLine
 10
885.0
 20
67.2591
 30
0.0
 11
885.0
 21
69.5636
 31
0.0
  0
LINE
  5
231
330
1E
100
AcDbEntity
  8
0
100
AcDbLine
 10
885.0
 20
67.2591
 30
0.0
 11
885.0
 21
65.5455
 31
0.0
  0
LINE
  5
232
330
1E
100
AcDbEntity
  8
0
100
AcDbLine
 10
884.4289999999999
 20
67.7165
 30
0.0
 11
884.792
 21
66.6091
 31
0.0
  0
LINE
  5
233
330
1E
100
AcDbEntity
  8
0
100
AcDbLine
 10
884.4289999999999
 20
67.7165
 30
0.0
 11
884.4289999999999
 21
68.67729999999989
 31
0.0
  0
LINE
  5
234
330
1E
100
AcDbEntity
  8
0
100
AcDbLine
 10
877.0
 20
69.5636
 30
0.0
 11
877.0
 21
72.16370000000001
 31
0.0
  0
LINE
  5
235
330
1E
100
AcDbEntity
  8
0
100
AcDbLine
 10
877.0
 20
70.51090000000001
 30
0.0
 11
877.0
 21
72.67059999999999
 31
0.0
  0
LINE
  5
236
330
1E
100
AcDbEntity
  8
0
100
AcDbLine
 10
877.0
 20
72.16370000000001
 30
0.0
 11
877.0
 21
69.5636
 31
0.0
  0
LINE
  5
237
330
1E
100
AcDbEntity
  8
0
100
AcDbLine
 10
877.0
 20
72.67059999999999
 30
0.0
 11
877.0
 21
74.8554
 31
0.0
  0
LINE
  5
238
330
1E
100
AcDbEntity
  8
0
100
AcDbLine
 10
877.0
 20
72.67059999999999
 30
0.0
 11
877.0
 21
70.51090000000001
 31
0.0
  0
LINE
  5
239
330
1E
100
AcDbEntity
  8
0
100
AcDbLine
 10
877.0
 20
74.8554
 30
0.0
 11
877.0
 21
77.09050000000001
 31
0.0
  0
LINE
  5
23A
330
1E
100
AcDbEntity
  8
0
100
AcDbLine
 10
877.0
 20
74.8554
 30
0.0
 11
877.0
 21
72.67059999999999
 31
0.0
  0
LINE
  5
23B
330
1E
100
AcDbEntity
  8
0
100
AcDbLine
 10
877.0
 20
72.4764
 30
0.0
 11
877.0
 21
75.0
 31
0.0
  0
LINE
  5
23C
330
1E
100
AcDbEntity
  8
0
100
AcDbLine
 10
877.571
 20
68.67729999999989
 30
0.0
 11
877.571
 21
67.7165
 31
0.0
  0
LINE
  5
23D
330
1E
100
AcDbEntity
  8
0
100
AcDbLine
 10
877.571
 20
68.67729999999989
 30
0.0
 11
877.571
 21
69.2626
 31
0.0
  0
LINE
  5
244
330
1E
100
AcDbEntity
  8
0
100
AcDbLine
 10
884.4289999999999
 20
68.67729999999989
 30
0.0
 11
884.4289999999999
 21
69.2626
 31
0.0
  0
LINE
  5
247
330
1E
100
AcDbEntity
  8
0
100
AcDbLine
 10
884.4289999999999
 20
68.67729999999989
 30
0.0
 11
884.4289999999999
 21
67.7165
 31
0.0
  0
LINE
  5
24A
330
1E
100
AcDbEntity
  8
0
100
AcDbLine
 10
877.571
 20
68.48359999999999
 30
0.0
 11
884.4289999999999
 21
68.48359999999999
 31
0.0
  0
LINE
  5
24C
330
1E
100
AcDbEntity
  8
0
100
AcDbLine
 10
877.571
 20
69.2626
 30
0.0
 11
877.571
 21
68.67729999999989
 31
0.0
  0
LINE
  5
24D
330
1E
100
AcDbEntity
  8
0
100
AcDbLine
 10
884.4289999999999
 20
69.2626
 30
0.0
 11
884.8629999999999
 21
72.0218
 31
0.0
  0
LINE
  5
24E
330
1E
100
AcDbEntity
  8
0
100
AcDbLine
 10
884.4289999999999
 20
69.2626
 30
0.0
 11
884.4289999999999
 21
68.67729999999989
 31
0.0
  0
LINE
  5
24F
330
1E
100
AcDbEntity
  8
0
100
AcDbLine
 10
877.1369999999999
 20
72.0218
 30
0.0
 11
877.571
 21
69.2626
 31
0.0
  0
LINE
  5
250
330
1E
100
AcDbEntity
  8
0
100
AcDbLine
 10
885.0
 20
72.16370000000001
 30
0.0
 11
885.0
 21
69.5636
 31
0.0
  0
LINE
  5
251
330
1E
100
AcDbEntity
  8
0
100
AcDbLine
 10
885.0
 20
72.16370000000001
 30
0.0
 11
885.0
 21
75.0
 31
0.0
  0
LINE
  5
252
330
1E
100
AcDbEntity
  8
0
100
AcDbLine
 10
884.8629999999999
 20
72.0218
 30
0.0
 11
884.9429999999999
 21
75.0
 31
0.0
  0
LINE
  5
255
330
1E
100
AcDbEntity
  8
0
100
AcDbLine
 10
885.0
 20
69.5636
 30
0.0
 11
885.0
 21
72.16370000000001
 31
0.0
  0
LINE
  5
256
330
1E
100
AcDbEntity
  8
0
100
AcDbLine
 10
885.0
 20
69.5636
 30
0.0
 11
885.0
 21
67.2591
 31
0.0
  0
LINE
  5
259
330
1E
100
AcDbEntity
  8
0
100
AcDbLine
 10
885.0
 20
75.0
 30
0.0
 11
885.0
 21
77.83629999999999
 31
0.0
  0
LINE
  5
25A
330
1E
100
AcDbEntity
  8
0
100
AcDbLine
 10
885.0
 20
75.0
 30
0.0
 11
885.0
 21
72.16370000000001
 31
0.0
  0
LINE
  5
25B
330
1E
100
AcDbEntity
  8
0
100
AcDbLine
 10
877.0570000000001
 20
75.0
 30
0.0
 11
877.1369999999999
 21
77.9782
 31
0.0
  0
LINE
  5
25C
330
1E
100
AcDbEntity
  8
0
100
AcDbLine
 10
877.0570000000001
 20
75.0
 30
0.0
 11
877.1369999999999
 21
72.0218
 31
0.0
  0
LINE
  5
25D
330
1E
100
AcDbEntity
  8
0
100
AcDbLine
 10
877.0
 20
70.1242
 30
0.0
 11
877.0
 21
72.4764
 31
0.0
  0
LINE
  5
25E
330
1E
100
AcDbEntity
  8
0
100
AcDbLine
 10
877.0
 20
68.0128
 30
0.0
 11
877.0
 21
70.1242
 31
0.0
  0
LINE
  5
25F
330
1E
100
AcDbEntity
  8
0
100
AcDbLine
 10
876.876
 20
75.0
 30
0.0
 11
876.8910000000001
 21
77.3846
 31
0.0
  0
LINE
  5
260
330
1E
100
AcDbEntity
  8
0
100
AcDbLine
 10
877.0
 20
75.0
 30
0.0
 11
877.0
 21
77.5013
 31
0.0
  0
LINE
  5
261
330
1E
100
AcDbEntity
  8
0
100
AcDbLine
 10
885.1089999999999
 20
72.6154
 30
0.0
 11
885.1239999999998
 21
75.0
 31
0.0
  0
LINE
  5
262
330
1E
100
AcDbEntity
  8
0
100
AcDbLine
 10
885.087
 20
70.3846
 30
0.0
 11
885.1089999999999
 21
72.6154
 31
0.0
  0
LINE
  5
263
330
1E
100
AcDbEntity
  8
0
100
AcDbLine
 10
885.049
 20
68.4615
 30
0.0
 11
885.087
 21
70.3846
 31
0.0
  0
LINE
  5
264
330
1E
100
AcDbEntity
  8
0
100
AcDbLine
 10
875.257
 20
77.3846
 30
0.0
 11
875.28
 21
79.61539999999999
 31
0.0
  0
LINE
  5
265
330
1E
100
AcDbEntity
  8
0
100
AcDbLine
 10
875.852
 20
77.3846
 30
0.0
 11
875.8739999999999
 21
79.61539999999999
 31
0.0
  0
LINE
  5
266
330
1E
100
AcDbEntity
  8
0
100
AcDbLine
 10
876.2970000000001
 20
77.3846
 30
0.0
 11
876.3189999999999
 21
79.61539999999999
 31
0.0
  0
LINE
  5
267
330
1E
100
AcDbEntity
  8
0
100
AcDbLine
 10
875.28
 20
79.61539999999999
 30
0.0
 11
875.317
 21
81.5385
 31
0.0
  0
LINE
  5
268
330
1E
100
AcDbEntity
  8
0
100
AcDbLine
 10
875.8739999999999
 20
79.61539999999999
 30
0.0
 11
875.9110000000001
 21
81.5385
 31
0.0
  0
LINE
  5
269
330
1E
100
AcDbEntity
  8
0
100
AcDbLine
 10
876.0670000000001
 20
77.6154
 30
0.0
 11
876.082
 21
80.0
 31
0.0
  0
LINE
  5
26A
330
1E
100
AcDbEntity
  8
0
100
AcDbLine
 10
876.3189999999999
 20
79.61539999999999
 30
0.0
 11
876.3560000000001
 21
81.5385
 31
0.0
  0
LINE
  5
26B
330
1E
100
AcDbEntity
  8
0
100
AcDbLine
 10
876.8910000000001
 20
77.3846
 30
0.0
 11
876.913
 21
79.61539999999999
 31
0.0
  0
LINE
  5
26C
330
1E
100
AcDbEntity
  8
0
100
AcDbLine
 10
877.0
 20
77.09050000000001
 30
0.0
 11
877.0
 21
74.8554
 31
0.0
  0
LINE
  5
26D
330
1E
100
AcDbEntity
  8
0
100
AcDbLine
 10
877.0
 20
77.09050000000001
 30
0.0
 11
877.0
 21
79.22509999999999
 31
0.0
  0
LINE
  5
26E
330
1E
100
AcDbEntity
  8
0
100
AcDbLine
 10
877.0
 20
79.22509999999999
 30
0.0
 11
877.0
 21
77.09050000000001
 31
0.0
  0
LINE
  5
26F
330
1E
100
AcDbEntity
  8
0
100
AcDbLine
 10
877.0
 20
79.22509999999999
 30
0.0
 11
877.0
 21
81.4099
 31
0.0
  0
LINE
  5
270
330
1E
100
AcDbEntity
  8
0
100
AcDbLine
 10
877.1369999999999
 20
77.9782
 30
0.0
 11
877.571
 21
80.73739999999999
 31
0.0
  0
LINE
  5
271
330
1E
100
AcDbEntity
  8
0
100
AcDbLine
 10
885.0
 20
77.83629999999999
 30
0.0
 11
885.0
 21
75.0
 31
0.0
  0
LINE
  5
272
330
1E
100
AcDbEntity
  8
0
100
AcDbLine
 10
885.0
 20
77.83629999999999
 30
0.0
 11
885.0
 21
82.74089999999999
 31
0.0
  0
LINE
  5
273
330
1E
100
AcDbEntity
  8
0
100
AcDbLine
 10
884.8629999999999
 20
77.9782
 30
0.0
 11
884.9429999999999
 21
75.0
 31
0.0
  0
LINE
  5
276
330
1E
100
AcDbEntity
  8
0
100
AcDbLine
 10
877.0
 20
77.5013
 30
0.0
 11
877.0
 21
79.7756
 31
0.0
  0
LINE
  5
277
330
1E
100
AcDbEntity
  8
0
100
AcDbLine
 10
876.913
 20
79.61539999999999
 30
0.0
 11
876.951
 21
81.5385
 31
0.0
  0
LINE
  5
278
330
1E
100
AcDbEntity
  8
0
100
AcDbLine
 10
885.1239999999998
 20
75.0
 30
0.0
 11
885.1389999999998
 21
77.3846
 31
0.0
  0
LINE
  5
279
330
1E
100
AcDbEntity
  8
0
100
AcDbLine
 10
885.1389999999998
 20
77.3846
 30
0.0
 11
885.161
 21
79.61539999999999
 31
0.0
  0
LINE
  5
27A
330
1E
100
AcDbEntity
  8
0
100
AcDbLine
 10
875.317
 20
81.5385
 30
0.0
 11
875.3539999999999
 21
83.0
 31
0.0
  0
LINE
  5
27B
330
1E
100
AcDbEntity
  8
0
100
AcDbLine
 10
875.9110000000001
 20
81.5385
 30
0.0
 11
875.9479999999999
 21
83.0
 31
0.0
  0
LINE
  5
27C
330
1E
100
AcDbEntity
  8
0
100
AcDbLine
 10
876.082
 20
80.0
 30
0.0
 11
876.1189999999999
 21
82.07689999999999
 31
0.0
  0
LINE
  5
27D
330
1E
100
AcDbEntity
  8
0
100
AcDbLine
 10
876.3560000000001
 20
81.5385
 30
0.0
 11
876.3939999999999
 21
83.0
 31
0.0
  0
LINE
  5
27E
330
1E
100
AcDbEntity
  8
0
100
AcDbLine
 10
875.079
 20
82.07689999999999
 30
0.0
 11
875.1239999999999
 21
83.61539999999999
 31
0.0
  0
LINE
  5
27F
330
1E
100
AcDbEntity
  8
0
100
AcDbLine
 10
875.3539999999999
 20
83.0
 30
0.0
 11
875.4279999999999
 21
83.9231
 31
0.0
  0
LINE
  5
280
330
1E
100
AcDbEntity
  8
0
100
AcDbLine
 10
875.9479999999999
 20
83.0
 30
0.0
 11
876.022
 21
83.9231
 31
0.0
  0
LINE
  5
281
330
1E
100
AcDbEntity
  8
0
100
AcDbLine
 10
876.1189999999999
 20
82.07689999999999
 30
0.0
 11
876.163
 21
83.61539999999999
 31
0.0
  0
LINE
  5
282
330
1E
100
AcDbEntity
  8
0
100
AcDbLine
 10
876.3939999999999
 20
83.0
 30
0.0
 11
876.468
 21
83.9231
 31
0.0
  0
LINE
  5
283
330
1E
100
AcDbEntity
  8
0
100
AcDbLine
 10
876.951
 20
81.5385
 30
0.0
 11
876.988
 21
83.0
 31
0.0
  0
LINE
  5
284
330
1E
100
AcDbEntity
  8
0
100
AcDbLine
 10
877.0
 20
80.4363
 30
0.0
 11
877.0
 21
82.74089999999999
 31
0.0
  0
LINE
  5
285
330
1E
100
AcDbEntity
  8
0
100
AcDbLine
 10
877.0
 20
81.4099
 30
0.0
 11
877.0
 21
83.1427
 31
0.0
  0
LINE
  5
286
330
1E
100
AcDbEntity
  8
0
100
AcDbLine
 10
877.0
 20
81.4099
 30
0.0
 11
877.0
 21
79.22509999999999
 31
0.0
  0
LINE
  5
287
330
1E
100
AcDbEntity
  8
0
100
AcDbLine
 10
877.0
 20
81.5385
 30
0.0
 11
877.0
 21
79.7756
 31
0.0
  0
LINE
  5
288
330
1E
100
AcDbEntity
  8
0
100
AcDbLine
 10
885.0
 20
82.74089999999999
 30
0.0
 11
885.0
 21
77.83629999999999
 31
0.0
  0
LINE
  5
28A
330
1E
100
AcDbEntity
  8
0
100
AcDbLine
 10
877.571
 20
80.73739999999999
 30
0.0
 11
877.571
 21
81.3227999999999
 31
0.0
  0
LINE
  5
28B
330
1E
100
AcDbEntity
  8
0
100
AcDbLine
 10
877.571
 20
81.3227999999999
 30
0.0
 11
877.571
 21
80.73739999999999
 31
0.0
  0
LINE
  5
28C
330
1E
100
AcDbEntity
  8
0
100
AcDbLine
 10
877.571
 20
81.3227999999999
 30
0.0
 11
877.571
 21
82.2835
 31
0.0
  0
LINE
  5
28F
330
1E
100
AcDbEntity
  8
0
100
AcDbLine
 10
877.571
 20
81.5165
 30
0.0
 11
884.4289999999999
 21
81.5165
 31
0.0
  0
LINE
  5
292
330
1E
100
AcDbEntity
  8
0
100
AcDbLine
 10
884.4289999999999
 20
81.3227999999999
 30
0.0
 11
884.4289999999999
 21
82.2835
 31
0.0
  0
LINE
  5
293
330
1E
100
AcDbEntity
  8
0
100
AcDbLine
 10
884.4289999999999
 20
81.3227999999999
 30
0.0
 11
884.4289999999999
 21
80.73739999999999
 31
0.0
  0
LINE
  5
29A
330
1E
100
AcDbEntity
  8
0
100
AcDbLine
 10
884.4289999999999
 20
80.73739999999999
 30
0.0
 11
884.8629999999999
 21
77.9782
 31
0.0
  0
LINE
  5
29B
330
1E
100
AcDbEntity
  8
0
100
AcDbLine
 10
884.4289999999999
 20
80.73739999999999
 30
0.0
 11
884.4289999999999
 21
81.3227999999999
 31
0.0
  0
LINE
  5
29C
330
1E
100
AcDbEntity
  8
0
100
AcDbLine
 10
877.0
 20
79.7756
 30
0.0
 11
877.0
 21
81.66670000000001
 31
0.0
  0
LINE
  5
29D
330
1E
100
AcDbEntity
  8
0
100
AcDbLine
 10
877.0
 20
82.74089999999999
 30
0.0
 11
877.0
 21
84.4546
 31
0.0
  0
LINE
  5
29E
330
1E
100
AcDbEntity
  8
0
100
AcDbLine
 10
877.0
 20
82.74089999999999
 30
0.0
 11
877.0
 21
80.4363
 31
0.0
  0
LINE
  5
29F
330
1E
100
AcDbEntity
  8
0
100
AcDbLine
 10
877.571
 20
82.2835
 30
0.0
 11
877.571
 21
81.3227999999999
 31
0.0
  0
LINE
  5
2A0
330
1E
100
AcDbEntity
  8
0
100
AcDbLine
 10
885.0
 20
82.74089999999999
 30
0.0
 11
885.0
 21
84.4546
 31
0.0
  0
LINE
  5
2A1
330
1E
100
AcDbEntity
  8
0
100
AcDbLine
 10
884.4289999999999
 20
82.2835
 30
0.0
 11
884.792
 21
83.3909
 31
0.0
  0
LINE
  5
2A2
330
1E
100
AcDbEntity
  8
0
100
AcDbLine
 10
884.4289999999999
 20
82.2835
 30
0.0
 11
884.4289999999999
 21
81.3227999999999
 31
0.0
  0
LINE
  5
2A5
330
1E
100
AcDbEntity
  8
0
100
AcDbLine
 10
877.0
 20
83.0
 30
0.0
 11
877.0
 21
81.5385
 31
0.0
  0
LINE
  5
2A6
330
1E
100
AcDbEntity
  8
0
100
AcDbLine
 10
877.0
 20
81.66670000000001
 30
0.0
 11
877.0
 21
83.03539999999999
 31
0.0
  0
LINE
  5
2A7
330
1E
100
AcDbEntity
  8
0
100
AcDbLine
 10
876.988
 20
83.0
 30
0.0
 11
877.0
 21
83.15389999999998
 31
0.0
  0
LINE
  5
2A8
330
1E
100
AcDbEntity
  8
0
100
AcDbLine
 10
885.161
 20
79.61539999999999
 30
0.0
 11
885.1979999999999
 21
81.5385
 31
0.0
  0
LINE
  5
2A9
330
1E
100
AcDbEntity
  8
0
100
AcDbLine
 10
885.1979999999999
 20
81.5385
 30
0.0
 11
885.2349999999999
 21
83.0
 31
0.0
  0
LINE
  5
2AA
330
1E
100
AcDbEntity
  8
0
100
AcDbLine
 10
877.0
 20
83.1427
 30
0.0
 11
877.0
 21
84.097
 31
0.0
  0
LINE
  5
2AB
330
1E
100
AcDbEntity
  8
0
100
AcDbLine
 10
877.0
 20
83.1427
 30
0.0
 11
877.0
 21
81.4099
 31
0.0
  0
LINE
  5
2AC
330
1E
100
AcDbEntity
  8
0
100
AcDbLine
 10
884.792
 20
83.3909
 30
0.0
 11
884.885
 21
84.9721
 31
0.0
  0
LINE
  5
2AF
330
1E
100
AcDbEntity
  8
0
100
AcDbLine
 10
877.208
 20
83.3909
 30
0.0
 11
877.571
 21
82.2835
 31
0.0
  0
LINE
  5
2B0
330
1E
100
AcDbEntity
  8
0
100
AcDbLine
 10
877.0
 20
83.03539999999999
 30
0.0
 11
877.0
 21
83.15389999999998
 31
0.0
  0
LINE
  5
2B1
330
1E
100
AcDbEntity
  8
0
100
AcDbLine
 10
875.1239999999999
 20
83.61539999999999
 30
0.0
 11
875.205
 21
84.61539999999999
 31
0.0
  0
LINE
  5
2B2
330
1E
100
AcDbEntity
  8
0
100
AcDbLine
 10
875.328885309837
 20
84.2308
 30
0.0
 11
876.1211146901629
 21
84.2308
 31
0.0
  0
LINE
  5
2B3
330
1E
100
AcDbEntity
  8
0
100
AcDbLine
 10
875.4279999999999
 20
83.9231
 30
0.0
 11
875.5030000000001
 21
84.2308
 31
0.0
  0
LINE
  5
2B4
330
1E
100
AcDbEntity
  8
0
100
AcDbLine
 10
876.368885309837
 20
84.2308
 30
0.0
 11
877.0
 21
84.2308
 31
0.0
  0
LINE
  5
2B5
330
1E
100
AcDbEntity
  8
0
100
AcDbLine
 10
876.022
 20
83.9231
 30
0.0
 11
876.096
 21
84.2308
 31
0.0
  0
LINE
  5
2B6
330
1E
100
AcDbEntity
  8
0
100
AcDbLine
 10
876.163
 20
83.61539999999999
 30
0.0
 11
876.2449999999999
 21
84.61539999999999
 31
0.0
  0
LINE
  5
2B7
330
1E
100
AcDbEntity
  8
0
100
AcDbLine
 10
877.0
 20
84.097
 30
0.0
 11
877.0
 21
83.1427
 31
0.0
  0
LINE
  5
2B8
330
1E
100
AcDbEntity
  8
0
100
AcDbLine
 10
877.0
 20
84.097
 30
0.0
 11
877.0
 21
84.549
 31
0.0
  0
LINE
  5
2B9
330
1E
100
AcDbEntity
  8
0
100
AcDbLine
 10
877.0
 20
83.9231
 30
0.0
 11
877.0
 21
83.0
 31
0.0
  0
LINE
  5
2BA
330
1E
100
AcDbEntity
  8
0
100
AcDbLine
 10
876.468
 20
83.9231
 30
0.0
 11
876.5419999999998
 21
84.2308
 31
0.0
  0
LINE
  5
2BC
330
1E
100
AcDbEntity
  8
0
100
AcDbLine
 10
885.0
 20
83.4445
 30
0.0
 11
885.0049999999999
 21
83.61539999999999
 31
0.0
  0
LINE
  5
2BD
330
1E
100
AcDbEntity
  8
0
100
AcDbLine
 10
885.210329770331
 20
84.2308
 30
0.0
 11
886.0026702296691
 21
84.2308
 31
0.0
  0
LINE
  5
2BF
330
1E
100
AcDbEntity
  8
0
100
AcDbLine
 10
885.0049999999999
 20
83.61539999999999
 30
0.0
 11
885.087
 21
84.61539999999999
 31
0.0
  0
LINE
  5
2C0
330
1E
100
AcDbEntity
  8
0
100
AcDbLine
 10
885.2349999999999
 20
83.0
 30
0.0
 11
885.3089999999999
 21
83.9231
 31
0.0
  0
LINE
  5
2C1
330
1E
100
AcDbEntity
  8
0
100
AcDbLine
 10
885.7180000000001
 20
75.0
 30
0.0
 11
885.7330000000001
 21
77.3846
 31
0.0
  0
LINE
  5
2C2
330
1E
100
AcDbEntity
  8
0
100
AcDbLine
 10
885.7330000000001
 20
77.3846
 30
0.0
 11
885.7549999999999
 21
79.61539999999999
 31
0.0
  0
LINE
  5
2C3
330
1E
100
AcDbEntity
  8
0
100
AcDbLine
 10
885.7549999999999
 20
79.61539999999999
 30
0.0
 11
885.792
 21
81.5385
 31
0.0
  0
LINE
  5
2C4
330
1E
100
AcDbEntity
  8
0
100
AcDbLine
 10
885.941
 20
75.0
 30
0.0
 11
885.9479999999999
 21
77.6154
 31
0.0
  0
LINE
  5
2C5
330
1E
100
AcDbEntity
  8
0
100
AcDbLine
 10
885.9479999999999
 20
77.6154
 30
0.0
 11
885.9630000000001
 21
80.0
 31
0.0
  0
LINE
  5
2C6
330
1E
100
AcDbEntity
  8
0
100
AcDbLine
 10
885.792
 20
81.5385
 30
0.0
 11
885.829
 21
83.0
 31
0.0
  0
LINE
  5
2C7
330
1E
100
AcDbEntity
  8
0
100
AcDbLine
 10
885.829
 20
83.0
 30
0.0
 11
885.904
 21
83.9231
 31
0.0
  0
LINE
  5
2C8
330
1E
100
AcDbEntity
  8
0
100
AcDbLine
 10
885.904
 20
83.9231
 30
0.0
 11
885.978
 21
84.2308
 31
0.0
  0
LINE
  5
2C9
330
1E
100
AcDbEntity
  8
0
100
AcDbLine
 10
885.9630000000001
 20
80.0
 30
0.0
 11
886.0
 21
82.07689999999999
 31
0.0
  0
LINE
  5
2CA
330
1E
100
AcDbEntity
  8
0
100
AcDbLine
 10
885.7029999999999
 20
72.6154
 30
0.0
 11
885.7180000000001
 21
75.0
 31
0.0
  0
LINE
  5
2CB
330
1E
100
AcDbEntity
  8
0
100
AcDbLine
 10
885.9329999999999
 20
72.3846
 30
0.0
 11
885.941
 21
75.0
 31
0.0
  0
LINE
  5
2CC
330
1E
100
AcDbEntity
  8
0
100
AcDbLine
 10
885.6810000000001
 20
70.3846
 30
0.0
 11
885.7029999999999
 21
72.6154
 31
0.0
  0
LINE
  5
2CD
330
1E
100
AcDbEntity
  8
0
100
AcDbLine
 10
885.918
 20
70.0
 30
0.0
 11
885.9329999999999
 21
72.3846
 31
0.0
  0
LINE
  5
2CE
330
1E
100
AcDbEntity
  8
0
100
AcDbLine
 10
885.6439999999999
 20
68.4615
 30
0.0
 11
885.6810000000001
 21
70.3846
 31
0.0
  0
LINE
  5
2CF
330
1E
100
AcDbEntity
  8
0
100
AcDbLine
 10
885.8810000000001
 20
67.9231
 30
0.0
 11
885.918
 21
70.0
 31
0.0
  0
LINE
  5
2D0
330
1E
100
AcDbEntity
  8
0
100
AcDbLine
 10
885.3089999999999
 20
83.9231
 30
0.0
 11
885.3839999999999
 21
84.2308
 31
0.0
  0
LINE
  5
2D1
330
1E
100
AcDbEntity
  8
0
100
AcDbLine
 10
877.0
 20
84.2308
 30
0.0
 11
877.0
 21
84.4546
 31
0.0
  0
LINE
  5
2D2
330
1E
100
AcDbEntity
  8
0
100
AcDbLine
 10
877.0
 20
84.2308
 30
0.0
 11
877.0
 21
84.549
 31
0.0
  0
LINE
  5
2D3
330
1E
100
AcDbEntity
  8
0
100
AcDbLine
 10
877.0
 20
84.2308
 30
0.0
 11
877.0
 21
83.9231
 31
0.0
  0
LINE
  5
2D4
330
1E
100
AcDbEntity
  8
0
100
AcDbLine
 10
875.0569999999999
 20
84.2308
 30
0.0
 11
875.28
 21
85.0
 31
0.0
  0
LINE
  5
2D5
330
1E
100
AcDbEntity
  8
0
100
AcDbLine
 10
876.096
 20
84.2308
 30
0.0
 11
876.3189999999999
 21
85.0
 31
0.0
  0
LINE
  5
2D6
330
1E
100
AcDbEntity
  8
0
100
AcDbLine
 10
845.0
 20
83.0
 30
0.0
 11
845.0
 21
83.68
 31
0.0
  0
LINE
  5
2D7
330
1E
100
AcDbEntity
  8
0
100
AcDbLine
 10
845.0
 20
83.0
 30
0.0
 11
845.0
 21
82.712
 31
0.0
  0
LINE
  5
2D8
330
1E
100
AcDbEntity
  8
0
100
AcDbLine
 10
845.0
 20
67.0
 30
0.0
 11
845.0
 21
66.31999999999999
 31
0.0
  0
LINE
  5
2D9
330
1E
100
AcDbEntity
  8
0
100
AcDbLine
 10
845.0
 20
67.0
 30
0.0
 11
845.0
 21
67.28799999999999
 31
0.0
  0
LINE
  5
2DA
330
1E
100
AcDbEntity
  8
0
100
AcDbLine
 10
887.0169999999999
 20
66.07689999999999
 30
0.0
 11
887.0919999999999
 21
67.0
 31
0.0
  0
LINE
  5
2DB
330
1E
100
AcDbEntity
  8
0
100
AcDbLine
 10
886.5719999999999
 20
66.07689999999999
 30
0.0
 11
886.6460000000001
 21
67.0
 31
0.0
  0
LINE
  5
2DC
330
1E
100
AcDbEntity
  8
0
100
AcDbLine
 10
886.6460000000001
 20
67.0
 30
0.0
 11
886.683
 21
68.4615
 31
0.0
  0
LINE
  5
2DD
330
1E
100
AcDbEntity
  8
0
100
AcDbLine
 10
887.0919999999999
 20
67.0
 30
0.0
 11
887.129
 21
68.4615
 31
0.0
  0
LINE
  5
2DE
330
1E
100
AcDbEntity
  8
0
100
AcDbLine
 10
886.8760000000001
 20
66.38460000000001
 30
0.0
 11
886.921
 21
67.9231
 31
0.0
  0
LINE
  5
2DF
330
1E
100
AcDbEntity
  8
0
100
AcDbLine
 10
886.72
 20
70.3846
 30
0.0
 11
886.743
 21
72.6154
 31
0.0
  0
LINE
  5
2E0
330
1E
100
AcDbEntity
  8
0
100
AcDbLine
 10
886.683
 20
68.4615
 30
0.0
 11
886.72
 21
70.3846
 31
0.0
  0
LINE
  5
2E1
330
1E
100
AcDbEntity
  8
0
100
AcDbLine
 10
887.129
 20
68.4615
 30
0.0
 11
887.166
 21
70.3846
 31
0.0
  0
LINE
  5
2E2
330
1E
100
AcDbEntity
  8
0
100
AcDbLine
 10
887.166
 20
70.3846
 30
0.0
 11
887.188
 21
72.6154
 31
0.0
  0
LINE
  5
2E3
330
1E
100
AcDbEntity
  8
0
100
AcDbLine
 10
886.958
 20
70.0
 30
0.0
 11
886.973
 21
72.3846
 31
0.0
  0
LINE
  5
2E4
330
1E
100
AcDbEntity
  8
0
100
AcDbLine
 10
886.921
 20
67.9231
 30
0.0
 11
886.958
 21
70.0
 31
0.0
  0
LINE
  5
2E5
330
1E
100
AcDbEntity
  8
0
100
AcDbLine
 10
886.7569999999998
 20
75.0
 30
0.0
 11
886.772
 21
77.3846
 31
0.0
  0
LINE
  5
2E6
330
1E
100
AcDbEntity
  8
0
100
AcDbLine
 10
886.743
 20
72.6154
 30
0.0
 11
886.7569999999998
 21
75.0
 31
0.0
  0
LINE
  5
2E7
330
1E
100
AcDbEntity
  8
0
100
AcDbLine
 10
886.9799999999999
 20
75.0
 30
0.0
 11
886.988
 21
77.6154
 31
0.0
  0
LINE
  5
2E8
330
1E
100
AcDbEntity
  8
0
100
AcDbLine
 10
887.203
 20
75.0
 30
0.0
 11
887.218
 21
77.3846
 31
0.0
  0
LINE
  5
2E9
330
1E
100
AcDbEntity
  8
0
100
AcDbLine
 10
887.188
 20
72.6154
 30
0.0
 11
887.203
 21
75.0
 31
0.0
  0
LINE
  5
2EA
330
1E
100
AcDbEntity
  8
0
100
AcDbLine
 10
886.973
 20
72.3846
 30
0.0
 11
886.9799999999999
 21
75.0
 31
0.0
  0
LINE
  5
2EB
330
1E
100
AcDbEntity
  8
0
100
AcDbLine
 10
886.1629999999999
 20
75.0
 30
0.0
 11
886.1779999999999
 21
77.3846
 31
0.0
  0
LINE
  5
2EC
330
1E
100
AcDbEntity
  8
0
100
AcDbLine
 10
886.148
 20
72.6154
 30
0.0
 11
886.1629999999999
 21
75.0
 31
0.0
  0
LINE
  5
2ED
330
1E
100
AcDbEntity
  8
0
100
AcDbLine
 10
886.1260000000001
 20
70.3846
 30
0.0
 11
886.148
 21
72.6154
 31
0.0
  0
LINE
  5
2EE
330
1E
100
AcDbEntity
  8
0
100
AcDbLine
 10
886.0889999999999
 20
68.4615
 30
0.0
 11
886.1260000000001
 21
70.3846
 31
0.0
  0
LINE
  5
2EF
330
1E
100
AcDbEntity
  8
0
100
AcDbLine
 10
886.0520000000001
 20
67.0
 30
0.0
 11
886.0889999999999
 21
68.4615
 31
0.0
  0
LINE
  5
2F0
330
1E
100
AcDbEntity
  8
0
100
AcDbLine
 10
887.7819999999999
 20
72.6154
 30
0.0
 11
887.7970000000001
 21
75.0
 31
0.0
  0
LINE
  5
2F1
330
1E
100
AcDbEntity
  8
0
100
AcDbLine
 10
887.7599999999999
 20
70.3846
 30
0.0
 11
887.7819999999999
 21
72.6154
 31
0.0
  0
LINE
  5
2F2
330
1E
100
AcDbEntity
  8
0
100
AcDbLine
 10
887.723
 20
68.4615
 30
0.0
 11
887.7599999999999
 21
70.3846
 31
0.0
  0
LINE
  5
2F3
330
1E
100
AcDbEntity
  8
0
100
AcDbLine
 10
887.686
 20
67.0
 30
0.0
 11
887.723
 21
68.4615
 31
0.0
  0
LINE
  5
2F4
330
1E
100
AcDbEntity
  8
0
100
AcDbLine
 10
887.611
 20
66.07689999999999
 30
0.0
 11
887.686
 21
67.0
 31
0.0
  0
LINE
  5
2F5
330
1E
100
AcDbEntity
  8
0
100
AcDbLine
 10
888.057
 20
66.07689999999999
 30
0.0
 11
888.131
 21
67.0
 31
0.0
  0
LINE
  5
2F6
330
1E
100
AcDbEntity
  8
0
100
AcDbLine
 10
888.1680000000001
 20
68.4615
 30
0.0
 11
888.206
 21
70.3846
 31
0.0
  0
LINE
  5
2F7
330
1E
100
AcDbEntity
  8
0
100
AcDbLine
 10
888.131
 20
67.0
 30
0.0
 11
888.1680000000001
 21
68.4615
 31
0.0
  0
LINE
  5
2F8
330
1E
100
AcDbEntity
  8
0
100
AcDbLine
 10
888.2280000000001
 20
72.6154
 30
0.0
 11
888.2430000000001
 21
75.0
 31
0.0
  0
LINE
  5
2F9
330
1E
100
AcDbEntity
  8
0
100
AcDbLine
 10
888.206
 20
70.3846
 30
0.0
 11
888.2280000000001
 21
72.6154
 31
0.0
  0
LINE
  5
2FA
330
1E
100
AcDbEntity
  8
0
100
AcDbLine
 10
888.0119999999999
 20
72.3846
 30
0.0
 11
888.02
 21
75.0
 31
0.0
  0
LINE
  5
2FB
330
1E
100
AcDbEntity
  8
0
100
AcDbLine
 10
887.997
 20
70.0
 30
0.0
 11
888.0119999999999
 21
72.3846
 31
0.0
  0
LINE
  5
2FC
330
1E
100
AcDbEntity
  8
0
100
AcDbLine
 10
887.9599999999999
 20
67.9231
 30
0.0
 11
887.997
 21
70.0
 31
0.0
  0
LINE
  5
2FD
330
1E
100
AcDbEntity
  8
0
100
AcDbLine
 10
887.916
 20
66.38460000000001
 30
0.0
 11
887.9599999999999
 21
67.9231
 31
0.0
  0
LINE
  5
2FE
330
1E
100
AcDbEntity
  8
0
100
AcDbLine
 10
887.7970000000001
 20
75.0
 30
0.0
 11
887.812
 21
77.3846
 31
0.0
  0
LINE
  5
2FF
330
1E
100
AcDbEntity
  8
0
100
AcDbLine
 10
886.772
 20
77.3846
 30
0.0
 11
886.794
 21
79.61539999999999
 31
0.0
  0
LINE
  5
300
330
1E
100
AcDbEntity
  8
0
100
AcDbLine
 10
887.218
 20
77.3846
 30
0.0
 11
887.24
 21
79.61539999999999
 31
0.0
  0
LINE
  5
301
330
1E
100
AcDbEntity
  8
0
100
AcDbLine
 10
886.988
 20
77.6154
 30
0.0
 11
887.0029999999999
 21
80.0
 31
0.0
  0
LINE
  5
302
330
1E
100
AcDbEntity
  8
0
100
AcDbLine
 10
886.1779999999999
 20
77.3846
 30
0.0
 11
886.2009999999999
 21
79.61539999999999
 31
0.0
  0
LINE
  5
303
330
1E
100
AcDbEntity
  8
0
100
AcDbLine
 10
887.812
 20
77.3846
 30
0.0
 11
887.8339999999999
 21
79.61539999999999
 31
0.0
  0
LINE
  5
304
330
1E
100
AcDbEntity
  8
0
100
AcDbLine
 10
888.02
 20
75.0
 30
0.0
 11
888.0269999999999
 21
77.6154
 31
0.0
  0
LINE
  5
305
330
1E
100
AcDbEntity
  8
0
100
AcDbLine
 10
888.2430000000001
 20
75.0
 30
0.0
 11
888.2569999999999
 21
77.3846
 31
0.0
  0
LINE
  5
306
330
1E
100
AcDbEntity
  8
0
100
AcDbLine
 10
886.794
 20
79.61539999999999
 30
0.0
 11
886.832
 21
81.5385
 31
0.0
  0
LINE
  5
307
330
1E
100
AcDbEntity
  8
0
100
AcDbLine
 10
887.24
 20
79.61539999999999
 30
0.0
 11
887.2769999999999
 21
81.5385
 31
0.0
  0
LINE
  5
308
330
1E
100
AcDbEntity
  8
0
100
AcDbLine
 10
887.0029999999999
 20
80.0
 30
0.0
 11
887.04
 21
82.07689999999999
 31
0.0
  0
LINE
  5
309
330
1E
100
AcDbEntity
  8
0
100
AcDbLine
 10
886.2009999999999
 20
79.61539999999999
 30
0.0
 11
886.2379999999999
 21
81.5385
 31
0.0
  0
LINE
  5
30A
330
1E
100
AcDbEntity
  8
0
100
AcDbLine
 10
887.8339999999999
 20
79.61539999999999
 30
0.0
 11
887.8710000000001
 21
81.5385
 31
0.0
  0
LINE
  5
30B
330
1E
100
AcDbEntity
  8
0
100
AcDbLine
 10
888.0269999999999
 20
77.6154
 30
0.0
 11
888.0419999999999
 21
80.0
 31
0.0
  0
LINE
  5
30C
330
1E
100
AcDbEntity
  8
0
100
AcDbLine
 10
888.2569999999999
 20
77.3846
 30
0.0
 11
888.2799999999999
 21
79.61539999999999
 31
0.0
  0
LINE
  5
30D
330
1E
100
AcDbEntity
  8
0
100
AcDbLine
 10
886.832
 20
81.5385
 30
0.0
 11
886.8689999999999
 21
83.0
 31
0.0
  0
LINE
  5
30E
330
1E
100
AcDbEntity
  8
0
100
AcDbLine
 10
887.2769999999999
 20
81.5385
 30
0.0
 11
887.3139999999999
 21
83.0
 31
0.0
  0
LINE
  5
30F
330
1E
100
AcDbEntity
  8
0
100
AcDbLine
 10
887.04
 20
82.07689999999999
 30
0.0
 11
887.0839999999999
 21
83.61539999999999
 31
0.0
  0
LINE
  5
310
330
1E
100
AcDbEntity
  8
0
100
AcDbLine
 10
886.0
 20
82.07689999999999
 30
0.0
 11
886.044
 21
83.61539999999999
 31
0.0
  0
LINE
  5
311
330
1E
100
AcDbEntity
  8
0
100
AcDbLine
 10
886.2379999999999
 20
81.5385
 30
0.0
 11
886.275
 21
83.0
 31
0.0
  0
LINE
  5
312
330
1E
100
AcDbEntity
  8
0
100
AcDbLine
 10
887.8710000000001
 20
81.5385
 30
0.0
 11
887.908
 21
83.0
 31
0.0
  0
LINE
  5
313
330
1E
100
AcDbEntity
  8
0
100
AcDbLine
 10
888.0419999999999
 20
80.0
 30
0.0
 11
888.0789999999999
 21
82.07689999999999
 31
0.0
  0
LINE
  5
314
330
1E
100
AcDbEntity
  8
0
100
AcDbLine
 10
888.2799999999999
 20
79.61539999999999
 30
0.0
 11
888.3169999999999
 21
81.5385
 31
0.0
  0
LINE
  5
315
330
1E
100
AcDbEntity
  8
0
100
AcDbLine
 10
886.8689999999999
 20
83.0
 30
0.0
 11
886.9429999999999
 21
83.9231
 31
0.0
  0
LINE
  5
316
330
1E
100
AcDbEntity
  8
0
100
AcDbLine
 10
887.3139999999999
 20
83.0
 30
0.0
 11
887.3889999999999
 21
83.9231
 31
0.0
  0
LINE
  5
317
330
1E
100
AcDbEntity
  8
0
100
AcDbLine
 10
887.0839999999999
 20
83.61539999999999
 30
0.0
 11
887.166
 21
84.61539999999999
 31
0.0
  0
LINE
  5
318
330
1E
100
AcDbEntity
  8
0
100
AcDbLine
 10
886.044
 20
83.61539999999999
 30
0.0
 11
886.1260000000001
 21
84.61539999999999
 31
0.0
  0
LINE
  5
319
330
1E
100
AcDbEntity
  8
0
100
AcDbLine
 10
886.275
 20
83.0
 30
0.0
 11
886.3489999999998
 21
83.9231
 31
0.0
  0
LINE
  5
31A
330
1E
100
AcDbEntity
  8
0
100
AcDbLine
 10
887.908
 20
83.0
 30
0.0
 11
887.983
 21
83.9231
 31
0.0
  0
LINE
  5
31B
330
1E
100
AcDbEntity
  8
0
100
AcDbLine
 10
888.0789999999999
 20
82.07689999999999
 30
0.0
 11
888.124
 21
83.61539999999999
 31
0.0
  0
LINE
  5
31C
330
1E
100
AcDbEntity
  8
0
100
AcDbLine
 10
888.3169999999999
 20
81.5385
 30
0.0
 11
888.3539999999999
 21
83.0
 31
0.0
  0
LINE
  5
31D
330
1E
100
AcDbEntity
  8
0
100
AcDbLine
 10
886.9429999999999
 20
83.9231
 30
0.0
 11
887.0169999999999
 21
84.2308
 31
0.0
  0
LINE
  5
31E
330
1E
100
AcDbEntity
  8
0
100
AcDbLine
 10
887.3889999999999
 20
83.9231
 30
0.0
 11
887.4630000000001
 21
84.2308
 31
0.0
  0
LINE
  5
31F
330
1E
100
AcDbEntity
  8
0
100
AcDbLine
 10
886.3489999999998
 20
83.9231
 30
0.0
 11
886.423
 21
84.2308
 31
0.0
  0
LINE
  5
320
330
1E
100
AcDbEntity
  8
0
100
AcDbLine
 10
887.983
 20
83.9231
 30
0.0
 11
888.057
 21
84.2308
 31
0.0
  0
LINE
  5
321
330
1E
100
AcDbEntity
  8
0
100
AcDbLine
 10
888.124
 20
83.61539999999999
 30
0.0
 11
888.206
 21
84.61539999999999
 31
0.0
  0
LINE
  5
322
330
1E
100
AcDbEntity
  8
0
100
AcDbLine
 10
888.3539999999999
 20
83.0
 30
0.0
 11
888.428
 21
83.9231
 31
0.0
  0
LINE
  5
323
330
1E
100
AcDbEntity
  8
0
100
AcDbLine
 10
887.2898853098369
 20
84.2308
 30
0.0
 11
888.0821146901629
 21
84.2308
 31
0.0
  0
LINE
  5
324
330
1E
100
AcDbEntity
  8
0
100
AcDbLine
 10
886.2498853098371
 20
84.2308
 30
0.0
 11
887.042114690163
 21
84.2308
 31
0.0
  0
LINE
  5
325
330
1E
100
AcDbEntity
  8
0
100
AcDbLine
 10
888.329329770331
 20
84.2308
 30
0.0
 11
889.1211146901628
 21
84.2308
 31
0.0
  0
LINE
  5
326
330
1E
100
AcDbEntity
  8
0
100
AcDbLine
 10
888.428
 20
83.9231
 30
0.0
 11
888.503
 21
84.2308
 31
0.0
  0
LINE
  5
327
330
1E
100
AcDbEntity
  8
0
100
AcDbLine
 10
889.0959999999999
 20
66.07689999999999
 30
0.0
 11
889.1710000000001
 21
67.0
 31
0.0
  0
LINE
  5
328
330
1E
100
AcDbEntity
  8
0
100
AcDbLine
 10
888.837
 20
75.0
 30
0.0
 11
888.8519999999999
 21
77.3846
 31
0.0
  0
LINE
  5
329
330
1E
100
AcDbEntity
  8
0
100
AcDbLine
 10
888.8519999999999
 20
77.3846
 30
0.0
 11
888.8739999999998
 21
79.61539999999999
 31
0.0
  0
LINE
  5
32A
330
1E
100
AcDbEntity
  8
0
100
AcDbLine
 10
888.8739999999998
 20
79.61539999999999
 30
0.0
 11
888.911
 21
81.5385
 31
0.0
  0
LINE
  5
32B
330
1E
100
AcDbEntity
  8
0
100
AcDbLine
 10
889.0589999999999
 20
75.0
 30
0.0
 11
889.067
 21
77.6154
 31
0.0
  0
LINE
  5
32C
330
1E
100
AcDbEntity
  8
0
100
AcDbLine
 10
889.067
 20
77.6154
 30
0.0
 11
889.0819999999999
 21
80.0
 31
0.0
  0
LINE
  5
32D
330
1E
100
AcDbEntity
  8
0
100
AcDbLine
 10
888.911
 20
81.5385
 30
0.0
 11
888.948
 21
83.0
 31
0.0
  0
LINE
  5
32E
330
1E
100
AcDbEntity
  8
0
100
AcDbLine
 10
888.948
 20
83.0
 30
0.0
 11
889.0219999999999
 21
83.9231
 31
0.0
  0
LINE
  5
32F
330
1E
100
AcDbEntity
  8
0
100
AcDbLine
 10
889.0219999999999
 20
83.9231
 30
0.0
 11
889.0959999999999
 21
84.2308
 31
0.0
  0
LINE
  5
330
330
1E
100
AcDbEntity
  8
0
100
AcDbLine
 10
889.0819999999999
 20
80.0
 30
0.0
 11
889.1189999999999
 21
82.07689999999999
 31
0.0
  0
LINE
  5
331
330
1E
100
AcDbEntity
  8
0
100
AcDbLine
 10
888.822
 20
72.6154
 30
0.0
 11
888.837
 21
75.0
 31
0.0
  0
LINE
  5
332
330
1E
100
AcDbEntity
  8
0
100
AcDbLine
 10
889.052
 20
72.3846
 30
0.0
 11
889.0589999999999
 21
75.0
 31
0.0
  0
LINE
  5
333
330
1E
100
AcDbEntity
  8
0
100
AcDbLine
 10
888.799
 20
70.3846
 30
0.0
 11
888.822
 21
72.6154
 31
0.0
  0
LINE
  5
334
330
1E
100
AcDbEntity
  8
0
100
AcDbLine
 10
889.0369999999998
 20
70.0
 30
0.0
 11
889.052
 21
72.3846
 31
0.0
  0
LINE
  5
335
330
1E
100
AcDbEntity
  8
0
100
AcDbLine
 10
888.762
 20
68.4615
 30
0.0
 11
888.799
 21
70.3846
 31
0.0
  0
LINE
  5
336
330
1E
100
AcDbEntity
  8
0
100
AcDbLine
 10
889.0
 20
67.9231
 30
0.0
 11
889.0369999999998
 21
70.0
 31
0.0
  0
LINE
  5
337
330
1E
100
AcDbEntity
  8
0
100
AcDbLine
 10
888.7249999999999
 20
67.0
 30
0.0
 11
888.762
 21
68.4615
 31
0.0
  0
LINE
  5
338
330
1E
100
AcDbEntity
  8
0
100
AcDbLine
 10
888.9560000000001
 20
66.38460000000001
 30
0.0
 11
889.0
 21
67.9231
 31
0.0
  0
LINE
  5
339
330
1E
100
AcDbEntity
  8
0
100
AcDbLine
 10
888.6510000000001
 20
66.07689999999999
 30
0.0
 11
888.7249999999999
 21
67.0
 31
0.0
  0
LINE
  5
33A
330
1E
100
AcDbEntity
  8
0
100
AcDbLine
 10
887.0169999999999
 20
84.2308
 30
0.0
 11
887.24
 21
85.0
 31
0.0
  0
LINE
  5
33B
330
1E
100
AcDbEntity
  8
0
100
AcDbLine
 10
885.978
 20
84.2308
 30
0.0
 11
886.2009999999999
 21
85.0
 31
0.0
  0
LINE
  5
33C
330
1E
100
AcDbEntity
  8
0
100
AcDbLine
 10
888.057
 20
84.2308
 30
0.0
 11
888.2799999999999
 21
85.0
 31
0.0
  0
LINE
  5
33D
330
1E
100
AcDbEntity
  8
0
100
AcDbLine
 10
890.136
 20
66.07689999999999
 30
0.0
 11
890.21
 21
67.0
 31
0.0
  0
LINE
  5
33E
330
1E
100
AcDbEntity
  8
0
100
AcDbLine
 10
889.691
 20
66.07689999999999
 30
0.0
 11
889.765
 21
67.0
 31
0.0
  0
LINE
  5
33F
330
1E
100
AcDbEntity
  8
0
100
AcDbLine
 10
891.1760000000001
 20
66.07689999999999
 30
0.0
 11
891.2499999999999
 21
67.0
 31
0.0
  0
LINE
  5
340
330
1E
100
AcDbEntity
  8
0
100
AcDbLine
 10
889.1710000000001
 20
67.0
 30
0.0
 11
889.2080000000001
 21
68.4615
 31
0.0
  0
LINE
  5
341
330
1E
100
AcDbEntity
  8
0
100
AcDbLine
 10
889.765
 20
67.0
 30
0.0
 11
889.802
 21
68.4615
 31
0.0
  0
LINE
  5
342
330
1E
100
AcDbEntity
  8
0
100
AcDbLine
 10
890.21
 20
67.0
 30
0.0
 11
890.2469999999999
 21
68.4615
 31
0.0
  0
LINE
  5
343
330
1E
100
AcDbEntity
  8
0
100
AcDbLine
 10
889.995
 20
66.38460000000001
 30
0.0
 11
890.0399999999999
 21
67.9231
 31
0.0
  0
LINE
  5
344
330
1E
100
AcDbEntity
  8
0
100
AcDbLine
 10
889.2080000000001
 20
68.4615
 30
0.0
 11
889.245
 21
70.3846
 31
0.0
  0
LINE
  5
345
330
1E
100
AcDbEntity
  8
0
100
AcDbLine
 10
889.2819999999998
 20
75.0
 30
0.0
 11
889.297
 21
77.3846
 31
0.0
  0
LINE
  5
346
330
1E
100
AcDbEntity
  8
0
100
AcDbLine
 10
889.2669999999998
 20
72.6154
 30
0.0
 11
889.2819999999998
 21
75.0
 31
0.0
  0
LINE
  5
347
330
1E
100
AcDbEntity
  8
0
100
AcDbLine
 10
889.245
 20
70.3846
 30
0.0
 11
889.2669999999998
 21
72.6154
 31
0.0
  0
LINE
  5
348
330
1E
100
AcDbEntity
  8
0
100
AcDbLine
 10
889.8610000000001
 20
72.6154
 30
0.0
 11
889.8760000000001
 21
75.0
 31
0.0
  0
LINE
  5
349
330
1E
100
AcDbEntity
  8
0
100
AcDbLine
 10
889.8389999999999
 20
70.3846
 30
0.0
 11
889.8610000000001
 21
72.6154
 31
0.0
  0
LINE
  5
34A
330
1E
100
AcDbEntity
  8
0
100
AcDbLine
 10
889.802
 20
68.4615
 30
0.0
 11
889.8389999999999
 21
70.3846
 31
0.0
  0
LINE
  5
34B
330
1E
100
AcDbEntity
  8
0
100
AcDbLine
 10
890.2849999999999
 20
70.3846
 30
0.0
 11
890.3069999999999
 21
72.6154
 31
0.0
  0
LINE
  5
34C
330
1E
100
AcDbEntity
  8
0
100
AcDbLine
 10
890.2469999999999
 20
68.4615
 30
0.0
 11
890.2849999999999
 21
70.3846
 31
0.0
  0
LINE
  5
34D
330
1E
100
AcDbEntity
  8
0
100
AcDbLine
 10
890.3069999999999
 20
72.6154
 30
0.0
 11
890.3220000000001
 21
75.0
 31
0.0
  0
LINE
  5
34E
330
1E
100
AcDbEntity
  8
0
100
AcDbLine
 10
890.0919999999999
 20
72.3846
 30
0.0
 11
890.099
 21
75.0
 31
0.0
  0
LINE
  5
34F
330
1E
100
AcDbEntity
  8
0
100
AcDbLine
 10
890.0769999999999
 20
70.0
 30
0.0
 11
890.0919999999999
 21
72.3846
 31
0.0
  0
LINE
  5
350
330
1E
100
AcDbEntity
  8
0
100
AcDbLine
 10
890.0399999999999
 20
67.9231
 30
0.0
 11
890.0769999999999
 21
70.0
 31
0.0
  0
LINE
  5
351
330
1E
100
AcDbEntity
  8
0
100
AcDbLine
 10
889.8760000000001
 20
75.0
 30
0.0
 11
889.891
 21
77.3846
 31
0.0
  0
LINE
  5
352
330
1E
100
AcDbEntity
  8
0
100
AcDbLine
 10
889.297
 20
77.3846
 30
0.0
 11
889.319
 21
79.61539999999999
 31
0.0
  0
LINE
  5
353
330
1E
100
AcDbEntity
  8
0
100
AcDbLine
 10
889.891
 20
77.3846
 30
0.0
 11
889.9129999999999
 21
79.61539999999999
 31
0.0
  0
LINE
  5
354
330
1E
100
AcDbEntity
  8
0
100
AcDbLine
 10
890.099
 20
75.0
 30
0.0
 11
890.1060000000001
 21
77.6154
 31
0.0
  0
LINE
  5
355
330
1E
100
AcDbEntity
  8
0
100
AcDbLine
 10
890.3220000000001
 20
75.0
 30
0.0
 11
890.337
 21
77.3846
 31
0.0
  0
LINE
  5
356
330
1E
100
AcDbEntity
  8
0
100
AcDbLine
 10
889.319
 20
79.61539999999999
 30
0.0
 11
889.356
 21
81.5385
 31
0.0
  0
LINE
  5
357
330
1E
100
AcDbEntity
  8
0
100
AcDbLine
 10
889.9129999999999
 20
79.61539999999999
 30
0.0
 11
889.9510000000001
 21
81.5385
 31
0.0
  0
LINE
  5
358
330
1E
100
AcDbEntity
  8
0
100
AcDbLine
 10
890.1060000000001
 20
77.6154
 30
0.0
 11
890.121
 21
80.0
 31
0.0
  0
LINE
  5
359
330
1E
100
AcDbEntity
  8
0
100
AcDbLine
 10
890.337
 20
77.3846
 30
0.0
 11
890.3589999999999
 21
79.61539999999999
 31
0.0
  0
LINE
  5
35A
330
1E
100
AcDbEntity
  8
0
100
AcDbLine
 10
889.1189999999999
 20
82.07689999999999
 30
0.0
 11
889.1630000000001
 21
83.61539999999999
 31
0.0
  0
LINE
  5
35B
330
1E
100
AcDbEntity
  8
0
100
AcDbLine
 10
889.356
 20
81.5385
 30
0.0
 11
889.3939999999998
 21
83.0
 31
0.0
  0
LINE
  5
35C
330
1E
100
AcDbEntity
  8
0
100
AcDbLine
 10
889.9510000000001
 20
81.5385
 30
0.0
 11
889.9880000000001
 21
83.0
 31
0.0
  0
LINE
  5
35D
330
1E
100
AcDbEntity
  8
0
100
AcDbLine
 10
890.121
 20
80.0
 30
0.0
 11
890.158
 21
82.07689999999999
 31
0.0
  0
LINE
  5
35E
330
1E
100
AcDbEntity
  8
0
100
AcDbLine
 10
890.3589999999999
 20
79.61539999999999
 30
0.0
 11
890.3960000000001
 21
81.5385
 31
0.0
  0
LINE
  5
35F
330
1E
100
AcDbEntity
  8
0
100
AcDbLine
 10
889.1630000000001
 20
83.61539999999999
 30
0.0
 11
889.245
 21
84.61539999999999
 31
0.0
  0
LINE
  5
360
330
1E
100
AcDbEntity
  8
0
100
AcDbLine
 10
889.3939999999998
 20
83.0
 30
0.0
 11
889.4680000000001
 21
83.9231
 31
0.0
  0
LINE
  5
361
330
1E
100
AcDbEntity
  8
0
100
AcDbLine
 10
889.9880000000001
 20
83.0
 30
0.0
 11
890.0619999999999
 21
83.9231
 31
0.0
  0
LINE
  5
362
330
1E
100
AcDbEntity
  8
0
100
AcDbLine
 10
890.158
 20
82.07689999999999
 30
0.0
 11
890.2029999999999
 21
83.61539999999999
 31
0.0
  0
LINE
  5
363
330
1E
100
AcDbEntity
  8
0
100
AcDbLine
 10
890.3960000000001
 20
81.5385
 30
0.0
 11
890.4329999999999
 21
83.0
 31
0.0
  0
LINE
  5
364
330
1E
100
AcDbEntity
  8
0
100
AcDbLine
 10
889.4680000000001
 20
83.9231
 30
0.0
 11
889.5419999999999
 21
84.2308
 31
0.0
  0
LINE
  5
365
330
1E
100
AcDbEntity
  8
0
100
AcDbLine
 10
890.0619999999999
 20
83.9231
 30
0.0
 11
890.136
 21
84.2308
 31
0.0
  0
LINE
  5
366
330
1E
100
AcDbEntity
  8
0
100
AcDbLine
 10
890.2029999999999
 20
83.61539999999999
 30
0.0
 11
890.2849999999999
 21
84.61539999999999
 31
0.0
  0
LINE
  5
367
330
1E
100
AcDbEntity
  8
0
100
AcDbLine
 10
890.4329999999999
 20
83.0
 30
0.0
 11
890.507
 21
83.9231
 31
0.0
  0
LINE
  5
368
330
1E
100
AcDbEntity
  8
0
100
AcDbLine
 10
889.3688853098371
 20
84.2308
 30
0.0
 11
890.1611146901629
 21
84.2308
 31
0.0
  0
LINE
  5
369
330
1E
100
AcDbEntity
  8
0
100
AcDbLine
 10
890.4083297703309
 20
84.2308
 30
0.0
 11
891.2006702296691
 21
84.2308
 31
0.0
  0
LINE
  5
36A
330
1E
100
AcDbEntity
  8
0
100
AcDbLine
 10
890.507
 20
83.9231
 30
0.0
 11
890.582
 21
84.2308
 31
0.0
  0
LINE
  5
36B
330
1E
100
AcDbEntity
  8
0
100
AcDbLine
 10
890.9159999999999
 20
75.0
 30
0.0
 11
890.9310000000001
 21
77.3846
 31
0.0
  0
LINE
  5
36C
330
1E
100
AcDbEntity
  8
0
100
AcDbLine
 10
890.9310000000001
 20
77.3846
 30
0.0
 11
890.953
 21
79.61539999999999
 31
0.0
  0
LINE
  5
36D
330
1E
100
AcDbEntity
  8
0
100
AcDbLine
 10
890.953
 20
79.61539999999999
 30
0.0
 11
890.99
 21
81.5385
 31
0.0
  0
LINE
  5
36E
330
1E
100
AcDbEntity
  8
0
100
AcDbLine
 10
890.99
 20
81.5385
 30
0.0
 11
891.0269999999998
 21
83.0
 31
0.0
  0
LINE
  5
36F
330
1E
100
AcDbEntity
  8
0
100
AcDbLine
 10
891.0269999999998
 20
83.0
 30
0.0
 11
891.102
 21
83.9231
 31
0.0
  0
LINE
  5
370
330
1E
100
AcDbEntity
  8
0
100
AcDbLine
 10
890.901
 20
72.6154
 30
0.0
 11
890.9159999999999
 21
75.0
 31
0.0
  0
LINE
  5
371
330
1E
100
AcDbEntity
  8
0
100
AcDbLine
 10
890.8789999999999
 20
70.3846
 30
0.0
 11
890.901
 21
72.6154
 31
0.0
  0
LINE
  5
372
330
1E
100
AcDbEntity
  8
0
100
AcDbLine
 10
890.8419999999999
 20
68.4615
 30
0.0
 11
890.8789999999999
 21
70.3846
 31
0.0
  0
LINE
  5
373
330
1E
100
AcDbEntity
  8
0
100
AcDbLine
 10
890.8049999999999
 20
67.0
 30
0.0
 11
890.8419999999999
 21
68.4615
 31
0.0
  0
LINE
  5
374
330
1E
100
AcDbEntity
  8
0
100
AcDbLine
 10
891.102
 20
83.9231
 30
0.0
 11
891.1760000000001
 21
84.2308
 31
0.0
  0
LINE
  5
375
330
1E
100
AcDbEntity
  8
0
100
AcDbLine
 10
891.1389999999999
 20
75.0
 30
0.0
 11
891.1460000000001
 21
77.6154
 31
0.0
  0
LINE
  5
376
330
1E
100
AcDbEntity
  8
0
100
AcDbLine
 10
891.1460000000001
 20
77.6154
 30
0.0
 11
891.1610000000001
 21
80.0
 31
0.0
  0
LINE
  5
377
330
1E
100
AcDbEntity
  8
0
100
AcDbLine
 10
891.1610000000001
 20
80.0
 30
0.0
 11
891.1979999999999
 21
82.07689999999999
 31
0.0
  0
LINE
  5
378
330
1E
100
AcDbEntity
  8
0
100
AcDbLine
 10
891.131
 20
72.3846
 30
0.0
 11
891.1389999999999
 21
75.0
 31
0.0
  0
LINE
  5
379
330
1E
100
AcDbEntity
  8
0
100
AcDbLine
 10
891.116
 20
70.0
 30
0.0
 11
891.131
 21
72.3846
 31
0.0
  0
LINE
  5
37A
330
1E
100
AcDbEntity
  8
0
100
AcDbLine
 10
891.079
 20
67.9231
 30
0.0
 11
891.116
 21
70.0
 31
0.0
  0
LINE
  5
37B
330
1E
100
AcDbEntity
  8
0
100
AcDbLine
 10
891.0349999999999
 20
66.38460000000001
 30
0.0
 11
891.079
 21
67.9231
 31
0.0
  0
LINE
  5
37C
330
1E
100
AcDbEntity
  8
0
100
AcDbLine
 10
890.7300000000001
 20
66.07689999999999
 30
0.0
 11
890.8049999999999
 21
67.0
 31
0.0
  0
LINE
  5
37D
330
1E
100
AcDbEntity
  8
0
100
AcDbLine
 10
889.0959999999999
 20
84.2308
 30
0.0
 11
889.319
 21
85.0
 31
0.0
  0
LINE
  5
37E
330
1E
100
AcDbEntity
  8
0
100
AcDbLine
 10
890.136
 20
84.2308
 30
0.0
 11
890.3589999999999
 21
85.0
 31
0.0
  0
LINE
  5
37F
330
1E
100
AcDbEntity
  8
0
100
AcDbLine
 10
891.1979999999999
 20
82.07689999999999
 30
0.0
 11
891.243
 21
83.61539999999999
 31
0.0
  0
LINE
  5
380
330
1E
100
AcDbEntity
  8
0
100
AcDbLine
 10
891.243
 20
83.61539999999999
 30
0.0
 11
891.324
 21
84.61539999999999
 31
0.0
  0
LINE
  5
381
330
1E
100
AcDbEntity
  8
0
100
AcDbLine
 10
891.3610000000002
 20
75.0
 30
0.0
 11
891.3760000000001
 21
77.3846
 31
0.0
  0
LINE
  5
382
330
1E
100
AcDbEntity
  8
0
100
AcDbLine
 10
891.3760000000001
 20
77.3846
 30
0.0
 11
891.398
 21
79.61539999999999
 31
0.0
  0
LINE
  5
383
330
1E
100
AcDbEntity
  8
0
100
AcDbLine
 10
891.398
 20
79.61539999999999
 30
0.0
 11
891.436
 21
81.5385
 31
0.0
  0
LINE
  5
384
330
1E
100
AcDbEntity
  8
0
100
AcDbLine
 10
891.436
 20
81.5385
 30
0.0
 11
891.473
 21
83.0
 31
0.0
  0
LINE
  5
385
330
1E
100
AcDbEntity
  8
0
100
AcDbLine
 10
891.473
 20
83.0
 30
0.0
 11
891.547
 21
83.9231
 31
0.0
  0
LINE
  5
386
330
1E
100
AcDbEntity
  8
0
100
AcDbLine
 10
891.4478853098371
 20
84.2308
 30
0.0
 11
892.2401146901629
 21
84.2308
 31
0.0
  0
LINE
  5
387
330
1E
100
AcDbEntity
  8
0
100
AcDbLine
 10
891.547
 20
83.9231
 30
0.0
 11
891.6210000000001
 21
84.2308
 31
0.0
  0
LINE
  5
388
330
1E
100
AcDbEntity
  8
0
100
AcDbLine
 10
891.346
 20
72.6154
 30
0.0
 11
891.3610000000002
 21
75.0
 31
0.0
  0
LINE
  5
389
330
1E
100
AcDbEntity
  8
0
100
AcDbLine
 10
891.324
 20
70.3846
 30
0.0
 11
891.346
 21
72.6154
 31
0.0
  0
LINE
  5
38A
330
1E
100
AcDbEntity
  8
0
100
AcDbLine
 10
891.2869999999999
 20
68.4615
 30
0.0
 11
891.324
 21
70.3846
 31
0.0
  0
LINE
  5
38B
330
1E
100
AcDbEntity
  8
0
100
AcDbLine
 10
891.2499999999999
 20
67.0
 30
0.0
 11
891.2869999999999
 21
68.4615
 31
0.0
  0
LINE
  5
38C
330
1E
100
AcDbEntity
  8
0
100
AcDbLine
 10
891.1760000000001
 20
84.2308
 30
0.0
 11
891.398
 21
85.0
 31
0.0
  0
LINE
  5
38D
330
1E
100
AcDbEntity
  8
0
100
AcDbLine
 10
890.656
 20
65.7692
 30
0.0
 11
890.8789999999999
 21
65.0
 31
0.0
  0
LINE
  5
38E
330
1E
100
AcDbEntity
  8
0
100
AcDbLine
 10
890.656
 20
65.7692
 30
0.0
 11
890.7300000000001
 21
66.07689999999999
 31
0.0
  0
LINE
  5
38F
330
1E
100
AcDbEntity
  8
0
100
AcDbLine
 10
892.1163297703309
 20
65.7692
 30
0.0
 11
892.908114690163
 21
65.7692
 31
0.0
  0
LINE
  5
390
330
1E
100
AcDbEntity
  8
0
100
AcDbLine
 10
891.993
 20
65.3846
 30
0.0
 11
892.074
 21
66.38460000000001
 31
0.0
  0
LINE
  5
391
330
1E
100
AcDbEntity
  8
0
100
AcDbLine
 10
891.918
 20
65.0
 30
0.0
 11
891.993
 21
65.3846
 31
0.0
  0
LINE
  5
392
330
1E
100
AcDbEntity
  8
0
100
AcDbLine
 10
891.918
 20
65.0
 30
0.0
 11
892.1410000000001
 21
65.7692
 31
0.0
  0
LINE
  5
393
330
1E
100
AcDbEntity
  8
0
100
AcDbLine
 10
891.941
 20
72.6154
 30
0.0
 11
891.956
 21
75.0
 31
0.0
  0
LINE
  5
394
330
1E
100
AcDbEntity
  8
0
100
AcDbLine
 10
891.918
 20
70.3846
 30
0.0
 11
891.941
 21
72.6154
 31
0.0
  0
LINE
  5
395
330
1E
100
AcDbEntity
  8
0
100
AcDbLine
 10
891.881
 20
68.4615
 30
0.0
 11
891.918
 21
70.3846
 31
0.0
  0
LINE
  5
396
330
1E
100
AcDbEntity
  8
0
100
AcDbLine
 10
891.844
 20
67.0
 30
0.0
 11
891.881
 21
68.4615
 31
0.0
  0
LINE
  5
397
330
1E
100
AcDbEntity
  8
0
100
AcDbLine
 10
891.7699999999999
 20
66.07689999999999
 30
0.0
 11
891.844
 21
67.0
 31
0.0
  0
LINE
  5
398
330
1E
100
AcDbEntity
  8
0
100
AcDbLine
 10
892.215
 20
66.07689999999999
 30
0.0
 11
892.29
 21
67.0
 31
0.0
  0
LINE
  5
399
330
1E
100
AcDbEntity
  8
0
100
AcDbLine
 10
892.327
 20
68.4615
 30
0.0
 11
892.3639999999998
 21
70.3846
 31
0.0
  0
LINE
  5
39A
330
1E
100
AcDbEntity
  8
0
100
AcDbLine
 10
892.29
 20
67.0
 30
0.0
 11
892.327
 21
68.4615
 31
0.0
  0
LINE
  5
39B
330
1E
100
AcDbEntity
  8
0
100
AcDbLine
 10
892.3860000000001
 20
72.6154
 30
0.0
 11
892.401
 21
75.0
 31
0.0
  0
LINE
  5
39C
330
1E
100
AcDbEntity
  8
0
100
AcDbLine
 10
892.3639999999998
 20
70.3846
 30
0.0
 11
892.3860000000001
 21
72.6154
 31
0.0
  0
LINE
  5
39D
330
1E
100
AcDbEntity
  8
0
100
AcDbLine
 10
892.171
 20
72.3846
 30
0.0
 11
892.178
 21
75.0
 31
0.0
  0
LINE
  5
39E
330
1E
100
AcDbEntity
  8
0
100
AcDbLine
 10
892.1560000000001
 20
70.0
 30
0.0
 11
892.171
 21
72.3846
 31
0.0
  0
LINE
  5
39F
330
1E
100
AcDbEntity
  8
0
100
AcDbLine
 10
892.1189999999999
 20
67.9231
 30
0.0
 11
892.1560000000001
 21
70.0
 31
0.0
  0
LINE
  5
3A0
330
1E
100
AcDbEntity
  8
0
100
AcDbLine
 10
892.074
 20
66.38460000000001
 30
0.0
 11
892.1189999999999
 21
67.9231
 31
0.0
  0
LINE
  5
3A1
330
1E
100
AcDbEntity
  8
0
100
AcDbLine
 10
891.956
 20
75.0
 30
0.0
 11
891.97
 21
77.3846
 31
0.0
  0
LINE
  5
3A2
330
1E
100
AcDbEntity
  8
0
100
AcDbLine
 10
891.97
 20
77.3846
 30
0.0
 11
891.993
 21
79.61539999999999
 31
0.0
  0
LINE
  5
3A3
330
1E
100
AcDbEntity
  8
0
100
AcDbLine
 10
892.178
 20
75.0
 30
0.0
 11
892.186
 21
77.6154
 31
0.0
  0
LINE
  5
3A4
330
1E
100
AcDbEntity
  8
0
100
AcDbLine
 10
892.401
 20
75.0
 30
0.0
 11
892.416
 21
77.3846
 31
0.0
  0
LINE
  5
3A5
330
1E
100
AcDbEntity
  8
0
100
AcDbLine
 10
891.993
 20
79.61539999999999
 30
0.0
 11
892.0299999999999
 21
81.5385
 31
0.0
  0
LINE
  5
3A6
330
1E
100
AcDbEntity
  8
0
100
AcDbLine
 10
892.186
 20
77.6154
 30
0.0
 11
892.201
 21
80.0
 31
0.0
  0
LINE
  5
3A7
330
1E
100
AcDbEntity
  8
0
100
AcDbLine
 10
892.416
 20
77.3846
 30
0.0
 11
892.4379999999999
 21
79.61539999999999
 31
0.0
  0
LINE
  5
3A8
330
1E
100
AcDbEntity
  8
0
100
AcDbLine
 10
892.0299999999999
 20
81.5385
 30
0.0
 11
892.0669999999999
 21
83.0
 31
0.0
  0
LINE
  5
3A9
330
1E
100
AcDbEntity
  8
0
100
AcDbLine
 10
892.201
 20
80.0
 30
0.0
 11
892.238
 21
82.07689999999999
 31
0.0
  0
LINE
  5
3AA
330
1E
100
AcDbEntity
  8
0
100
AcDbLine
 10
892.4379999999999
 20
79.61539999999999
 30
0.0
 11
892.4750000000001
 21
81.5385
 31
0.0
  0
LINE
  5
3AB
330
1E
100
AcDbEntity
  8
0
100
AcDbLine
 10
892.0669999999999
 20
83.0
 30
0.0
 11
892.1410000000001
 21
83.9231
 31
0.0
  0
LINE
  5
3AC
330
1E
100
AcDbEntity
  8
0
100
AcDbLine
 10
892.238
 20
82.07689999999999
 30
0.0
 11
892.2819999999999
 21
83.61539999999999
 31
0.0
  0
LINE
  5
3AD
330
1E
100
AcDbEntity
  8
0
100
AcDbLine
 10
892.4750000000001
 20
81.5385
 30
0.0
 11
892.5119999999999
 21
83.0
 31
0.0
  0
LINE
  5
3AE
330
1E
100
AcDbEntity
  8
0
100
AcDbLine
 10
892.1410000000001
 20
83.9231
 30
0.0
 11
892.215
 21
84.2308
 31
0.0
  0
LINE
  5
3AF
330
1E
100
AcDbEntity
  8
0
100
AcDbLine
 10
892.487885309837
 20
84.2308
 30
0.0
 11
893.2801146901629
 21
84.2308
 31
0.0
  0
LINE
  5
3B0
330
1E
100
AcDbEntity
  8
0
100
AcDbLine
 10
892.2819999999999
 20
83.61539999999999
 30
0.0
 11
892.3639999999998
 21
84.61539999999999
 31
0.0
  0
LINE
  5
3B1
330
1E
100
AcDbEntity
  8
0
100
AcDbLine
 10
892.5119999999999
 20
83.0
 30
0.0
 11
892.5869999999999
 21
83.9231
 31
0.0
  0
LINE
  5
3B2
330
1E
100
AcDbEntity
  8
0
100
AcDbLine
 10
892.5869999999999
 20
83.9231
 30
0.0
 11
892.661
 21
84.2308
 31
0.0
  0
LINE
  5
3B3
330
1E
100
AcDbEntity
  8
0
100
AcDbLine
 10
892.1410000000001
 20
65.7692
 30
0.0
 11
892.735
 21
65.7692
 31
0.0
  0
LINE
  5
3B4
330
1E
100
AcDbEntity
  8
0
100
AcDbLine
 10
892.1410000000001
 20
65.7692
 30
0.0
 11
892.215
 21
66.07689999999999
 31
0.0
  0
LINE
  5
3B5
330
1E
100
AcDbEntity
  8
0
100
AcDbLine
 10
891.6949999999999
 20
65.7692
 30
0.0
 11
891.918
 21
65.0
 31
0.0
  0
LINE
  5
3B6
330
1E
100
AcDbEntity
  8
0
100
AcDbLine
 10
891.6949999999999
 20
65.7692
 30
0.0
 11
891.7699999999999
 21
66.07689999999999
 31
0.0
  0
LINE
  5
3B7
330
1E
100
AcDbEntity
  8
0
100
AcDbLine
 10
892.215
 20
84.2308
 30
0.0
 11
892.4379999999999
 21
85.0
 31
0.0
  0
LINE
  5
3B8
330
1E
100
AcDbEntity
  8
0
100
AcDbLine
 10
893.1558853098369
 20
65.7692
 30
0.0
 11
893.9481146901629
 21
65.7692
 31
0.0
  0
LINE
  5
3B9
330
1E
100
AcDbEntity
  8
0
100
AcDbLine
 10
893.032
 20
65.3846
 30
0.0
 11
893.1139999999999
 21
66.38460000000001
 31
0.0
  0
LINE
  5
3BA
330
1E
100
AcDbEntity
  8
0
100
AcDbLine
 10
892.9580000000001
 20
65.0
 30
0.0
 11
893.032
 21
65.3846
 31
0.0
  0
LINE
  5
3BB
330
1E
100
AcDbEntity
  8
0
100
AcDbLine
 10
892.9580000000001
 20
65.0
 30
0.0
 11
893.181
 21
65.7692
 31
0.0
  0
LINE
  5
3BC
330
1E
100
AcDbEntity
  8
0
100
AcDbLine
 10
892.98
 20
72.6154
 30
0.0
 11
892.9949999999999
 21
75.0
 31
0.0
  0
LINE
  5
3BD
330
1E
100
AcDbEntity
  8
0
100
AcDbLine
 10
892.9580000000001
 20
70.3846
 30
0.0
 11
892.98
 21
72.6154
 31
0.0
  0
LINE
  5
3BE
330
1E
100
AcDbEntity
  8
0
100
AcDbLine
 10
892.9210000000001
 20
68.4615
 30
0.0
 11
892.9580000000001
 21
70.3846
 31
0.0
  0
LINE
  5
3BF
330
1E
100
AcDbEntity
  8
0
100
AcDbLine
 10
892.8839999999999
 20
67.0
 30
0.0
 11
892.9210000000001
 21
68.4615
 31
0.0
  0
LINE
  5
3C0
330
1E
100
AcDbEntity
  8
0
100
AcDbLine
 10
892.8089999999999
 20
66.07689999999999
 30
0.0
 11
892.8839999999999
 21
67.0
 31
0.0
  0
LINE
  5
3C1
330
1E
100
AcDbEntity
  8
0
100
AcDbLine
 10
893.255
 20
66.07689999999999
 30
0.0
 11
893.3289999999999
 21
67.0
 31
0.0
  0
LINE
  5
3C2
330
1E
100
AcDbEntity
  8
0
100
AcDbLine
 10
893.3660000000001
 20
68.4615
 30
0.0
 11
893.4039999999999
 21
70.3846
 31
0.0
  0
LINE
  5
3C3
330
1E
100
AcDbEntity
  8
0
100
AcDbLine
 10
893.3289999999999
 20
67.0
 30
0.0
 11
893.3660000000001
 21
68.4615
 31
0.0
  0
LINE
  5
3C4
330
1E
100
AcDbEntity
  8
0
100
AcDbLine
 10
893.426
 20
72.6154
 30
0.0
 11
893.4409999999999
 21
75.0
 31
0.0
  0
LINE
  5
3C5
330
1E
100
AcDbEntity
  8
0
100
AcDbLine
 10
893.4039999999999
 20
70.3846
 30
0.0
 11
893.426
 21
72.6154
 31
0.0
  0
LINE
  5
3C6
330
1E
100
AcDbEntity
  8
0
100
AcDbLine
 10
893.21
 20
72.3846
 30
0.0
 11
893.218
 21
75.0
 31
0.0
  0
LINE
  5
3C7
330
1E
100
AcDbEntity
  8
0
100
AcDbLine
 10
893.195
 20
70.0
 30
0.0
 11
893.21
 21
72.3846
 31
0.0
  0
LINE
  5
3C8
330
1E
100
AcDbEntity
  8
0
100
AcDbLine
 10
893.158
 20
67.9231
 30
0.0
 11
893.195
 21
70.0
 31
0.0
  0
LINE
  5
3C9
330
1E
100
AcDbEntity
  8
0
100
AcDbLine
 10
893.1139999999999
 20
66.38460000000001
 30
0.0
 11
893.158
 21
67.9231
 31
0.0
  0
LINE
  5
3CA
330
1E
100
AcDbEntity
  8
0
100
AcDbLine
 10
892.9949999999999
 20
75.0
 30
0.0
 11
893.0099999999999
 21
77.3846
 31
0.0
  0
LINE
  5
3CB
330
1E
100
AcDbEntity
  8
0
100
AcDbLine
 10
893.0099999999999
 20
77.3846
 30
0.0
 11
893.032
 21
79.61539999999999
 31
0.0
  0
LINE
  5
3CC
330
1E
100
AcDbEntity
  8
0
100
AcDbLine
 10
893.218
 20
75.0
 30
0.0
 11
893.2249999999999
 21
77.6154
 31
0.0
  0
LINE
  5
3CD
330
1E
100
AcDbEntity
  8
0
100
AcDbLine
 10
893.4409999999999
 20
75.0
 30
0.0
 11
893.4560000000001
 21
77.3846
 31
0.0
  0
LINE
  5
3CE
330
1E
100
AcDbEntity
  8
0
100
AcDbLine
 10
893.032
 20
79.61539999999999
 30
0.0
 11
893.069
 21
81.5385
 31
0.0
  0
LINE
  5
3CF
330
1E
100
AcDbEntity
  8
0
100
AcDbLine
 10
893.2249999999999
 20
77.6154
 30
0.0
 11
893.2399999999999
 21
80.0
 31
0.0
  0
LINE
  5
3D0
330
1E
100
AcDbEntity
  8
0
100
AcDbLine
 10
893.4560000000001
 20
77.3846
 30
0.0
 11
893.4780000000001
 21
79.61539999999999
 31
0.0
  0
LINE
  5
3D1
330
1E
100
AcDbEntity
  8
0
100
AcDbLine
 10
893.069
 20
81.5385
 30
0.0
 11
893.106
 21
83.0
 31
0.0
  0
LINE
  5
3D2
330
1E
100
AcDbEntity
  8
0
100
AcDbLine
 10
893.2399999999999
 20
80.0
 30
0.0
 11
893.2769999999999
 21
82.07689999999999
 31
0.0
  0
LINE
  5
3D3
330
1E
100
AcDbEntity
  8
0
100
AcDbLine
 10
893.4780000000001
 20
79.61539999999999
 30
0.0
 11
893.515
 21
81.5385
 31
0.0
  0
LINE
  5
3D4
330
1E
100
AcDbEntity
  8
0
100
AcDbLine
 10
893.106
 20
83.0
 30
0.0
 11
893.181
 21
83.9231
 31
0.0
  0
LINE
  5
3D5
330
1E
100
AcDbEntity
  8
0
100
AcDbLine
 10
893.2769999999999
 20
82.07689999999999
 30
0.0
 11
893.322
 21
83.61539999999999
 31
0.0
  0
LINE
  5
3D6
330
1E
100
AcDbEntity
  8
0
100
AcDbLine
 10
893.515
 20
81.5385
 30
0.0
 11
893.552
 21
83.0
 31
0.0
  0
LINE
  5
3D7
330
1E
100
AcDbEntity
  8
0
100
AcDbLine
 10
893.181
 20
83.9231
 30
0.0
 11
893.255
 21
84.2308
 31
0.0
  0
LINE
  5
3D8
330
1E
100
AcDbEntity
  8
0
100
AcDbLine
 10
893.5273297703309
 20
84.2308
 30
0.0
 11
894.319114690163
 21
84.2308
 31
0.0
  0
LINE
  5
3D9
330
1E
100
AcDbEntity
  8
0
100
AcDbLine
 10
893.322
 20
83.61539999999999
 30
0.0
 11
893.4039999999999
 21
84.61539999999999
 31
0.0
  0
LINE
  5
3DA
330
1E
100
AcDbEntity
  8
0
100
AcDbLine
 10
893.552
 20
83.0
 30
0.0
 11
893.626
 21
83.9231
 31
0.0
  0
LINE
  5
3DB
330
1E
100
AcDbEntity
  8
0
100
AcDbLine
 10
893.626
 20
83.9231
 30
0.0
 11
893.701
 21
84.2308
 31
0.0
  0
LINE
  5
3DC
330
1E
100
AcDbEntity
  8
0
100
AcDbLine
 10
893.181
 20
65.7692
 30
0.0
 11
893.7749999999999
 21
65.7692
 31
0.0
  0
LINE
  5
3DD
330
1E
100
AcDbEntity
  8
0
100
AcDbLine
 10
893.181
 20
65.7692
 30
0.0
 11
893.255
 21
66.07689999999999
 31
0.0
  0
LINE
  5
3DE
330
1E
100
AcDbEntity
  8
0
100
AcDbLine
 10
892.735
 20
65.7692
 30
0.0
 11
892.9580000000001
 21
65.0
 31
0.0
  0
LINE
  5
3DF
330
1E
100
AcDbEntity
  8
0
100
AcDbLine
 10
892.735
 20
65.7692
 30
0.0
 11
892.8089999999999
 21
66.07689999999999
 31
0.0
  0
LINE
  5
3E0
330
1E
100
AcDbEntity
  8
0
100
AcDbLine
 10
893.255
 20
84.2308
 30
0.0
 11
893.4780000000001
 21
85.0
 31
0.0
  0
LINE
  5
3E1
330
1E
100
AcDbEntity
  8
0
100
AcDbLine
 10
894.7419999999999
 20
65.7692
 30
0.0
 11
894.818
 21
66.07689999999999
 31
0.0
  0
LINE
  5
3E2
330
1E
100
AcDbEntity
  8
0
100
AcDbLine
 10
894.195885309837
 20
65.7692
 30
0.0
 11
894.7419999999999
 21
65.7692
 31
0.0
  0
LINE
  5
3E3
330
1E
100
AcDbEntity
  8
0
100
AcDbLine
 10
894.072
 20
65.3846
 30
0.0
 11
894.1539999999999
 21
66.38460000000001
 31
0.0
  0
LINE
  5
3E4
330
1E
100
AcDbEntity
  8
0
100
AcDbLine
 10
893.997
 20
65.0
 30
0.0
 11
894.072
 21
65.3846
 31
0.0
  0
LINE
  5
3E5
330
1E
100
AcDbEntity
  8
0
100
AcDbLine
 10
893.997
 20
65.0
 30
0.0
 11
894.2199999999999
 21
65.7692
 31
0.0
  0
LINE
  5
3E6
330
1E
100
AcDbEntity
  8
0
100
AcDbLine
 10
894.02
 20
72.6154
 30
0.0
 11
894.035
 21
75.0
 31
0.0
  0
LINE
  5
3E7
330
1E
100
AcDbEntity
  8
0
100
AcDbLine
 10
893.997
 20
70.3846
 30
0.0
 11
894.02
 21
72.6154
 31
0.0
  0
LINE
  5
3E8
330
1E
100
AcDbEntity
  8
0
100
AcDbLine
 10
893.96
 20
68.4615
 30
0.0
 11
893.997
 21
70.3846
 31
0.0
  0
LINE
  5
3E9
330
1E
100
AcDbEntity
  8
0
100
AcDbLine
 10
893.923
 20
67.0
 30
0.0
 11
893.96
 21
68.4615
 31
0.0
  0
LINE
  5
3EA
330
1E
100
AcDbEntity
  8
0
100
AcDbLine
 10
893.8489999999999
 20
66.07689999999999
 30
0.0
 11
893.923
 21
67.0
 31
0.0
  0
LINE
  5
3EB
330
1E
100
AcDbEntity
  8
0
100
AcDbLine
 10
894.2949999999999
 20
66.07689999999999
 30
0.0
 11
894.369
 21
67.0
 31
0.0
  0
LINE
  5
3EC
330
1E
100
AcDbEntity
  8
0
100
AcDbLine
 10
894.406
 20
68.4615
 30
0.0
 11
894.443
 21
70.3846
 31
0.0
  0
LINE
  5
3ED
330
1E
100
AcDbEntity
  8
0
100
AcDbLine
 10
894.369
 20
67.0
 30
0.0
 11
894.406
 21
68.4615
 31
0.0
  0
LINE
  5
3EE
330
1E
100
AcDbEntity
  8
0
100
AcDbLine
 10
894.4650000000001
 20
72.6154
 30
0.0
 11
894.48
 21
75.0
 31
0.0
  0
LINE
  5
3EF
330
1E
100
AcDbEntity
  8
0
100
AcDbLine
 10
894.443
 20
70.3846
 30
0.0
 11
894.4650000000001
 21
72.6154
 31
0.0
  0
LINE
  5
3F0
330
1E
100
AcDbEntity
  8
0
100
AcDbLine
 10
894.25
 20
72.3846
 30
0.0
 11
894.2569999999999
 21
75.0
 31
0.0
  0
LINE
  5
3F1
330
1E
100
AcDbEntity
  8
0
100
AcDbLine
 10
894.2350000000001
 20
70.0
 30
0.0
 11
894.25
 21
72.3846
 31
0.0
  0
LINE
  5
3F2
330
1E
100
AcDbEntity
  8
0
100
AcDbLine
 10
894.1979999999999
 20
67.9231
 30
0.0
 11
894.2350000000001
 21
70.0
 31
0.0
  0
LINE
  5
3F3
330
1E
100
AcDbEntity
  8
0
100
AcDbLine
 10
894.1539999999999
 20
66.38460000000001
 30
0.0
 11
894.1979999999999
 21
67.9231
 31
0.0
  0
LINE
  5
3F4
330
1E
100
AcDbEntity
  8
0
100
AcDbLine
 10
894.035
 20
75.0
 30
0.0
 11
894.049
 21
77.3846
 31
0.0
  0
LINE
  5
3F5
330
1E
100
AcDbEntity
  8
0
100
AcDbLine
 10
894.049
 20
77.3846
 30
0.0
 11
894.072
 21
79.61539999999999
 31
0.0
  0
LINE
  5
3F6
330
1E
100
AcDbEntity
  8
0
100
AcDbLine
 10
894.2569999999999
 20
75.0
 30
0.0
 11
894.265
 21
77.6154
 31
0.0
  0
LINE
  5
3F7
330
1E
100
AcDbEntity
  8
0
100
AcDbLine
 10
894.48
 20
75.0
 30
0.0
 11
894.495
 21
77.3846
 31
0.0
  0
LINE
  5
3F8
330
1E
100
AcDbEntity
  8
0
100
AcDbLine
 10
894.48
 20
75.0
 30
0.0
 11
894.4969999999999
 21
77.3846
 31
0.0
  0
LINE
  5
3F9
330
1E
100
AcDbEntity
  8
0
100
AcDbLine
 10
894.48
 20
75.0
 30
0.0
 11
894.4969999999999
 21
72.6154
 31
0.0
  0
LINE
  5
3FA
330
1E
100
AcDbEntity
  8
0
100
AcDbLine
 10
894.072
 20
79.61539999999999
 30
0.0
 11
894.1089999999999
 21
81.5385
 31
0.0
  0
LINE
  5
3FB
330
1E
100
AcDbEntity
  8
0
100
AcDbLine
 10
894.265
 20
77.6154
 30
0.0
 11
894.28
 21
80.0
 31
0.0
  0
LINE
  5
3FC
330
1E
100
AcDbEntity
  8
0
100
AcDbLine
 10
894.4969999999999
 20
72.6154
 30
0.0
 11
894.5249999999999
 21
70.3846
 31
0.0
  0
LINE
  5
3FD
330
1E
100
AcDbEntity
  8
0
100
AcDbLine
 10
894.51
 20
75.0
 30
0.0
 11
894.5239999999998
 21
77.1538
 31
0.0
  0
LINE
  5
3FE
330
1E
100
AcDbEntity
  8
0
100
AcDbLine
 10
894.51
 20
75.0
 30
0.0
 11
894.5239999999998
 21
72.8462
 31
0.0
  0
LINE
  5
3FF
330
1E
100
AcDbEntity
  8
0
100
AcDbLine
 10
894.4969999999999
 20
77.3846
 30
0.0
 11
894.5249999999999
 21
79.61539999999999
 31
0.0
  0
LINE
  5
400
330
1E
100
AcDbEntity
  8
0
100
AcDbLine
 10
894.495
 20
77.3846
 30
0.0
 11
894.5169999999999
 21
79.61539999999999
 31
0.0
  0
LINE
  5
401
330
1E
100
AcDbEntity
  8
0
100
AcDbLine
 10
894.1089999999999
 20
81.5385
 30
0.0
 11
894.1460000000001
 21
83.0
 31
0.0
  0
LINE
  5
402
330
1E
100
AcDbEntity
  8
0
100
AcDbLine
 10
894.28
 20
80.0
 30
0.0
 11
894.317
 21
82.07689999999999
 31
0.0
  0
LINE
  5
403
330
1E
100
AcDbEntity
  8
0
100
AcDbLine
 10
894.5239999999998
 20
72.8462
 30
0.0
 11
894.5399999999999
 21
70.7692
 31
0.0
  0
LINE
  5
404
330
1E
100
AcDbEntity
  8
0
100
AcDbLine
 10
894.5399999999999
 20
70.7692
 30
0.0
 11
894.5689999999999
 21
69.0
 31
0.0
  0
LINE
  5
405
330
1E
100
AcDbEntity
  8
0
100
AcDbLine
 10
894.5249999999999
 20
70.3846
 30
0.0
 11
894.557
 21
68.4615
 31
0.0
  0
LINE
  5
406
330
1E
100
AcDbEntity
  8
0
100
AcDbLine
 10
894.5239999999998
 20
77.1538
 30
0.0
 11
894.5399999999999
 21
79.2308
 31
0.0
  0
LINE
  5
407
330
1E
100
AcDbEntity
  8
0
100
AcDbLine
 10
894.5249999999999
 20
79.61539999999999
 30
0.0
 11
894.557
 21
81.5385
 31
0.0
  0
LINE
  5
408
330
1E
100
AcDbEntity
  8
0
100
AcDbLine
 10
894.5399999999999
 20
79.2308
 30
0.0
 11
894.5689999999999
 21
81.0
 31
0.0
  0
LINE
  5
409
330
1E
100
AcDbEntity
  8
0
100
AcDbLine
 10
894.5169999999999
 20
79.61539999999999
 30
0.0
 11
894.5549999999999
 21
81.5385
 31
0.0
  0
LINE
  5
40A
330
1E
100
AcDbEntity
  8
0
100
AcDbLine
 10
894.1460000000001
 20
83.0
 30
0.0
 11
894.2199999999999
 21
83.9231
 31
0.0
  0
LINE
  5
40B
330
1E
100
AcDbEntity
  8
0
100
AcDbLine
 10
894.317
 20
82.07689999999999
 30
0.0
 11
894.3610000000001
 21
83.61539999999999
 31
0.0
  0
LINE
  5
40C
330
1E
100
AcDbEntity
  8
0
100
AcDbLine
 10
894.5689999999999
 20
69.0
 30
0.0
 11
894.6089999999999
 21
67.6923
 31
0.0
  0
LINE
  5
40D
330
1E
100
AcDbEntity
  8
0
100
AcDbLine
 10
894.557
 20
68.4615
 30
0.0
 11
894.5949999999999
 21
67.0
 31
0.0
  0
LINE
  5
40E
330
1E
100
AcDbEntity
  8
0
100
AcDbLine
 10
894.557
 20
81.5385
 30
0.0
 11
894.5949999999999
 21
83.0
 31
0.0
  0
LINE
  5
40F
330
1E
100
AcDbEntity
  8
0
100
AcDbLine
 10
894.6089999999999
 20
67.6923
 30
0.0
 11
894.677
 21
67.0
 31
0.0
  0
LINE
  5
410
330
1E
100
AcDbEntity
  8
0
100
AcDbLine
 10
894.5949999999999
 20
67.0
 30
0.0
 11
894.6699999999999
 21
66.07689999999999
 31
0.0
  0
LINE
  5
411
330
1E
100
AcDbEntity
  8
0
100
AcDbLine
 10
894.5689999999999
 20
81.0
 30
0.0
 11
894.6089999999999
 21
82.30769999999999
 31
0.0
  0
LINE
  5
412
330
1E
100
AcDbEntity
  8
0
100
AcDbLine
 10
894.5949999999999
 20
83.0
 30
0.0
 11
894.6699999999999
 21
83.9231
 31
0.0
  0
LINE
  5
413
330
1E
100
AcDbEntity
  8
0
100
AcDbLine
 10
894.6089999999999
 20
82.30769999999999
 30
0.0
 11
894.677
 21
83.0
 31
0.0
  0
LINE
  5
414
330
1E
100
AcDbEntity
  8
0
100
AcDbLine
 10
894.5549999999999
 20
81.5385
 30
0.0
 11
894.5919999999999
 21
83.0
 31
0.0
  0
LINE
  5
415
330
1E
100
AcDbEntity
  8
0
100
AcDbLine
 10
894.2199999999999
 20
83.9231
 30
0.0
 11
894.2949999999999
 21
84.2308
 31
0.0
  0
LINE
  5
416
330
1E
100
AcDbEntity
  8
0
100
AcDbLine
 10
894.566885309837
 20
84.2308
 30
0.0
 11
894.7419999999999
 21
84.2308
 31
0.0
  0
LINE
  5
417
330
1E
100
AcDbEntity
  8
0
100
AcDbLine
 10
894.3610000000001
 20
83.61539999999999
 30
0.0
 11
894.443
 21
84.61539999999999
 31
0.0
  0
LINE
  5
418
330
1E
100
AcDbEntity
  8
0
100
AcDbLine
 10
894.5919999999999
 20
83.0
 30
0.0
 11
894.6660000000001
 21
83.9231
 31
0.0
  0
LINE
  5
419
330
1E
100
AcDbEntity
  8
0
100
AcDbLine
 10
894.673500379157
 20
66.5385
 30
0.0
 11
894.7419999999999
 21
66.5385
 31
0.0
  0
LINE
  5
41A
330
1E
100
AcDbEntity
  8
0
100
AcDbLine
 10
894.8109999999999
 20
67.0
 30
0.0
 11
894.8780000000001
 21
67.6923
 31
0.0
  0
LINE
  5
41B
330
1E
100
AcDbEntity
  8
0
100
AcDbLine
 10
894.7419999999999
 20
66.5385
 30
0.0
 11
894.8109999999999
 21
67.0
 31
0.0
  0
LINE
  5
41C
330
1E
100
AcDbEntity
  8
0
100
AcDbLine
 10
894.677
 20
67.0
 30
0.0
 11
894.7419999999999
 21
66.5385
 31
0.0
  0
LINE
  5
41D
330
1E
100
AcDbEntity
  8
0
100
AcDbLine
 10
894.6699999999999
 20
66.07689999999999
 30
0.0
 11
894.7419999999999
 21
65.7692
 31
0.0
  0
LINE
  5
41E
330
1E
100
AcDbEntity
  8
0
100
AcDbLine
 10
894.8109999999999
 20
83.0
 30
0.0
 11
894.8780000000001
 21
82.30769999999999
 31
0.0
  0
LINE
  5
41F
330
1E
100
AcDbEntity
  8
0
100
AcDbLine
 10
894.7419999999999
 20
83.46149999999999
 30
0.0
 11
894.8109999999999
 21
83.0
 31
0.0
  0
LINE
  5
420
330
1E
100
AcDbEntity
  8
0
100
AcDbLine
 10
894.7419999999999
 20
84.2308
 30
0.0
 11
894.818
 21
83.9231
 31
0.0
  0
LINE
  5
421
330
1E
100
AcDbEntity
  8
0
100
AcDbLine
 10
894.673500379157
 20
83.46149999999999
 30
0.0
 11
894.7419999999999
 21
83.46149999999999
 31
0.0
  0
LINE
  5
422
330
1E
100
AcDbEntity
  8
0
100
AcDbLine
 10
894.6699999999999
 20
83.9231
 30
0.0
 11
894.7419999999999
 21
84.2308
 31
0.0
  0
LINE
  5
423
330
1E
100
AcDbEntity
  8
0
100
AcDbLine
 10
894.677
 20
83.0
 30
0.0
 11
894.7419999999999
 21
83.46149999999999
 31
0.0
  0
LINE
  5
424
330
1E
100
AcDbEntity
  8
0
100
AcDbLine
 10
894.8780000000001
 20
67.6923
 30
0.0
 11
894.918
 21
69.0
 31
0.0
  0
LINE
  5
425
330
1E
100
AcDbEntity
  8
0
100
AcDbLine
 10
894.918
 20
69.0
 30
0.0
 11
894.9479999999999
 21
70.7692
 31
0.0
  0
LINE
  5
426
330
1E
100
AcDbEntity
  8
0
100
AcDbLine
 10
894.8889999999998
 20
67.0
 30
0.0
 11
894.9249999999999
 21
68.4615
 31
0.0
  0
LINE
  5
427
330
1E
100
AcDbEntity
  8
0
100
AcDbLine
 10
894.818
 20
66.07689999999999
 30
0.0
 11
894.8889999999998
 21
67.0
 31
0.0
  0
LINE
  5
428
330
1E
100
AcDbEntity
  8
0
100
AcDbLine
 10
894.9249999999999
 20
68.4615
 30
0.0
 11
894.9659999999999
 21
70.3846
 31
0.0
  0
LINE
  5
429
330
1E
100
AcDbEntity
  8
0
100
AcDbLine
 10
894.9249999999999
 20
81.5385
 30
0.0
 11
894.9659999999999
 21
79.61539999999999
 31
0.0
  0
LINE
  5
42A
330
1E
100
AcDbEntity
  8
0
100
AcDbLine
 10
894.918
 20
81.0
 30
0.0
 11
894.9479999999999
 21
79.2308
 31
0.0
  0
LINE
  5
42B
330
1E
100
AcDbEntity
  8
0
100
AcDbLine
 10
894.8780000000001
 20
82.30769999999999
 30
0.0
 11
894.918
 21
81.0
 31
0.0
  0
LINE
  5
42C
330
1E
100
AcDbEntity
  8
0
100
AcDbLine
 10
894.9659999999999
 20
72.8462
 30
0.0
 11
894.9769999999999
 21
75.0
 31
0.0
  0
LINE
  5
42D
330
1E
100
AcDbEntity
  8
0
100
AcDbLine
 10
894.9479999999999
 20
70.7692
 30
0.0
 11
894.9659999999999
 21
72.8462
 31
0.0
  0
LINE
  5
42E
330
1E
100
AcDbEntity
  8
0
100
AcDbLine
 10
894.9659999999999
 20
70.3846
 30
0.0
 11
894.988
 21
72.6154
 31
0.0
  0
LINE
  5
42F
330
1E
100
AcDbEntity
  8
0
100
AcDbLine
 10
894.9659999999999
 20
77.1538
 30
0.0
 11
894.9769999999999
 21
75.0
 31
0.0
  0
LINE
  5
430
330
1E
100
AcDbEntity
  8
0
100
AcDbLine
 10
894.9659999999999
 20
79.61539999999999
 30
0.0
 11
894.988
 21
77.3846
 31
0.0
  0
LINE
  5
431
330
1E
100
AcDbEntity
  8
0
100
AcDbLine
 10
894.9479999999999
 20
79.2308
 30
0.0
 11
894.9659999999999
 21
77.1538
 31
0.0
  0
LINE
  5
432
330
1E
100
AcDbEntity
  8
0
100
AcDbLine
 10
894.988
 20
72.6154
 30
0.0
 11
895.0
 21
75.0
 31
0.0
  0
LINE
  5
433
330
1E
100
AcDbEntity
  8
0
100
AcDbLine
 10
894.988
 20
77.3846
 30
0.0
 11
895.0
 21
75.0
 31
0.0
  0
LINE
  5
434
330
1E
100
AcDbEntity
  8
0
100
AcDbLine
 10
894.9849999999999
 20
77.3846
 30
0.0
 11
895.0
 21
75.0
 31
0.0
  0
LINE
  5
435
330
1E
100
AcDbEntity
  8
0
100
AcDbLine
 10
894.963
 20
79.61539999999999
 30
0.0
 11
894.9849999999999
 21
77.3846
 31
0.0
  0
LINE
  5
436
330
1E
100
AcDbEntity
  8
0
100
AcDbLine
 10
894.926
 20
81.5385
 30
0.0
 11
894.963
 21
79.61539999999999
 31
0.0
  0
LINE
  5
437
330
1E
100
AcDbEntity
  8
0
100
AcDbLine
 10
894.818
 20
83.9231
 30
0.0
 11
894.8889999999998
 21
83.0
 31
0.0
  0
LINE
  5
438
330
1E
100
AcDbEntity
  8
0
100
AcDbLine
 10
894.8889999999998
 20
83.0
 30
0.0
 11
894.926
 21
81.5385
 31
0.0
  0
LINE
  5
439
330
1E
100
AcDbEntity
  8
0
100
AcDbLine
 10
894.8889999999998
 20
83.0
 30
0.0
 11
894.9249999999999
 21
81.5385
 31
0.0
  0
LINE
  5
43A
330
1E
100
AcDbEntity
  8
0
100
AcDbLine
 10
894.814
 20
83.9231
 30
0.0
 11
894.8889999999998
 21
83.0
 31
0.0
  0
LINE
  5
43B
330
1E
100
AcDbEntity
  8
0
100
AcDbLine
 10
894.74
 20
84.2308
 30
0.0
 11
894.814
 21
83.9231
 31
0.0
  0
LINE
  5
43C
330
1E
100
AcDbEntity
  8
0
100
AcDbLine
 10
894.6660000000001
 20
83.9231
 30
0.0
 11
894.74
 21
84.2308
 31
0.0
  0
LINE
  5
43D
330
1E
100
AcDbEntity
  8
0
100
AcDbLine
 10
894.2199999999999
 20
65.7692
 30
0.0
 11
894.7419999999999
 21
65.7692
 31
0.0
  0
LINE
  5
43E
330
1E
100
AcDbEntity
  8
0
100
AcDbLine
 10
894.2199999999999
 20
65.7692
 30
0.0
 11
894.2949999999999
 21
66.07689999999999
 31
0.0
  0
LINE
  5
43F
330
1E
100
AcDbEntity
  8
0
100
AcDbLine
 10
893.7749999999999
 20
65.7692
 30
0.0
 11
893.997
 21
65.0
 31
0.0
  0
LINE
  5
440
330
1E
100
AcDbEntity
  8
0
100
AcDbLine
 10
893.7749999999999
 20
65.7692
 30
0.0
 11
893.8489999999999
 21
66.07689999999999
 31
0.0
  0
LINE
  5
441
330
1E
100
AcDbEntity
  8
0
100
AcDbLine
 10
865.0
 20
84.4546
 30
0.0
 11
865.0
 21
85.51819999999999
 31
0.0
  0
LINE
  5
442
330
1E
100
AcDbEntity
  8
0
100
AcDbLine
 10
873.0
 20
84.4546
 30
0.0
 11
873.0
 21
85.51819999999999
 31
0.0
  0
LINE
  5
443
330
1E
100
AcDbEntity
  8
0
100
AcDbLine
 10
873.0
 20
84.4546
 30
0.0
 11
873.0
 21
82.74089999999999
 31
0.0
  0
LINE
  5
444
330
1E
100
AcDbEntity
  8
0
100
AcDbLine
 10
865.0
 20
84.64
 30
0.0
 11
865.0
 21
85.0
 31
0.0
  0
LINE
  5
445
330
1E
100
AcDbEntity
  8
0
100
AcDbLine
 10
885.0
 20
84.4546
 30
0.0
 11
885.0
 21
85.9318
 31
0.0
  0
LINE
  5
446
330
1E
100
AcDbEntity
  8
0
100
AcDbLine
 10
885.0
 20
84.4546
 30
0.0
 11
885.0
 21
82.74089999999999
 31
0.0
  0
LINE
  5
447
330
1E
100
AcDbEntity
  8
0
100
AcDbLine
 10
874.1660000000001
 20
84.61539999999999
 30
0.0
 11
874.2399999999999
 21
85.0
 31
0.0
  0
LINE
  5
448
330
1E
100
AcDbEntity
  8
0
100
AcDbLine
 10
873.126
 20
84.61539999999999
 30
0.0
 11
873.201
 21
85.0
 31
0.0
  0
LINE
  5
449
330
1E
100
AcDbEntity
  8
0
100
AcDbLine
 10
875.205
 20
84.61539999999999
 30
0.0
 11
875.28
 21
85.0
 31
0.0
  0
LINE
  5
44A
330
1E
100
AcDbEntity
  8
0
100
AcDbLine
 10
876.2449999999999
 20
84.61539999999999
 30
0.0
 11
876.3189999999999
 21
85.0
 31
0.0
  0
LINE
  5
44B
330
1E
100
AcDbEntity
  8
0
100
AcDbLine
 10
877.0
 20
84.549
 30
0.0
 11
877.0
 21
84.2308
 31
0.0
  0
LINE
  5
44C
330
1E
100
AcDbEntity
  8
0
100
AcDbLine
 10
877.0
 20
84.549
 30
0.0
 11
877.0
 21
84.097
 31
0.0
  0
LINE
  5
44D
330
1E
100
AcDbEntity
  8
0
100
AcDbLine
 10
877.0
 20
84.4546
 30
0.0
 11
877.0
 21
85.51819999999999
 31
0.0
  0
LINE
  5
44E
330
1E
100
AcDbEntity
  8
0
100
AcDbLine
 10
877.0
 20
84.4546
 30
0.0
 11
877.0
 21
84.2308
 31
0.0
  0
LINE
  5
44F
330
1E
100
AcDbEntity
  8
0
100
AcDbLine
 10
877.0
 20
84.4546
 30
0.0
 11
877.0
 21
82.74089999999999
 31
0.0
  0
LINE
  5
450
330
1E
100
AcDbEntity
  8
0
100
AcDbLine
 10
873.0
 20
84.3077
 30
0.0
 11
873.201
 21
85.0
 31
0.0
  0
LINE
  5
451
330
1E
100
AcDbEntity
  8
0
100
AcDbLine
 10
873.0
 20
84.3077
 30
0.0
 11
873.042414881287
 21
84.3551583962623
 31
0.0
  0
LINE
  5
452
330
1E
100
AcDbEntity
  8
0
100
AcDbLine
 10
865.1149999999999
 20
84.9721
 30
0.0
 11
865.2389999999998
 21
86.54470000000001
 31
0.0
  0
LINE
  5
453
330
1E
100
AcDbEntity
  8
0
100
AcDbLine
 10
865.1149999999999
 20
84.9721
 30
0.0
 11
865.2080000000001
 21
83.3909
 31
0.0
  0
LINE
  5
456
330
1E
100
AcDbEntity
  8
0
100
AcDbLine
 10
874.2399999999999
 20
85.0
 30
0.0
 11
874.463
 21
84.2308
 31
0.0
  0
LINE
  5
457
330
1E
100
AcDbEntity
  8
0
100
AcDbLine
 10
873.201
 20
85.0
 30
0.0
 11
873.423
 21
84.2308
 31
0.0
  0
LINE
  5
458
330
1E
100
AcDbEntity
  8
0
100
AcDbLine
 10
875.28
 20
85.0
 30
0.0
 11
875.5030000000001
 21
84.2308
 31
0.0
  0
LINE
  5
459
330
1E
100
AcDbEntity
  8
0
100
AcDbLine
 10
877.115
 20
84.9721
 30
0.0
 11
877.2389999999999
 21
86.54470000000001
 31
0.0
  0
LINE
  5
45A
330
1E
100
AcDbEntity
  8
0
100
AcDbLine
 10
877.115
 20
84.9721
 30
0.0
 11
877.208
 21
83.3909
 31
0.0
  0
LINE
  5
45D
330
1E
100
AcDbEntity
  8
0
100
AcDbLine
 10
876.3189999999999
 20
85.0
 30
0.0
 11
876.5419999999998
 21
84.2308
 31
0.0
  0
LINE
  5
45E
330
1E
100
AcDbEntity
  8
0
100
AcDbLine
 10
865.0
 20
85.9318
 30
0.0
 11
865.0
 21
85.51819999999999
 31
0.0
  0
LINE
  5
45F
330
1E
100
AcDbEntity
  8
0
100
AcDbLine
 10
865.0
 20
85.9318
 30
0.0
 11
865.1710000000001
 21
86.8182
 31
0.0
  0
LINE
  5
460
330
1E
100
AcDbEntity
  8
0
100
AcDbLine
 10
873.0
 20
85.9318
 30
0.0
 11
873.0
 21
84.4546
 31
0.0
  0
LINE
  5
461
330
1E
100
AcDbEntity
  8
0
100
AcDbLine
 10
865.2389999999998
 20
86.54470000000001
 30
0.0
 11
865.571
 21
87.5027
 31
0.0
  0
LINE
  5
462
330
1E
100
AcDbEntity
  8
0
100
AcDbLine
 10
872.8289999999999
 20
86.8182
 30
0.0
 11
873.0
 21
85.9318
 31
0.0
  0
LINE
  5
465
330
1E
100
AcDbEntity
  8
0
100
AcDbLine
 10
872.761
 20
86.54470000000001
 30
0.0
 11
872.8849999999999
 21
84.9721
 31
0.0
  0
LINE
  5
467
330
1E
100
AcDbEntity
  8
0
100
AcDbLine
 10
877.0
 20
85.9318
 30
0.0
 11
877.171
 21
86.8182
 31
0.0
  0
LINE
  5
468
330
1E
100
AcDbEntity
  8
0
100
AcDbLine
 10
877.0
 20
85.9318
 30
0.0
 11
877.0
 21
85.51819999999999
 31
0.0
  0
LINE
  5
469
330
1E
100
AcDbEntity
  8
0
100
AcDbLine
 10
877.2389999999999
 20
86.54470000000001
 30
0.0
 11
877.571
 21
87.5027
 31
0.0
  0
LINE
  5
46A
330
1E
100
AcDbEntity
  8
0
100
AcDbLine
 10
884.829
 20
86.8182
 30
0.0
 11
885.0
 21
85.9318
 31
0.0
  0
LINE
  5
46B
330
1E
100
AcDbEntity
  8
0
100
AcDbLine
 10
885.0
 20
85.9318
 30
0.0
 11
885.0
 21
84.4546
 31
0.0
  0
LINE
  5
46E
330
1E
100
AcDbEntity
  8
0
100
AcDbLine
 10
884.7610000000001
 20
86.54470000000001
 30
0.0
 11
884.885
 21
84.9721
 31
0.0
  0
LINE
  5
470
330
1E
100
AcDbEntity
  8
0
100
AcDbLine
 10
877.171
 20
86.8182
 30
0.0
 11
877.571
 21
87.70459999999999
 31
0.0
  0
LINE
  5
472
330
1E
100
AcDbEntity
  8
0
100
AcDbLine
 10
877.0
 20
85.51819999999999
 30
0.0
 11
877.0
 21
84.4546
 31
0.0
  0
LINE
  5
473
330
1E
100
AcDbEntity
  8
0
100
AcDbLine
 10
877.0
 20
85.51819999999999
 30
0.0
 11
877.0
 21
85.9318
 31
0.0
  0
LINE
  5
476
330
1E
100
AcDbEntity
  8
0
100
AcDbLine
 10
865.571
 20
87.5027
 30
0.0
 11
865.571
 21
87.70459999999999
 31
0.0
  0
LINE
  5
478
330
1E
100
AcDbEntity
  8
0
100
AcDbLine
 10
872.4289999999999
 20
87.70459999999999
 30
0.0
 11
872.8289999999999
 21
86.8182
 31
0.0
  0
LINE
  5
479
330
1E
100
AcDbEntity
  8
0
100
AcDbLine
 10
872.4289999999999
 20
87.70459999999999
 30
0.0
 11
872.4289999999999
 21
87.5027
 31
0.0
  0
LINE
  5
47A
330
1E
100
AcDbEntity
  8
0
100
AcDbLine
 10
877.571
 20
87.5027
 30
0.0
 11
877.571
 21
87.70459999999999
 31
0.0
  0
LINE
  5
47C
330
1E
100
AcDbEntity
  8
0
100
AcDbLine
 10
884.4289999999999
 20
87.70459999999999
 30
0.0
 11
884.829
 21
86.8182
 31
0.0
  0
LINE
  5
47D
330
1E
100
AcDbEntity
  8
0
100
AcDbLine
 10
884.4289999999999
 20
87.70459999999999
 30
0.0
 11
884.4289999999999
 21
87.5027
 31
0.0
  0
LINE
  5
47E
330
1E
100
AcDbEntity
  8
0
100
AcDbLine
 10
884.4289999999999
 20
87.5027
 30
0.0
 11
884.7610000000001
 21
86.54470000000001
 31
0.0
  0
LINE
  5
47F
330
1E
100
AcDbEntity
  8
0
100
AcDbLine
 10
884.4289999999999
 20
87.5027
 30
0.0
 11
884.4289999999999
 21
87.70459999999999
 31
0.0
  0
LINE
  5
480
330
1E
100
AcDbEntity
  8
0
100
AcDbLine
 10
872.4289999999999
 20
87.5027
 30
0.0
 11
872.761
 21
86.54470000000001
 31
0.0
  0
LINE
  5
481
330
1E
100
AcDbEntity
  8
0
100
AcDbLine
 10
872.4289999999999
 20
87.5027
 30
0.0
 11
872.4289999999999
 21
87.70459999999999
 31
0.0
  0
LINE
  5
482
330
1E
100
AcDbEntity
  8
0
100
AcDbLine
 10
883.857
 20
88.0
 30
0.0
 11
884.4289999999999
 21
87.70459999999999
 31
0.0
  0
LINE
  5
483
330
1E
100
AcDbEntity
  8
0
100
AcDbLine
 10
878.143
 20
88.0
 30
0.0
 11
883.857
 21
88.0
 31
0.0
  0
LINE
  5
484
330
1E
100
AcDbEntity
  8
0
100
AcDbLine
 10
871.8569999999999
 20
88.0
 30
0.0
 11
872.4289999999999
 21
87.70459999999999
 31
0.0
  0
LINE
  5
485
330
1E
100
AcDbEntity
  8
0
100
AcDbLine
 10
866.1430000000001
 20
88.0
 30
0.0
 11
871.8569999999999
 21
88.0
 31
0.0
  0
LINE
  5
486
330
1E
100
AcDbEntity
  8
0
100
AcDbLine
 10
877.571
 20
87.70459999999999
 30
0.0
 11
878.143
 21
88.0
 31
0.0
  0
LINE
  5
487
330
1E
100
AcDbEntity
  8
0
100
AcDbLine
 10
877.571
 20
87.70459999999999
 30
0.0
 11
877.571
 21
87.5027
 31
0.0
  0
LINE
  5
488
330
1E
100
AcDbEntity
  8
0
100
AcDbLine
 10
865.571
 20
87.70459999999999
 30
0.0
 11
866.1430000000001
 21
88.0
 31
0.0
  0
LINE
  5
489
330
1E
100
AcDbEntity
  8
0
100
AcDbLine
 10
865.571
 20
87.70459999999999
 30
0.0
 11
865.571
 21
87.5027
 31
0.0
  0
LINE
  5
48A
330
1E
100
AcDbEntity
  8
0
100
AcDbLine
 10
865.1710000000001
 20
86.8182
 30
0.0
 11
865.571
 21
87.70459999999999
 31
0.0
  0
LINE
  5
48C
330
1E
100
AcDbEntity
  8
0
100
AcDbLine
 10
865.0
 20
85.51819999999999
 30
0.0
 11
865.0
 21
85.0
 31
0.0
  0
LINE
  5
48D
330
1E
100
AcDbEntity
  8
0
100
AcDbLine
 10
865.0
 20
85.51819999999999
 30
0.0
 11
865.0
 21
85.9318
 31
0.0
  0
LINE
  5
490
330
1E
100
AcDbEntity
  8
0
100
AcDbLine
 10
865.0
 20
85.51819999999999
 30
0.0
 11
865.0
 21
84.4546
 31
0.0
  0
LINE
  5
491
330
1E
100
AcDbEntity
  8
0
100
AcDbLine
 10
865.0
 20
85.0
 30
0.0
 11
865.0
 21
85.51819999999999
 31
0.0
  0
LINE
  5
492
330
1E
100
AcDbEntity
  8
0
100
AcDbLine
 10
845.0
 20
85.0
 30
0.0
 11
845.0
 21
84.64
 31
0.0
  0
LINE
  5
493
330
1E
100
AcDbEntity
  8
0
100
AcDbLine
 10
845.0
 20
85.0
 30
0.0
 11
865.0
 21
85.0
 31
0.0
  0
LINE
  5
494
330
1E
100
AcDbEntity
  8
0
100
AcDbLine
 10
845.0
 20
84.64
 30
0.0
 11
845.0
 21
85.0
 31
0.0
  0
LINE
  5
495
330
1E
100
AcDbEntity
  8
0
100
AcDbLine
 10
845.0
 20
84.64
 30
0.0
 11
845.0
 21
83.68
 31
0.0
  0
LINE
  5
496
330
1E
100
AcDbEntity
  8
0
100
AcDbLine
 10
887.166
 20
84.61539999999999
 30
0.0
 11
887.24
 21
85.0
 31
0.0
  0
LINE
  5
497
330
1E
100
AcDbEntity
  8
0
100
AcDbLine
 10
886.1260000000001
 20
84.61539999999999
 30
0.0
 11
886.2009999999999
 21
85.0
 31
0.0
  0
LINE
  5
498
330
1E
100
AcDbEntity
  8
0
100
AcDbLine
 10
885.087
 20
84.61539999999999
 30
0.0
 11
885.161
 21
85.0
 31
0.0
  0
LINE
  5
499
330
1E
100
AcDbEntity
  8
0
100
AcDbLine
 10
888.206
 20
84.61539999999999
 30
0.0
 11
888.2799999999999
 21
85.0
 31
0.0
  0
LINE
  5
49A
330
1E
100
AcDbEntity
  8
0
100
AcDbLine
 10
889.245
 20
84.61539999999999
 30
0.0
 11
889.319
 21
85.0
 31
0.0
  0
LINE
  5
49B
330
1E
100
AcDbEntity
  8
0
100
AcDbLine
 10
890.2849999999999
 20
84.61539999999999
 30
0.0
 11
890.3589999999999
 21
85.0
 31
0.0
  0
LINE
  5
49C
330
1E
100
AcDbEntity
  8
0
100
AcDbLine
 10
891.324
 20
84.61539999999999
 30
0.0
 11
891.398
 21
85.0
 31
0.0
  0
LINE
  5
49D
330
1E
100
AcDbEntity
  8
0
100
AcDbLine
 10
892.3639999999998
 20
84.61539999999999
 30
0.0
 11
892.4379999999999
 21
85.0
 31
0.0
  0
LINE
  5
49E
330
1E
100
AcDbEntity
  8
0
100
AcDbLine
 10
893.4039999999999
 20
84.61539999999999
 30
0.0
 11
893.4780000000001
 21
85.0
 31
0.0
  0
LINE
  5
49F
330
1E
100
AcDbEntity
  8
0
100
AcDbLine
 10
887.24
 20
85.0
 30
0.0
 11
887.4630000000001
 21
84.2308
 31
0.0
  0
LINE
  5
4A0
330
1E
100
AcDbEntity
  8
0
100
AcDbLine
 10
886.2009999999999
 20
85.0
 30
0.0
 11
886.423
 21
84.2308
 31
0.0
  0
LINE
  5
4A1
330
1E
100
AcDbEntity
  8
0
100
AcDbLine
 10
885.161
 20
85.0
 30
0.0
 11
885.3839999999999
 21
84.2308
 31
0.0
  0
LINE
  5
4A2
330
1E
100
AcDbEntity
  8
0
100
AcDbLine
 10
888.2799999999999
 20
85.0
 30
0.0
 11
888.503
 21
84.2308
 31
0.0
  0
LINE
  5
4A3
330
1E
100
AcDbEntity
  8
0
100
AcDbLine
 10
889.319
 20
85.0
 30
0.0
 11
889.5419999999999
 21
84.2308
 31
0.0
  0
LINE
  5
4A4
330
1E
100
AcDbEntity
  8
0
100
AcDbLine
 10
890.3589999999999
 20
85.0
 30
0.0
 11
890.582
 21
84.2308
 31
0.0
  0
LINE
  5
4A5
330
1E
100
AcDbEntity
  8
0
100
AcDbLine
 10
891.398
 20
85.0
 30
0.0
 11
891.6210000000001
 21
84.2308
 31
0.0
  0
LINE
  5
4A6
330
1E
100
AcDbEntity
  8
0
100
AcDbLine
 10
892.4379999999999
 20
85.0
 30
0.0
 11
892.661
 21
84.2308
 31
0.0
  0
LINE
  5
4A7
330
1E
100
AcDbEntity
  8
0
100
AcDbLine
 10
893.4780000000001
 20
85.0
 30
0.0
 11
893.701
 21
84.2308
 31
0.0
  0
LINE
  5
4A8
330
1E
100
AcDbEntity
  8
0
100
AcDbLine
 10
894.5169999999999
 20
85.0
 30
0.0
 11
894.74
 21
84.2308
 31
0.0
  0
LINE
  5
4A9
330
1E
100
AcDbEntity
  8
0
100
AcDbLine
 10
894.443
 20
84.61539999999999
 30
0.0
 11
894.5169999999999
 21
85.0
 31
0.0
  0
LINE
  5
4AA
330
1E
100
AcDbEntity
  8
0
100
AcDbLine
 10
885.0
 20
84.44450000000001
 30
0.0
 11
885.161
 21
85.0
 31
0.0
  0
LINE
  5
4AB
330
1E
100
AcDbEntity
  8
0
100
AcDbLine
 10
885.0
 20
84.44450000000001
 30
0.0
 11
885.0415511016739
 21
84.4747173756434
 31
0.0
  0
LINE
  5
4AC
330
1E
100
AcDbEntity
  8
0
100
AcDbLine
 10
894.2949999999999
 20
84.2308
 30
0.0
 11
894.5169999999999
 21
85.0
 31
0.0
  0
LINE
  5
4AD
330
1E
100
AcDbEntity
  8
0
100
AcDbLine
 10
795.0
 20
100.0
 30
0.0
 11
795.0
 21
50.0
 31
0.0
  0
LINE
  5
4AE
330
1E
100
AcDbEntity
  8
0
100
AcDbLine
 10
710.0
 20
100.0
 30
0.0
 11
795.0
 21
100.0
 31
0.0
  0
LINE
  5
4AF
330
1E
100
AcDbEntity
  8
0
100
AcDbLine
 10
710.0
 20
100.0
 30
0.0
 11
710.0
 21
50.0
 31
0.0
  0
LINE
  5
4B0
330
1E
100
AcDbEntity
  8
0
100
AcDbLine
 10
683.7289999999999
 20
100.0
 30
0.0
 11
710.0
 21
100.0
 31
0.0
  0
LINE
  5
4B1
330
1E
100
AcDbEntity
  8
0
100
AcDbLine
 10
590.0
 20
50.0
 30
0.0
 11
590.0
 21
-0.0000000000000111
 31
0.0
  0
LINE
  5
4B2
330
1E
100
AcDbEntity
  8
0
100
AcDbLine
 10
441.91
 20
100.0
 30
0.0
 11
454.086
 21
100.0
 31
0.0
  0
LINE
  5
4B3
330
1E
100
AcDbEntity
  8
0
100
AcDbLine
 10
441.91
 20
100.0
 30
0.0
 11
464.3299999999999
 21
100.0
 31
0.0
  0
LINE
  5
4B4
330
1E
100
AcDbEntity
  8
0
100
AcDbLine
 10
320.96
 20
0.0000000000000026
 30
0.0
 11
346.3299999999999
 21
0.000000000000001
 31
0.0
  0
LINE
  5
4B5
330
1E
100
AcDbEntity
  8
0
100
AcDbLine
 10
269.04
 20
0.0000000000000057
 30
0.0
 11
295.0
 21
0.0000000000000041
 31
0.0
  0
ENDSEC
  0
SECTION
  2
OBJECTS
  0
DICTIONARY
  5
C
330
0
100
AcDbDictionary
281
     1
  3
ACAD_GROUP
350
D
  3
ACAD_LAYOUT
350
19
  3
ACAD_MLINESTYLE
350
16
  3
ACAD_PLOTSETTINGS
350
18
  3
ACAD_PLOTSTYLENAME
350
E
  3
AcDbVariableDictionary
350
4BA
  0
DICTIONARY
  5
D
102
{ACAD_REACTORS
330
C
102
}
330
C
100
AcDbDictionary
281
     1
  0
DICTIONARY
  5
19
102
{ACAD_REACTORS
330
C
102
}
330
C
100
AcDbDictionary
281
     1
  3
Layout1
350
1D
  3
Model
350
21
  0
DICTIONARY
  5
16
102
{ACAD_REACTORS
330
C
102
}
330
C
100
AcDbDictionary
281
     1
  3
Standard
350
17
  0
DICTIONARY
  5
18
102
{ACAD_REACTORS
330
C
102
}
330
C
100
AcDbDictionary
281
     1
  0
ACDBDICTIONARYWDFLT
  5
E
102
{ACAD_REACTORS
330
C
102
}
330
C
100
AcDbDictionary
281
     1
  3
Normal
350
F
100
AcDbDictionaryWithDefault
340
F
  0
DICTIONARY
  5
4BA
102
{ACAD_REACTORS
330
C
102
}
330
C
100
AcDbDictionary
281
     1
  3
DIMASSOC
350
4BB
  0
LAYOUT
  5
1D
102
{ACAD_REACTORS
330
19
102
}
330
19
100
AcDbPlotSettings
  1

  2
hp deskjet 980c series
  4

  6

 40
0.0
 41
0.0
 42
0.0
 43
0.0
 44
0.0
 45
0.0
 46
0.0
 47
0.0
 48
0.0
 49
0.0
140
0.0
141
0.0
142
1.0
143
1.0
 70
   688
 72
     0
 73
     0
 74
     5
  7

 75
    16
147
1.0
148
0.0
149
0.0
100
AcDbLayout
  1
Layout1
 70
     1
 71
     1
 10
0.0
 20
0.0
 11
12.0
 21
9.0
 12
0.0
 22
0.0
 32
0.0
 14
1.000000000000000E+20
 24
1.000000000000000E+20
 34
1.000000000000000E+20
 15
-1.000000000000000E+20
 25
-1.000000000000000E+20
 35
-1.000000000000000E+20
146
0.0
 13
0.0
 23
0.0
 33
0.0
 16
1.0
 26
0.0
 36
0.0
 17
0.0
 27
1.0
 37
0.0
 76
     0
330
1A
  0
LAYOUT
  5
21
102
{ACAD_REACTORS
330
19
102
}
330
19
100
AcDbPlotSettings
  1

  2
hp deskjet 980c series
  4

  6

 40
0.0
 41
0.0
 42
0.0
 43
0.0
 44
0.0
 45
0.0
 46
0.0
 47
0.0
 48
0.0
 49
0.0
140
0.0
141
0.0
142
1.0
143
1.0
 70
  1712
 72
     0
 73
     0
 74
     0
  7

 75
     0
147
1.0
148
0.0
149
0.0
100
AcDbLayout
  1
Model
 70
     1
 71
     0
 10
0.0
 20
0.0
 11
12.0
 21
9.0
 12
0.0
 22
0.0
 32
0.0
 14
0.0
 24
0.0
 34
0.0
 15
0.0
 25
0.0
 35
0.0
146
0.0
 13
0.0
 23
0.0
 33
0.0
 16
1.0
 26
0.0
 36
0.0
 17
0.0
 27
1.0
 37
0.0
 76
     0
330
1E
  0
MLINESTYLE
  5
17
102
{ACAD_REACTORS
330
16
102
}
330
16
100
AcDbMlineStyle
  2
STANDARD
 70
     0
  3

 62
   256
 51
90.0
 52
90.0
 71
     2
 49
0.5
 62
   256
  6
BYLAYER
 49
-0.5
 62
   256
  6
BYLAYER
  0
ACDBPLACEHOLDER
  5
F
102
{ACAD_REACTORS
330
E
102
}
330
E
  0
DICTIONARYVAR
  5
4BB
102
{ACAD_REACTORS
330
4BA
102
}
330
4BA
100
DictionaryVariables
280
     0
  1
1
  0
ENDSEC
  0
EOF
