  0
SECTION
  2
HEADER
  9
$ACADVER
  1
AC1015
  9
$ACADMAINTVER
 70
    13
  9
$DWGCODEPAGE
  3
ANSI_1252
  9
$INSBASE
 10
0.0
 20
0.0
 30
0.0
  9
$EXTMIN
 10
-0.207985000000002
 20
0.5000000000000031
 30
0.0
  9
$EXTMAX
 10
80.20798499999999
 20
150.5
 30
0.0
  9
$LIMMIN
 10
0.0
 20
0.0
  9
$LIMMAX
 10
12.0
 20
9.0
  9
$ORTHOMODE
 70
     0
  9
$REGENMODE
 70
     1
  9
$FILLMODE
 70
     1
  9
$QTEXTMODE
 70
     0
  9
$MIRRTEXT
 70
     1
  9
$LTSCALE
 40
1.0
  9
$ATTMODE
 70
     1
  9
$TEXTSIZE
 40
0.2
  9
$TRACEWID
 40
0.05
  9
$TEXTSTYLE
  7
Standard
  9
$CLAYER
  8
0
  9
$CELTYPE
  6
Continuous
  9
$CECOLOR
 62
   256
  9
$CELTSCALE
 40
1.0
  9
$DISPSILH
 70
     0
  9
$DIMSCALE
 40
1.0
  9
$DIMASZ
 40
0.18
  9
$DIMEXO
 40
0.0625
  9
$DIMDLI
 40
0.38
  9
$DIMRND
 40
0.0
  9
$DIMDLE
 40
0.0
  9
$DIMEXE
 40
0.18
  9
$DIMTP
 40
0.0
  9
$DIMTM
 40
0.0
  9
$DIMTXT
 40
0.18
  9
$DIMCEN
 40
0.09
  9
$DIMTSZ
 40
0.0
  9
$DIMTOL
 70
     0
  9
$DIMLIM
 70
     0
  9
$DIMTIH
 70
     1
  9
$DIMTOH
 70
     1
  9
$DIMSE1
 70
     0
  9
$DIMSE2
 70
     0
  9
$DIMTAD
 70
     0
  9
$DIMZIN
 70
     0
  9
$DIMBLK
  1

  9
$DIMASO
 70
     1
  9
$DIMSHO
 70
     1
  9
$DIMPOST
  1

  9
$DIMAPOST
  1

  9
$DIMALT
 70
     0
  9
$DIMALTD
 70
     2
  9
$DIMALTF
 40
25.4
  9
$DIMLFAC
 40
1.0
  9
$DIMTOFL
 70
     0
  9
$DIMTVP
 40
0.0
  9
$DIMTIX
 70
     0
  9
$DIMSOXD
 70
     0
  9
$DIMSAH
 70
     0
  9
$DIMBLK1
  1

  9
$DIMBLK2
  1

  9
$DIMSTYLE
  2
Standard
  9
$DIMCLRD
 70
     0
  9
$DIMCLRE
 70
     0
  9
$DIMCLRT
 70
     0
  9
$DIMTFAC
 40
1.0
  9
$DIMGAP
 40
0.09
  9
$DIMJUST
 70
     0
  9
$DIMSD1
 70
     0
  9
$DIMSD2
 70
     0
  9
$DIMTOLJ
 70
     1
  9
$DIMTZIN
 70
     0
  9
$DIMALTZ
 70
     0
  9
$DIMALTTZ
 70
     0
  9
$DIMUPT
 70
     0
  9
$DIMDEC
 70
     4
  9
$DIMTDEC
 70
     4
  9
$DIMALTU
 70
     2
  9
$DIMALTTD
 70
     2
  9
$DIMTXSTY
  7
Standard
  9
$DIMAUNIT
 70
     0
  9
$DIMADEC
 70
     0
  9
$DIMALTRND
 40
0.0
  9
$DIMAZIN
 70
     0
  9
$DIMDSEP
 70
    46
  9
$DIMATFIT
 70
     3
  9
$DIMFRAC
 70
     0
  9
$DIMLDRBLK
  1

  9
$DIMLUNIT
 70
     2
  9
$DIMLWD
 70
    -2
  9
$DIMLWE
 70
    -2
  9
$DIMTMOVE
 70
     0
  9
$LUNITS
 70
     2
  9
$LUPREC
 70
     4
  9
$SKETCHINC
 40
0.1
  9
$FILLETRAD
 40
0.0
  9
$AUNITS
 70
     0
  9
$AUPREC
 70
     0
  9
$MENU
  1
.
  9
$ELEVATION
 40
0.0
  9
$PELEVATION
 40
0.0
  9
$THICKNESS
 40
0.0
  9
$LIMCHECK
 70
     0
  9
$CHAMFERA
 40
0.0
  9
$CHAMFERB
 40
0.0
  9
$CHAMFERC
 40
0.0
  9
$CHAMFERD
 40
0.0
  9
$SKPOLY
 70
     0
  9
$TDCREATE
 40
2454834.890716146
  9
$TDUCREATE
 40
2454834.849049479
  9
$TDUPDATE
 40
2454834.892796400
  9
$TDUUPDATE
 40
2454834.851129734
  9
$TDINDWG
 40
0.0020802546
  9
$TDUSRTIMER
 40
0.0020802546
  9
$USRTIMER
 70
     1
  9
$ANGBASE
 50
0.0
  9
$ANGDIR
 70
     0
  9
$PDMODE
 70
     0
  9
$PDSIZE
 40
0.0
  9
$PLINEWID
 40
0.0
  9
$SPLFRAME
 70
     0
  9
$SPLINETYPE
 70
     6
  9
$SPLINESEGS
 70
     8
  9
$HANDSEED
  5
489
  9
$SURFTAB1
 70
     6
  9
$SURFTAB2
 70
     6
  9
$SURFTYPE
 70
     6
  9
$SURFU
 70
     6
  9
$SURFV
 70
     6
  9
$UCSBASE
  2

  9
$UCSNAME
  2

  9
$UCSORG
 10
0.0
 20
0.0
 30
0.0
  9
$UCSXDIR
 10
1.0
 20
0.0
 30
0.0
  9
$UCSYDIR
 10
0.0
 20
1.0
 30
0.0
  9
$UCSORTHOREF
  2

  9
$UCSORTHOVIEW
 70
     1
  9
$UCSORGTOP
 10
0.0
 20
0.0
 30
0.0
  9
$UCSORGBOTTOM
 10
0.0
 20
0.0
 30
0.0
  9
$UCSORGLEFT
 10
0.0
 20
0.0
 30
0.0
  9
$UCSORGRIGHT
 10
0.0
 20
0.0
 30
0.0
  9
$UCSORGFRONT
 10
0.0
 20
0.0
 30
0.0
  9
$UCSORGBACK
 10
0.0
 20
0.0
 30
0.0
  9
$PUCSBASE
  2

  9
$PUCSNAME
  2

  9
$PUCSORG
 10
0.0
 20
0.0
 30
0.0
  9
$PUCSXDIR
 10
1.0
 20
0.0
 30
0.0
  9
$PUCSYDIR
 10
0.0
 20
1.0
 30
0.0
  9
$PUCSORTHOREF
  2

  9
$PUCSORTHOVIEW
 70
     0
  9
$PUCSORGTOP
 10
0.0
 20
0.0
 30
0.0
  9
$PUCSORGBOTTOM
 10
0.0
 20
0.0
 30
0.0
  9
$PUCSORGLEFT
 10
0.0
 20
0.0
 30
0.0
  9
$PUCSORGRIGHT
 10
0.0
 20
0.0
 30
0.0
  9
$PUCSORGFRONT
 10
0.0
 20
0.0
 30
0.0
  9
$PUCSORGBACK
 10
0.0
 20
0.0
 30
0.0
  9
$USERI1
 70
     0
  9
$USERI2
 70
     0
  9
$USERI3
 70
     0
  9
$USERI4
 70
     0
  9
$USERI5
 70
     0
  9
$USERR1
 40
0.0
  9
$USERR2
 40
0.0
  9
$USERR3
 40
0.0
  9
$USERR4
 40
0.0
  9
$USERR5
 40
0.0
  9
$WORLDVIEW
 70
     1
  9
$SHADEDGE
 70
     3
  9
$SHADEDIF
 70
    70
  9
$TILEMODE
 70
     1
  9
$MAXACTVP
 70
    64
  9
$PINSBASE
 10
0.0
 20
0.0
 30
0.0
  9
$PLIMCHECK
 70
     0
  9
$PEXTMIN
 10
1.000000000000000E+20
 20
1.000000000000000E+20
 30
1.000000000000000E+20
  9
$PEXTMAX
 10
-1.000000000000000E+20
 20
-1.000000000000000E+20
 30
-1.000000000000000E+20
  9
$PLIMMIN
 10
0.0
 20
0.0
  9
$PLIMMAX
 10
12.0
 20
9.0
  9
$UNITMODE
 70
     0
  9
$VISRETAIN
 70
     1
  9
$PLINEGEN
 70
     0
  9
$PSLTSCALE
 70
     1
  9
$TREEDEPTH
 70
  3020
  9
$CMLSTYLE
  2
Standard
  9
$CMLJUST
 70
     0
  9
$CMLSCALE
 40
1.0
  9
$PROXYGRAPHICS
 70
     1
  9
$MEASUREMENT
 70
     0
  9
$CELWEIGHT
370
    -1
  9
$ENDCAPS
280
     0
  9
$JOINSTYLE
280
     0
  9
$LWDISPLAY
290
     0
  9
$INSUNITS
 70
     0
  9
$HYPERLINKBASE
  1

  9
$STYLESHEET
  1

  9
$XEDIT
290
     1
  9
$CEPSNTYPE
380
     0
  9
$PSTYLEMODE
290
     1
  9
$FINGERPRINTGUID
  2
{CD274CCC-9165-4A00-80D3-9D4692A07503}
  9
$VERSIONGUID
  2
{E7AB0F25-E549-4B40-976D-EEC27F6BC8CE}
  9
$EXTNAMES
290
     1
  9
$PSVPSCALE
 40
0.0
  9
$OLESTARTUP
290
     0
  0
ENDSEC
  0
SECTION
  2
CLASSES
  0
CLASS
  1
ACDBDICTIONARYWDFLT
  2
AcDbDictionaryWithDefault
  3
AutoCAD 2000
 90
        0
280
     0
281
     0
  0
CLASS
  1
ACDBPLACEHOLDER
  2
AcDbPlaceHolder
  3
AutoCAD 2000
 90
        0
280
     0
281
     0
  0
CLASS
  1
LAYOUT
  2
AcDbLayout
  3
AutoCAD 2000
 90
        0
280
     0
281
     0
  0
CLASS
  1
DICTIONARYVAR
  2
AcDbDictionaryVar
  3
AutoCAD 2000
 90
        0
280
     0
281
     0
  0
ENDSEC
  0
SECTION
  2
TABLES
  0
TABLE
  2
VPORT
  5
8
330
0
100
AcDbSymbolTable
 70
     3
  0
VPORT
  5
488
330
8
100
AcDbSymbolTableRecord
100
AcDbViewportTableRecord
  2
*Active
 70
     0
 10
0.0
 20
0.0
 11
1.0
 21
1.0
 12
40.0
 22
75.5
 13
0.0
 23
0.0
 14
1.0
 24
1.0
 15
0.0
 25
0.0
 16
0.0
 26
0.0
 36
1.0
 17
0.0
 27
0.0
 37
0.0
 40
151.1508951406649
 41
2.078104993597951
 42
50.0
 43
0.0
 44
0.0
 50
0.0
 51
0.0
 71
     0
 72
   100
 73
     1
 74
     3
 75
     0
 76
     0
 77
     0
 78
     0
281
     0
 65
     1
110
0.0
120
0.0
130
0.0
111
1.0
121
0.0
131
0.0
112
0.0
122
1.0
132
0.0
 79
     1
146
0.0
  0
ENDTAB
  0
TABLE
  2
LTYPE
  5
5
330
0
100
AcDbSymbolTable
 70
     1
  0
LTYPE
  5
13
330
5
100
AcDbSymbolTableRecord
100
AcDbLinetypeTableRecord
  2
ByBlock
 70
     0
  3

 72
    65
 73
     0
 40
0.0
  0
LTYPE
  5
14
330
5
100
AcDbSymbolTableRecord
100
AcDbLinetypeTableRecord
  2
ByLayer
 70
     0
  3

 72
    65
 73
     0
 40
0.0
  0
LTYPE
  5
15
330
5
100
AcDbSymbolTableRecord
100
AcDbLinetypeTableRecord
  2
Continuous
 70
     0
  3
Solid line
 72
    65
 73
     0
 40
0.0
  0
ENDTAB
  0
TABLE
  2
LAYER
  5
2
330
0
100
AcDbSymbolTable
 70
     1
  0
LAYER
  5
10
330
2
100
AcDbSymbolTableRecord
100
AcDbLayerTableRecord
  2
0
 70
     0
 62
     7
  6
Continuous
370
    -3
390
F
  0
ENDTAB
  0
TABLE
  2
STYLE
  5
3
330
0
100
AcDbSymbolTable
 70
     1
  0
STYLE
  5
11
330
3
100
AcDbSymbolTableRecord
100
AcDbTextStyleTableRecord
  2
Standard
 70
     0
 40
0.0
 41
1.0
 50
0.0
 71
     0
 42
0.2
  3
txt
  4

  0
ENDTAB
  0
TABLE
  2
VIEW
  5
6
330
0
100
AcDbSymbolTable
 70
     0
  0
ENDTAB
  0
TABLE
  2
UCS
  5
7
330
0
100
AcDbSymbolTable
 70
     0
  0
ENDTAB
  0
TABLE
  2
APPID
  5
9
330
0
100
AcDbSymbolTable
 70
     1
  0
APPID
  5
12
330
9
100
AcDbSymbolTableRecord
100
AcDbRegAppTableRecord
  2
ACAD
 70
     0
  0
ENDTAB
  0
TABLE
  2
DIMSTYLE
  5
A
330
0
100
AcDbSymbolTable
 70
     1
100
AcDbDimStyleTable
 71
     0
  0
DIMSTYLE
105
481
330
A
100
AcDbSymbolTableRecord
100
AcDbDimStyleTableRecord
  2
Standard
 70
     0
340
11
  0
ENDTAB
  0
TABLE
  2
BLOCK_RECORD
  5
1
330
0
100
AcDbSymbolTable
 70
     0
  0
BLOCK_RECORD
  5
1E
330
1
100
AcDbSymbolTableRecord
100
AcDbBlockTableRecord
  2
*Model_Space
340
21
  0
BLOCK_RECORD
  5
1A
330
1
100
AcDbSymbolTableRecord
100
AcDbBlockTableRecord
  2
*Paper_Space
340
1D
  0
ENDTAB
  0
ENDSEC
  0
SECTION
  2
BLOCKS
  0
BLOCK
  5
1F
330
1E
100
AcDbEntity
  8
0
100
AcDbBlockBegin
  2
*Model_Space
 70
     0
 10
0.0
 20
0.0
 30
0.0
  3
*Model_Space
  1

  0
ENDBLK
  5
20
330
1E
100
AcDbEntity
  8
0
100
AcDbBlockEnd
  0
BLOCK
  5
1B
330
1A
100
AcDbEntity
 67
     1
  8
0
100
AcDbBlockBegin
  2
*Paper_Space
 70
     0
 10
0.0
 20
0.0
 30
0.0
  3
*Paper_Space
  1

  0
ENDBLK
  5
1C
330
1A
100
AcDbEntity
 67
     1
  8
0
100
AcDbBlockEnd
  0
ENDSEC
  0
SECTION
  2
ENTITIES
  0
LINE
  5
26
330
1E
100
AcDbEntity
  8
0
100
AcDbLine
 10
1.596575
 20
1.8772
 30
0.0
 11
2.578794999999999
 21
3.238000000000009
 31
0.0
  0
LINE
  5
27
330
1E
100
AcDbEntity
  8
0
100
AcDbLine
 10
0.6051749999999979
 20
1.47960000000001
 30
0.0
 11
1.596575
 21
1.8772
 31
0.0
  0
LINE
  5
29
330
1E
100
AcDbEntity
  8
0
100
AcDbLine
 10
-0.126475000000002
 20
1.701200000000009
 30
0.0
 11
0.6051749999999979
 21
1.47960000000001
 31
0.0
  0
LINE
  5
2E
330
1E
100
AcDbEntity
  8
0
100
AcDbLine
 10
-0.207985000000002
 20
2.0118
 30
0.0
 11
-0.126475000000002
 21
1.701200000000009
 31
0.0
  0
LINE
  5
2F
330
1E
100
AcDbEntity
  8
0
100
AcDbLine
 10
-0.207985000000002
 20
2.0118
 30
0.0
 11
-0.146425000000002
 21
2.69200000000002
 31
0.0
  0
LINE
  5
32
330
1E
100
AcDbEntity
  8
0
100
AcDbLine
 10
2.578794999999999
 20
3.238000000000009
 30
0.0
 11
3.785414999999999
 21
5.991200000000009
 31
0.0
  0
LINE
  5
36
330
1E
100
AcDbEntity
  8
0
100
AcDbLine
 10
3.785414999999999
 20
5.991200000000009
 30
0.0
 11
5.481184999999999
 21
11.6288
 31
0.0
  0
LINE
  5
41
330
1E
100
AcDbEntity
  8
0
100
AcDbLine
 10
5.481184999999999
 20
11.6288
 30
0.0
 11
7.141885
 21
17.9325
 31
0.0
  0
LINE
  5
44
330
1E
100
AcDbEntity
  8
0
100
AcDbLine
 10
7.141885
 20
17.9325
 30
0.0
 11
12.026185
 21
38.5904
 31
0.0
  0
LINE
  5
46
330
1E
100
AcDbEntity
  8
0
100
AcDbLine
 10
67.20798499999999
 20
8.7941
 30
0.0
 11
67.20798499999999
 21
5.794100000000009
 31
0.0
  0
LINE
  5
47
330
1E
100
AcDbEntity
  8
0
100
AcDbLine
 10
67.20798499999999
 20
8.7941
 30
0.0
 11
67.20798499999999
 21
24.4118
 31
0.0
  0
LINE
  5
48
330
1E
100
AcDbEntity
  8
0
100
AcDbLine
 10
67.20798499999999
 20
5.794100000000009
 30
0.0
 11
67.20798499999999
 21
8.7941
 31
0.0
  0
LINE
  5
49
330
1E
100
AcDbEntity
  8
0
100
AcDbLine
 10
67.20798499999999
 20
5.794100000000009
 30
0.0
 11
67.20798499999999
 21
3.852899999999999
 31
0.0
  0
LINE
  5
4A
330
1E
100
AcDbEntity
  8
0
100
AcDbLine
 10
67.20798499999999
 20
3.852899999999999
 30
0.0
 11
67.20798499999999
 21
5.794100000000009
 31
0.0
  0
LINE
  5
4B
330
1E
100
AcDbEntity
  8
0
100
AcDbLine
 10
67.20798499999999
 20
3.852899999999999
 30
0.0
 11
67.20798499999999
 21
3.1471
 31
0.0
  0
LINE
  5
4C
330
1E
100
AcDbEntity
  8
0
100
AcDbLine
 10
67.20798499999999
 20
3.1471
 30
0.0
 11
67.20798499999999
 21
3.852899999999999
 31
0.0
  0
LINE
  5
4D
330
1E
100
AcDbEntity
  8
0
100
AcDbLine
 10
67.20798499999999
 20
3.1471
 30
0.0
 11
67.70798499999999
 21
1.911799999999999
 31
0.0
  0
LINE
  5
4E
330
1E
100
AcDbEntity
  8
0
100
AcDbLine
 10
67.20798499999999
 20
24.4118
 30
0.0
 11
67.20798499999999
 21
31.5588
 31
0.0
  0
LINE
  5
4F
330
1E
100
AcDbEntity
  8
0
100
AcDbLine
 10
67.20798499999999
 20
24.4118
 30
0.0
 11
67.20798499999999
 21
8.7941
 31
0.0
  0
LINE
  5
50
330
1E
100
AcDbEntity
  8
0
100
AcDbLine
 10
15.470585
 20
47.6879
 30
0.0
 11
16.287385
 21
48.6409
 31
0.0
  0
LINE
  5
51
330
1E
100
AcDbEntity
  8
0
100
AcDbLine
 10
14.722185
 20
46.5565
 30
0.0
 11
15.470585
 21
47.6879
 31
0.0
  0
LINE
  5
52
330
1E
100
AcDbEntity
  8
0
100
AcDbLine
 10
13.876085
 20
45.06009999999999
 30
0.0
 11
14.722185
 21
46.5565
 31
0.0
  0
LINE
  5
53
330
1E
100
AcDbEntity
  8
0
100
AcDbLine
 10
13.215085
 20
43.27679999999999
 30
0.0
 11
13.876085
 21
45.06009999999999
 31
0.0
  0
LINE
  5
54
330
1E
100
AcDbEntity
  8
0
100
AcDbLine
 10
12.587785
 20
40.904
 30
0.0
 11
13.215085
 21
43.27679999999999
 31
0.0
  0
LINE
  5
55
330
1E
100
AcDbEntity
  8
0
100
AcDbLine
 10
12.026185
 20
38.5904
 30
0.0
 11
12.587785
 21
40.904
 31
0.0
  0
LINE
  5
65
330
1E
100
AcDbEntity
  8
0
100
AcDbLine
 10
17.29218499999999
 20
49.5276
 30
0.0
 11
18.491485
 21
50.1972
 31
0.0
  0
LINE
  5
66
330
1E
100
AcDbEntity
  8
0
100
AcDbLine
 10
16.287385
 20
48.6409
 30
0.0
 11
17.29218499999999
 21
49.5276
 31
0.0
  0
LINE
  5
67
330
1E
100
AcDbEntity
  8
0
100
AcDbLine
 10
18.491485
 20
50.1972
 30
0.0
 11
19.850285
 21
50.63909999999999
 31
0.0
  0
LINE
  5
76
330
1E
100
AcDbEntity
  8
0
100
AcDbLine
 10
19.850285
 20
50.63909999999999
 30
0.0
 11
38.4353936956217
 21
52.4729060820055
 31
0.0
  0
LINE
  5
77
330
1E
100
AcDbEntity
  8
0
100
AcDbLine
 10
19.850285
 20
50.63909999999999
 30
0.0
 11
38.4353936956217
 21
52.4729060820055
 31
0.0
  0
LINE
  5
79
330
1E
100
AcDbEntity
  8
0
100
AcDbLine
 10
51.747285
 20
54.5
 30
0.0
 11
57.207985
 21
54.5
 31
0.0
  0
LINE
  5
7A
330
1E
100
AcDbEntity
  8
0
100
AcDbLine
 10
51.747285
 20
53.7864
 30
0.0
 11
51.747285
 21
54.0504
 31
0.0
  0
LINE
  5
7B
330
1E
100
AcDbEntity
  8
0
100
AcDbLine
 10
51.747285
 20
54.0504
 30
0.0
 11
51.747285
 21
54.5784
 31
0.0
  0
LINE
  5
7D
330
1E
100
AcDbEntity
  8
0
100
AcDbLine
 10
51.747285
 20
54.5784
 30
0.0
 11
51.747285
 21
55.5464
 31
0.0
  0
LINE
  5
7E
330
1E
100
AcDbEntity
  8
0
100
AcDbLine
 10
51.747285
 20
55.5464
 30
0.0
 11
51.747285
 21
56.69039999999999
 31
0.0
  0
LINE
  5
7F
330
1E
100
AcDbEntity
  8
0
100
AcDbLine
 10
51.747285
 20
56.69039999999999
 30
0.0
 11
51.747285
 21
58.3624
 31
0.0
  0
LINE
  5
80
330
1E
100
AcDbEntity
  8
0
100
AcDbLine
 10
51.747285
 20
58.3624
 30
0.0
 11
51.747285
 21
60.2984
 31
0.0
  0
LINE
  5
81
330
1E
100
AcDbEntity
  8
0
100
AcDbLine
 10
51.747285
 20
60.2984
 30
0.0
 11
51.747285
 21
62.4104
 31
0.0
  0
LINE
  5
82
330
1E
100
AcDbEntity
  8
0
100
AcDbLine
 10
51.747285
 20
62.4104
 30
0.0
 11
51.747285
 21
64.87439999999999
 31
0.0
  0
LINE
  5
83
330
1E
100
AcDbEntity
  8
0
100
AcDbLine
 10
51.747285
 20
64.87439999999999
 30
0.0
 11
51.747285
 21
67.426
 31
0.0
  0
LINE
  5
84
330
1E
100
AcDbEntity
  8
0
100
AcDbLine
 10
51.747285
 20
67.426
 30
0.0
 11
51.747285
 21
70.15399999999999
 31
0.0
  0
LINE
  5
85
330
1E
100
AcDbEntity
  8
0
100
AcDbLine
 10
50.848185
 20
78.682
 30
0.0
 11
51.747285
 21
75.786
 31
0.0
  0
LINE
  5
86
330
1E
100
AcDbEntity
  8
0
100
AcDbLine
 10
51.747285
 20
70.15399999999999
 30
0.0
 11
51.747285
 21
72.882
 31
0.0
  0
LINE
  5
87
330
1E
100
AcDbEntity
  8
0
100
AcDbLine
 10
51.747285
 20
72.882
 30
0.0
 11
51.747285
 21
75.786
 31
0.0
  0
LINE
  5
88
330
1E
100
AcDbEntity
  8
0
100
AcDbLine
 10
50.056585
 20
81.39799999999999
 30
0.0
 11
50.848185
 21
78.682
 31
0.0
  0
LINE
  5
89
330
1E
100
AcDbEntity
  8
0
100
AcDbLine
 10
49.33428499999999
 20
84.083
 30
0.0
 11
50.056585
 21
81.39799999999999
 31
0.0
  0
LINE
  5
8C
330
1E
100
AcDbEntity
  8
0
100
AcDbLine
 10
53.21048499999999
 20
58.8915
 30
0.0
 11
53.21048499999999
 21
60.7051
 31
0.0
  0
LINE
  5
8D
330
1E
100
AcDbEntity
  8
0
100
AcDbLine
 10
53.21048499999999
 20
57.2688
 30
0.0
 11
53.21048499999999
 21
58.8915
 31
0.0
  0
LINE
  5
8E
330
1E
100
AcDbEntity
  8
0
100
AcDbLine
 10
53.21048499999999
 20
56.1233
 30
0.0
 11
53.21048499999999
 21
57.2688
 31
0.0
  0
LINE
  5
8F
330
1E
100
AcDbEntity
  8
0
100
AcDbLine
 10
53.21048499999999
 20
55.2642
 30
0.0
 11
53.21048499999999
 21
56.1233
 31
0.0
  0
LINE
  5
90
330
1E
100
AcDbEntity
  8
0
100
AcDbLine
 10
53.21048499999999
 20
54.69149999999999
 30
0.0
 11
53.21048499999999
 21
55.2642
 31
0.0
  0
LINE
  5
91
330
1E
100
AcDbEntity
  8
0
100
AcDbLine
 10
53.21048499999999
 20
54.5006
 30
0.0
 11
53.21048499999999
 21
54.69149999999999
 31
0.0
  0
LINE
  5
92
330
1E
100
AcDbEntity
  8
0
100
AcDbLine
 10
53.21048499999999
 20
60.7051
 30
0.0
 11
53.21048499999999
 21
62.7097
 31
0.0
  0
LINE
  5
93
330
1E
100
AcDbEntity
  8
0
100
AcDbLine
 10
53.21048499999999
 20
62.7097
 30
0.0
 11
53.21048499999999
 21
65.00060000000001
 31
0.0
  0
LINE
  5
94
330
1E
100
AcDbEntity
  8
0
100
AcDbLine
 10
53.21048499999999
 20
65.00060000000001
 30
0.0
 11
53.21048499999999
 21
67.482
 31
0.0
  0
LINE
  5
95
330
1E
100
AcDbEntity
  8
0
100
AcDbLine
 10
53.21048499999999
 20
67.482
 30
0.0
 11
53.21048499999999
 21
70.06
 31
0.0
  0
LINE
  5
96
330
1E
100
AcDbEntity
  8
0
100
AcDbLine
 10
57.207985
 20
54.028
 30
0.0
 11
57.80798499999999
 21
53.5
 31
0.0
  0
LINE
  5
97
330
1E
100
AcDbEntity
  8
0
100
AcDbLine
 10
57.207985
 20
54.028
 30
0.0
 11
57.207985
 21
54.82
 31
0.0
  0
LINE
  5
98
330
1E
100
AcDbEntity
  8
0
100
AcDbLine
 10
57.207985
 20
54.028
 30
0.0
 11
57.207985
 21
54.5
 31
0.0
  0
LINE
  5
99
330
1E
100
AcDbEntity
  8
0
100
AcDbLine
 10
57.80798499999999
 20
53.5
 30
0.0
 11
67.20798499999999
 21
53.5
 31
0.0
  0
LINE
  5
9A
330
1E
100
AcDbEntity
  8
0
100
AcDbLine
 10
57.80798499999999
 20
53.5
 30
0.0
 11
57.80798499999999
 21
54.292
 31
0.0
  0
LINE
  5
9B
330
1E
100
AcDbEntity
  8
0
100
AcDbLine
 10
57.207985
 20
54.5
 30
0.0
 11
57.207985
 21
54.028
 31
0.0
  0
LINE
  5
9C
330
1E
100
AcDbEntity
  8
0
100
AcDbLine
 10
57.207985
 20
56.932
 30
0.0
 11
57.207985
 21
54.82
 31
0.0
  0
LINE
  5
9D
330
1E
100
AcDbEntity
  8
0
100
AcDbLine
 10
57.207985
 20
56.932
 30
0.0
 11
57.207985
 21
60.364
 31
0.0
  0
LINE
  5
9E
330
1E
100
AcDbEntity
  8
0
100
AcDbLine
 10
57.207985
 20
54.82
 30
0.0
 11
57.207985
 21
54.028
 31
0.0
  0
LINE
  5
9F
330
1E
100
AcDbEntity
  8
0
100
AcDbLine
 10
57.207985
 20
54.82
 30
0.0
 11
57.207985
 21
56.932
 31
0.0
  0
LINE
  5
A0
330
1E
100
AcDbEntity
  8
0
100
AcDbLine
 10
57.207985
 20
64.852
 30
0.0
 11
57.207985
 21
60.364
 31
0.0
  0
LINE
  5
A1
330
1E
100
AcDbEntity
  8
0
100
AcDbLine
 10
57.207985
 20
64.852
 30
0.0
 11
57.207985
 21
69.956
 31
0.0
  0
LINE
  5
A2
330
1E
100
AcDbEntity
  8
0
100
AcDbLine
 10
57.207985
 20
60.364
 30
0.0
 11
57.207985
 21
56.932
 31
0.0
  0
LINE
  5
A3
330
1E
100
AcDbEntity
  8
0
100
AcDbLine
 10
57.207985
 20
60.364
 30
0.0
 11
57.207985
 21
64.852
 31
0.0
  0
LINE
  5
A4
330
1E
100
AcDbEntity
  8
0
100
AcDbLine
 10
57.207985
 20
69.956
 30
0.0
 11
57.207985
 21
64.852
 31
0.0
  0
LINE
  5
A5
330
1E
100
AcDbEntity
  8
0
100
AcDbLine
 10
57.207985
 20
69.956
 30
0.0
 11
57.207985
 21
75.5
 31
0.0
  0
LINE
  5
A6
330
1E
100
AcDbEntity
  8
0
100
AcDbLine
 10
57.80798499999999
 20
69.86799999999999
 30
0.0
 11
57.80798499999999
 21
64.588
 31
0.0
  0
LINE
  5
A7
330
1E
100
AcDbEntity
  8
0
100
AcDbLine
 10
57.80798499999999
 20
69.86799999999999
 30
0.0
 11
57.80798499999999
 21
75.5
 31
0.0
  0
LINE
  5
A8
330
1E
100
AcDbEntity
  8
0
100
AcDbLine
 10
57.80798499999999
 20
64.588
 30
0.0
 11
57.80798499999999
 21
59.92399999999999
 31
0.0
  0
LINE
  5
A9
330
1E
100
AcDbEntity
  8
0
100
AcDbLine
 10
57.80798499999999
 20
64.588
 30
0.0
 11
57.80798499999999
 21
69.86799999999999
 31
0.0
  0
LINE
  5
AA
330
1E
100
AcDbEntity
  8
0
100
AcDbLine
 10
57.80798499999999
 20
59.92399999999999
 30
0.0
 11
57.80798499999999
 21
56.40399999999999
 31
0.0
  0
LINE
  5
AB
330
1E
100
AcDbEntity
  8
0
100
AcDbLine
 10
57.80798499999999
 20
59.92399999999999
 30
0.0
 11
57.80798499999999
 21
64.588
 31
0.0
  0
LINE
  5
AC
330
1E
100
AcDbEntity
  8
0
100
AcDbLine
 10
57.80798499999999
 20
56.40399999999999
 30
0.0
 11
57.80798499999999
 21
54.292
 31
0.0
  0
LINE
  5
AD
330
1E
100
AcDbEntity
  8
0
100
AcDbLine
 10
57.80798499999999
 20
56.40399999999999
 30
0.0
 11
57.80798499999999
 21
59.92399999999999
 31
0.0
  0
LINE
  5
AE
330
1E
100
AcDbEntity
  8
0
100
AcDbLine
 10
57.80798499999999
 20
54.292
 30
0.0
 11
57.80798499999999
 21
53.5
 31
0.0
  0
LINE
  5
AF
330
1E
100
AcDbEntity
  8
0
100
AcDbLine
 10
57.80798499999999
 20
54.292
 30
0.0
 11
57.80798499999999
 21
56.40399999999999
 31
0.0
  0
LINE
  5
B0
330
1E
100
AcDbEntity
  8
0
100
AcDbLine
 10
53.21048499999999
 20
70.06
 30
0.0
 11
53.21048499999999
 21
72.732
 31
0.0
  0
LINE
  5
B1
330
1E
100
AcDbEntity
  8
0
100
AcDbLine
 10
53.21048499999999
 20
83.51899999999998
 30
0.0
 11
53.21048499999999
 21
86.00100000000001
 31
0.0
  0
LINE
  5
B2
330
1E
100
AcDbEntity
  8
0
100
AcDbLine
 10
53.21048499999999
 20
80.941
 30
0.0
 11
53.21048499999999
 21
83.51899999999998
 31
0.0
  0
LINE
  5
B3
330
1E
100
AcDbEntity
  8
0
100
AcDbLine
 10
53.21048499999999
 20
78.26899999999999
 30
0.0
 11
53.21048499999999
 21
80.941
 31
0.0
  0
LINE
  5
B4
330
1E
100
AcDbEntity
  8
0
100
AcDbLine
 10
57.207985
 20
75.5
 30
0.0
 11
57.207985
 21
69.956
 31
0.0
  0
LINE
  5
B5
330
1E
100
AcDbEntity
  8
0
100
AcDbLine
 10
57.207985
 20
75.5
 30
0.0
 11
57.207985
 21
81.044
 31
0.0
  0
LINE
  5
B6
330
1E
100
AcDbEntity
  8
0
100
AcDbLine
 10
57.207985
 20
81.044
 30
0.0
 11
57.207985
 21
75.5
 31
0.0
  0
LINE
  5
B7
330
1E
100
AcDbEntity
  8
0
100
AcDbLine
 10
57.207985
 20
81.044
 30
0.0
 11
57.207985
 21
86.148
 31
0.0
  0
LINE
  5
B8
330
1E
100
AcDbEntity
  8
0
100
AcDbLine
 10
57.80798499999999
 20
81.132
 30
0.0
 11
57.80798499999999
 21
75.5
 31
0.0
  0
LINE
  5
B9
330
1E
100
AcDbEntity
  8
0
100
AcDbLine
 10
57.80798499999999
 20
81.132
 30
0.0
 11
57.80798499999999
 21
86.41200000000001
 31
0.0
  0
LINE
  5
BA
330
1E
100
AcDbEntity
  8
0
100
AcDbLine
 10
57.80798499999999
 20
75.5
 30
0.0
 11
57.80798499999999
 21
69.86799999999999
 31
0.0
  0
LINE
  5
BB
330
1E
100
AcDbEntity
  8
0
100
AcDbLine
 10
57.80798499999999
 20
75.5
 30
0.0
 11
57.80798499999999
 21
81.132
 31
0.0
  0
LINE
  5
BC
330
1E
100
AcDbEntity
  8
0
100
AcDbLine
 10
53.21048499999999
 20
75.501
 30
0.0
 11
53.21048499999999
 21
78.26899999999999
 31
0.0
  0
LINE
  5
BD
330
1E
100
AcDbEntity
  8
0
100
AcDbLine
 10
53.21048499999999
 20
72.732
 30
0.0
 11
53.21048499999999
 21
75.501
 31
0.0
  0
LINE
  5
BE
330
1E
100
AcDbEntity
  8
0
100
AcDbLine
 10
51.747285
 20
54.5006
 30
0.0
 11
53.21048499999999
 21
54.5006
 31
0.0
  0
LINE
  5
BF
330
1E
100
AcDbEntity
  8
0
100
AcDbLine
 10
38.4353936956217
 20
52.4729060820055
 30
0.0
 11
51.747285
 21
53.7864
 31
0.0
  0
LINE
  5
C1
330
1E
100
AcDbEntity
  8
0
100
AcDbLine
 10
67.20798499999999
 20
47.8824
 30
0.0
 11
67.20798499999999
 21
56.7941
 31
0.0
  0
LINE
  5
C2
330
1E
100
AcDbEntity
  8
0
100
AcDbLine
 10
67.20798499999999
 20
47.8824
 30
0.0
 11
67.20798499999999
 21
39.5
 31
0.0
  0
LINE
  5
C3
330
1E
100
AcDbEntity
  8
0
100
AcDbLine
 10
67.20798499999999
 20
64.588
 30
0.0
 11
67.20798499999999
 21
69.86799999999999
 31
0.0
  0
LINE
  5
C4
330
1E
100
AcDbEntity
  8
0
100
AcDbLine
 10
67.20798499999999
 20
59.92399999999999
 30
0.0
 11
67.20798499999999
 21
64.588
 31
0.0
  0
LINE
  5
C5
330
1E
100
AcDbEntity
  8
0
100
AcDbLine
 10
67.20798499999999
 20
56.40399999999999
 30
0.0
 11
67.20798499999999
 21
59.92399999999999
 31
0.0
  0
LINE
  5
C6
330
1E
100
AcDbEntity
  8
0
100
AcDbLine
 10
67.20798499999999
 20
54.292
 30
0.0
 11
67.20798499999999
 21
56.40399999999999
 31
0.0
  0
LINE
  5
C7
330
1E
100
AcDbEntity
  8
0
100
AcDbLine
 10
67.20798499999999
 20
53.5
 30
0.0
 11
67.20798499999999
 21
54.292
 31
0.0
  0
LINE
  5
C8
330
1E
100
AcDbEntity
  8
0
100
AcDbLine
 10
67.20798499999999
 20
56.7941
 30
0.0
 11
67.20798499999999
 21
66.059
 31
0.0
  0
LINE
  5
C9
330
1E
100
AcDbEntity
  8
0
100
AcDbLine
 10
67.20798499999999
 20
81.132
 30
0.0
 11
67.20798499999999
 21
86.41200000000001
 31
0.0
  0
LINE
  5
CA
330
1E
100
AcDbEntity
  8
0
100
AcDbLine
 10
67.20798499999999
 20
69.86799999999999
 30
0.0
 11
67.20798499999999
 21
75.5
 31
0.0
  0
LINE
  5
CB
330
1E
100
AcDbEntity
  8
0
100
AcDbLine
 10
67.20798499999999
 20
66.059
 30
0.0
 11
67.20798499999999
 21
75.5
 31
0.0
  0
LINE
  5
CC
330
1E
100
AcDbEntity
  8
0
100
AcDbLine
 10
67.20798499999999
 20
66.059
 30
0.0
 11
67.20798499999999
 21
56.7941
 31
0.0
  0
LINE
  5
CD
330
1E
100
AcDbEntity
  8
0
100
AcDbLine
 10
67.20798499999999
 20
39.5
 30
0.0
 11
67.20798499999999
 21
31.5588
 31
0.0
  0
LINE
  5
CE
330
1E
100
AcDbEntity
  8
0
100
AcDbLine
 10
67.20798499999999
 20
39.5
 30
0.0
 11
67.20798499999999
 21
47.8824
 31
0.0
  0
LINE
  5
CF
330
1E
100
AcDbEntity
  8
0
100
AcDbLine
 10
67.20798499999999
 20
31.5588
 30
0.0
 11
67.20798499999999
 21
24.4118
 31
0.0
  0
LINE
  5
D0
330
1E
100
AcDbEntity
  8
0
100
AcDbLine
 10
67.20798499999999
 20
31.5588
 30
0.0
 11
67.20798499999999
 21
39.5
 31
0.0
  0
LINE
  5
D1
330
1E
100
AcDbEntity
  8
0
100
AcDbLine
 10
67.20798499999999
 20
75.5
 30
0.0
 11
67.20798499999999
 21
84.94100000000001
 31
0.0
  0
LINE
  5
D2
330
1E
100
AcDbEntity
  8
0
100
AcDbLine
 10
67.20798499999999
 20
75.5
 30
0.0
 11
67.20798499999999
 21
66.059
 31
0.0
  0
LINE
  5
D3
330
1E
100
AcDbEntity
  8
0
100
AcDbLine
 10
67.20798499999999
 20
75.5
 30
0.0
 11
67.20798499999999
 21
81.132
 31
0.0
  0
LINE
  5
DE
330
1E
100
AcDbEntity
  8
0
100
AcDbLine
 10
16.225785
 20
95.52799999999999
 30
0.0
 11
16.400585
 21
96.188
 31
0.0
  0
LINE
  5
DF
330
1E
100
AcDbEntity
  8
0
100
AcDbLine
 10
-0.1464250000000007
 20
2.692000000000021
 30
0.0
 11
16.225785
 21
95.52799999999999
 31
0.0
  0
LINE
  5
E0
330
1E
100
AcDbEntity
  8
0
100
AcDbLine
 10
47.912585
 20
89.053
 30
0.0
 11
48.601285
 21
86.60200000000001
 31
0.0
  0
LINE
  5
E1
330
1E
100
AcDbEntity
  8
0
100
AcDbLine
 10
47.34498499999999
 20
91.133
 30
0.0
 11
47.912585
 21
89.053
 31
0.0
  0
LINE
  5
E2
330
1E
100
AcDbEntity
  8
0
100
AcDbLine
 10
46.791285
 20
93.079
 30
0.0
 11
47.34498499999999
 21
91.133
 31
0.0
  0
LINE
  5
E3
330
1E
100
AcDbEntity
  8
0
100
AcDbLine
 10
46.346385
 20
94.68799999999999
 30
0.0
 11
46.791285
 21
93.079
 31
0.0
  0
LINE
  5
E5
330
1E
100
AcDbEntity
  8
0
100
AcDbLine
 10
46.1587454377444
 20
95.3706587393486
 30
0.0
 11
48.207985
 21
96.02299999999999
 31
0.0
  0
LINE
  5
E6
330
1E
100
AcDbEntity
  8
0
100
AcDbLine
 10
48.207985
 20
96.02299999999999
 30
0.0
 11
51.207985
 21
96.5
 31
0.0
  0
LINE
  5
E7
330
1E
100
AcDbEntity
  8
0
100
AcDbLine
 10
46.15877372799309
 20
95.3705558155018
 30
0.0
 11
48.21048499999999
 21
96.02299999999999
 31
0.0
  0
LINE
  5
E8
330
1E
100
AcDbEntity
  8
0
100
AcDbLine
 10
46.039085
 20
95.806
 30
0.0
 11
46.346385
 21
94.68799999999999
 31
0.0
  0
LINE
  5
E9
330
1E
100
AcDbEntity
  8
0
100
AcDbLine
 10
16.583585
 20
96.45200000000002
 30
0.0
 11
45.52278499999999
 21
97.54100000000001
 31
0.0
  0
LINE
  5
EB
330
1E
100
AcDbEntity
  8
0
100
AcDbLine
 10
46.15877372799309
 20
95.3705558155018
 30
0.0
 11
48.21048499999999
 21
96.02299999999999
 31
0.0
  0
LINE
  5
EC
330
1E
100
AcDbEntity
  8
0
100
AcDbLine
 10
57.207985
 20
86.148
 30
0.0
 11
57.207985
 21
81.044
 31
0.0
  0
LINE
  5
ED
330
1E
100
AcDbEntity
  8
0
100
AcDbLine
 10
57.207985
 20
86.148
 30
0.0
 11
57.207985
 21
90.636
 31
0.0
  0
LINE
  5
EE
330
1E
100
AcDbEntity
  8
0
100
AcDbLine
 10
57.80798499999999
 20
86.41200000000001
 30
0.0
 11
57.80798499999999
 21
81.132
 31
0.0
  0
LINE
  5
EF
330
1E
100
AcDbEntity
  8
0
100
AcDbLine
 10
57.80798499999999
 20
86.41200000000001
 30
0.0
 11
57.80798499999999
 21
91.07600000000001
 31
0.0
  0
LINE
  5
F0
330
1E
100
AcDbEntity
  8
0
100
AcDbLine
 10
67.20798499999999
 20
86.41200000000001
 30
0.0
 11
67.20798499999999
 21
91.07600000000001
 31
0.0
  0
LINE
  5
F1
330
1E
100
AcDbEntity
  8
0
100
AcDbLine
 10
53.21048499999999
 20
86.00100000000001
 30
0.0
 11
53.21048499999999
 21
88.291
 31
0.0
  0
LINE
  5
F2
330
1E
100
AcDbEntity
  8
0
100
AcDbLine
 10
53.21048499999999
 20
90.296
 30
0.0
 11
53.21048499999999
 21
92.11
 31
0.0
  0
LINE
  5
F3
330
1E
100
AcDbEntity
  8
0
100
AcDbLine
 10
53.21048499999999
 20
92.11
 30
0.0
 11
53.21048499999999
 21
93.73200000000002
 31
0.0
  0
LINE
  5
F4
330
1E
100
AcDbEntity
  8
0
100
AcDbLine
 10
53.21048499999999
 20
93.73200000000002
 30
0.0
 11
53.21048499999999
 21
94.87799999999998
 31
0.0
  0
LINE
  5
F5
330
1E
100
AcDbEntity
  8
0
100
AcDbLine
 10
53.21048499999999
 20
94.87799999999998
 30
0.0
 11
53.21048499999999
 21
95.737
 31
0.0
  0
LINE
  5
F6
330
1E
100
AcDbEntity
  8
0
100
AcDbLine
 10
53.21048499999999
 20
95.737
 30
0.0
 11
53.21048499999999
 21
96.31
 31
0.0
  0
LINE
  5
F7
330
1E
100
AcDbEntity
  8
0
100
AcDbLine
 10
53.21048499999999
 20
96.31
 30
0.0
 11
53.21048499999999
 21
96.50100000000001
 31
0.0
  0
LINE
  5
F8
330
1E
100
AcDbEntity
  8
0
100
AcDbLine
 10
57.207985
 20
90.636
 30
0.0
 11
57.207985
 21
86.148
 31
0.0
  0
LINE
  5
F9
330
1E
100
AcDbEntity
  8
0
100
AcDbLine
 10
57.207985
 20
90.636
 30
0.0
 11
57.207985
 21
94.068
 31
0.0
  0
LINE
  5
FA
330
1E
100
AcDbEntity
  8
0
100
AcDbLine
 10
57.207985
 20
94.068
 30
0.0
 11
57.207985
 21
90.636
 31
0.0
  0
LINE
  5
FB
330
1E
100
AcDbEntity
  8
0
100
AcDbLine
 10
57.207985
 20
94.068
 30
0.0
 11
57.207985
 21
96.18000000000002
 31
0.0
  0
LINE
  5
FC
330
1E
100
AcDbEntity
  8
0
100
AcDbLine
 10
57.80798499999999
 20
91.07600000000001
 30
0.0
 11
57.80798499999999
 21
86.41200000000001
 31
0.0
  0
LINE
  5
FD
330
1E
100
AcDbEntity
  8
0
100
AcDbLine
 10
57.80798499999999
 20
91.07600000000001
 30
0.0
 11
57.80798499999999
 21
94.596
 31
0.0
  0
LINE
  5
FE
330
1E
100
AcDbEntity
  8
0
100
AcDbLine
 10
57.80798499999999
 20
94.596
 30
0.0
 11
57.80798499999999
 21
91.07600000000001
 31
0.0
  0
LINE
  5
FF
330
1E
100
AcDbEntity
  8
0
100
AcDbLine
 10
57.80798499999999
 20
94.596
 30
0.0
 11
57.80798499999999
 21
96.70799999999999
 31
0.0
  0
LINE
  5
100
330
1E
100
AcDbEntity
  8
0
100
AcDbLine
 10
67.20798499999999
 20
91.07600000000001
 30
0.0
 11
67.20798499999999
 21
94.596
 31
0.0
  0
LINE
  5
101
330
1E
100
AcDbEntity
  8
0
100
AcDbLine
 10
57.207985
 20
96.18000000000002
 30
0.0
 11
57.207985
 21
94.068
 31
0.0
  0
LINE
  5
102
330
1E
100
AcDbEntity
  8
0
100
AcDbLine
 10
57.207985
 20
96.18000000000002
 30
0.0
 11
57.207985
 21
96.97200000000002
 31
0.0
  0
LINE
  5
103
330
1E
100
AcDbEntity
  8
0
100
AcDbLine
 10
67.20798499999999
 20
94.596
 30
0.0
 11
67.20798499999999
 21
96.70799999999999
 31
0.0
  0
LINE
  5
104
330
1E
100
AcDbEntity
  8
0
100
AcDbLine
 10
53.21048499999999
 20
88.291
 30
0.0
 11
53.21048499999999
 21
90.296
 31
0.0
  0
LINE
  5
105
330
1E
100
AcDbEntity
  8
0
100
AcDbLine
 10
48.601285
 20
86.60200000000001
 30
0.0
 11
49.33428499999999
 21
84.083
 31
0.0
  0
LINE
  5
106
330
1E
100
AcDbEntity
  8
0
100
AcDbLine
 10
48.21048499999999
 20
96.02299999999999
 30
0.0
 11
51.210485
 21
96.50100000000001
 31
0.0
  0
LINE
  5
107
330
1E
100
AcDbEntity
  8
0
100
AcDbLine
 10
51.207985
 20
96.5
 30
0.0
 11
57.207985
 21
96.5
 31
0.0
  0
LINE
  5
108
330
1E
100
AcDbEntity
  8
0
100
AcDbLine
 10
45.75738499999999
 20
96.75200000000002
 30
0.0
 11
46.039085
 21
95.806
 31
0.0
  0
LINE
  5
109
330
1E
100
AcDbEntity
  8
0
100
AcDbLine
 10
45.59318499999999
 20
97.30400000000001
 30
0.0
 11
45.75738499999999
 21
96.75200000000002
 31
0.0
  0
LINE
  5
10A
330
1E
100
AcDbEntity
  8
0
100
AcDbLine
 10
45.52278499999999
 20
97.54100000000001
 30
0.0
 11
45.59318499999999
 21
97.30400000000001
 31
0.0
  0
LINE
  5
10B
330
1E
100
AcDbEntity
  8
0
100
AcDbLine
 10
57.207985
 20
96.5
 30
0.0
 11
57.207985
 21
96.97200000000002
 31
0.0
  0
LINE
  5
10C
330
1E
100
AcDbEntity
  8
0
100
AcDbLine
 10
57.80798499999999
 20
96.70799999999999
 30
0.0
 11
57.80798499999999
 21
94.596
 31
0.0
  0
LINE
  5
10D
330
1E
100
AcDbEntity
  8
0
100
AcDbLine
 10
57.80798499999999
 20
96.70799999999999
 30
0.0
 11
57.80798499999999
 21
97.5
 31
0.0
  0
LINE
  5
10E
330
1E
100
AcDbEntity
  8
0
100
AcDbLine
 10
57.207985
 20
96.97200000000002
 30
0.0
 11
57.207985
 21
96.18000000000002
 31
0.0
  0
LINE
  5
10F
330
1E
100
AcDbEntity
  8
0
100
AcDbLine
 10
57.207985
 20
96.97200000000002
 30
0.0
 11
57.80798499999999
 21
97.5
 31
0.0
  0
LINE
  5
110
330
1E
100
AcDbEntity
  8
0
100
AcDbLine
 10
57.207985
 20
96.97200000000002
 30
0.0
 11
57.207985
 21
96.5
 31
0.0
  0
LINE
  5
111
330
1E
100
AcDbEntity
  8
0
100
AcDbLine
 10
57.80798499999999
 20
97.5
 30
0.0
 11
57.80798499999999
 21
96.70799999999999
 31
0.0
  0
LINE
  5
112
330
1E
100
AcDbEntity
  8
0
100
AcDbLine
 10
57.80798499999999
 20
97.5
 30
0.0
 11
67.20798499999999
 21
97.5
 31
0.0
  0
LINE
  5
113
330
1E
100
AcDbEntity
  8
0
100
AcDbLine
 10
67.20798499999999
 20
96.70799999999999
 30
0.0
 11
67.20798499999999
 21
97.5
 31
0.0
  0
LINE
  5
114
330
1E
100
AcDbEntity
  8
0
100
AcDbLine
 10
51.210485
 20
96.50100000000001
 30
0.0
 11
53.21048499999999
 21
96.50100000000001
 31
0.0
  0
LINE
  5
115
330
1E
100
AcDbEntity
  8
0
100
AcDbLine
 10
16.583585
 20
96.45200000000002
 30
0.0
 11
45.52278499999999
 21
97.54100000000001
 31
0.0
  0
LINE
  5
116
330
1E
100
AcDbEntity
  8
0
100
AcDbLine
 10
16.400585
 20
96.188
 30
0.0
 11
16.583585
 21
96.45200000000002
 31
0.0
  0
LINE
  5
117
330
1E
100
AcDbEntity
  8
0
100
AcDbLine
 10
67.20798499999999
 20
84.94100000000001
 30
0.0
 11
67.20798499999999
 21
94.206
 31
0.0
  0
LINE
  5
118
330
1E
100
AcDbEntity
  8
0
100
AcDbLine
 10
67.20798499999999
 20
84.94100000000001
 30
0.0
 11
67.20798499999999
 21
75.5
 31
0.0
  0
LINE
  5
119
330
1E
100
AcDbEntity
  8
0
100
AcDbLine
 10
67.20798499999999
 20
94.206
 30
0.0
 11
67.20798499999999
 21
103.1179999999999
 31
0.0
  0
LINE
  5
11A
330
1E
100
AcDbEntity
  8
0
100
AcDbLine
 10
67.20798499999999
 20
94.206
 30
0.0
 11
67.20798499999999
 21
84.94100000000001
 31
0.0
  0
LINE
  5
11B
330
1E
100
AcDbEntity
  8
0
100
AcDbLine
 10
67.20798499999999
 20
147.147
 30
0.0
 11
67.20798499999999
 21
111.4999999999999
 31
0.0
  0
LINE
  5
11C
330
1E
100
AcDbEntity
  8
0
100
AcDbLine
 10
67.20798499999999
 20
103.1179999999999
 30
0.0
 11
67.20798499999999
 21
111.4999999999999
 31
0.0
  0
LINE
  5
11D
330
1E
100
AcDbEntity
  8
0
100
AcDbLine
 10
67.20798499999999
 20
103.1179999999999
 30
0.0
 11
67.20798499999999
 21
94.206
 31
0.0
  0
LINE
  5
11E
330
1E
100
AcDbEntity
  8
0
100
AcDbLine
 10
67.20798499999999
 20
111.4999999999999
 30
0.0
 11
67.20798499999999
 21
147.147
 31
0.0
  0
LINE
  5
11F
330
1E
100
AcDbEntity
  8
0
100
AcDbLine
 10
67.20798499999999
 20
111.4999999999999
 30
0.0
 11
67.20798499999999
 21
103.1179999999999
 31
0.0
  0
LINE
  5
125
330
1E
100
AcDbEntity
  8
0
100
AcDbLine
 10
67.70798499999999
 20
1.911799999999999
 30
0.0
 11
68.807985
 21
0.9411999999999979
 31
0.0
  0
LINE
  5
127
330
1E
100
AcDbEntity
  8
0
100
AcDbLine
 10
67.20798499999999
 20
147.8529999999999
 30
0.0
 11
67.70798499999999
 21
149.0879999999999
 31
0.0
  0
LINE
  5
128
330
1E
100
AcDbEntity
  8
0
100
AcDbLine
 10
67.20798499999999
 20
147.8529999999999
 30
0.0
 11
67.20798499999999
 21
147.147
 31
0.0
  0
LINE
  5
129
330
1E
100
AcDbEntity
  8
0
100
AcDbLine
 10
67.20798499999999
 20
147.147
 30
0.0
 11
67.20798499999999
 21
147.8529999999999
 31
0.0
  0
LINE
  5
12A
330
1E
100
AcDbEntity
  8
0
100
AcDbLine
 10
70.20798499999999
 20
0.5000000000000031
 30
0.0
 11
80.20798499999999
 21
0.5000000000000031
 31
0.0
  0
LINE
  5
12B
330
1E
100
AcDbEntity
  8
0
100
AcDbLine
 10
68.807985
 20
0.9411999999999979
 30
0.0
 11
70.20798499999999
 21
0.5000000000000031
 31
0.0
  0
LINE
  5
12C
330
1E
100
AcDbEntity
  8
0
100
AcDbLine
 10
67.70798499999999
 20
149.0879999999999
 30
0.0
 11
68.807985
 21
150.059
 31
0.0
  0
LINE
  5
12D
330
1E
100
AcDbEntity
  8
0
100
AcDbLine
 10
68.807985
 20
150.059
 30
0.0
 11
70.20798499999999
 21
150.5
 31
0.0
  0
LINE
  5
12E
330
1E
100
AcDbEntity
  8
0
100
AcDbLine
 10
80.20798499999999
 20
0.5000000000000031
 30
0.0
 11
80.20798499999999
 21
1.29410000000001
 31
0.0
  0
LINE
  5
12F
330
1E
100
AcDbEntity
  8
0
100
AcDbLine
 10
80.20798499999999
 20
1.29410000000001
 30
0.0
 11
80.20798499999999
 21
0.5000000000000031
 31
0.0
  0
LINE
  5
130
330
1E
100
AcDbEntity
  8
0
100
AcDbLine
 10
80.20798499999999
 20
1.29410000000001
 30
0.0
 11
80.20798499999999
 21
3.235300000000009
 31
0.0
  0
LINE
  5
131
330
1E
100
AcDbEntity
  8
0
100
AcDbLine
 10
80.20798499999999
 20
3.235300000000009
 30
0.0
 11
80.20798499999999
 21
1.29410000000001
 31
0.0
  0
LINE
  5
132
330
1E
100
AcDbEntity
  8
0
100
AcDbLine
 10
80.20798499999999
 20
3.235300000000009
 30
0.0
 11
80.20798499999999
 21
6.3235
 31
0.0
  0
LINE
  5
134
330
1E
100
AcDbEntity
  8
0
100
AcDbLine
 10
80.20798499999999
 20
22.5588
 30
0.0
 11
80.20798499999999
 21
16.1176
 31
0.0
  0
LINE
  5
135
330
1E
100
AcDbEntity
  8
0
100
AcDbLine
 10
80.20798499999999
 20
22.5588
 30
0.0
 11
80.20798499999999
 21
29.8824
 31
0.0
  0
LINE
  5
136
330
1E
100
AcDbEntity
  8
0
100
AcDbLine
 10
80.20798499999999
 20
16.1176
 30
0.0
 11
80.20798499999999
 21
10.55879999999999
 31
0.0
  0
LINE
  5
137
330
1E
100
AcDbEntity
  8
0
100
AcDbLine
 10
80.20798499999999
 20
16.1176
 30
0.0
 11
80.20798499999999
 21
22.5588
 31
0.0
  0
LINE
  5
138
330
1E
100
AcDbEntity
  8
0
100
AcDbLine
 10
80.20798499999999
 20
46.8235
 30
0.0
 11
80.20798499999999
 21
38.1765
 31
0.0
  0
LINE
  5
139
330
1E
100
AcDbEntity
  8
0
100
AcDbLine
 10
80.20798499999999
 20
46.8235
 30
0.0
 11
80.20798499999999
 21
56.1765
 31
0.0
  0
LINE
  5
13A
330
1E
100
AcDbEntity
  8
0
100
AcDbLine
 10
80.20798499999999
 20
38.1765
 30
0.0
 11
80.20798499999999
 21
29.8824
 31
0.0
  0
LINE
  5
13B
330
1E
100
AcDbEntity
  8
0
100
AcDbLine
 10
80.20798499999999
 20
38.1765
 30
0.0
 11
80.20798499999999
 21
46.8235
 31
0.0
  0
LINE
  5
13C
330
1E
100
AcDbEntity
  8
0
100
AcDbLine
 10
80.20798499999999
 20
29.8824
 30
0.0
 11
80.20798499999999
 21
38.1765
 31
0.0
  0
LINE
  5
13D
330
1E
100
AcDbEntity
  8
0
100
AcDbLine
 10
80.20798499999999
 20
29.8824
 30
0.0
 11
80.20798499999999
 21
22.5588
 31
0.0
  0
LINE
  5
13E
330
1E
100
AcDbEntity
  8
0
100
AcDbLine
 10
80.20798499999999
 20
56.1765
 30
0.0
 11
80.20798499999999
 21
65.706
 31
0.0
  0
LINE
  5
13F
330
1E
100
AcDbEntity
  8
0
100
AcDbLine
 10
80.20798499999999
 20
65.706
 30
0.0
 11
80.20798499999999
 21
56.1765
 31
0.0
  0
LINE
  5
140
330
1E
100
AcDbEntity
  8
0
100
AcDbLine
 10
80.20798499999999
 20
65.706
 30
0.0
 11
80.20798499999999
 21
75.5
 31
0.0
  0
LINE
  5
141
330
1E
100
AcDbEntity
  8
0
100
AcDbLine
 10
80.20798499999999
 20
10.55879999999999
 30
0.0
 11
80.20798499999999
 21
6.3235
 31
0.0
  0
LINE
  5
142
330
1E
100
AcDbEntity
  8
0
100
AcDbLine
 10
80.20798499999999
 20
10.55879999999999
 30
0.0
 11
80.20798499999999
 21
16.1176
 31
0.0
  0
LINE
  5
143
330
1E
100
AcDbEntity
  8
0
100
AcDbLine
 10
80.20798499999999
 20
6.3235
 30
0.0
 11
80.20798499999999
 21
3.235300000000009
 31
0.0
  0
LINE
  5
144
330
1E
100
AcDbEntity
  8
0
100
AcDbLine
 10
80.20798499999999
 20
6.3235
 30
0.0
 11
80.20798499999999
 21
10.55879999999999
 31
0.0
  0
LINE
  5
145
330
1E
100
AcDbEntity
  8
0
100
AcDbLine
 10
80.20798499999999
 20
75.5
 30
0.0
 11
80.20798499999999
 21
85.294
 31
0.0
  0
LINE
  5
146
330
1E
100
AcDbEntity
  8
0
100
AcDbLine
 10
80.20798499999999
 20
75.5
 30
0.0
 11
80.20798499999999
 21
65.706
 31
0.0
  0
LINE
  5
147
330
1E
100
AcDbEntity
  8
0
100
AcDbLine
 10
80.20798499999999
 20
128.441
 30
0.0
 11
80.20798499999999
 21
121.1179999999999
 31
0.0
  0
LINE
  5
148
330
1E
100
AcDbEntity
  8
0
100
AcDbLine
 10
80.20798499999999
 20
128.441
 30
0.0
 11
80.20798499999999
 21
134.882
 31
0.0
  0
LINE
  5
149
330
1E
100
AcDbEntity
  8
0
100
AcDbLine
 10
80.20798499999999
 20
121.1179999999999
 30
0.0
 11
80.20798499999999
 21
112.8239999999999
 31
0.0
  0
LINE
  5
14A
330
1E
100
AcDbEntity
  8
0
100
AcDbLine
 10
80.20798499999999
 20
121.1179999999999
 30
0.0
 11
80.20798499999999
 21
128.441
 31
0.0
  0
LINE
  5
14B
330
1E
100
AcDbEntity
  8
0
100
AcDbLine
 10
80.20798499999999
 20
112.8239999999999
 30
0.0
 11
80.20798499999999
 21
104.176
 31
0.0
  0
LINE
  5
14C
330
1E
100
AcDbEntity
  8
0
100
AcDbLine
 10
80.20798499999999
 20
112.8239999999999
 30
0.0
 11
80.20798499999999
 21
121.1179999999999
 31
0.0
  0
LINE
  5
14D
330
1E
100
AcDbEntity
  8
0
100
AcDbLine
 10
80.20798499999999
 20
104.176
 30
0.0
 11
80.20798499999999
 21
94.824
 31
0.0
  0
LINE
  5
14E
330
1E
100
AcDbEntity
  8
0
100
AcDbLine
 10
80.20798499999999
 20
104.176
 30
0.0
 11
80.20798499999999
 21
112.8239999999999
 31
0.0
  0
LINE
  5
14F
330
1E
100
AcDbEntity
  8
0
100
AcDbLine
 10
80.20798499999999
 20
94.824
 30
0.0
 11
80.20798499999999
 21
85.294
 31
0.0
  0
LINE
  5
150
330
1E
100
AcDbEntity
  8
0
100
AcDbLine
 10
80.20798499999999
 20
94.824
 30
0.0
 11
80.20798499999999
 21
104.176
 31
0.0
  0
LINE
  5
3EE
330
1E
100
AcDbEntity
  8
0
100
AcDbLine
 10
80.20798499999999
 20
85.294
 30
0.0
 11
80.20798499999999
 21
75.5
 31
0.0
  0
LINE
  5
3EF
330
1E
100
AcDbEntity
  8
0
100
AcDbLine
 10
80.20798499999999
 20
85.294
 30
0.0
 11
80.20798499999999
 21
94.824
 31
0.0
  0
LINE
  5
3F1
330
1E
100
AcDbEntity
  8
0
100
AcDbLine
 10
80.20798499999999
 20
147.7649999999999
 30
0.0
 11
80.20798499999999
 21
144.676
 31
0.0
  0
LINE
  5
3F2
330
1E
100
AcDbEntity
  8
0
100
AcDbLine
 10
80.20798499999999
 20
147.7649999999999
 30
0.0
 11
80.20798499999999
 21
149.706
 31
0.0
  0
LINE
  5
3F3
330
1E
100
AcDbEntity
  8
0
100
AcDbLine
 10
80.20798499999999
 20
149.706
 30
0.0
 11
80.20798499999999
 21
147.7649999999999
 31
0.0
  0
LINE
  5
3F4
330
1E
100
AcDbEntity
  8
0
100
AcDbLine
 10
80.20798499999999
 20
149.706
 30
0.0
 11
80.20798499999999
 21
150.5
 31
0.0
  0
LINE
  5
3F5
330
1E
100
AcDbEntity
  8
0
100
AcDbLine
 10
80.20798499999999
 20
150.5
 30
0.0
 11
80.20798499999999
 21
149.706
 31
0.0
  0
LINE
  5
3F6
330
1E
100
AcDbEntity
  8
0
100
AcDbLine
 10
80.20798499999999
 20
144.676
 30
0.0
 11
80.20798499999999
 21
140.441
 31
0.0
  0
LINE
  5
3F7
330
1E
100
AcDbEntity
  8
0
100
AcDbLine
 10
80.20798499999999
 20
144.676
 30
0.0
 11
80.20798499999999
 21
147.7649999999999
 31
0.0
  0
LINE
  5
47C
330
1E
100
AcDbEntity
  8
0
100
AcDbLine
 10
80.20798499999999
 20
140.441
 30
0.0
 11
80.20798499999999
 21
134.882
 31
0.0
  0
LINE
  5
47D
330
1E
100
AcDbEntity
  8
0
100
AcDbLine
 10
80.20798499999999
 20
140.441
 30
0.0
 11
80.20798499999999
 21
144.676
 31
0.0
  0
LINE
  5
47E
330
1E
100
AcDbEntity
  8
0
100
AcDbLine
 10
80.20798499999999
 20
134.882
 30
0.0
 11
80.20798499999999
 21
128.441
 31
0.0
  0
LINE
  5
47F
330
1E
100
AcDbEntity
  8
0
100
AcDbLine
 10
80.20798499999999
 20
134.882
 30
0.0
 11
80.20798499999999
 21
140.441
 31
0.0
  0
LINE
  5
480
330
1E
100
AcDbEntity
  8
0
100
AcDbLine
 10
70.20798499999999
 20
150.5
 30
0.0
 11
80.20798499999999
 21
150.5
 31
0.0
  0
ENDSEC
  0
SECTION
  2
OBJECTS
  0
DICTIONARY
  5
C
330
0
100
AcDbDictionary
281
     1
  3
ACAD_GROUP
350
D
  3
ACAD_LAYOUT
350
19
  3
ACAD_MLINESTYLE
350
16
  3
ACAD_PLOTSETTINGS
350
18
  3
ACAD_PLOTSTYLENAME
350
E
  3
AcDbVariableDictionary
350
485
  0
DICTIONARY
  5
D
102
{ACAD_REACTORS
330
C
102
}
330
C
100
AcDbDictionary
281
     1
  0
DICTIONARY
  5
19
102
{ACAD_REACTORS
330
C
102
}
330
C
100
AcDbDictionary
281
     1
  3
Layout1
350
1D
  3
Model
350
21
  0
DICTIONARY
  5
16
102
{ACAD_REACTORS
330
C
102
}
330
C
100
AcDbDictionary
281
     1
  3
Standard
350
17
  0
DICTIONARY
  5
18
102
{ACAD_REACTORS
330
C
102
}
330
C
100
AcDbDictionary
281
     1
  0
ACDBDICTIONARYWDFLT
  5
E
102
{ACAD_REACTORS
330
C
102
}
330
C
100
AcDbDictionary
281
     1
  3
Normal
350
F
100
AcDbDictionaryWithDefault
340
F
  0
DICTIONARY
  5
485
102
{ACAD_REACTORS
330
C
102
}
330
C
100
AcDbDictionary
281
     1
  3
DIMASSOC
350
486
  0
LAYOUT
  5
1D
102
{ACAD_REACTORS
330
19
102
}
330
19
100
AcDbPlotSettings
  1

  2
hp deskjet 980c series
  4

  6

 40
0.0
 41
0.0
 42
0.0
 43
0.0
 44
0.0
 45
0.0
 46
0.0
 47
0.0
 48
0.0
 49
0.0
140
0.0
141
0.0
142
1.0
143
1.0
 70
   688
 72
     0
 73
     0
 74
     5
  7

 75
    16
147
1.0
148
0.0
149
0.0
100
AcDbLayout
  1
Layout1
 70
     1
 71
     1
 10
0.0
 20
0.0
 11
12.0
 21
9.0
 12
0.0
 22
0.0
 32
0.0
 14
1.000000000000000E+20
 24
1.000000000000000E+20
 34
1.000000000000000E+20
 15
-1.000000000000000E+20
 25
-1.000000000000000E+20
 35
-1.000000000000000E+20
146
0.0
 13
0.0
 23
0.0
 33
0.0
 16
1.0
 26
0.0
 36
0.0
 17
0.0
 27
1.0
 37
0.0
 76
     0
330
1A
  0
LAYOUT
  5
21
102
{ACAD_REACTORS
330
19
102
}
330
19
100
AcDbPlotSettings
  1

  2
hp deskjet 980c series
  4

  6

 40
0.0
 41
0.0
 42
0.0
 43
0.0
 44
0.0
 45
0.0
 46
0.0
 47
0.0
 48
0.0
 49
0.0
140
0.0
141
0.0
142
1.0
143
1.0
 70
  1712
 72
     0
 73
     0
 74
     0
  7

 75
     0
147
1.0
148
0.0
149
0.0
100
AcDbLayout
  1
Model
 70
     1
 71
     0
 10
0.0
 20
0.0
 11
12.0
 21
9.0
 12
0.0
 22
0.0
 32
0.0
 14
0.0
 24
0.0
 34
0.0
 15
0.0
 25
0.0
 35
0.0
146
0.0
 13
0.0
 23
0.0
 33
0.0
 16
1.0
 26
0.0
 36
0.0
 17
0.0
 27
1.0
 37
0.0
 76
     0
330
1E
  0
MLINESTYLE
  5
17
102
{ACAD_REACTORS
330
16
102
}
330
16
100
AcDbMlineStyle
  2
STANDARD
 70
     0
  3

 62
   256
 51
90.0
 52
90.0
 71
     2
 49
0.5
 62
   256
  6
BYLAYER
 49
-0.5
 62
   256
  6
BYLAYER
  0
ACDBPLACEHOLDER
  5
F
102
{ACAD_REACTORS
330
E
102
}
330
E
  0
DICTIONARYVAR
  5
486
102
{ACAD_REACTORS
330
485
102
}
330
485
100
DictionaryVariables
280
     0
  1
1
  0
ENDSEC
  0
EOF
