  0
SECTION
  2
HEADER
  9
$ACADVER
  1
AC1015
  9
$ACADMAINTVER
 70
    13
  9
$DWGCODEPAGE
  3
ANSI_1252
  9
$INSBASE
 10
0.0
 20
0.0
 30
0.0
  9
$EXTMIN
 10
-0.207984999999987
 20
-0.0759999999999916
 30
0.0
  9
$EXTMAX
 10
151.207985
 20
152.0759999999999
 30
0.0
  9
$LIMMIN
 10
0.0
 20
0.0
  9
$LIMMAX
 10
12.0
 20
9.0
  9
$ORTHOMODE
 70
     0
  9
$REGENMODE
 70
     1
  9
$FILLMODE
 70
     1
  9
$QTEXTMODE
 70
     0
  9
$MIRRTEXT
 70
     1
  9
$LTSCALE
 40
1.0
  9
$ATTMODE
 70
     1
  9
$TEXTSIZE
 40
0.2
  9
$TRACEWID
 40
0.05
  9
$TEXTSTYLE
  7
Standard
  9
$CLAYER
  8
0
  9
$CELTYPE
  6
Continuous
  9
$CECOLOR
 62
   256
  9
$CELTSCALE
 40
1.0
  9
$DISPSILH
 70
     0
  9
$DIMSCALE
 40
1.0
  9
$DIMASZ
 40
0.18
  9
$DIMEXO
 40
0.0625
  9
$DIMDLI
 40
0.38
  9
$DIMRND
 40
0.0
  9
$DIMDLE
 40
0.0
  9
$DIMEXE
 40
0.18
  9
$DIMTP
 40
0.0
  9
$DIMTM
 40
0.0
  9
$DIMTXT
 40
0.18
  9
$DIMCEN
 40
0.09
  9
$DIMTSZ
 40
0.0
  9
$DIMTOL
 70
     0
  9
$DIMLIM
 70
     0
  9
$DIMTIH
 70
     1
  9
$DIMTOH
 70
     1
  9
$DIMSE1
 70
     0
  9
$DIMSE2
 70
     0
  9
$DIMTAD
 70
     0
  9
$DIMZIN
 70
     0
  9
$DIMBLK
  1

  9
$DIMASO
 70
     1
  9
$DIMSHO
 70
     1
  9
$DIMPOST
  1

  9
$DIMAPOST
  1

  9
$DIMALT
 70
     0
  9
$DIMALTD
 70
     2
  9
$DIMALTF
 40
25.4
  9
$DIMLFAC
 40
1.0
  9
$DIMTOFL
 70
     0
  9
$DIMTVP
 40
0.0
  9
$DIMTIX
 70
     0
  9
$DIMSOXD
 70
     0
  9
$DIMSAH
 70
     0
  9
$DIMBLK1
  1

  9
$DIMBLK2
  1

  9
$DIMSTYLE
  2
Standard
  9
$DIMCLRD
 70
     0
  9
$DIMCLRE
 70
     0
  9
$DIMCLRT
 70
     0
  9
$DIMTFAC
 40
1.0
  9
$DIMGAP
 40
0.09
  9
$DIMJUST
 70
     0
  9
$DIMSD1
 70
     0
  9
$DIMSD2
 70
     0
  9
$DIMTOLJ
 70
     1
  9
$DIMTZIN
 70
     0
  9
$DIMALTZ
 70
     0
  9
$DIMALTTZ
 70
     0
  9
$DIMUPT
 70
     0
  9
$DIMDEC
 70
     4
  9
$DIMTDEC
 70
     4
  9
$DIMALTU
 70
     2
  9
$DIMALTTD
 70
     2
  9
$DIMTXSTY
  7
Standard
  9
$DIMAUNIT
 70
     0
  9
$DIMADEC
 70
     0
  9
$DIMALTRND
 40
0.0
  9
$DIMAZIN
 70
     0
  9
$DIMDSEP
 70
    46
  9
$DIMATFIT
 70
     3
  9
$DIMFRAC
 70
     0
  9
$DIMLDRBLK
  1

  9
$DIMLUNIT
 70
     2
  9
$DIMLWD
 70
    -2
  9
$DIMLWE
 70
    -2
  9
$DIMTMOVE
 70
     0
  9
$LUNITS
 70
     2
  9
$LUPREC
 70
     4
  9
$SKETCHINC
 40
0.1
  9
$FILLETRAD
 40
0.0
  9
$AUNITS
 70
     0
  9
$AUPREC
 70
     0
  9
$MENU
  1
.
  9
$ELEVATION
 40
0.0
  9
$PELEVATION
 40
0.0
  9
$THICKNESS
 40
0.0
  9
$LIMCHECK
 70
     0
  9
$CHAMFERA
 40
0.0
  9
$CHAMFERB
 40
0.0
  9
$CHAMFERC
 40
0.0
  9
$CHAMFERD
 40
0.0
  9
$SKPOLY
 70
     0
  9
$TDCREATE
 40
2454834.907290752
  9
$TDUCREATE
 40
2454834.865624085
  9
$TDUPDATE
 40
2454834.907951747
  9
$TDUUPDATE
 40
2454834.866285080
  9
$TDINDWG
 40
0.0006609954
  9
$TDUSRTIMER
 40
0.0006609954
  9
$USRTIMER
 70
     1
  9
$ANGBASE
 50
0.0
  9
$ANGDIR
 70
     0
  9
$PDMODE
 70
     0
  9
$PDSIZE
 40
0.0
  9
$PLINEWID
 40
0.0
  9
$SPLFRAME
 70
     0
  9
$SPLINETYPE
 70
     6
  9
$SPLINESEGS
 70
     8
  9
$HANDSEED
  5
220
  9
$SURFTAB1
 70
     6
  9
$SURFTAB2
 70
     6
  9
$SURFTYPE
 70
     6
  9
$SURFU
 70
     6
  9
$SURFV
 70
     6
  9
$UCSBASE
  2

  9
$UCSNAME
  2

  9
$UCSORG
 10
0.0
 20
0.0
 30
0.0
  9
$UCSXDIR
 10
1.0
 20
0.0
 30
0.0
  9
$UCSYDIR
 10
0.0
 20
1.0
 30
0.0
  9
$UCSORTHOREF
  2

  9
$UCSORTHOVIEW
 70
     1
  9
$UCSORGTOP
 10
0.0
 20
0.0
 30
0.0
  9
$UCSORGBOTTOM
 10
0.0
 20
0.0
 30
0.0
  9
$UCSORGLEFT
 10
0.0
 20
0.0
 30
0.0
  9
$UCSORGRIGHT
 10
0.0
 20
0.0
 30
0.0
  9
$UCSORGFRONT
 10
0.0
 20
0.0
 30
0.0
  9
$UCSORGBACK
 10
0.0
 20
0.0
 30
0.0
  9
$PUCSBASE
  2

  9
$PUCSNAME
  2

  9
$PUCSORG
 10
0.0
 20
0.0
 30
0.0
  9
$PUCSXDIR
 10
1.0
 20
0.0
 30
0.0
  9
$PUCSYDIR
 10
0.0
 20
1.0
 30
0.0
  9
$PUCSORTHOREF
  2

  9
$PUCSORTHOVIEW
 70
     0
  9
$PUCSORGTOP
 10
0.0
 20
0.0
 30
0.0
  9
$PUCSORGBOTTOM
 10
0.0
 20
0.0
 30
0.0
  9
$PUCSORGLEFT
 10
0.0
 20
0.0
 30
0.0
  9
$PUCSORGRIGHT
 10
0.0
 20
0.0
 30
0.0
  9
$PUCSORGFRONT
 10
0.0
 20
0.0
 30
0.0
  9
$PUCSORGBACK
 10
0.0
 20
0.0
 30
0.0
  9
$USERI1
 70
     0
  9
$USERI2
 70
     0
  9
$USERI3
 70
     0
  9
$USERI4
 70
     0
  9
$USERI5
 70
     0
  9
$USERR1
 40
0.0
  9
$USERR2
 40
0.0
  9
$USERR3
 40
0.0
  9
$USERR4
 40
0.0
  9
$USERR5
 40
0.0
  9
$WORLDVIEW
 70
     1
  9
$SHADEDGE
 70
     3
  9
$SHADEDIF
 70
    70
  9
$TILEMODE
 70
     1
  9
$MAXACTVP
 70
    64
  9
$PINSBASE
 10
0.0
 20
0.0
 30
0.0
  9
$PLIMCHECK
 70
     0
  9
$PEXTMIN
 10
1.000000000000000E+20
 20
1.000000000000000E+20
 30
1.000000000000000E+20
  9
$PEXTMAX
 10
-1.000000000000000E+20
 20
-1.000000000000000E+20
 30
-1.000000000000000E+20
  9
$PLIMMIN
 10
0.0
 20
0.0
  9
$PLIMMAX
 10
12.0
 20
9.0
  9
$UNITMODE
 70
     0
  9
$VISRETAIN
 70
     1
  9
$PLINEGEN
 70
     0
  9
$PSLTSCALE
 70
     1
  9
$TREEDEPTH
 70
  3020
  9
$CMLSTYLE
  2
Standard
  9
$CMLJUST
 70
     0
  9
$CMLSCALE
 40
1.0
  9
$PROXYGRAPHICS
 70
     1
  9
$MEASUREMENT
 70
     0
  9
$CELWEIGHT
370
    -1
  9
$ENDCAPS
280
     0
  9
$JOINSTYLE
280
     0
  9
$LWDISPLAY
290
     0
  9
$INSUNITS
 70
     0
  9
$HYPERLINKBASE
  1

  9
$STYLESHEET
  1

  9
$XEDIT
290
     1
  9
$CEPSNTYPE
380
     0
  9
$PSTYLEMODE
290
     1
  9
$FINGERPRINTGUID
  2
{A6D5301D-1790-4EE1-91D6-12C14878DAC9}
  9
$VERSIONGUID
  2
{4235F905-347C-4D38-AC92-83FE3CD39A8B}
  9
$EXTNAMES
290
     1
  9
$PSVPSCALE
 40
0.0
  9
$OLESTARTUP
290
     0
  0
ENDSEC
  0
SECTION
  2
CLASSES
  0
CLASS
  1
ACDBDICTIONARYWDFLT
  2
AcDbDictionaryWithDefault
  3
AutoCAD 2000
 90
        0
280
     0
281
     0
  0
CLASS
  1
ACDBPLACEHOLDER
  2
AcDbPlaceHolder
  3
AutoCAD 2000
 90
        0
280
     0
281
     0
  0
CLASS
  1
LAYOUT
  2
AcDbLayout
  3
AutoCAD 2000
 90
        0
280
     0
281
     0
  0
CLASS
  1
DICTIONARYVAR
  2
AcDbDictionaryVar
  3
AutoCAD 2000
 90
        0
280
     0
281
     0
  0
ENDSEC
  0
SECTION
  2
TABLES
  0
TABLE
  2
VPORT
  5
8
330
0
100
AcDbSymbolTable
 70
     2
  0
VPORT
  5
21F
330
8
100
AcDbSymbolTableRecord
100
AcDbViewportTableRecord
  2
*Active
 70
     0
 10
0.0
 20
0.0
 11
1.0
 21
1.0
 12
75.5
 22
76.0
 13
0.0
 23
0.0
 14
1.0
 24
1.0
 15
0.0
 25
0.0
 16
0.0
 26
0.0
 36
1.0
 17
0.0
 27
0.0
 37
0.0
 40
153.3194066496163
 41
2.078104993597951
 42
50.0
 43
0.0
 44
0.0
 50
0.0
 51
0.0
 71
     0
 72
   100
 73
     1
 74
     3
 75
     0
 76
     0
 77
     0
 78
     0
281
     0
 65
     1
110
0.0
120
0.0
130
0.0
111
1.0
121
0.0
131
0.0
112
0.0
122
1.0
132
0.0
 79
     1
146
0.0
  0
ENDTAB
  0
TABLE
  2
LTYPE
  5
5
330
0
100
AcDbSymbolTable
 70
     1
  0
LTYPE
  5
13
330
5
100
AcDbSymbolTableRecord
100
AcDbLinetypeTableRecord
  2
ByBlock
 70
     0
  3

 72
    65
 73
     0
 40
0.0
  0
LTYPE
  5
14
330
5
100
AcDbSymbolTableRecord
100
AcDbLinetypeTableRecord
  2
ByLayer
 70
     0
  3

 72
    65
 73
     0
 40
0.0
  0
LTYPE
  5
15
330
5
100
AcDbSymbolTableRecord
100
AcDbLinetypeTableRecord
  2
Continuous
 70
     0
  3
Solid line
 72
    65
 73
     0
 40
0.0
  0
ENDTAB
  0
TABLE
  2
LAYER
  5
2
330
0
100
AcDbSymbolTable
 70
     1
  0
LAYER
  5
10
330
2
100
AcDbSymbolTableRecord
100
AcDbLayerTableRecord
  2
0
 70
     0
 62
     7
  6
Continuous
370
    -3
390
F
  0
ENDTAB
  0
TABLE
  2
STYLE
  5
3
330
0
100
AcDbSymbolTable
 70
     1
  0
STYLE
  5
11
330
3
100
AcDbSymbolTableRecord
100
AcDbTextStyleTableRecord
  2
Standard
 70
     0
 40
0.0
 41
1.0
 50
0.0
 71
     0
 42
0.2
  3
txt
  4

  0
ENDTAB
  0
TABLE
  2
VIEW
  5
6
330
0
100
AcDbSymbolTable
 70
     0
  0
ENDTAB
  0
TABLE
  2
UCS
  5
7
330
0
100
AcDbSymbolTable
 70
     0
  0
ENDTAB
  0
TABLE
  2
APPID
  5
9
330
0
100
AcDbSymbolTable
 70
     1
  0
APPID
  5
12
330
9
100
AcDbSymbolTableRecord
100
AcDbRegAppTableRecord
  2
ACAD
 70
     0
  0
ENDTAB
  0
TABLE
  2
DIMSTYLE
  5
A
330
0
100
AcDbSymbolTable
 70
     1
100
AcDbDimStyleTable
 71
     0
  0
DIMSTYLE
105
218
330
A
100
AcDbSymbolTableRecord
100
AcDbDimStyleTableRecord
  2
Standard
 70
     0
340
11
  0
ENDTAB
  0
TABLE
  2
BLOCK_RECORD
  5
1
330
0
100
AcDbSymbolTable
 70
     0
  0
BLOCK_RECORD
  5
1E
330
1
100
AcDbSymbolTableRecord
100
AcDbBlockTableRecord
  2
*Model_Space
340
21
  0
BLOCK_RECORD
  5
1A
330
1
100
AcDbSymbolTableRecord
100
AcDbBlockTableRecord
  2
*Paper_Space
340
1D
  0
ENDTAB
  0
ENDSEC
  0
SECTION
  2
BLOCKS
  0
BLOCK
  5
1F
330
1E
100
AcDbEntity
  8
0
100
AcDbBlockBegin
  2
*Model_Space
 70
     0
 10
0.0
 20
0.0
 30
0.0
  3
*Model_Space
  1

  0
ENDBLK
  5
20
330
1E
100
AcDbEntity
  8
0
100
AcDbBlockEnd
  0
BLOCK
  5
1B
330
1A
100
AcDbEntity
 67
     1
  8
0
100
AcDbBlockBegin
  2
*Paper_Space
 70
     0
 10
0.0
 20
0.0
 30
0.0
  3
*Paper_Space
  1

  0
ENDBLK
  5
1C
330
1A
100
AcDbEntity
 67
     1
  8
0
100
AcDbBlockEnd
  0
ENDSEC
  0
SECTION
  2
ENTITIES
  0
LINE
  5
24
330
1E
100
AcDbEntity
  8
0
100
AcDbLine
 10
1.59658500000001
 20
42.9532
 30
0.0
 11
2.578785000000009
 21
44.31399999999999
 31
0.0
  0
LINE
  5
25
330
1E
100
AcDbEntity
  8
0
100
AcDbLine
 10
0.605175000000013
 20
42.5556
 30
0.0
 11
1.59658500000001
 21
42.9532
 31
0.0
  0
LINE
  5
27
330
1E
100
AcDbEntity
  8
0
100
AcDbLine
 10
-0.126464999999986
 20
42.7772
 30
0.0
 11
0.605175000000013
 21
42.5556
 31
0.0
  0
LINE
  5
2D
330
1E
100
AcDbEntity
  8
0
100
AcDbLine
 10
2.578785000000009
 20
44.31399999999999
 30
0.0
 11
3.785385000000009
 21
47.06719999999999
 31
0.0
  0
LINE
  5
33
330
1E
100
AcDbEntity
  8
0
100
AcDbLine
 10
3.785385000000009
 20
47.06719999999999
 30
0.0
 11
5.481185000000009
 21
52.7048
 31
0.0
  0
LINE
  5
36
330
1E
100
AcDbEntity
  8
0
100
AcDbLine
 10
5.481185000000009
 20
52.7048
 30
0.0
 11
7.141885000000009
 21
59.0085
 31
0.0
  0
LINE
  5
3E
330
1E
100
AcDbEntity
  8
0
100
AcDbLine
 10
7.141885000000009
 20
59.0085
 30
0.0
 11
12.026185
 21
79.66639999999999
 31
0.0
  0
LINE
  5
43
330
1E
100
AcDbEntity
  8
0
100
AcDbLine
 10
-0.207984999999987
 20
43.0878
 30
0.0
 11
-0.126464999999986
 21
42.7772
 31
0.0
  0
LINE
  5
45
330
1E
100
AcDbEntity
  8
0
100
AcDbLine
 10
87.78028499999999
 20
59.92399999999999
 30
0.0
 11
88.180285
 21
59.92399999999999
 31
0.0
  0
LINE
  5
48
330
1E
100
AcDbEntity
  8
0
100
AcDbLine
 10
15.470585
 20
88.76388
 30
0.0
 11
16.287385
 21
89.71694000000001
 31
0.0
  0
LINE
  5
49
330
1E
100
AcDbEntity
  8
0
100
AcDbLine
 10
14.722185
 20
87.63253
 30
0.0
 11
15.470585
 21
88.76388
 31
0.0
  0
LINE
  5
4A
330
1E
100
AcDbEntity
  8
0
100
AcDbLine
 10
13.876085
 20
86.13608000000001
 30
0.0
 11
14.722185
 21
87.63253
 31
0.0
  0
LINE
  5
4B
330
1E
100
AcDbEntity
  8
0
100
AcDbLine
 10
13.215085
 20
84.35275999999999
 30
0.0
 11
13.876085
 21
86.13608000000001
 31
0.0
  0
LINE
  5
4C
330
1E
100
AcDbEntity
  8
0
100
AcDbLine
 10
12.587785
 20
81.980029
 30
0.0
 11
13.215085
 21
84.35275999999999
 31
0.0
  0
LINE
  5
4D
330
1E
100
AcDbEntity
  8
0
100
AcDbLine
 10
12.026185
 20
79.66639999999999
 30
0.0
 11
12.587785
 21
81.980029
 31
0.0
  0
LINE
  5
4E
330
1E
100
AcDbEntity
  8
0
100
AcDbLine
 10
16.287385
 20
89.71694000000001
 30
0.0
 11
17.29218499999999
 21
90.60363
 31
0.0
  0
LINE
  5
4F
330
1E
100
AcDbEntity
  8
0
100
AcDbLine
 10
87.180285
 20
89.92402
 30
0.0
 11
88.280285
 21
89.92402
 31
0.0
  0
LINE
  5
50
330
1E
100
AcDbEntity
  8
0
100
AcDbLine
 10
88.280285
 20
89.92402
 30
0.0
 11
90.18028499999999
 21
89.92402
 31
0.0
  0
LINE
  5
51
330
1E
100
AcDbEntity
  8
0
100
AcDbLine
 10
86.78028499999999
 20
89.92402
 30
0.0
 11
87.78028499999999
 21
59.92399999999999
 31
0.0
  0
LINE
  5
52
330
1E
100
AcDbEntity
  8
0
100
AcDbLine
 10
86.78028499999999
 20
89.92402
 30
0.0
 11
87.180285
 21
89.92402
 31
0.0
  0
LINE
  5
53
330
1E
100
AcDbEntity
  8
0
100
AcDbLine
 10
88.180285
 20
59.92399999999999
 30
0.0
 11
89.180285
 21
59.92399999999999
 31
0.0
  0
LINE
  5
54
330
1E
100
AcDbEntity
  8
0
100
AcDbLine
 10
100.179985
 20
-0.0496999999999836
 30
0.0
 11
101.979985
 21
0.0252000000000114
 31
0.0
  0
LINE
  5
55
330
1E
100
AcDbEntity
  8
0
100
AcDbLine
 10
98.27998499999999
 20
-0.0759999999999916
 30
0.0
 11
100.179985
 21
-0.0496999999999836
 31
0.0
  0
LINE
  5
56
330
1E
100
AcDbEntity
  8
0
100
AcDbLine
 10
90.18028499999999
 20
89.92402
 30
0.0
 11
92.57998499999999
 21
89.92402
 31
0.0
  0
LINE
  5
57
330
1E
100
AcDbEntity
  8
0
100
AcDbLine
 10
90.780285
 20
59.92399999999999
 30
0.0
 11
90.780285
 21
4.18579999999999
 31
0.0
  0
LINE
  5
58
330
1E
100
AcDbEntity
  8
0
100
AcDbLine
 10
90.780285
 20
59.92399999999999
 30
0.0
 11
91.08028500000001
 21
59.92399999999999
 31
0.0
  0
LINE
  5
59
330
1E
100
AcDbEntity
  8
0
100
AcDbLine
 10
91.08028500000001
 20
5.535199999999999
 30
0.0
 11
91.77998499999999
 21
6.73459999999999
 31
0.0
  0
LINE
  5
5A
330
1E
100
AcDbEntity
  8
0
100
AcDbLine
 10
90.880285
 20
59.92399999999999
 30
0.0
 11
93.079985
 21
59.92399999999999
 31
0.0
  0
LINE
  5
5B
330
1E
100
AcDbEntity
  8
0
100
AcDbLine
 10
91.08028500000001
 20
59.92399999999999
 30
0.0
 11
91.77998499999999
 21
59.92399999999999
 31
0.0
  0
LINE
  5
5C
330
1E
100
AcDbEntity
  8
0
100
AcDbLine
 10
91.77998499999999
 20
59.92399999999999
 30
0.0
 11
92.979985
 21
59.92399999999999
 31
0.0
  0
LINE
  5
5D
330
1E
100
AcDbEntity
  8
0
100
AcDbLine
 10
91.77998499999999
 20
6.73459999999999
 30
0.0
 11
92.979985
 21
7.934
 31
0.0
  0
LINE
  5
5E
330
1E
100
AcDbEntity
  8
0
100
AcDbLine
 10
90.780285
 20
4.18579999999999
 30
0.0
 11
91.08028500000001
 21
2.199200000000019
 31
0.0
  0
LINE
  5
5F
330
1E
100
AcDbEntity
  8
0
100
AcDbLine
 10
90.780285
 20
4.18579999999999
 30
0.0
 11
90.780285
 21
59.92399999999999
 31
0.0
  0
LINE
  5
60
330
1E
100
AcDbEntity
  8
0
100
AcDbLine
 10
90.780285
 20
4.18579999999999
 30
0.0
 11
91.08028500000001
 21
5.535199999999999
 31
0.0
  0
LINE
  5
61
330
1E
100
AcDbEntity
  8
0
100
AcDbLine
 10
91.08028500000001
 20
2.199200000000019
 30
0.0
 11
91.77998499999999
 21
1.074699999999999
 31
0.0
  0
LINE
  5
62
330
1E
100
AcDbEntity
  8
0
100
AcDbLine
 10
93.079985
 20
59.92399999999999
 30
0.0
 11
95.579985
 21
59.92399999999999
 31
0.0
  0
LINE
  5
63
330
1E
100
AcDbEntity
  8
0
100
AcDbLine
 10
92.979985
 20
7.934
 30
0.0
 11
94.579985
 21
8.98349999999999
 31
0.0
  0
LINE
  5
64
330
1E
100
AcDbEntity
  8
0
100
AcDbLine
 10
92.979985
 20
59.92399999999999
 30
0.0
 11
94.579985
 21
59.92399999999999
 31
0.0
  0
LINE
  5
65
330
1E
100
AcDbEntity
  8
0
100
AcDbLine
 10
94.579985
 20
8.98349999999999
 30
0.0
 11
96.379985
 21
9.6957
 31
0.0
  0
LINE
  5
66
330
1E
100
AcDbEntity
  8
0
100
AcDbLine
 10
92.57998499999999
 20
89.92402
 30
0.0
 11
95.279985
 21
89.92402
 31
0.0
  0
LINE
  5
67
330
1E
100
AcDbEntity
  8
0
100
AcDbLine
 10
94.579985
 20
59.92399999999999
 30
0.0
 11
96.379985
 21
59.92399999999999
 31
0.0
  0
LINE
  5
68
330
1E
100
AcDbEntity
  8
0
100
AcDbLine
 10
91.77998499999999
 20
1.074699999999999
 30
0.0
 11
92.979985
 21
0.4001000000000121
 31
0.0
  0
LINE
  5
69
330
1E
100
AcDbEntity
  8
0
100
AcDbLine
 10
92.979985
 20
0.4001000000000121
 30
0.0
 11
94.579985
 21
0.0252000000000114
 31
0.0
  0
LINE
  5
6A
330
1E
100
AcDbEntity
  8
0
100
AcDbLine
 10
95.579985
 20
59.92399999999999
 30
0.0
 11
98.27998499999999
 21
59.92399999999999
 31
0.0
  0
LINE
  5
6B
330
1E
100
AcDbEntity
  8
0
100
AcDbLine
 10
100.179985
 20
9.6957
 30
0.0
 11
101.979985
 21
8.98349999999999
 31
0.0
  0
LINE
  5
6C
330
1E
100
AcDbEntity
  8
0
100
AcDbLine
 10
100.179985
 20
59.92399999999999
 30
0.0
 11
101.979985
 21
59.92399999999999
 31
0.0
  0
LINE
  5
6D
330
1E
100
AcDbEntity
  8
0
100
AcDbLine
 10
98.27998499999999
 20
9.92400000000001
 30
0.0
 11
100.179985
 21
9.6957
 31
0.0
  0
LINE
  5
6E
330
1E
100
AcDbEntity
  8
0
100
AcDbLine
 10
101.979985
 20
0.0252000000000114
 30
0.0
 11
103.5799849999999
 21
0.4001000000000121
 31
0.0
  0
LINE
  5
6F
330
1E
100
AcDbEntity
  8
0
100
AcDbLine
 10
104.779985
 20
1.074699999999999
 30
0.0
 11
105.479985
 21
2.199200000000019
 31
0.0
  0
LINE
  5
70
330
1E
100
AcDbEntity
  8
0
100
AcDbLine
 10
103.5799849999999
 20
0.4001000000000121
 30
0.0
 11
104.779985
 21
1.074699999999999
 31
0.0
  0
LINE
  5
71
330
1E
100
AcDbEntity
  8
0
100
AcDbLine
 10
105.479985
 20
2.199200000000019
 30
0.0
 11
105.779985
 21
4.18579999999999
 31
0.0
  0
LINE
  5
72
330
1E
100
AcDbEntity
  8
0
100
AcDbLine
 10
105.479985
 20
5.535199999999999
 30
0.0
 11
105.779985
 21
4.18579999999999
 31
0.0
  0
LINE
  5
73
330
1E
100
AcDbEntity
  8
0
100
AcDbLine
 10
104.779985
 20
6.73459999999999
 30
0.0
 11
105.479985
 21
5.535199999999999
 31
0.0
  0
LINE
  5
74
330
1E
100
AcDbEntity
  8
0
100
AcDbLine
 10
105.479985
 20
59.92399999999999
 30
0.0
 11
105.779985
 21
59.92399999999999
 31
0.0
  0
LINE
  5
75
330
1E
100
AcDbEntity
  8
0
100
AcDbLine
 10
104.779985
 20
59.92399999999999
 30
0.0
 11
105.479985
 21
59.92399999999999
 31
0.0
  0
LINE
  5
76
330
1E
100
AcDbEntity
  8
0
100
AcDbLine
 10
103.5799849999999
 20
59.92399999999999
 30
0.0
 11
104.779985
 21
59.92399999999999
 31
0.0
  0
LINE
  5
77
330
1E
100
AcDbEntity
  8
0
100
AcDbLine
 10
103.5799849999999
 20
7.934
 30
0.0
 11
104.779985
 21
6.73459999999999
 31
0.0
  0
LINE
  5
78
330
1E
100
AcDbEntity
  8
0
100
AcDbLine
 10
101.979985
 20
8.98349999999999
 30
0.0
 11
103.5799849999999
 21
7.934
 31
0.0
  0
LINE
  5
79
330
1E
100
AcDbEntity
  8
0
100
AcDbLine
 10
101.979985
 20
59.92399999999999
 30
0.0
 11
103.5799849999999
 21
59.92399999999999
 31
0.0
  0
LINE
  5
7A
330
1E
100
AcDbEntity
  8
0
100
AcDbLine
 10
105.779985
 20
4.18579999999999
 30
0.0
 11
105.779985
 21
59.92399999999999
 31
0.0
  0
LINE
  5
7B
330
1E
100
AcDbEntity
  8
0
100
AcDbLine
 10
105.679985
 20
59.92399999999999
 30
0.0
 11
107.379985
 21
59.92399999999999
 31
0.0
  0
LINE
  5
7C
330
1E
100
AcDbEntity
  8
0
100
AcDbLine
 10
103.4799849999999
 20
59.92399999999999
 30
0.0
 11
105.679985
 21
59.92399999999999
 31
0.0
  0
LINE
  5
7D
330
1E
100
AcDbEntity
  8
0
100
AcDbLine
 10
100.979985
 20
59.92399999999999
 30
0.0
 11
103.4799849999999
 21
59.92399999999999
 31
0.0
  0
LINE
  5
7E
330
1E
100
AcDbEntity
  8
0
100
AcDbLine
 10
98.27998499999999
 20
59.92399999999999
 30
0.0
 11
100.979985
 21
59.92399999999999
 31
0.0
  0
LINE
  5
7F
330
1E
100
AcDbEntity
  8
0
100
AcDbLine
 10
98.27998499999999
 20
59.92399999999999
 30
0.0
 11
100.179985
 21
59.92399999999999
 31
0.0
  0
LINE
  5
80
330
1E
100
AcDbEntity
  8
0
100
AcDbLine
 10
108.779985
 20
59.92399999999999
 30
0.0
 11
109.779985
 21
89.92402
 31
0.0
  0
LINE
  5
81
330
1E
100
AcDbEntity
  8
0
100
AcDbLine
 10
108.379985
 20
59.92399999999999
 30
0.0
 11
108.779985
 21
59.92399999999999
 31
0.0
  0
LINE
  5
82
330
1E
100
AcDbEntity
  8
0
100
AcDbLine
 10
107.379985
 20
59.92399999999999
 30
0.0
 11
108.379985
 21
59.92399999999999
 31
0.0
  0
LINE
  5
83
330
1E
100
AcDbEntity
  8
0
100
AcDbLine
 10
105.779985
 20
59.92399999999999
 30
0.0
 11
107.379985
 21
59.92399999999999
 31
0.0
  0
LINE
  5
84
330
1E
100
AcDbEntity
  8
0
100
AcDbLine
 10
105.779985
 20
59.92399999999999
 30
0.0
 11
105.779985
 21
4.18579999999999
 31
0.0
  0
LINE
  5
85
330
1E
100
AcDbEntity
  8
0
100
AcDbLine
 10
96.379985
 20
9.6957
 30
0.0
 11
98.27998499999999
 21
9.92400000000001
 31
0.0
  0
LINE
  5
86
330
1E
100
AcDbEntity
  8
0
100
AcDbLine
 10
108.279985
 20
89.92402
 30
0.0
 11
109.379985
 21
89.92402
 31
0.0
  0
LINE
  5
87
330
1E
100
AcDbEntity
  8
0
100
AcDbLine
 10
106.379985
 20
89.92402
 30
0.0
 11
108.279985
 21
89.92402
 31
0.0
  0
LINE
  5
88
330
1E
100
AcDbEntity
  8
0
100
AcDbLine
 10
103.979985
 20
89.92402
 30
0.0
 11
106.379985
 21
89.92402
 31
0.0
  0
LINE
  5
89
330
1E
100
AcDbEntity
  8
0
100
AcDbLine
 10
101.2799849999999
 20
89.92402
 30
0.0
 11
103.979985
 21
89.92402
 31
0.0
  0
LINE
  5
8A
330
1E
100
AcDbEntity
  8
0
100
AcDbLine
 10
98.27998499999999
 20
89.92402
 30
0.0
 11
101.2799849999999
 21
89.92402
 31
0.0
  0
LINE
  5
8B
330
1E
100
AcDbEntity
  8
0
100
AcDbLine
 10
95.279985
 20
89.92402
 30
0.0
 11
98.27998499999999
 21
89.92402
 31
0.0
  0
LINE
  5
8C
330
1E
100
AcDbEntity
  8
0
100
AcDbLine
 10
96.379985
 20
59.92399999999999
 30
0.0
 11
98.27998499999999
 21
59.92399999999999
 31
0.0
  0
LINE
  5
8D
330
1E
100
AcDbEntity
  8
0
100
AcDbLine
 10
94.579985
 20
0.0252000000000114
 30
0.0
 11
96.379985
 21
-0.0496999999999836
 31
0.0
  0
LINE
  5
8E
330
1E
100
AcDbEntity
  8
0
100
AcDbLine
 10
96.379985
 20
-0.0496999999999836
 30
0.0
 11
98.27998499999999
 21
-0.0759999999999916
 31
0.0
  0
LINE
  5
8F
330
1E
100
AcDbEntity
  8
0
100
AcDbLine
 10
89.180285
 20
59.92399999999999
 30
0.0
 11
90.780285
 21
59.92399999999999
 31
0.0
  0
LINE
  5
90
330
1E
100
AcDbEntity
  8
0
100
AcDbLine
 10
89.180285
 20
59.92399999999999
 30
0.0
 11
90.880285
 21
59.92399999999999
 31
0.0
  0
LINE
  5
91
330
1E
100
AcDbEntity
  8
0
100
AcDbLine
 10
87.28028499999998
 20
90.28401999999999
 30
0.0
 11
87.67628499999998
 21
90.28401999999999
 31
0.0
  0
LINE
  5
92
330
1E
100
AcDbEntity
  8
0
100
AcDbLine
 10
87.28028499999998
 20
90.28401999999999
 30
0.0
 11
87.54428500000001
 21
89.92402
 31
0.0
  0
LINE
  5
93
330
1E
100
AcDbEntity
  8
0
100
AcDbLine
 10
87.28028499999998
 20
90.28401999999999
 30
0.0
 11
87.28028499999998
 21
94.57600000000001
 31
0.0
  0
LINE
  5
94
330
1E
100
AcDbEntity
  8
0
100
AcDbLine
 10
87.67628499999998
 20
90.28401999999999
 30
0.0
 11
88.73228500000001
 21
90.28401999999999
 31
0.0
  0
LINE
  5
95
330
1E
100
AcDbEntity
  8
0
100
AcDbLine
 10
88.73228500000001
 20
90.28401999999999
 30
0.0
 11
90.49228499999999
 21
90.28401999999999
 31
0.0
  0
LINE
  5
96
330
1E
100
AcDbEntity
  8
0
100
AcDbLine
 10
90.49228499999999
 20
90.28401999999999
 30
0.0
 11
92.82398499999999
 21
90.28401999999999
 31
0.0
  0
LINE
  5
97
330
1E
100
AcDbEntity
  8
0
100
AcDbLine
 10
92.82398499999999
 20
90.28401999999999
 30
0.0
 11
95.463985
 21
90.28401999999999
 31
0.0
  0
LINE
  5
98
330
1E
100
AcDbEntity
  8
0
100
AcDbLine
 10
17.29218499999999
 20
90.60363
 30
0.0
 11
18.491485
 21
91.27315000000001
 31
0.0
  0
LINE
  5
99
330
1E
100
AcDbEntity
  8
0
100
AcDbLine
 10
18.491485
 20
91.27315000000001
 30
0.0
 11
19.850285
 21
91.71510000000001
 31
0.0
  0
LINE
  5
9A
330
1E
100
AcDbEntity
  8
0
100
AcDbLine
 10
34.461585
 20
93.10450000000001
 30
0.0
 11
34.533285
 21
93.11159999999999
 31
0.0
  0
LINE
  5
9B
330
1E
100
AcDbEntity
  8
0
100
AcDbLine
 10
34.533285
 20
93.11159999999999
 30
0.0
 11
34.72438499999999
 21
93.1306
 31
0.0
  0
LINE
  5
9C
330
1E
100
AcDbEntity
  8
0
100
AcDbLine
 10
34.72438499999999
 20
93.1306
 30
0.0
 11
35.04278499999999
 21
93.16209999999999
 31
0.0
  0
LINE
  5
9D
330
1E
100
AcDbEntity
  8
0
100
AcDbLine
 10
34.4564550978958
 20
93.15630134022351
 30
0.0
 11
34.461585
 21
93.10450000000001
 31
0.0
  0
LINE
  5
9E
330
1E
100
AcDbEntity
  8
0
100
AcDbLine
 10
35.46468499999999
 20
93.20390000000001
 30
0.0
 11
35.94238499999999
 21
93.2512
 31
0.0
  0
LINE
  5
9F
330
1E
100
AcDbEntity
  8
0
100
AcDbLine
 10
38.37048499999999
 20
93.49169999999999
 30
0.0
 11
38.44218499999999
 21
93.4988
 31
0.0
  0
LINE
  5
A0
330
1E
100
AcDbEntity
  8
0
100
AcDbLine
 10
38.17938499999999
 20
93.47280000000001
 30
0.0
 11
38.37048499999999
 21
93.49169999999999
 31
0.0
  0
LINE
  5
A1
330
1E
100
AcDbEntity
  8
0
100
AcDbLine
 10
37.860985
 20
93.44129999999999
 30
0.0
 11
38.17938499999999
 21
93.47280000000001
 31
0.0
  0
LINE
  5
A2
330
1E
100
AcDbEntity
  8
0
100
AcDbLine
 10
37.43908499999999
 20
93.39949999999999
 30
0.0
 11
37.860985
 21
93.44129999999999
 31
0.0
  0
LINE
  5
A3
330
1E
100
AcDbEntity
  8
0
100
AcDbLine
 10
36.96138499999999
 20
93.35219999999999
 30
0.0
 11
37.43908499999999
 21
93.39949999999999
 31
0.0
  0
LINE
  5
A4
330
1E
100
AcDbEntity
  8
0
100
AcDbLine
 10
36.45188499999999
 20
93.3017
 30
0.0
 11
36.96138499999999
 21
93.35219999999999
 31
0.0
  0
LINE
  5
A5
330
1E
100
AcDbEntity
  8
0
100
AcDbLine
 10
36.4295326466271
 20
93.52740093192648
 30
0.0
 11
36.45188499999999
 21
93.3017
 31
0.0
  0
LINE
  5
A6
330
1E
100
AcDbEntity
  8
0
100
AcDbLine
 10
35.94238499999999
 20
93.2512
 30
0.0
 11
36.45188499999999
 21
93.3017
 31
0.0
  0
LINE
  5
A7
330
1E
100
AcDbEntity
  8
0
100
AcDbLine
 10
35.04278499999999
 20
93.16209999999999
 30
0.0
 11
35.46468499999999
 21
93.20390000000001
 31
0.0
  0
LINE
  5
A9
330
1E
100
AcDbEntity
  8
0
100
AcDbLine
 10
19.850285
 20
91.71510000000001
 30
0.0
 11
34.4564550978958
 21
93.15630134022351
 31
0.0
  0
LINE
  5
AA
330
1E
100
AcDbEntity
  8
0
100
AcDbLine
 10
19.850285
 20
91.71510000000001
 30
0.0
 11
34.4564550978958
 21
93.15630134022351
 31
0.0
  0
LINE
  5
AB
330
1E
100
AcDbEntity
  8
0
100
AcDbLine
 10
38.4372027761053
 20
93.54908458528191
 30
0.0
 11
38.44218499999999
 21
93.4988
 31
0.0
  0
LINE
  5
AC
330
1E
100
AcDbEntity
  8
0
100
AcDbLine
 10
38.4353936956217
 20
93.5489060820055
 30
0.0
 11
51.747285
 21
94.8624
 31
0.0
  0
LINE
  5
AD
330
1E
100
AcDbEntity
  8
0
100
AcDbLine
 10
51.747285
 20
95.576
 30
0.0
 11
54.207985
 21
95.576
 31
0.0
  0
LINE
  5
AE
330
1E
100
AcDbEntity
  8
0
100
AcDbLine
 10
51.747285
 20
94.8624
 30
0.0
 11
51.747285
 21
95.12640000000001
 31
0.0
  0
LINE
  5
AF
330
1E
100
AcDbEntity
  8
0
100
AcDbLine
 10
51.747285
 20
95.12640000000001
 30
0.0
 11
51.747285
 21
95.6544
 31
0.0
  0
LINE
  5
B0
330
1E
100
AcDbEntity
  8
0
100
AcDbLine
 10
53.21048499999999
 20
95.5766
 30
0.0
 11
53.21048499999999
 21
95.7675
 31
0.0
  0
LINE
  5
B1
330
1E
100
AcDbEntity
  8
0
100
AcDbLine
 10
51.747285
 20
95.6544
 30
0.0
 11
51.747285
 21
96.6224
 31
0.0
  0
LINE
  5
B3
330
1E
100
AcDbEntity
  8
0
100
AcDbLine
 10
51.747285
 20
96.6224
 30
0.0
 11
51.747285
 21
97.7664
 31
0.0
  0
LINE
  5
B4
330
1E
100
AcDbEntity
  8
0
100
AcDbLine
 10
53.21048499999999
 20
97.19929999999999
 30
0.0
 11
53.21048499999999
 21
98.3448
 31
0.0
  0
LINE
  5
B5
330
1E
100
AcDbEntity
  8
0
100
AcDbLine
 10
53.21048499999999
 20
96.34019999999999
 30
0.0
 11
53.21048499999999
 21
97.19929999999999
 31
0.0
  0
LINE
  5
B6
330
1E
100
AcDbEntity
  8
0
100
AcDbLine
 10
53.21048499999999
 20
95.7675
 30
0.0
 11
53.21048499999999
 21
96.34019999999999
 31
0.0
  0
LINE
  5
B7
330
1E
100
AcDbEntity
  8
0
100
AcDbLine
 10
51.747285
 20
97.7664
 30
0.0
 11
51.747285
 21
99.43840000000001
 31
0.0
  0
LINE
  5
B8
330
1E
100
AcDbEntity
  8
0
100
AcDbLine
 10
51.747285
 20
95.5766
 30
0.0
 11
53.21048499999999
 21
95.5766
 31
0.0
  0
LINE
  5
B9
330
1E
100
AcDbEntity
  8
0
100
AcDbLine
 10
54.207985
 20
95.896
 30
0.0
 11
54.207985
 21
98.008
 31
0.0
  0
LINE
  5
BA
330
1E
100
AcDbEntity
  8
0
100
AcDbLine
 10
54.207985
 20
95.896
 30
0.0
 11
54.207985
 21
95.104
 31
0.0
  0
LINE
  5
BB
330
1E
100
AcDbEntity
  8
0
100
AcDbLine
 10
51.747285
 20
99.43840000000001
 30
0.0
 11
51.747285
 21
101.3743999999999
 31
0.0
  0
LINE
  5
BC
330
1E
100
AcDbEntity
  8
0
100
AcDbLine
 10
51.747285
 20
101.3743999999999
 30
0.0
 11
51.747285
 21
103.4864
 31
0.0
  0
LINE
  5
BD
330
1E
100
AcDbEntity
  8
0
100
AcDbLine
 10
53.21048499999999
 20
99.9675
 30
0.0
 11
53.21048499999999
 21
101.7811
 31
0.0
  0
LINE
  5
BE
330
1E
100
AcDbEntity
  8
0
100
AcDbLine
 10
53.21048499999999
 20
98.3448
 30
0.0
 11
53.21048499999999
 21
99.9675
 31
0.0
  0
LINE
  5
BF
330
1E
100
AcDbEntity
  8
0
100
AcDbLine
 10
53.21048499999999
 20
101.7811
 30
0.0
 11
53.21048499999999
 21
103.7857
 31
0.0
  0
LINE
  5
C0
330
1E
100
AcDbEntity
  8
0
100
AcDbLine
 10
53.21048499999999
 20
103.7857
 30
0.0
 11
53.21048499999999
 21
106.0766
 31
0.0
  0
LINE
  5
C1
330
1E
100
AcDbEntity
  8
0
100
AcDbLine
 10
51.747285
 20
103.4864
 30
0.0
 11
51.747285
 21
105.9504
 31
0.0
  0
LINE
  5
C2
330
1E
100
AcDbEntity
  8
0
100
AcDbLine
 10
54.207985
 20
98.008
 30
0.0
 11
54.207985
 21
101.4399999999999
 31
0.0
  0
LINE
  5
C3
330
1E
100
AcDbEntity
  8
0
100
AcDbLine
 10
54.207985
 20
98.008
 30
0.0
 11
54.207985
 21
95.896
 31
0.0
  0
LINE
  5
C4
330
1E
100
AcDbEntity
  8
0
100
AcDbLine
 10
54.207985
 20
101.4399999999999
 30
0.0
 11
54.207985
 21
105.9279999999999
 31
0.0
  0
LINE
  5
C5
330
1E
100
AcDbEntity
  8
0
100
AcDbLine
 10
54.207985
 20
101.4399999999999
 30
0.0
 11
54.207985
 21
98.008
 31
0.0
  0
LINE
  5
D3
330
1E
100
AcDbEntity
  8
0
100
AcDbLine
 10
51.747285
 20
105.9504
 30
0.0
 11
51.747285
 21
108.5023999999999
 31
0.0
  0
LINE
  5
D4
330
1E
100
AcDbEntity
  8
0
100
AcDbLine
 10
51.747285
 20
108.5023999999999
 30
0.0
 11
51.747285
 21
111.2303999999999
 31
0.0
  0
LINE
  5
D5
330
1E
100
AcDbEntity
  8
0
100
AcDbLine
 10
50.848185
 20
119.7575
 30
0.0
 11
51.747285
 21
116.8623999999999
 31
0.0
  0
LINE
  5
D6
330
1E
100
AcDbEntity
  8
0
100
AcDbLine
 10
51.747285
 20
111.2303999999999
 30
0.0
 11
51.747285
 21
113.9583999999999
 31
0.0
  0
LINE
  5
D7
330
1E
100
AcDbEntity
  8
0
100
AcDbLine
 10
53.21048499999999
 20
106.0766
 30
0.0
 11
53.21048499999999
 21
108.5584
 31
0.0
  0
LINE
  5
D8
330
1E
100
AcDbEntity
  8
0
100
AcDbLine
 10
53.21048499999999
 20
108.5584
 30
0.0
 11
53.21048499999999
 21
111.1356999999999
 31
0.0
  0
LINE
  5
D9
330
1E
100
AcDbEntity
  8
0
100
AcDbLine
 10
53.21048499999999
 20
111.1356999999999
 30
0.0
 11
53.21048499999999
 21
113.8084
 31
0.0
  0
LINE
  5
DA
330
1E
100
AcDbEntity
  8
0
100
AcDbLine
 10
53.21048499999999
 20
119.3448
 30
0.0
 11
53.21048499999999
 21
122.0175
 31
0.0
  0
LINE
  5
DB
330
1E
100
AcDbEntity
  8
0
100
AcDbLine
 10
53.21048499999999
 20
116.5766
 30
0.0
 11
53.21048499999999
 21
119.3448
 31
0.0
  0
LINE
  5
DC
330
1E
100
AcDbEntity
  8
0
100
AcDbLine
 10
53.21048499999999
 20
113.8084
 30
0.0
 11
53.21048499999999
 21
116.5766
 31
0.0
  0
LINE
  5
DD
330
1E
100
AcDbEntity
  8
0
100
AcDbLine
 10
51.747285
 20
113.9583999999999
 30
0.0
 11
51.747285
 21
116.8623999999999
 31
0.0
  0
LINE
  5
DE
330
1E
100
AcDbEntity
  8
0
100
AcDbLine
 10
53.21048499999999
 20
122.0175
 30
0.0
 11
53.21048499999999
 21
124.5948
 31
0.0
  0
LINE
  5
E1
330
1E
100
AcDbEntity
  8
0
100
AcDbLine
 10
54.207985
 20
105.9279999999999
 30
0.0
 11
54.207985
 21
111.032
 31
0.0
  0
LINE
  5
E2
330
1E
100
AcDbEntity
  8
0
100
AcDbLine
 10
54.207985
 20
105.9279999999999
 30
0.0
 11
54.207985
 21
101.4399999999999
 31
0.0
  0
LINE
  5
E3
330
1E
100
AcDbEntity
  8
0
100
AcDbLine
 10
54.207985
 20
111.032
 30
0.0
 11
54.207985
 21
116.576
 31
0.0
  0
LINE
  5
E4
330
1E
100
AcDbEntity
  8
0
100
AcDbLine
 10
54.207985
 20
111.032
 30
0.0
 11
54.207985
 21
105.9279999999999
 31
0.0
  0
LINE
  5
E9
330
1E
100
AcDbEntity
  8
0
100
AcDbLine
 10
53.21048499999999
 20
127.0766
 30
0.0
 11
53.21048499999999
 21
129.3675
 31
0.0
  0
LINE
  5
EA
330
1E
100
AcDbEntity
  8
0
100
AcDbLine
 10
53.21048499999999
 20
124.5948
 30
0.0
 11
53.21048499999999
 21
127.0766
 31
0.0
  0
LINE
  5
EB
330
1E
100
AcDbEntity
  8
0
100
AcDbLine
 10
50.056585
 20
122.4736
 30
0.0
 11
50.848185
 21
119.7575
 31
0.0
  0
LINE
  5
EC
330
1E
100
AcDbEntity
  8
0
100
AcDbLine
 10
49.33428499999999
 20
125.1589
 30
0.0
 11
50.056585
 21
122.4736
 31
0.0
  0
LINE
  5
ED
330
1E
100
AcDbEntity
  8
0
100
AcDbLine
 10
53.21048499999999
 20
129.3675
 30
0.0
 11
53.21048499999999
 21
131.3720999999999
 31
0.0
  0
LINE
  5
EE
330
1E
100
AcDbEntity
  8
0
100
AcDbLine
 10
48.601285
 20
127.6778999999999
 30
0.0
 11
49.33428499999999
 21
125.1589
 31
0.0
  0
LINE
  5
EF
330
1E
100
AcDbEntity
  8
0
100
AcDbLine
 10
47.912585
 20
130.1295
 30
0.0
 11
48.601285
 21
127.6778999999999
 31
0.0
  0
LINE
  5
F0
330
1E
100
AcDbEntity
  8
0
100
AcDbLine
 10
53.21048499999999
 20
131.3720999999999
 30
0.0
 11
53.21048499999999
 21
133.1857
 31
0.0
  0
LINE
  5
F8
330
1E
100
AcDbEntity
  8
0
100
AcDbLine
 10
46.1588219240951
 20
136.446724614683
 30
0.0
 11
48.207985
 21
137.0987
 31
0.0
  0
LINE
  5
FA
330
1E
100
AcDbEntity
  8
0
100
AcDbLine
 10
46.039085
 20
136.8824999999999
 30
0.0
 11
46.346385
 21
135.7641
 31
0.0
  0
LINE
  5
FC
330
1E
100
AcDbEntity
  8
0
100
AcDbLine
 10
53.21048499999999
 20
133.1857
 30
0.0
 11
53.21048499999999
 21
134.8084
 31
0.0
  0
LINE
  5
FD
330
1E
100
AcDbEntity
  8
0
100
AcDbLine
 10
53.21048499999999
 20
134.8084
 30
0.0
 11
53.21048499999999
 21
135.9539
 31
0.0
  0
LINE
  5
FE
330
1E
100
AcDbEntity
  8
0
100
AcDbLine
 10
47.34498499999999
 20
132.2085999999999
 30
0.0
 11
47.912585
 21
130.1295
 31
0.0
  0
LINE
  5
FF
330
1E
100
AcDbEntity
  8
0
100
AcDbLine
 10
46.791285
 20
134.1547
 30
0.0
 11
47.34498499999999
 21
132.2085999999999
 31
0.0
  0
LINE
  5
100
330
1E
100
AcDbEntity
  8
0
100
AcDbLine
 10
48.207985
 20
137.0987
 30
0.0
 11
51.207985
 21
137.5759999999999
 31
0.0
  0
LINE
  5
101
330
1E
100
AcDbEntity
  8
0
100
AcDbLine
 10
53.21048499999999
 20
135.9539
 30
0.0
 11
53.21048499999999
 21
136.8129999999999
 31
0.0
  0
LINE
  5
102
330
1E
100
AcDbEntity
  8
0
100
AcDbLine
 10
53.21048499999999
 20
136.8129999999999
 30
0.0
 11
53.21048499999999
 21
137.3857
 31
0.0
  0
LINE
  5
103
330
1E
100
AcDbEntity
  8
0
100
AcDbLine
 10
46.346385
 20
135.7641
 30
0.0
 11
46.791285
 21
134.1547
 31
0.0
  0
LINE
  5
104
330
1E
100
AcDbEntity
  8
0
100
AcDbLine
 10
46.1588713015772
 20
136.446544908285
 30
0.0
 11
48.21048499999999
 21
137.0993
 31
0.0
  0
LINE
  5
105
330
1E
100
AcDbEntity
  8
0
100
AcDbLine
 10
48.21048499999999
 20
137.0993
 30
0.0
 11
51.210485
 21
137.5766
 31
0.0
  0
LINE
  5
107
330
1E
100
AcDbEntity
  8
0
100
AcDbLine
 10
53.21048499999999
 20
137.3857
 30
0.0
 11
53.21048499999999
 21
137.5766
 31
0.0
  0
LINE
  5
109
330
1E
100
AcDbEntity
  8
0
100
AcDbLine
 10
51.207985
 20
137.5759999999999
 30
0.0
 11
54.207985
 21
137.5759999999999
 31
0.0
  0
LINE
  5
10A
330
1E
100
AcDbEntity
  8
0
100
AcDbLine
 10
16.583585
 20
137.5283
 30
0.0
 11
45.52278499999999
 21
138.6165
 31
0.0
  0
LINE
  5
10B
330
1E
100
AcDbEntity
  8
0
100
AcDbLine
 10
16.400585
 20
137.2642999999999
 30
0.0
 11
16.583585
 21
137.5283
 31
0.0
  0
LINE
  5
10C
330
1E
100
AcDbEntity
  8
0
100
AcDbLine
 10
54.207985
 20
137.256
 30
0.0
 11
54.207985
 21
138.048
 31
0.0
  0
LINE
  5
10D
330
1E
100
AcDbEntity
  8
0
100
AcDbLine
 10
54.207985
 20
137.256
 30
0.0
 11
54.207985
 21
135.1439999999999
 31
0.0
  0
LINE
  5
10E
330
1E
100
AcDbEntity
  8
0
100
AcDbLine
 10
54.207985
 20
135.1439999999999
 30
0.0
 11
54.207985
 21
137.256
 31
0.0
  0
LINE
  5
10F
330
1E
100
AcDbEntity
  8
0
100
AcDbLine
 10
54.207985
 20
135.1439999999999
 30
0.0
 11
54.207985
 21
131.712
 31
0.0
  0
LINE
  5
110
330
1E
100
AcDbEntity
  8
0
100
AcDbLine
 10
54.207985
 20
131.712
 30
0.0
 11
54.207985
 21
135.1439999999999
 31
0.0
  0
LINE
  5
111
330
1E
100
AcDbEntity
  8
0
100
AcDbLine
 10
54.207985
 20
131.712
 30
0.0
 11
54.207985
 21
127.2239999999999
 31
0.0
  0
LINE
  5
112
330
1E
100
AcDbEntity
  8
0
100
AcDbLine
 10
54.207985
 20
127.2239999999999
 30
0.0
 11
54.207985
 21
131.712
 31
0.0
  0
LINE
  5
113
330
1E
100
AcDbEntity
  8
0
100
AcDbLine
 10
54.207985
 20
127.2239999999999
 30
0.0
 11
54.207985
 21
122.12
 31
0.0
  0
LINE
  5
114
330
1E
100
AcDbEntity
  8
0
100
AcDbLine
 10
54.207985
 20
122.12
 30
0.0
 11
54.207985
 21
127.2239999999999
 31
0.0
  0
LINE
  5
115
330
1E
100
AcDbEntity
  8
0
100
AcDbLine
 10
54.207985
 20
122.12
 30
0.0
 11
54.207985
 21
116.576
 31
0.0
  0
LINE
  5
116
330
1E
100
AcDbEntity
  8
0
100
AcDbLine
 10
54.207985
 20
116.576
 30
0.0
 11
54.207985
 21
122.12
 31
0.0
  0
LINE
  5
117
330
1E
100
AcDbEntity
  8
0
100
AcDbLine
 10
54.207985
 20
116.576
 30
0.0
 11
54.207985
 21
111.032
 31
0.0
  0
LINE
  5
118
330
1E
100
AcDbEntity
  8
0
100
AcDbLine
 10
45.75738499999999
 20
137.8283
 30
0.0
 11
46.039085
 21
136.8824999999999
 31
0.0
  0
LINE
  5
119
330
1E
100
AcDbEntity
  8
0
100
AcDbLine
 10
45.59318499999999
 20
138.3801
 30
0.0
 11
45.75738499999999
 21
137.8283
 31
0.0
  0
LINE
  5
11A
330
1E
100
AcDbEntity
  8
0
100
AcDbLine
 10
45.52278499999999
 20
138.6165
 30
0.0
 11
45.59318499999999
 21
138.3801
 31
0.0
  0
LINE
  5
11B
330
1E
100
AcDbEntity
  8
0
100
AcDbLine
 10
51.210485
 20
137.5766
 30
0.0
 11
53.21048499999999
 21
137.5766
 31
0.0
  0
LINE
  5
11C
330
1E
100
AcDbEntity
  8
0
100
AcDbLine
 10
54.207985
 20
137.5759999999999
 30
0.0
 11
54.207985
 21
138.048
 31
0.0
  0
LINE
  5
11D
330
1E
100
AcDbEntity
  8
0
100
AcDbLine
 10
54.207985
 20
138.048
 30
0.0
 11
54.207985
 21
137.5759999999999
 31
0.0
  0
LINE
  5
11E
330
1E
100
AcDbEntity
  8
0
100
AcDbLine
 10
54.207985
 20
138.048
 30
0.0
 11
54.80798499999999
 21
138.5759999999999
 31
0.0
  0
LINE
  5
11F
330
1E
100
AcDbEntity
  8
0
100
AcDbLine
 10
54.207985
 20
138.048
 30
0.0
 11
54.207985
 21
137.256
 31
0.0
  0
LINE
  5
120
330
1E
100
AcDbEntity
  8
0
100
AcDbLine
 10
54.207985
 20
95.576
 30
0.0
 11
54.207985
 21
95.104
 31
0.0
  0
LINE
  5
121
330
1E
100
AcDbEntity
  8
0
100
AcDbLine
 10
54.80798499999999
 20
95.36799999999999
 30
0.0
 11
54.80798499999999
 21
97.48000000000001
 31
0.0
  0
LINE
  5
122
330
1E
100
AcDbEntity
  8
0
100
AcDbLine
 10
54.80798499999999
 20
95.36799999999999
 30
0.0
 11
54.80798499999999
 21
94.57600000000001
 31
0.0
  0
LINE
  5
123
330
1E
100
AcDbEntity
  8
0
100
AcDbLine
 10
54.80798499999999
 20
97.48000000000001
 30
0.0
 11
54.80798499999999
 21
101.0
 31
0.0
  0
LINE
  5
124
330
1E
100
AcDbEntity
  8
0
100
AcDbLine
 10
54.80798499999999
 20
97.48000000000001
 30
0.0
 11
54.80798499999999
 21
95.36799999999999
 31
0.0
  0
LINE
  5
125
330
1E
100
AcDbEntity
  8
0
100
AcDbLine
 10
54.80798499999999
 20
101.0
 30
0.0
 11
54.80798499999999
 21
105.664
 31
0.0
  0
LINE
  5
126
330
1E
100
AcDbEntity
  8
0
100
AcDbLine
 10
54.80798499999999
 20
101.0
 30
0.0
 11
54.80798499999999
 21
97.48000000000001
 31
0.0
  0
LINE
  5
127
330
1E
100
AcDbEntity
  8
0
100
AcDbLine
 10
54.80798499999999
 20
105.664
 30
0.0
 11
54.80798499999999
 21
110.9439999999999
 31
0.0
  0
LINE
  5
128
330
1E
100
AcDbEntity
  8
0
100
AcDbLine
 10
54.80798499999999
 20
105.664
 30
0.0
 11
54.80798499999999
 21
101.0
 31
0.0
  0
LINE
  5
129
330
1E
100
AcDbEntity
  8
0
100
AcDbLine
 10
54.80798499999999
 20
110.9439999999999
 30
0.0
 11
54.80798499999999
 21
116.576
 31
0.0
  0
LINE
  5
12A
330
1E
100
AcDbEntity
  8
0
100
AcDbLine
 10
54.80798499999999
 20
110.9439999999999
 30
0.0
 11
54.80798499999999
 21
105.664
 31
0.0
  0
LINE
  5
12B
330
1E
100
AcDbEntity
  8
0
100
AcDbLine
 10
54.80798499999999
 20
137.7839999999999
 30
0.0
 11
54.80798499999999
 21
138.5759999999999
 31
0.0
  0
LINE
  5
12C
330
1E
100
AcDbEntity
  8
0
100
AcDbLine
 10
54.80798499999999
 20
137.7839999999999
 30
0.0
 11
54.80798499999999
 21
135.6719999999999
 31
0.0
  0
LINE
  5
12D
330
1E
100
AcDbEntity
  8
0
100
AcDbLine
 10
54.80798499999999
 20
135.6719999999999
 30
0.0
 11
54.80798499999999
 21
137.7839999999999
 31
0.0
  0
LINE
  5
12E
330
1E
100
AcDbEntity
  8
0
100
AcDbLine
 10
54.80798499999999
 20
135.6719999999999
 30
0.0
 11
54.80798499999999
 21
132.152
 31
0.0
  0
LINE
  5
12F
330
1E
100
AcDbEntity
  8
0
100
AcDbLine
 10
54.80798499999999
 20
132.152
 30
0.0
 11
54.80798499999999
 21
135.6719999999999
 31
0.0
  0
LINE
  5
130
330
1E
100
AcDbEntity
  8
0
100
AcDbLine
 10
54.80798499999999
 20
132.152
 30
0.0
 11
54.80798499999999
 21
127.488
 31
0.0
  0
LINE
  5
131
330
1E
100
AcDbEntity
  8
0
100
AcDbLine
 10
54.80798499999999
 20
127.488
 30
0.0
 11
54.80798499999999
 21
132.152
 31
0.0
  0
LINE
  5
132
330
1E
100
AcDbEntity
  8
0
100
AcDbLine
 10
54.80798499999999
 20
127.488
 30
0.0
 11
54.80798499999999
 21
122.208
 31
0.0
  0
LINE
  5
133
330
1E
100
AcDbEntity
  8
0
100
AcDbLine
 10
54.80798499999999
 20
122.208
 30
0.0
 11
54.80798499999999
 21
127.488
 31
0.0
  0
LINE
  5
134
330
1E
100
AcDbEntity
  8
0
100
AcDbLine
 10
54.80798499999999
 20
122.208
 30
0.0
 11
54.80798499999999
 21
116.576
 31
0.0
  0
LINE
  5
135
330
1E
100
AcDbEntity
  8
0
100
AcDbLine
 10
81.68798499999999
 20
118.576
 30
0.0
 11
82.407985
 21
113.536
 31
0.0
  0
LINE
  5
136
330
1E
100
AcDbEntity
  8
0
100
AcDbLine
 10
81.68798499999999
 20
118.576
 30
0.0
 11
82.407985
 21
123.6159999999999
 31
0.0
  0
LINE
  5
137
330
1E
100
AcDbEntity
  8
0
100
AcDbLine
 10
81.927985
 20
123.696
 30
0.0
 11
83.847985
 21
128.496
 31
0.0
  0
LINE
  5
138
330
1E
100
AcDbEntity
  8
0
100
AcDbLine
 10
81.20798499999999
 20
118.576
 30
0.0
 11
81.927985
 21
113.456
 31
0.0
  0
LINE
  5
139
330
1E
100
AcDbEntity
  8
0
100
AcDbLine
 10
81.20798499999999
 20
118.576
 30
0.0
 11
81.927985
 21
123.696
 31
0.0
  0
LINE
  5
13A
330
1E
100
AcDbEntity
  8
0
100
AcDbLine
 10
82.407985
 20
123.6159999999999
 30
0.0
 11
84.327985
 21
128.2559999999999
 31
0.0
  0
LINE
  5
13B
330
1E
100
AcDbEntity
  8
0
100
AcDbLine
 10
82.407985
 20
113.536
 30
0.0
 11
84.327985
 21
108.8959999999999
 31
0.0
  0
LINE
  5
13C
330
1E
100
AcDbEntity
  8
0
100
AcDbLine
 10
84.327985
 20
108.8959999999999
 30
0.0
 11
87.44798499999999
 21
104.8159999999999
 31
0.0
  0
LINE
  5
13D
330
1E
100
AcDbEntity
  8
0
100
AcDbLine
 10
81.927985
 20
113.456
 30
0.0
 11
83.847985
 21
108.656
 31
0.0
  0
LINE
  5
13E
330
1E
100
AcDbEntity
  8
0
100
AcDbLine
 10
83.847985
 20
108.656
 30
0.0
 11
87.047985
 21
104.4159999999999
 31
0.0
  0
LINE
  5
13F
330
1E
100
AcDbEntity
  8
0
100
AcDbLine
 10
87.047985
 20
104.4159999999999
 30
0.0
 11
91.287985
 21
101.216
 31
0.0
  0
LINE
  5
140
330
1E
100
AcDbEntity
  8
0
100
AcDbLine
 10
84.327985
 20
128.2559999999999
 30
0.0
 11
87.44798499999999
 21
132.336
 31
0.0
  0
LINE
  5
141
330
1E
100
AcDbEntity
  8
0
100
AcDbLine
 10
83.847985
 20
128.496
 30
0.0
 11
87.047985
 21
132.7359999999999
 31
0.0
  0
LINE
  5
142
330
1E
100
AcDbEntity
  8
0
100
AcDbLine
 10
87.047985
 20
132.7359999999999
 30
0.0
 11
91.287985
 21
135.936
 31
0.0
  0
LINE
  5
143
330
1E
100
AcDbEntity
  8
0
100
AcDbLine
 10
54.80798499999999
 20
116.576
 30
0.0
 11
54.80798499999999
 21
122.208
 31
0.0
  0
LINE
  5
144
330
1E
100
AcDbEntity
  8
0
100
AcDbLine
 10
54.80798499999999
 20
116.576
 30
0.0
 11
54.80798499999999
 21
110.9439999999999
 31
0.0
  0
LINE
  5
145
330
1E
100
AcDbEntity
  8
0
100
AcDbLine
 10
54.80798499999999
 20
138.5759999999999
 30
0.0
 11
101.2079849999999
 21
138.5759999999999
 31
0.0
  0
LINE
  5
146
330
1E
100
AcDbEntity
  8
0
100
AcDbLine
 10
54.80798499999999
 20
138.5759999999999
 30
0.0
 11
54.80798499999999
 21
137.7839999999999
 31
0.0
  0
LINE
  5
147
330
1E
100
AcDbEntity
  8
0
100
AcDbLine
 10
54.207985
 20
95.104
 30
0.0
 11
54.80798499999999
 21
94.57600000000001
 31
0.0
  0
LINE
  5
148
330
1E
100
AcDbEntity
  8
0
100
AcDbLine
 10
54.207985
 20
95.104
 30
0.0
 11
54.207985
 21
95.576
 31
0.0
  0
LINE
  5
149
330
1E
100
AcDbEntity
  8
0
100
AcDbLine
 10
54.207985
 20
95.104
 30
0.0
 11
54.207985
 21
95.896
 31
0.0
  0
LINE
  5
14A
330
1E
100
AcDbEntity
  8
0
100
AcDbLine
 10
54.80798499999999
 20
94.57600000000001
 30
0.0
 11
109.279985
 21
94.57600000000001
 31
0.0
  0
LINE
  5
14B
330
1E
100
AcDbEntity
  8
0
100
AcDbLine
 10
54.80798499999999
 20
94.57600000000001
 30
0.0
 11
54.80798499999999
 21
95.36799999999999
 31
0.0
  0
LINE
  5
14C
330
1E
100
AcDbEntity
  8
0
100
AcDbLine
 10
87.44798499999999
 20
132.336
 30
0.0
 11
91.52798500000001
 21
135.456
 31
0.0
  0
LINE
  5
14D
330
1E
100
AcDbEntity
  8
0
100
AcDbLine
 10
91.287985
 20
135.936
 30
0.0
 11
96.087985
 21
137.856
 31
0.0
  0
LINE
  5
14E
330
1E
100
AcDbEntity
  8
0
100
AcDbLine
 10
87.44798499999999
 20
104.8159999999999
 30
0.0
 11
91.52798500000001
 21
101.696
 31
0.0
  0
LINE
  5
14F
330
1E
100
AcDbEntity
  8
0
100
AcDbLine
 10
91.52798500000001
 20
135.456
 30
0.0
 11
96.16798500000001
 21
137.376
 31
0.0
  0
LINE
  5
150
330
1E
100
AcDbEntity
  8
0
100
AcDbLine
 10
96.16798500000001
 20
137.376
 30
0.0
 11
101.2079849999999
 21
138.0959999999999
 31
0.0
  0
LINE
  5
151
330
1E
100
AcDbEntity
  8
0
100
AcDbLine
 10
96.087985
 20
137.856
 30
0.0
 11
101.2079849999999
 21
138.5759999999999
 31
0.0
  0
LINE
  5
152
330
1E
100
AcDbEntity
  8
0
100
AcDbLine
 10
91.52798500000001
 20
101.696
 30
0.0
 11
96.16798500000001
 21
99.77600000000002
 31
0.0
  0
LINE
  5
153
330
1E
100
AcDbEntity
  8
0
100
AcDbLine
 10
96.16798500000001
 20
99.77600000000002
 30
0.0
 11
101.2079849999999
 21
99.05599999999999
 31
0.0
  0
LINE
  5
154
330
1E
100
AcDbEntity
  8
0
100
AcDbLine
 10
91.287985
 20
101.216
 30
0.0
 11
96.087985
 21
99.296
 31
0.0
  0
LINE
  5
155
330
1E
100
AcDbEntity
  8
0
100
AcDbLine
 10
96.087985
 20
99.296
 30
0.0
 11
101.2079849999999
 21
98.57600000000001
 31
0.0
  0
LINE
  5
156
330
1E
100
AcDbEntity
  8
0
100
AcDbLine
 10
87.28028499999998
 20
94.57600000000001
 30
0.0
 11
87.28028499999998
 21
90.28401999999999
 31
0.0
  0
LINE
  5
157
330
1E
100
AcDbEntity
  8
0
100
AcDbLine
 10
95.463985
 20
90.28401999999999
 30
0.0
 11
98.27998499999999
 21
90.28401999999999
 31
0.0
  0
LINE
  5
158
330
1E
100
AcDbEntity
  8
0
100
AcDbLine
 10
108.883985
 20
90.28401999999999
 30
0.0
 11
109.279985
 21
90.28401999999999
 31
0.0
  0
LINE
  5
159
330
1E
100
AcDbEntity
  8
0
100
AcDbLine
 10
109.279985
 20
90.28401999999999
 30
0.0
 11
109.279985
 21
94.58074043795619
 31
0.0
  0
LINE
  5
15A
330
1E
100
AcDbEntity
  8
0
100
AcDbLine
 10
107.827985
 20
90.28401999999999
 30
0.0
 11
108.883985
 21
90.28401999999999
 31
0.0
  0
LINE
  5
15B
330
1E
100
AcDbEntity
  8
0
100
AcDbLine
 10
106.067985
 20
90.28401999999999
 30
0.0
 11
107.827985
 21
90.28401999999999
 31
0.0
  0
LINE
  5
15C
330
1E
100
AcDbEntity
  8
0
100
AcDbLine
 10
103.735985
 20
90.28401999999999
 30
0.0
 11
106.067985
 21
90.28401999999999
 31
0.0
  0
LINE
  5
15D
330
1E
100
AcDbEntity
  8
0
100
AcDbLine
 10
101.2079849999999
 20
99.05599999999999
 30
0.0
 11
106.247985
 21
99.77600000000002
 31
0.0
  0
LINE
  5
15E
330
1E
100
AcDbEntity
  8
0
100
AcDbLine
 10
106.247985
 20
99.77600000000002
 30
0.0
 11
111.207985
 21
101.9407
 31
0.0
  0
LINE
  5
15F
330
1E
100
AcDbEntity
  8
0
100
AcDbLine
 10
106.327985
 20
99.296
 30
0.0
 11
111.207985
 21
101.2763999999999
 31
0.0
  0
LINE
  5
160
330
1E
100
AcDbEntity
  8
0
100
AcDbLine
 10
101.2079849999999
 20
98.57600000000001
 30
0.0
 11
106.327985
 21
99.296
 31
0.0
  0
LINE
  5
161
330
1E
100
AcDbEntity
  8
0
100
AcDbLine
 10
101.2079849999999
 20
138.0959999999999
 30
0.0
 11
106.247985
 21
137.376
 31
0.0
  0
LINE
  5
162
330
1E
100
AcDbEntity
  8
0
100
AcDbLine
 10
106.327985
 20
137.856
 30
0.0
 11
111.207985
 21
135.8755999999999
 31
0.0
  0
LINE
  5
163
330
1E
100
AcDbEntity
  8
0
100
AcDbLine
 10
101.2079849999999
 20
138.5759999999999
 30
0.0
 11
106.327985
 21
137.856
 31
0.0
  0
LINE
  5
164
330
1E
100
AcDbEntity
  8
0
100
AcDbLine
 10
106.247985
 20
137.376
 30
0.0
 11
111.207985
 21
135.2112999999999
 31
0.0
  0
LINE
  5
165
330
1E
100
AcDbEntity
  8
0
100
AcDbLine
 10
109.279985
 20
94.57600000000001
 30
0.0
 11
109.607985
 21
94.57600000000001
 31
0.0
  0
LINE
  5
166
330
1E
100
AcDbEntity
  8
0
100
AcDbLine
 10
101.095985
 20
90.28401999999999
 30
0.0
 11
103.735985
 21
90.28401999999999
 31
0.0
  0
LINE
  5
167
330
1E
100
AcDbEntity
  8
0
100
AcDbLine
 10
98.27998499999999
 20
90.28401999999999
 30
0.0
 11
101.095985
 21
90.28401999999999
 31
0.0
  0
LINE
  5
168
330
1E
100
AcDbEntity
  8
0
100
AcDbLine
 10
109.015985
 20
89.92402
 30
0.0
 11
109.279985
 21
90.28401999999999
 31
0.0
  0
LINE
  5
169
330
1E
100
AcDbEntity
  8
0
100
AcDbLine
 10
146.207985
 20
85.84314
 30
0.0
 11
146.207985
 21
82.39456999999999
 31
0.0
  0
LINE
  5
16A
330
1E
100
AcDbEntity
  8
0
100
AcDbLine
 10
146.207985
 20
85.84314
 30
0.0
 11
146.207985
 21
91.52309999999999
 31
0.0
  0
LINE
  5
16B
330
1E
100
AcDbEntity
  8
0
100
AcDbLine
 10
146.207985
 20
82.39456999999999
 30
0.0
 11
146.207985
 21
81.07600000000001
 31
0.0
  0
LINE
  5
16C
330
1E
100
AcDbEntity
  8
0
100
AcDbLine
 10
146.207985
 20
82.39456999999999
 30
0.0
 11
146.207985
 21
85.84314
 31
0.0
  0
LINE
  5
16D
330
1E
100
AcDbEntity
  8
0
100
AcDbLine
 10
151.207985
 20
85.84314
 30
0.0
 11
151.207985
 21
82.39456999999999
 31
0.0
  0
LINE
  5
16E
330
1E
100
AcDbEntity
  8
0
100
AcDbLine
 10
151.207985
 20
82.39456999999999
 30
0.0
 11
151.207985
 21
81.07600000000001
 31
0.0
  0
LINE
  5
16F
330
1E
100
AcDbEntity
  8
0
100
AcDbLine
 10
146.207985
 20
81.07600000000001
 30
0.0
 11
151.207985
 21
81.07600000000001
 31
0.0
  0
LINE
  5
170
330
1E
100
AcDbEntity
  8
0
100
AcDbLine
 10
146.207985
 20
81.07600000000001
 30
0.0
 11
146.207985
 21
82.39456999999999
 31
0.0
  0
LINE
  5
171
330
1E
100
AcDbEntity
  8
0
100
AcDbLine
 10
109.607985
 20
95.36799999999999
 30
0.0
 11
109.607985
 21
94.57600000000001
 31
0.0
  0
LINE
  5
172
330
1E
100
AcDbEntity
  8
0
100
AcDbLine
 10
109.607985
 20
95.36799999999999
 30
0.0
 11
109.607985
 21
97.48000000000001
 31
0.0
  0
LINE
  5
173
330
1E
100
AcDbEntity
  8
0
100
AcDbLine
 10
109.607985
 20
97.48000000000001
 30
0.0
 11
109.617878574668
 21
100.631103531818
 31
0.0
  0
LINE
  5
174
330
1E
100
AcDbEntity
  8
0
100
AcDbLine
 10
109.607985
 20
97.48000000000001
 30
0.0
 11
109.607985
 21
95.36799999999999
 31
0.0
  0
LINE
  5
175
330
1E
100
AcDbEntity
  8
0
100
AcDbLine
 10
110.207985
 20
95.104
 30
0.0
 11
110.207985
 21
95.896
 31
0.0
  0
LINE
  5
176
330
1E
100
AcDbEntity
  8
0
100
AcDbLine
 10
110.207985
 20
95.896
 30
0.0
 11
110.207985
 21
95.104
 31
0.0
  0
LINE
  5
177
330
1E
100
AcDbEntity
  8
0
100
AcDbLine
 10
110.207985
 20
95.896
 30
0.0
 11
110.207985
 21
98.008
 31
0.0
  0
LINE
  5
178
330
1E
100
AcDbEntity
  8
0
100
AcDbLine
 10
110.207985
 20
98.008
 30
0.0
 11
110.220929632369
 21
100.875833514333
 31
0.0
  0
LINE
  5
179
330
1E
100
AcDbEntity
  8
0
100
AcDbLine
 10
110.207985
 20
98.008
 30
0.0
 11
110.207985
 21
95.896
 31
0.0
  0
LINE
  5
17A
330
1E
100
AcDbEntity
  8
0
100
AcDbLine
 10
111.207985
 20
101.2763999999999
 30
0.0
 11
111.207985
 21
101.9407
 31
0.0
  0
LINE
  5
17B
330
1E
100
AcDbEntity
  8
0
100
AcDbLine
 10
111.127985
 20
101.216
 30
0.0
 11
111.207985
 21
101.2763999999999
 31
0.0
  0
LINE
  5
17C
330
1E
100
AcDbEntity
  8
0
100
AcDbLine
 10
111.207985
 20
127.7330999999999
 30
0.0
 11
113.2079849999999
 21
129.7617
 31
0.0
  0
LINE
  5
17D
330
1E
100
AcDbEntity
  8
0
100
AcDbLine
 10
111.207985
 20
105.4189
 30
0.0
 11
113.2079849999999
 21
103.3903
 31
0.0
  0
LINE
  5
17E
330
1E
100
AcDbEntity
  8
0
100
AcDbLine
 10
111.207985
 20
135.8755999999999
 30
0.0
 11
111.207985
 21
135.2112999999999
 31
0.0
  0
LINE
  5
17F
330
1E
100
AcDbEntity
  8
0
100
AcDbLine
 10
111.207985
 20
101.9407
 30
0.0
 11
111.207985
 21
135.2112999999999
 31
0.0
  0
LINE
  5
180
330
1E
100
AcDbEntity
  8
0
100
AcDbLine
 10
111.207985
 20
101.9407
 30
0.0
 11
111.207985
 21
101.2763999999999
 31
0.0
  0
LINE
  5
181
330
1E
100
AcDbEntity
  8
0
100
AcDbLine
 10
121.207985
 20
102.376
 30
0.0
 11
123.207985
 21
103.3903
 31
0.0
  0
LINE
  5
182
330
1E
100
AcDbEntity
  8
0
100
AcDbLine
 10
151.207985
 20
91.52309999999999
 30
0.0
 11
151.207985
 21
85.84314
 31
0.0
  0
LINE
  5
183
330
1E
100
AcDbEntity
  8
0
100
AcDbLine
 10
151.207985
 20
98.92740000000001
 30
0.0
 11
151.207985
 21
91.52309999999999
 31
0.0
  0
LINE
  5
184
330
1E
100
AcDbEntity
  8
0
100
AcDbLine
 10
146.207985
 20
98.92740000000001
 30
0.0
 11
146.207985
 21
91.52309999999999
 31
0.0
  0
LINE
  5
185
330
1E
100
AcDbEntity
  8
0
100
AcDbLine
 10
146.207985
 20
98.92740000000001
 30
0.0
 11
146.207985
 21
107.4474
 31
0.0
  0
LINE
  5
186
330
1E
100
AcDbEntity
  8
0
100
AcDbLine
 10
146.207985
 20
91.52309999999999
 30
0.0
 11
146.207985
 21
85.84314
 31
0.0
  0
LINE
  5
187
330
1E
100
AcDbEntity
  8
0
100
AcDbLine
 10
146.207985
 20
91.52309999999999
 30
0.0
 11
146.207985
 21
98.92740000000001
 31
0.0
  0
LINE
  5
188
330
1E
100
AcDbEntity
  8
0
100
AcDbLine
 10
126.207985
 20
102.376
 30
0.0
 11
126.207985
 21
102.8831
 31
0.0
  0
LINE
  5
189
330
1E
100
AcDbEntity
  8
0
100
AcDbLine
 10
126.207985
 20
102.376
 30
0.0
 11
146.207985
 21
81.07600000000001
 31
0.0
  0
LINE
  5
18A
330
1E
100
AcDbEntity
  8
0
100
AcDbLine
 10
123.207985
 20
103.3903
 30
0.0
 11
125.207985
 21
105.4189
 31
0.0
  0
LINE
  5
18B
330
1E
100
AcDbEntity
  8
0
100
AcDbLine
 10
126.207985
 20
102.8831
 30
0.0
 11
126.207985
 21
104.3031
 31
0.0
  0
LINE
  5
18C
330
1E
100
AcDbEntity
  8
0
100
AcDbLine
 10
126.207985
 20
102.8831
 30
0.0
 11
126.207985
 21
102.376
 31
0.0
  0
LINE
  5
18D
330
1E
100
AcDbEntity
  8
0
100
AcDbLine
 10
118.207985
 20
102.376
 30
0.0
 11
121.207985
 21
102.376
 31
0.0
  0
LINE
  5
18E
330
1E
100
AcDbEntity
  8
0
100
AcDbLine
 10
115.207985
 20
102.376
 30
0.0
 11
118.207985
 21
102.376
 31
0.0
  0
LINE
  5
18F
330
1E
100
AcDbEntity
  8
0
100
AcDbLine
 10
113.2079849999999
 20
103.3903
 30
0.0
 11
113.2079849999999
 21
105.1145999999999
 31
0.0
  0
LINE
  5
198
330
1E
100
AcDbEntity
  8
0
100
AcDbLine
 10
113.2079849999999
 20
129.7617
 30
0.0
 11
113.2079849999999
 21
105.1145999999999
 31
0.0
  0
LINE
  5
199
330
1E
100
AcDbEntity
  8
0
100
AcDbLine
 10
113.2079849999999
 20
105.1145999999999
 30
0.0
 11
113.2079849999999
 21
103.3903
 31
0.0
  0
LINE
  5
19A
330
1E
100
AcDbEntity
  8
0
100
AcDbLine
 10
113.2079849999999
 20
105.1145999999999
 30
0.0
 11
113.2079849999999
 21
129.7617
 31
0.0
  0
LINE
  5
19B
330
1E
100
AcDbEntity
  8
0
100
AcDbLine
 10
123.207985
 20
105.1145999999999
 30
0.0
 11
123.207985
 21
129.7617
 31
0.0
  0
LINE
  5
19C
330
1E
100
AcDbEntity
  8
0
100
AcDbLine
 10
123.207985
 20
105.1145999999999
 30
0.0
 11
123.207985
 21
103.3903
 31
0.0
  0
LINE
  5
19D
330
1E
100
AcDbEntity
  8
0
100
AcDbLine
 10
123.207985
 20
103.3903
 30
0.0
 11
123.207985
 21
105.1145999999999
 31
0.0
  0
LINE
  5
19E
330
1E
100
AcDbEntity
  8
0
100
AcDbLine
 10
126.207985
 20
105.4189
 30
0.0
 11
126.207985
 21
104.3031
 31
0.0
  0
LINE
  5
19F
330
1E
100
AcDbEntity
  8
0
100
AcDbLine
 10
126.207985
 20
105.4189
 30
0.0
 11
126.207985
 21
105.8246
 31
0.0
  0
LINE
  5
1A0
330
1E
100
AcDbEntity
  8
0
100
AcDbLine
 10
126.207985
 20
104.3031
 30
0.0
 11
126.207985
 21
105.4189
 31
0.0
  0
LINE
  5
1A1
330
1E
100
AcDbEntity
  8
0
100
AcDbLine
 10
126.207985
 20
104.3031
 30
0.0
 11
126.207985
 21
102.8831
 31
0.0
  0
LINE
  5
1A2
330
1E
100
AcDbEntity
  8
0
100
AcDbLine
 10
126.207985
 20
104.3031
 30
0.0
 11
126.207985
 21
106.5345999999999
 31
0.0
  0
LINE
  5
1A3
330
1E
100
AcDbEntity
  8
0
100
AcDbLine
 10
126.207985
 20
105.8246
 30
0.0
 11
126.207985
 21
105.4189
 31
0.0
  0
LINE
  5
1A4
330
1E
100
AcDbEntity
  8
0
100
AcDbLine
 10
126.207985
 20
105.8246
 30
0.0
 11
126.207985
 21
106.9402999999999
 31
0.0
  0
LINE
  5
1A5
330
1E
100
AcDbEntity
  8
0
100
AcDbLine
 10
123.207985
 20
129.7617
 30
0.0
 11
123.207985
 21
105.1145999999999
 31
0.0
  0
LINE
  5
1A7
330
1E
100
AcDbEntity
  8
0
100
AcDbLine
 10
125.207985
 20
119.4159999999999
 30
0.0
 11
125.207985
 21
116.576
 31
0.0
  0
LINE
  5
1A8
330
1E
100
AcDbEntity
  8
0
100
AcDbLine
 10
125.207985
 20
119.4159999999999
 30
0.0
 11
125.207985
 21
122.1546
 31
0.0
  0
LINE
  5
1A9
330
1E
100
AcDbEntity
  8
0
100
AcDbLine
 10
125.207985
 20
122.1546
 30
0.0
 11
125.207985
 21
119.4159999999999
 31
0.0
  0
LINE
  5
1AA
330
1E
100
AcDbEntity
  8
0
100
AcDbLine
 10
125.207985
 20
122.1546
 30
0.0
 11
125.207985
 21
124.4874
 31
0.0
  0
LINE
  5
1AB
330
1E
100
AcDbEntity
  8
0
100
AcDbLine
 10
125.207985
 20
124.4874
 30
0.0
 11
125.207985
 21
122.1546
 31
0.0
  0
LINE
  5
1AC
330
1E
100
AcDbEntity
  8
0
100
AcDbLine
 10
125.207985
 20
124.4874
 30
0.0
 11
125.207985
 21
126.2116999999999
 31
0.0
  0
LINE
  5
1AE
330
1E
100
AcDbEntity
  8
0
100
AcDbLine
 10
125.207985
 20
126.2116999999999
 30
0.0
 11
125.207985
 21
124.4874
 31
0.0
  0
LINE
  5
1AF
330
1E
100
AcDbEntity
  8
0
100
AcDbLine
 10
125.207985
 20
126.2116999999999
 30
0.0
 11
125.207985
 21
127.3274
 31
0.0
  0
LINE
  5
1B2
330
1E
100
AcDbEntity
  8
0
100
AcDbLine
 10
125.207985
 20
127.3274
 30
0.0
 11
125.207985
 21
126.2116999999999
 31
0.0
  0
LINE
  5
1B3
330
1E
100
AcDbEntity
  8
0
100
AcDbLine
 10
125.207985
 20
127.3274
 30
0.0
 11
125.207985
 21
127.7330999999999
 31
0.0
  0
LINE
  5
1B6
330
1E
100
AcDbEntity
  8
0
100
AcDbLine
 10
125.207985
 20
116.576
 30
0.0
 11
125.207985
 21
113.736
 31
0.0
  0
LINE
  5
1B7
330
1E
100
AcDbEntity
  8
0
100
AcDbLine
 10
125.207985
 20
116.576
 30
0.0
 11
125.207985
 21
119.4159999999999
 31
0.0
  0
LINE
  5
1B9
330
1E
100
AcDbEntity
  8
0
100
AcDbLine
 10
125.207985
 20
113.736
 30
0.0
 11
125.207985
 21
110.9974
 31
0.0
  0
LINE
  5
1BA
330
1E
100
AcDbEntity
  8
0
100
AcDbLine
 10
125.207985
 20
113.736
 30
0.0
 11
125.207985
 21
116.576
 31
0.0
  0
LINE
  5
1BB
330
1E
100
AcDbEntity
  8
0
100
AcDbLine
 10
125.207985
 20
110.9974
 30
0.0
 11
125.207985
 21
108.6646
 31
0.0
  0
LINE
  5
1BC
330
1E
100
AcDbEntity
  8
0
100
AcDbLine
 10
125.207985
 20
110.9974
 30
0.0
 11
125.207985
 21
113.736
 31
0.0
  0
LINE
  5
1BD
330
1E
100
AcDbEntity
  8
0
100
AcDbLine
 10
125.207985
 20
108.6646
 30
0.0
 11
125.207985
 21
106.9402999999999
 31
0.0
  0
LINE
  5
1BE
330
1E
100
AcDbEntity
  8
0
100
AcDbLine
 10
125.207985
 20
108.6646
 30
0.0
 11
125.207985
 21
110.9974
 31
0.0
  0
LINE
  5
1BF
330
1E
100
AcDbEntity
  8
0
100
AcDbLine
 10
125.207985
 20
106.9402999999999
 30
0.0
 11
125.207985
 21
105.8246
 31
0.0
  0
LINE
  5
1C0
330
1E
100
AcDbEntity
  8
0
100
AcDbLine
 10
125.207985
 20
106.9402999999999
 30
0.0
 11
125.207985
 21
108.6646
 31
0.0
  0
LINE
  5
1C1
330
1E
100
AcDbEntity
  8
0
100
AcDbLine
 10
126.207985
 20
106.5345999999999
 30
0.0
 11
126.207985
 21
104.3031
 31
0.0
  0
LINE
  5
1C2
330
1E
100
AcDbEntity
  8
0
100
AcDbLine
 10
126.207985
 20
106.5345999999999
 30
0.0
 11
126.207985
 21
109.4759999999999
 31
0.0
  0
LINE
  5
1C3
330
1E
100
AcDbEntity
  8
0
100
AcDbLine
 10
126.207985
 20
109.4759999999999
 30
0.0
 11
126.207985
 21
106.5345999999999
 31
0.0
  0
LINE
  5
1C4
330
1E
100
AcDbEntity
  8
0
100
AcDbLine
 10
126.207985
 20
109.4759999999999
 30
0.0
 11
126.207985
 21
112.9245999999999
 31
0.0
  0
LINE
  5
1C5
330
1E
100
AcDbEntity
  8
0
100
AcDbLine
 10
126.207985
 20
112.9245999999999
 30
0.0
 11
126.207985
 21
109.4759999999999
 31
0.0
  0
LINE
  5
1C6
330
1E
100
AcDbEntity
  8
0
100
AcDbLine
 10
126.207985
 20
112.9245999999999
 30
0.0
 11
126.207985
 21
116.576
 31
0.0
  0
LINE
  5
1C7
330
1E
100
AcDbEntity
  8
0
100
AcDbLine
 10
126.207985
 20
113.736
 30
0.0
 11
126.207985
 21
110.9974
 31
0.0
  0
LINE
  5
1C8
330
1E
100
AcDbEntity
  8
0
100
AcDbLine
 10
126.207985
 20
113.736
 30
0.0
 11
126.207985
 21
116.576
 31
0.0
  0
LINE
  5
1C9
330
1E
100
AcDbEntity
  8
0
100
AcDbLine
 10
126.207985
 20
110.9974
 30
0.0
 11
126.207985
 21
108.6646
 31
0.0
  0
LINE
  5
1CA
330
1E
100
AcDbEntity
  8
0
100
AcDbLine
 10
126.207985
 20
110.9974
 30
0.0
 11
126.207985
 21
113.736
 31
0.0
  0
LINE
  5
1CB
330
1E
100
AcDbEntity
  8
0
100
AcDbLine
 10
126.207985
 20
108.6646
 30
0.0
 11
126.207985
 21
106.9402999999999
 31
0.0
  0
LINE
  5
1CC
330
1E
100
AcDbEntity
  8
0
100
AcDbLine
 10
126.207985
 20
108.6646
 30
0.0
 11
126.207985
 21
110.9974
 31
0.0
  0
LINE
  5
1CD
330
1E
100
AcDbEntity
  8
0
100
AcDbLine
 10
126.207985
 20
106.9402999999999
 30
0.0
 11
126.207985
 21
105.8246
 31
0.0
  0
LINE
  5
1CE
330
1E
100
AcDbEntity
  8
0
100
AcDbLine
 10
126.207985
 20
106.9402999999999
 30
0.0
 11
126.207985
 21
108.6646
 31
0.0
  0
LINE
  5
1CF
330
1E
100
AcDbEntity
  8
0
100
AcDbLine
 10
126.207985
 20
116.576
 30
0.0
 11
126.207985
 21
119.4159999999999
 31
0.0
  0
LINE
  5
1D0
330
1E
100
AcDbEntity
  8
0
100
AcDbLine
 10
126.207985
 20
116.576
 30
0.0
 11
126.207985
 21
120.2274
 31
0.0
  0
LINE
  5
1D1
330
1E
100
AcDbEntity
  8
0
100
AcDbLine
 10
126.207985
 20
116.576
 30
0.0
 11
126.207985
 21
113.736
 31
0.0
  0
LINE
  5
1D2
330
1E
100
AcDbEntity
  8
0
100
AcDbLine
 10
126.207985
 20
116.576
 30
0.0
 11
126.207985
 21
112.9245999999999
 31
0.0
  0
LINE
  5
1D3
330
1E
100
AcDbEntity
  8
0
100
AcDbLine
 10
126.207985
 20
120.2274
 30
0.0
 11
126.207985
 21
116.576
 31
0.0
  0
LINE
  5
1D4
330
1E
100
AcDbEntity
  8
0
100
AcDbLine
 10
126.207985
 20
120.2274
 30
0.0
 11
126.207985
 21
123.676
 31
0.0
  0
LINE
  5
1D5
330
1E
100
AcDbEntity
  8
0
100
AcDbLine
 10
126.207985
 20
123.676
 30
0.0
 11
126.207985
 21
120.2274
 31
0.0
  0
LINE
  5
1D6
330
1E
100
AcDbEntity
  8
0
100
AcDbLine
 10
126.207985
 20
123.676
 30
0.0
 11
126.207985
 21
126.6174
 31
0.0
  0
LINE
  5
1D7
330
1E
100
AcDbEntity
  8
0
100
AcDbLine
 10
126.207985
 20
119.4159999999999
 30
0.0
 11
126.207985
 21
122.1546
 31
0.0
  0
LINE
  5
1D8
330
1E
100
AcDbEntity
  8
0
100
AcDbLine
 10
126.207985
 20
119.4159999999999
 30
0.0
 11
126.207985
 21
116.576
 31
0.0
  0
LINE
  5
1D9
330
1E
100
AcDbEntity
  8
0
100
AcDbLine
 10
126.207985
 20
122.1546
 30
0.0
 11
126.207985
 21
124.4874
 31
0.0
  0
LINE
  5
1DA
330
1E
100
AcDbEntity
  8
0
100
AcDbLine
 10
126.207985
 20
122.1546
 30
0.0
 11
126.207985
 21
119.4159999999999
 31
0.0
  0
LINE
  5
1DB
330
1E
100
AcDbEntity
  8
0
100
AcDbLine
 10
126.207985
 20
126.6174
 30
0.0
 11
126.207985
 21
123.676
 31
0.0
  0
LINE
  5
1DC
330
1E
100
AcDbEntity
  8
0
100
AcDbLine
 10
126.207985
 20
126.6174
 30
0.0
 11
126.207985
 21
128.8489
 31
0.0
  0
LINE
  5
1DD
330
1E
100
AcDbEntity
  8
0
100
AcDbLine
 10
126.207985
 20
124.4874
 30
0.0
 11
126.207985
 21
126.2116999999999
 31
0.0
  0
LINE
  5
1DE
330
1E
100
AcDbEntity
  8
0
100
AcDbLine
 10
126.207985
 20
124.4874
 30
0.0
 11
126.207985
 21
122.1546
 31
0.0
  0
LINE
  5
1DF
330
1E
100
AcDbEntity
  8
0
100
AcDbLine
 10
126.207985
 20
126.2116999999999
 30
0.0
 11
126.207985
 21
127.3274
 31
0.0
  0
LINE
  5
1E0
330
1E
100
AcDbEntity
  8
0
100
AcDbLine
 10
126.207985
 20
126.2116999999999
 30
0.0
 11
126.207985
 21
124.4874
 31
0.0
  0
LINE
  5
1E1
330
1E
100
AcDbEntity
  8
0
100
AcDbLine
 10
126.207985
 20
127.3274
 30
0.0
 11
126.207985
 21
127.7330999999999
 31
0.0
  0
LINE
  5
1E2
330
1E
100
AcDbEntity
  8
0
100
AcDbLine
 10
126.207985
 20
127.3274
 30
0.0
 11
126.207985
 21
126.2116999999999
 31
0.0
  0
LINE
  5
1E3
330
1E
100
AcDbEntity
  8
0
100
AcDbLine
 10
125.207985
 20
127.7330999999999
 30
0.0
 11
126.207985
 21
127.7330999999999
 31
0.0
  0
LINE
  5
1E4
330
1E
100
AcDbEntity
  8
0
100
AcDbLine
 10
125.207985
 20
127.7330999999999
 30
0.0
 11
125.207985
 21
127.3274
 31
0.0
  0
LINE
  5
1E5
330
1E
100
AcDbEntity
  8
0
100
AcDbLine
 10
125.207985
 20
105.8246
 30
0.0
 11
125.207985
 21
105.4189
 31
0.0
  0
LINE
  5
1E6
330
1E
100
AcDbEntity
  8
0
100
AcDbLine
 10
125.207985
 20
105.8246
 30
0.0
 11
125.207985
 21
106.9402999999999
 31
0.0
  0
LINE
  5
1E7
330
1E
100
AcDbEntity
  8
0
100
AcDbLine
 10
126.207985
 20
127.7330999999999
 30
0.0
 11
126.207985
 21
128.8489
 31
0.0
  0
LINE
  5
1E8
330
1E
100
AcDbEntity
  8
0
100
AcDbLine
 10
126.207985
 20
127.7330999999999
 30
0.0
 11
126.207985
 21
127.3274
 31
0.0
  0
LINE
  5
1EA
330
1E
100
AcDbEntity
  8
0
100
AcDbLine
 10
118.207985
 20
130.776
 30
0.0
 11
121.207985
 21
130.776
 31
0.0
  0
LINE
  5
1EB
330
1E
100
AcDbEntity
  8
0
100
AcDbLine
 10
121.207985
 20
130.776
 30
0.0
 11
123.207985
 21
129.7617
 31
0.0
  0
LINE
  5
1EC
330
1E
100
AcDbEntity
  8
0
100
AcDbLine
 10
123.207985
 20
129.7617
 30
0.0
 11
125.207985
 21
127.7330999999999
 31
0.0
  0
LINE
  5
1ED
330
1E
100
AcDbEntity
  8
0
100
AcDbLine
 10
115.207985
 20
130.776
 30
0.0
 11
118.207985
 21
130.776
 31
0.0
  0
LINE
  5
1EE
330
1E
100
AcDbEntity
  8
0
100
AcDbLine
 10
126.207985
 20
130.776
 30
0.0
 11
126.207985
 21
130.2688999999999
 31
0.0
  0
LINE
  5
1EF
330
1E
100
AcDbEntity
  8
0
100
AcDbLine
 10
126.207985
 20
130.776
 30
0.0
 11
146.207985
 21
152.0759999999999
 31
0.0
  0
LINE
  5
1F0
330
1E
100
AcDbEntity
  8
0
100
AcDbLine
 10
126.207985
 20
128.8489
 30
0.0
 11
126.207985
 21
130.2688999999999
 31
0.0
  0
LINE
  5
1F1
330
1E
100
AcDbEntity
  8
0
100
AcDbLine
 10
126.207985
 20
128.8489
 30
0.0
 11
126.207985
 21
127.7330999999999
 31
0.0
  0
LINE
  5
1F2
330
1E
100
AcDbEntity
  8
0
100
AcDbLine
 10
126.207985
 20
128.8489
 30
0.0
 11
126.207985
 21
126.6174
 31
0.0
  0
LINE
  5
1F3
330
1E
100
AcDbEntity
  8
0
100
AcDbLine
 10
146.207985
 20
107.4474
 30
0.0
 11
146.207985
 21
98.92740000000001
 31
0.0
  0
LINE
  5
1F4
330
1E
100
AcDbEntity
  8
0
100
AcDbLine
 10
146.207985
 20
107.4474
 30
0.0
 11
146.207985
 21
116.576
 31
0.0
  0
LINE
  5
1F5
330
1E
100
AcDbEntity
  8
0
100
AcDbLine
 10
146.207985
 20
116.576
 30
0.0
 11
146.207985
 21
125.7046
 31
0.0
  0
LINE
  5
1F6
330
1E
100
AcDbEntity
  8
0
100
AcDbLine
 10
146.207985
 20
116.576
 30
0.0
 11
146.207985
 21
107.4474
 31
0.0
  0
LINE
  5
1F7
330
1E
100
AcDbEntity
  8
0
100
AcDbLine
 10
151.207985
 20
116.576
 30
0.0
 11
151.207985
 21
107.4474
 31
0.0
  0
LINE
  5
1F8
330
1E
100
AcDbEntity
  8
0
100
AcDbLine
 10
151.207985
 20
107.4474
 30
0.0
 11
151.207985
 21
98.92740000000001
 31
0.0
  0
LINE
  5
1F9
330
1E
100
AcDbEntity
  8
0
100
AcDbLine
 10
151.207985
 20
125.7046
 30
0.0
 11
151.207985
 21
116.576
 31
0.0
  0
LINE
  5
1FA
330
1E
100
AcDbEntity
  8
0
100
AcDbLine
 10
151.207985
 20
134.2246
 30
0.0
 11
151.207985
 21
125.7046
 31
0.0
  0
LINE
  5
1FB
330
1E
100
AcDbEntity
  8
0
100
AcDbLine
 10
146.207985
 20
125.7046
 30
0.0
 11
146.207985
 21
116.576
 31
0.0
  0
LINE
  5
1FC
330
1E
100
AcDbEntity
  8
0
100
AcDbLine
 10
146.207985
 20
125.7046
 30
0.0
 11
146.207985
 21
134.2246
 31
0.0
  0
LINE
  5
1FD
330
1E
100
AcDbEntity
  8
0
100
AcDbLine
 10
146.207985
 20
134.2246
 30
0.0
 11
146.207985
 21
125.7046
 31
0.0
  0
LINE
  5
1FE
330
1E
100
AcDbEntity
  8
0
100
AcDbLine
 10
146.207985
 20
134.2246
 30
0.0
 11
146.207985
 21
141.6288999999999
 31
0.0
  0
LINE
  5
1FF
330
1E
100
AcDbEntity
  8
0
100
AcDbLine
 10
126.207985
 20
130.2688999999999
 30
0.0
 11
126.207985
 21
130.776
 31
0.0
  0
LINE
  5
200
330
1E
100
AcDbEntity
  8
0
100
AcDbLine
 10
126.207985
 20
130.2688999999999
 30
0.0
 11
126.207985
 21
128.8489
 31
0.0
  0
LINE
  5
201
330
1E
100
AcDbEntity
  8
0
100
AcDbLine
 10
125.207985
 20
105.4189
 30
0.0
 11
126.207985
 21
105.4189
 31
0.0
  0
LINE
  5
202
330
1E
100
AcDbEntity
  8
0
100
AcDbLine
 10
125.207985
 20
105.4189
 30
0.0
 11
125.207985
 21
105.8246
 31
0.0
  0
LINE
  5
203
330
1E
100
AcDbEntity
  8
0
100
AcDbLine
 10
113.2079849999999
 20
129.7617
 30
0.0
 11
115.207985
 21
130.776
 31
0.0
  0
LINE
  5
204
330
1E
100
AcDbEntity
  8
0
100
AcDbLine
 10
113.2079849999999
 20
103.3903
 30
0.0
 11
115.207985
 21
102.376
 31
0.0
  0
LINE
  5
205
330
1E
100
AcDbEntity
  8
0
100
AcDbLine
 10
111.207985
 20
135.2112999999999
 30
0.0
 11
111.207985
 21
135.8755999999999
 31
0.0
  0
LINE
  5
206
330
1E
100
AcDbEntity
  8
0
100
AcDbLine
 10
111.207985
 20
135.2112999999999
 30
0.0
 11
111.207985
 21
101.9407
 31
0.0
  0
LINE
  5
207
330
1E
100
AcDbEntity
  8
0
100
AcDbLine
 10
146.207985
 20
141.6288999999999
 30
0.0
 11
146.207985
 21
134.2246
 31
0.0
  0
LINE
  5
208
330
1E
100
AcDbEntity
  8
0
100
AcDbLine
 10
146.207985
 20
141.6288999999999
 30
0.0
 11
146.207985
 21
147.3088999999999
 31
0.0
  0
LINE
  5
209
330
1E
100
AcDbEntity
  8
0
100
AcDbLine
 10
146.207985
 20
147.3088999999999
 30
0.0
 11
146.207985
 21
141.6288999999999
 31
0.0
  0
LINE
  5
20A
330
1E
100
AcDbEntity
  8
0
100
AcDbLine
 10
146.207985
 20
147.3088999999999
 30
0.0
 11
146.207985
 21
150.7573999999999
 31
0.0
  0
LINE
  5
20B
330
1E
100
AcDbEntity
  8
0
100
AcDbLine
 10
146.207985
 20
150.7573999999999
 30
0.0
 11
146.207985
 21
147.3088999999999
 31
0.0
  0
LINE
  5
20C
330
1E
100
AcDbEntity
  8
0
100
AcDbLine
 10
146.207985
 20
150.7573999999999
 30
0.0
 11
146.207985
 21
152.0759999999999
 31
0.0
  0
LINE
  5
20D
330
1E
100
AcDbEntity
  8
0
100
AcDbLine
 10
151.207985
 20
141.6288999999999
 30
0.0
 11
151.207985
 21
134.2246
 31
0.0
  0
LINE
  5
20E
330
1E
100
AcDbEntity
  8
0
100
AcDbLine
 10
151.207985
 20
147.3088999999999
 30
0.0
 11
151.207985
 21
141.6288999999999
 31
0.0
  0
LINE
  5
20F
330
1E
100
AcDbEntity
  8
0
100
AcDbLine
 10
151.207985
 20
150.7573999999999
 30
0.0
 11
151.207985
 21
147.3088999999999
 31
0.0
  0
LINE
  5
210
330
1E
100
AcDbEntity
  8
0
100
AcDbLine
 10
151.207985
 20
152.0759999999999
 30
0.0
 11
151.207985
 21
150.7573999999999
 31
0.0
  0
LINE
  5
211
330
1E
100
AcDbEntity
  8
0
100
AcDbLine
 10
146.207985
 20
152.0759999999999
 30
0.0
 11
151.207985
 21
152.0759999999999
 31
0.0
  0
LINE
  5
212
330
1E
100
AcDbEntity
  8
0
100
AcDbLine
 10
146.207985
 20
152.0759999999999
 30
0.0
 11
146.207985
 21
150.7573999999999
 31
0.0
  0
LINE
  5
213
330
1E
100
AcDbEntity
  8
0
100
AcDbLine
 10
111.127985
 20
135.936
 30
0.0
 11
111.207985
 21
135.8755999999999
 31
0.0
  0
LINE
  5
214
330
1E
100
AcDbEntity
  8
0
100
AcDbLine
 10
109.607985
 20
94.57600000000001
 30
0.0
 11
110.207985
 21
95.104
 31
0.0
  0
LINE
  5
215
330
1E
100
AcDbEntity
  8
0
100
AcDbLine
 10
109.607985
 20
94.57600000000001
 30
0.0
 11
109.607985
 21
95.36799999999999
 31
0.0
  0
LINE
  5
216
330
1E
100
AcDbEntity
  8
0
100
AcDbLine
 10
109.379985
 20
89.92402
 30
0.0
 11
109.779985
 21
89.92402
 31
0.0
  0
LINE
  5
217
330
1E
100
AcDbEntity
  8
0
100
AcDbLine
 10
109.279985
 20
94.58074043795619
 30
0.0
 11
109.279985
 21
90.28401999999999
 31
0.0
  0
LINE
  5
21C
330
1E
100
AcDbEntity
  8
0
100
AcDbLine
 10
16.400585
 20
137.2642999999999
 30
0.0
 11
-0.207984999999987
 21
43.0878
 31
0.0
  0
ENDSEC
  0
SECTION
  2
OBJECTS
  0
DICTIONARY
  5
C
330
0
100
AcDbDictionary
281
     1
  3
ACAD_GROUP
350
D
  3
ACAD_LAYOUT
350
19
  3
ACAD_MLINESTYLE
350
16
  3
ACAD_PLOTSETTINGS
350
18
  3
ACAD_PLOTSTYLENAME
350
E
  3
AcDbVariableDictionary
350
21D
  0
DICTIONARY
  5
D
102
{ACAD_REACTORS
330
C
102
}
330
C
100
AcDbDictionary
281
     1
  0
DICTIONARY
  5
19
102
{ACAD_REACTORS
330
C
102
}
330
C
100
AcDbDictionary
281
     1
  3
Layout1
350
1D
  3
Model
350
21
  0
DICTIONARY
  5
16
102
{ACAD_REACTORS
330
C
102
}
330
C
100
AcDbDictionary
281
     1
  3
Standard
350
17
  0
DICTIONARY
  5
18
102
{ACAD_REACTORS
330
C
102
}
330
C
100
AcDbDictionary
281
     1
  0
ACDBDICTIONARYWDFLT
  5
E
102
{ACAD_REACTORS
330
C
102
}
330
C
100
AcDbDictionary
281
     1
  3
Normal
350
F
100
AcDbDictionaryWithDefault
340
F
  0
DICTIONARY
  5
21D
102
{ACAD_REACTORS
330
C
102
}
330
C
100
AcDbDictionary
281
     1
  3
DIMASSOC
350
21E
  0
LAYOUT
  5
1D
102
{ACAD_REACTORS
330
19
102
}
330
19
100
AcDbPlotSettings
  1

  2
hp deskjet 980c series
  4

  6

 40
0.0
 41
0.0
 42
0.0
 43
0.0
 44
0.0
 45
0.0
 46
0.0
 47
0.0
 48
0.0
 49
0.0
140
0.0
141
0.0
142
1.0
143
1.0
 70
   688
 72
     0
 73
     0
 74
     5
  7

 75
    16
147
1.0
148
0.0
149
0.0
100
AcDbLayout
  1
Layout1
 70
     1
 71
     1
 10
0.0
 20
0.0
 11
12.0
 21
9.0
 12
0.0
 22
0.0
 32
0.0
 14
1.000000000000000E+20
 24
1.000000000000000E+20
 34
1.000000000000000E+20
 15
-1.000000000000000E+20
 25
-1.000000000000000E+20
 35
-1.000000000000000E+20
146
0.0
 13
0.0
 23
0.0
 33
0.0
 16
1.0
 26
0.0
 36
0.0
 17
0.0
 27
1.0
 37
0.0
 76
     0
330
1A
  0
LAYOUT
  5
21
102
{ACAD_REACTORS
330
19
102
}
330
19
100
AcDbPlotSettings
  1

  2
hp deskjet 980c series
  4

  6

 40
0.0
 41
0.0
 42
0.0
 43
0.0
 44
0.0
 45
0.0
 46
0.0
 47
0.0
 48
0.0
 49
0.0
140
0.0
141
0.0
142
1.0
143
1.0
 70
  1712
 72
     0
 73
     0
 74
     0
  7

 75
     0
147
1.0
148
0.0
149
0.0
100
AcDbLayout
  1
Model
 70
     1
 71
     0
 10
0.0
 20
0.0
 11
12.0
 21
9.0
 12
0.0
 22
0.0
 32
0.0
 14
0.0
 24
0.0
 34
0.0
 15
0.0
 25
0.0
 35
0.0
146
0.0
 13
0.0
 23
0.0
 33
0.0
 16
1.0
 26
0.0
 36
0.0
 17
0.0
 27
1.0
 37
0.0
 76
     0
330
1E
  0
MLINESTYLE
  5
17
102
{ACAD_REACTORS
330
16
102
}
330
16
100
AcDbMlineStyle
  2
STANDARD
 70
     0
  3

 62
   256
 51
90.0
 52
90.0
 71
     2
 49
0.5
 62
   256
  6
BYLAYER
 49
-0.5
 62
   256
  6
BYLAYER
  0
ACDBPLACEHOLDER
  5
F
102
{ACAD_REACTORS
330
E
102
}
330
E
  0
DICTIONARYVAR
  5
21E
102
{ACAD_REACTORS
330
21D
102
}
330
21D
100
DictionaryVariables
280
     0
  1
1
  0
ENDSEC
  0
EOF
